  0
SECTION
  2
HEADER
  9
$ACADVER
  1
AC1015
  9
$ACADMAINTVER
 70
     6
  9
$DWGCODEPAGE
  3
ANSI_1250
  9
$INSBASE
 10
0.0
 20
0.0
 30
0.0
  9
$EXTMIN
 10
0.0
 20
0.0
 30
0.0
  9
$EXTMAX
 10
20000.0
 20
10000.0
 30
0.0
  9
$LIMMIN
 10
0.0
 20
0.0
  9
$LIMMAX
 10
20000.0
 20
10000.0
  9
$ORTHOMODE
 70
     0
  9
$REGENMODE
 70
     1
  9
$FILLMODE
 70
     1
  9
$QTEXTMODE
 70
     0
  9
$MIRRTEXT
 70
     1
  9
$LTSCALE
 40
1.0
  9
$ATTMODE
 70
     1
  9
$TEXTSIZE
 40
2.0
  9
$TRACEWID
 40
1.0
  9
$TEXTSTYLE
  7
Standard
  9
$CLAYER
  8
0
  9
$CELTYPE
  6
ByLayer
  9
$CECOLOR
 62
   256
  9
$CELTSCALE
 40
1.0
  9
$DISPSILH
 70
     0
  9
$DIMSCALE
 40
1.0
  9
$DIMASZ
 40
2.0
  9
$DIMEXO
 40
1.0
  9
$DIMDLI
 40
3.75
  9
$DIMRND
 40
0.0
  9
$DIMDLE
 40
0.0
  9
$DIMEXE
 40
1.0
  9
$DIMTP
 40
0.0
  9
$DIMTM
 40
0.0
  9
$DIMTXT
 40
2.0
  9
$DIMCEN
 40
2.5
  9
$DIMTSZ
 40
0.0
  9
$DIMTOL
 70
     0
  9
$DIMLIM
 70
     0
  9
$DIMTIH
 70
     1
  9
$DIMTOH
 70
     1
  9
$DIMSE1
 70
     0
  9
$DIMSE2
 70
     0
  9
$DIMTAD
 70
     1
  9
$DIMZIN
 70
     0
  9
$DIMBLK
  1

  9
$DIMASO
 70
     1
  9
$DIMSHO
 70
     1
  9
$DIMPOST
  1

  9
$DIMAPOST
  1

  9
$DIMALT
 70
     0
  9
$DIMALTD
 70
     3
  9
$DIMALTF
 40
0.0393700787
  9
$DIMLFAC
 40
1.0
  9
$DIMTOFL
 70
     1
  9
$DIMTVP
 40
0.0
  9
$DIMTIX
 70
     0
  9
$DIMSOXD
 70
     0
  9
$DIMSAH
 70
     0
  9
$DIMBLK1
  1

  9
$DIMBLK2
  1

  9
$DIMSTYLE
  2
ISO-25
  9
$DIMCLRD
 70
     0
  9
$DIMCLRE
 70
     0
  9
$DIMCLRT
 70
     0
  9
$DIMTFAC
 40
1.0
  9
$DIMGAP
 40
1.524
  9
$DIMJUST
 70
     0
  9
$DIMSD1
 70
     0
  9
$DIMSD2
 70
     0
  9
$DIMTOLJ
 70
     0
  9
$DIMTZIN
 70
     0
  9
$DIMALTZ
 70
     0
  9
$DIMALTTZ
 70
     0
  9
$DIMUPT
 70
     0
  9
$DIMDEC
 70
     2
  9
$DIMTDEC
 70
     0
  9
$DIMALTU
 70
     2
  9
$DIMALTTD
 70
     3
  9
$DIMTXSTY
  7
Standard
  9
$DIMAUNIT
 70
     0
  9
$DIMADEC
 70
     2
  9
$DIMALTRND
 40
0.0
  9
$DIMAZIN
 70
     0
  9
$DIMDSEP
 70
    44
  9
$DIMATFIT
 70
     3
  9
$DIMFRAC
 70
     0
  9
$DIMLDRBLK
  1

  9
$DIMLUNIT
 70
     2
  9
$DIMLWD
 70
    -2
  9
$DIMLWE
 70
    -2
  9
$DIMTMOVE
 70
     0
  9
$LUNITS
 70
     2
  9
$LUPREC
 70
     3
  9
$SKETCHINC
 40
1.0
  9
$FILLETRAD
 40
10.0
  9
$AUNITS
 70
     0
  9
$AUPREC
 70
     2
  9
$MENU
  1
.
  9
$ELEVATION
 40
0.0
  9
$PELEVATION
 40
0.0
  9
$THICKNESS
 40
0.0
  9
$LIMCHECK
 70
     0
  9
$CHAMFERA
 40
0.0
  9
$CHAMFERB
 40
0.0
  9
$CHAMFERC
 40
0.0
  9
$CHAMFERD
 40
0.0
  9
$SKPOLY
 70
     0
  9
$TDCREATE
 40
2459905.330447975
  9
$TDUCREATE
 40
2459905.288781308
  9
$TDUPDATE
 40
2459905.330448299
  9
$TDUUPDATE
 40
2459905.288781632
  9
$TDINDWG
 40
0.0000000116
  9
$TDUSRTIMER
 40
0.0000000116
  9
$USRTIMER
 70
     1
  9
$ANGBASE
 50
0.0
  9
$ANGDIR
 70
     0
  9
$PDMODE
 70
     0
  9
$PDSIZE
 40
-1.0
  9
$PLINEWID
 40
0.0
  9
$SPLFRAME
 70
     0
  9
$SPLINETYPE
 70
     6
  9
$SPLINESEGS
 70
     8
  9
$HANDSEED
  5
390
  9
$SURFTAB1
 70
     6
  9
$SURFTAB2
 70
     6
  9
$SURFTYPE
 70
     6
  9
$SURFU
 70
     6
  9
$SURFV
 70
     6
  9
$UCSBASE
  2

  9
$UCSNAME
  2

  9
$UCSORG
 10
0.0
 20
0.0
 30
0.0
  9
$UCSXDIR
 10
1.0
 20
0.0
 30
0.0
  9
$UCSYDIR
 10
0.0
 20
1.0
 30
0.0
  9
$UCSORTHOREF
  2

  9
$UCSORTHOVIEW
 70
     0
  9
$UCSORGTOP
 10
0.0
 20
0.0
 30
0.0
  9
$UCSORGBOTTOM
 10
0.0
 20
0.0
 30
0.0
  9
$UCSORGLEFT
 10
0.0
 20
0.0
 30
0.0
  9
$UCSORGRIGHT
 10
0.0
 20
0.0
 30
0.0
  9
$UCSORGFRONT
 10
0.0
 20
0.0
 30
0.0
  9
$UCSORGBACK
 10
0.0
 20
0.0
 30
0.0
  9
$PUCSBASE
  2

  9
$PUCSNAME
  2

  9
$PUCSORG
 10
0.0
 20
0.0
 30
0.0
  9
$PUCSXDIR
 10
1.0
 20
0.0
 30
0.0
  9
$PUCSYDIR
 10
0.0
 20
1.0
 30
0.0
  9
$PUCSORTHOREF
  2

  9
$PUCSORTHOVIEW
 70
     0
  9
$PUCSORGTOP
 10
0.0
 20
0.0
 30
0.0
  9
$PUCSORGBOTTOM
 10
0.0
 20
0.0
 30
0.0
  9
$PUCSORGLEFT
 10
0.0
 20
0.0
 30
0.0
  9
$PUCSORGRIGHT
 10
0.0
 20
0.0
 30
0.0
  9
$PUCSORGFRONT
 10
0.0
 20
0.0
 30
0.0
  9
$PUCSORGBACK
 10
0.0
 20
0.0
 30
0.0
  9
$USERI1
 70
     0
  9
$USERI2
 70
     0
  9
$USERI3
 70
     0
  9
$USERI4
 70
     0
  9
$USERI5
 70
     0
  9
$USERR1
 40
0.0
  9
$USERR2
 40
0.0
  9
$USERR3
 40
0.0
  9
$USERR4
 40
0.0
  9
$USERR5
 40
0.0
  9
$WORLDVIEW
 70
     1
  9
$SHADEDGE
 70
     3
  9
$SHADEDIF
 70
    70
  9
$TILEMODE
 70
     1
  9
$MAXACTVP
 70
    64
  9
$PINSBASE
 10
0.0
 20
0.0
 30
0.0
  9
$PLIMCHECK
 70
     0
  9
$PEXTMIN
 10
1.0000000000E+20
 20
1.0000000000E+20
 30
1.0000000000E+20
  9
$PEXTMAX
 10
-1.0000000000E+20
 20
-1.0000000000E+20
 30
-1.0000000000E+20
  9
$PLIMMIN
 10
0.0
 20
0.0
  9
$PLIMMAX
 10
420.0
 20
297.0
  9
$UNITMODE
 70
     0
  9
$VISRETAIN
 70
     1
  9
$PLINEGEN
 70
     0
  9
$PSLTSCALE
 70
     1
  9
$TREEDEPTH
 70
  3020
  9
$CMLSTYLE
  2
Standard
  9
$CMLJUST
 70
     0
  9
$CMLSCALE
 40
20.0
  9
$PROXYGRAPHICS
 70
     1
  9
$MEASUREMENT
 70
     1
  9
$CELWEIGHT
370
    -1
  9
$ENDCAPS
280
     0
  9
$JOINSTYLE
280
     0
  9
$LWDISPLAY
290
     1
  9
$INSUNITS
 70
     4
  9
$HYPERLINKBASE
  1

  9
$STYLESHEET
  1

  9
$XEDIT
290
     1
  9
$CEPSNTYPE
380
     0
  9
$PSTYLEMODE
290
     1
  9
$FINGERPRINTGUID
  2
{44ab9494-8364-4cfb-b26d-4e916651887b}
  9
$VERSIONGUID
  2
{FAEB1C32-E019-11D5-929B-00C0DF256EC4}
  9
$EXTNAMES
290
     1
  9
$PSVPSCALE
 40
0.0
  9
$OLESTARTUP
290
     0
  0
ENDSEC
  0
SECTION
  2
CLASSES
  0
CLASS
  1
ACDBDICTIONARYWDFLT
  2
AcDbDictionaryWithDefault
  3
ObjectDBX Classes
 90
        0
280
     0
281
     0
  0
CLASS
  1
VISUALSTYLE
  2
AcDbVisualStyle
  3
ObjectDBX Classes
 90
     4095
280
     0
281
     0
  0
CLASS
  1
MATERIAL
  2
AcDbMaterial
  3
ObjectDBX Classes
 90
     1153
280
     0
281
     0
  0
CLASS
  1
SCALE
  2
AcDbScale
  3
ObjectDBX Classes
 90
     1153
280
     0
281
     0
  0
CLASS
  1
TABLESTYLE
  2
AcDbTableStyle
  3
ObjectDBX Classes
 90
     4095
280
     0
281
     0
  0
CLASS
  1
MLEADERSTYLE
  2
AcDbMLeaderStyle
  3
ACDB_MLEADERSTYLE_CLASS
 90
     4095
280
     0
281
     0
  0
CLASS
  1
SUN
  2
AcDbSun
  3
SCENEOE
 90
     1153
280
     0
281
     0
  0
CLASS
  1
ACDBPLACEHOLDER
  2
AcDbPlaceHolder
  3
ObjectDBX Classes
 90
        0
280
     0
281
     0
  0
CLASS
  1
LAYOUT
  2
AcDbLayout
  3
ObjectDBX Classes
 90
        0
280
     0
281
     0
  0
ENDSEC
  0
SECTION
  2
TABLES
  0
TABLE
  2
VPORT
  5
8
330
0
100
AcDbSymbolTable
 70
     1
  0
VPORT
  5
29
330
8
100
AcDbSymbolTableRecord
100
AcDbViewportTableRecord
  2
*Active
 70
     0
 10
0.0
 20
0.0
 11
1.0
 21
1.0
 12
10000.0
 22
5000.0
 13
0.0
 23
0.0
 14
10.0
 24
10.0
 15
10.0
 25
10.0
 16
0.0
 26
0.0
 36
1.0
 17
0.0
 27
0.0
 37
0.0
 40
10000.0
 41
2.0
 42
50.0
 43
0.0
 44
0.0
 50
0.0
 51
0.0
 71
     0
 72
  2000
 73
     1
 74
     3
 75
     0
 76
     0
 77
     0
 78
     0
281
     0
 65
     1
110
0.0
120
0.0
130
0.0
111
1.0
121
0.0
131
0.0
112
0.0
122
1.0
132
0.0
 79
     0
146
0.0
  0
ENDTAB
  0
TABLE
  2
LTYPE
  5
5
330
0
100
AcDbSymbolTable
 70
     6
  0
LTYPE
  5
14
330
5
100
AcDbSymbolTableRecord
100
AcDbLinetypeTableRecord
  2
ByBlock
 70
     0
  3

 72
    65
 73
     0
 40
0.0
  0
LTYPE
  5
15
330
5
100
AcDbSymbolTableRecord
100
AcDbLinetypeTableRecord
  2
ByLayer
 70
     0
  3

 72
    65
 73
     0
 40
0.0
  0
LTYPE
  5
16
330
5
100
AcDbSymbolTableRecord
100
AcDbLinetypeTableRecord
  2
Continuous
 70
     0
  3
Solid line
 72
    65
 73
     0
 40
0.0
  0
LTYPE
  5
6E
330
5
100
AcDbSymbolTableRecord
100
AcDbLinetypeTableRecord
  2
HIDDEN
 70
     0
  3
Hidden __ __ __ __ __ __ __ __ __ __ __ __ __ __
 72
    65
 73
     2
 40
1.905
 49
1.27
 74
     0
 49
-0.635
 74
     0
  0
LTYPE
  5
6F
330
5
100
AcDbSymbolTableRecord
100
AcDbLinetypeTableRecord
  2
PHANTOM
 70
     0
  3
Phantom ______  __  __  ______  __  __  ______
 72
    65
 73
     6
 40
12.7
 49
6.35
 74
     0
 49
-1.27
 74
     0
 49
1.27
 74
     0
 49
-1.27
 74
     0
 49
1.27
 74
     0
 49
-1.27
 74
     0
  0
LTYPE
  5
70
330
5
100
AcDbSymbolTableRecord
100
AcDbLinetypeTableRecord
  2
CENTER
 70
     0
  3
Center ____ _ ____ _ ____ _ ____ _ ____ _ ____
 72
    65
 73
     4
 40
10.16
 49
6.35
 74
     0
 49
-1.27
 74
     0
 49
1.27
 74
     0
 49
-1.27
 74
     0
  0
LTYPE
  5
71
330
5
100
AcDbSymbolTableRecord
100
AcDbLinetypeTableRecord
  2
CENTERX2
 70
     0
  3
Center (2x) ________  __  ________  __  _____
 72
    65
 73
     4
 40
20.32
 49
12.7
 74
     0
 49
-2.54
 74
     0
 49
2.54
 74
     0
 49
-2.54
 74
     0
  0
LTYPE
  5
72
330
5
100
AcDbSymbolTableRecord
100
AcDbLinetypeTableRecord
  2
DOT2
 70
     0
  3
Dot (.5x) ........................................
 72
    65
 73
     2
 40
0.635
 49
0.0
 74
     0
 49
-0.635
 74
     0
  0
ENDTAB
  0
TABLE
  2
LAYER
  5
2
330
0
100
AcDbSymbolTable
 70
    13
  0
LAYER
  5
10
330
2
100
AcDbSymbolTableRecord
100
AcDbLayerTableRecord
  2
0
 70
     0
 62
     7
  6
Continuous
370
    -3
390
F
  0
LAYER
  5
73
330
2
100
AcDbSymbolTableRecord
100
AcDbLayerTableRecord
  2
FORMAT
 70
     0
 62
     7
  6
Continuous
370
    -3
390
F
  0
LAYER
  5
74
330
2
100
AcDbSymbolTableRecord
100
AcDbLayerTableRecord
  2
OSA
 70
     0
 62
     7
  6
CENTER
370
    -3
390
F
  0
LAYER
  5
75
330
2
100
AcDbSymbolTableRecord
100
AcDbLayerTableRecord
  2
0_35
 70
     0
 62
     7
  6
Continuous
370
    35
390
F
  0
LAYER
  5
76
330
2
100
AcDbSymbolTableRecord
100
AcDbLayerTableRecord
  2
0_5
 70
     0
 62
     7
  6
Continuous
370
    50
390
F
  0
LAYER
  5
77
330
2
100
AcDbSymbolTableRecord
100
AcDbLayerTableRecord
  2
0_25
 70
     0
 62
     7
  6
Continuous
370
    25
390
F
  0
LAYER
  5
78
330
2
100
AcDbSymbolTableRecord
100
AcDbLayerTableRecord
  2
0_18
 70
     0
 62
     7
  6
Continuous
370
    -3
390
F
  0
LAYER
  5
79
330
2
100
AcDbSymbolTableRecord
100
AcDbLayerTableRecord
  2
SLD-0
 70
     0
 62
   179
  6
Continuous
370
    -3
390
F
  0
LAYER
  5
7A
330
2
100
AcDbSymbolTableRecord
100
AcDbLayerTableRecord
  2
KOTY
 70
     0
 62
     7
  6
Continuous
370
    -3
390
F
  0
LAYER
  5
7B
330
2
100
AcDbSymbolTableRecord
100
AcDbLayerTableRecord
  2
SILNA
 70
     0
 62
   179
  6
Continuous
370
    -3
390
F
  0
LAYER
  5
7C
330
2
100
AcDbSymbolTableRecord
100
AcDbLayerTableRecord
  2
0_18_1
 70
     0
 62
   179
  6
Continuous
370
    -3
390
F
  0
LAYER
  5
7D
330
2
100
AcDbSymbolTableRecord
100
AcDbLayerTableRecord
  2
0_35_1
 70
     0
 62
   179
  6
Continuous
370
    35
390
F
  0
LAYER
  5
7E
330
2
100
AcDbSymbolTableRecord
100
AcDbLayerTableRecord
  2
0_5_1
 70
     0
 62
   179
  6
Continuous
370
    50
390
F
  0
ENDTAB
  0
TABLE
  2
STYLE
  5
3
330
0
100
AcDbSymbolTable
 70
     1
  0
STYLE
  5
11
330
3
100
AcDbSymbolTableRecord
100
AcDbTextStyleTableRecord
  2
Standard
 70
     0
 40
0.0
 41
1.0
 50
0.0
 71
     0
 42
2.0
  3
txt
  4

  0
ENDTAB
  0
TABLE
  2
VIEW
  5
6
330
0
100
AcDbSymbolTable
 70
     0
  0
ENDTAB
  0
TABLE
  2
UCS
  5
7
330
0
100
AcDbSymbolTable
 70
     0
  0
ENDTAB
  0
TABLE
  2
APPID
  5
9
330
0
100
AcDbSymbolTable
 70
     1
  0
APPID
  5
12
330
9
100
AcDbSymbolTableRecord
100
AcDbRegAppTableRecord
  2
ACAD
 70
     0
  0
ENDTAB
  0
TABLE
  2
DIMSTYLE
  5
A
330
0
100
AcDbSymbolTable
 70
     1
100
AcDbDimStyleTable
  0
DIMSTYLE
105
27
330
A
100
AcDbSymbolTableRecord
100
AcDbDimStyleTableRecord
  2
ISO-25
 70
     0
 41
2.5
 42
0.625
 43
3.75
 44
1.25
 73
     0
 74
     0
 77
     1
 78
     8
140
2.5
141
2.5
143
0.0393700787
147
0.625
171
     3
172
     1
178
     0
271
     2
272
     2
274
     3
278
    44
283
     0
284
     8
340
11
  0
ENDTAB
  0
TABLE
  2
BLOCK_RECORD
  5
1
330
0
100
AcDbSymbolTable
 70
     1
  0
BLOCK_RECORD
  5
1F
330
1
100
AcDbSymbolTableRecord
100
AcDbBlockTableRecord
  2
*Model_Space
340
22
  0
BLOCK_RECORD
  5
1B
330
1
100
AcDbSymbolTableRecord
100
AcDbBlockTableRecord
  2
*Paper_Space
340
1E
  0
BLOCK_RECORD
  5
23
330
1
100
AcDbSymbolTableRecord
100
AcDbBlockTableRecord
  2
*Paper_Space0
340
26
  0
ENDTAB
  0
ENDSEC
  0
SECTION
  2
BLOCKS
  0
BLOCK
  5
20
330
1F
100
AcDbEntity
  8
0
100
AcDbBlockBegin
  2
*Model_Space
 70
     0
 10
0.0
 20
0.0
 30
0.0
  3
*Model_Space
  1

  0
ENDBLK
  5
21
330
1F
100
AcDbEntity
  8
0
100
AcDbBlockEnd
  0
BLOCK
  5
1C
330
1B
100
AcDbEntity
 67
     1
  8
0
100
AcDbBlockBegin
  2
*Paper_Space
 70
     0
 10
0.0
 20
0.0
 30
0.0
  3
*Paper_Space
  1

  0
ENDBLK
  5
1D
330
1B
100
AcDbEntity
 67
     1
  8
0
100
AcDbBlockEnd
  0
BLOCK
  5
24
330
23
100
AcDbEntity
  8
0
100
AcDbBlockBegin
  2
*Paper_Space0
 70
     0
 10
0.0
 20
0.0
 30
0.0
  3
*Paper_Space0
  1

  0
ENDBLK
  5
25
330
23
100
AcDbEntity
  8
0
100
AcDbBlockEnd
  0
ENDSEC
  0
SECTION
  2
ENTITIES
  0
LINE
  5
7F
330
1F
100
AcDbEntity
  8
0
  6
Continuous
 62
     7
370
    25
100
AcDbLine
 10
6490.8511823141
 20
5567.5994545927
 30
0.0
 11
6490.8511823141
 21
5567.6994545927
 31
0.0
  0
LINE
  5
80
330
1F
100
AcDbEntity
  8
0
  6
Continuous
 62
     7
370
    25
100
AcDbLine
 10
6472.2511823141
 20
5567.6994545927
 30
0.0
 11
6472.2511823141
 21
5567.5994545927
 31
0.0
  0
LINE
  5
81
330
1F
100
AcDbEntity
  8
0
  6
Continuous
 62
     7
370
    25
100
AcDbLine
 10
6496.0511823141
 20
5547.1994545927
 30
0.0
 11
6496.0511823141
 21
5567.0994545927
 31
0.0
  0
LINE
  5
82
330
1F
100
AcDbEntity
  8
0
  6
Continuous
 62
     7
370
    25
100
AcDbLine
 10
6467.0511823141
 20
5567.0994545927
 30
0.0
 11
6467.0511823141
 21
5547.1994545927
 31
0.0
  0
ARC
  5
83
330
1F
100
AcDbEntity
  8
0
  6
Continuous
 62
     7
370
    25
100
AcDbCircle
 10
6495.5511823141
 20
5567.0994545927
 30
0.0
 40
0.5
100
AcDbArc
 50
0.0
 51
90.0
  0
ARC
  5
84
330
1F
100
AcDbEntity
  8
0
  6
Continuous
 62
     7
370
    25
100
AcDbCircle
 10
6467.5511823141
 20
5567.0994545927
 30
0.0
 40
0.5
100
AcDbArc
 50
90.0
 51
180.0
  0
LINE
  5
85
330
1F
100
AcDbEntity
  8
0
  6
Continuous
 62
     7
370
    25
100
AcDbLine
 10
6357.092782969
 20
5696.2329859019
 30
0.0
 11
6359.4143031579
 21
5711.8925225497
 31
0.0
  0
LINE
  5
86
330
1F
100
AcDbEntity
  8
0
  6
Continuous
 62
     7
370
    25
100
AcDbLine
 10
6339.6305249972
 20
5714.8254599314
 30
0.0
 11
6337.3090048082
 21
5699.1659232835
 31
0.0
  0
LINE
  5
87
330
1F
100
AcDbEntity
  8
0
  6
Continuous
 62
     7
370
    25
100
AcDbLine
 10
6359.4143031579
 20
5711.8925225497
 30
0.0
 11
6361.7358233469
 21
5727.5520591975
 31
0.0
  0
LINE
  5
88
330
1F
100
AcDbEntity
  8
0
  6
Continuous
 62
     7
370
    25
100
AcDbLine
 10
6341.9520451861
 20
5730.4849965792
 30
0.0
 11
6339.6305249972
 21
5714.8254599314
 31
0.0
  0
LWPOLYLINE
  5
89
330
1F
100
AcDbEntity
  8
0
  6
Continuous
 62
     7
370
    25
100
AcDbPolyline
 90
       55
 70
   128
 43
0.0
 10
6491.5511823141
 20
5709.9962662334
 10
6491.5179199178
 20
5713.059704495
 10
6491.2782460288
 20
5718.76439431
 10
6490.8077696086
 20
5724.4436961808
 10
6490.107610933
 20
5730.0801709266
 10
6489.1794285396
 20
5735.6570032627
 10
6488.0254282093
 20
5741.1575004885
 10
6486.648362653
 20
5746.5651159102
 10
6485.051534579
 20
5751.8634693562
 10
6483.2388047988
 20
5757.0363645931
 10
6481.214607349
 20
5762.0678041956
 10
6478.9839737855
 20
5766.9420032861
 10
6476.5525687034
 20
5771.6434047238
 10
6473.9269112476
 20
5776.1564186095
 10
6471.1142200888
 20
5780.4659184951
 10
6468.1225276369
 20
5784.5571694605
 10
6464.9607703557
 20
5788.4158752484
 10
6461.6388494638
 20
5792.0283004428
 10
6458.1676666213
 20
5795.3814296834
 10
6454.5591171763
 20
5798.4631596194
 10
6450.8260247568
 20
5801.2625100967
 10
6446.9820073012
 20
5803.7698312885
 10
6443.041276017
 20
5805.976976463
 10
6439.0183830522
 20
5807.8774093884
 10
6434.9279466364
 20
5809.4662230766
 10
6430.7843895394
 20
5810.740061635
 10
6426.6017252454
 20
5811.6969552877
 10
6422.3934169483
 20
5812.3360946191
 10
6418.1723208821
 20
5812.6575795657
 10
6413.9507119243
 20
5812.6621803229
 10
6409.7403788559
 20
5812.351142599
 10
6405.554376466
 20
5811.726362057
 10
6401.4038486257
 20
5810.7900735596
 10
6397.2998098542
 20
5809.5447859854
 10
6393.2533510629
 20
5807.9933758961
 10
6389.275780056
 20
5806.1392520465
 10
6385.3786998641
 20
5803.9865654744
 10
6381.574010793
 20
5801.5404310944
 10
6377.8738337626
 20
5798.8071241097
 10
6374.2903658829
 20
5795.7942190375
 10
6370.8356909889
 20
5792.5106505901
 10
6367.5215745667
 20
5788.9666914017
 10
6364.3592722094
 20
5785.1738572126
 10
6361.3593739717
 20
5781.1447612774
 10
6358.5316964758
 20
5776.8929440563
 10
6355.885223916
 20
5772.4327019452
 10
6353.428091007
 20
5767.7789322162
 10
6351.1675966577
 20
5762.9470033998
 10
6349.1102364212
 20
5757.952653383
 10
6347.2618328159
 20
5752.8121798761
 10
6345.6273405534
 20
5747.5417820817
 10
6344.2110456359
 20
5742.1578435956
 10
6343.0166006361
 20
5736.6769158065
 10
6342.0921520436
 20
5731.4083418001
 10
6341.9520451861
 20
5730.4849965792
  0
LWPOLYLINE
  5
8A
330
1F
100
AcDbEntity
  8
0
  6
Continuous
 62
     7
370
    25
100
AcDbPolyline
 90
       50
 70
   128
 43
0.0
 10
6361.7358233469
 20
5727.5520591975
 10
6362.1439696396
 20
5730.1090528206
 10
6363.0905459126
 20
5735.0008729507
 10
6364.2386920458
 20
5739.7941071924
 10
6365.5827975496
 20
5744.4697132704
 10
6367.1163690202
 20
5749.0095930224
 10
6368.8320164101
 20
5753.396367793
 10
6370.7215106223
 20
5757.6134900302
 10
6372.7758585861
 20
5761.6453546177
 10
6374.9853997746
 20
5765.4774070469
 10
6377.339764068
 20
5769.0960058707
 10
6379.8281142622
 20
5772.4887590018
 10
6382.4394579319
 20
5775.644756311
 10
6385.1627834897
 20
5778.5544493242
 10
6387.987318609
 20
5781.2096387561
 10
6390.9028154701
 20
5783.603390117
 10
6393.8998401545
 20
5785.7298544037
 10
6396.9700219853
 20
5787.5839733131
 10
6400.1061874704
 20
5789.1610615072
 10
6403.3022653686
 20
5790.45629141
 10
6406.5528194357
 20
5791.4641699611
 10
6409.8520848132
 20
5792.1781945173
 10
6413.1925272713
 20
5792.5909738347
 10
6416.5632760575
 20
5792.6950924554
 10
6419.9492015494
 20
5792.4847197266
 10
6423.3280711091
 20
5791.9580991714
 10
6426.6786393746
 20
5791.1184275727
 10
6429.9835854647
 20
5789.9722249536
 10
6433.2289031762
 20
5788.5277669779
 10
6436.4035461105
 20
5786.7937026383
 10
6439.4983385356
 20
5784.7783555076
 10
6442.5048790435
 20
5782.4896487848
 10
6445.4147869981
 20
5779.935377958
 10
6448.219327334
 20
5777.1235890621
 10
6450.9093170109
 20
5774.0629255362
 10
6453.4752009444
 20
5770.7628899486
 10
6455.9072119689
 20
5767.2340127195
 10
6458.1955604639
 20
5763.4879395158
 10
6460.3306229102
 20
5759.537454626
 10
6462.3031139553
 20
5755.3964571224
 10
6464.1040933212
 20
5751.0802695811
 10
6465.7254611526
 20
5746.6047473745
 10
6467.1598157289
 20
5741.9866118713
 10
6468.4005281858
 20
5737.2433781891
 10
6469.4418121092
 20
5732.3932528412
 10
6470.2787781493
 20
5727.455029031
 10
6470.9074761597
 20
5722.447981519
 10
6471.3249270498
 20
5717.3917621278
 10
6471.5291461557
 20
5712.3062963411
 10
6471.5511823141
 20
5709.9962662334
  0
LINE
  5
8B
330
1F
100
AcDbEntity
  8
0
  6
Continuous
 62
     7
370
    25
100
AcDbLine
 10
6471.5511823141
 20
5709.9962662334
 30
0.0
 11
6471.5511823141
 21
5567.6994545927
 31
0.0
  0
LINE
  5
8C
330
1F
100
AcDbEntity
  8
0
  6
Continuous
 62
     7
370
    25
100
AcDbLine
 10
6491.5511823141
 20
5567.6994545927
 30
0.0
 11
6491.5511823141
 21
5709.9962662334
 31
0.0
  0
LINE
  5
8D
330
1F
100
AcDbEntity
  8
0
  6
Continuous
 62
     7
370
    25
100
AcDbLine
 10
6339.8412117695
 20
5699.1988666324
 30
0.0
 11
6339.7819770783
 21
5698.7993061108
 31
0.0
  0
LINE
  5
8E
330
1F
100
AcDbEntity
  8
0
  6
Continuous
 62
     7
370
    25
100
AcDbLine
 10
6354.6198106989
 20
5696.5996030746
 30
0.0
 11
6354.6790453901
 21
5696.9991635961
 31
0.0
  0
LINE
  5
8F
330
1F
100
AcDbEntity
  8
0
  6
Continuous
 62
     7
370
    25
100
AcDbLine
 10
6456.5511823141
 20
5466.1994545927
 30
0.0
 11
6456.5511823141
 21
5464.6994545927
 31
0.0
  0
LINE
  5
90
330
1F
100
AcDbEntity
  8
0
  6
Continuous
 62
     7
370
    25
100
AcDbLine
 10
6506.5511823141
 20
5464.6994545927
 30
0.0
 11
6506.5511823141
 21
5466.1994545927
 31
0.0
  0
LWPOLYLINE
  5
91
330
1F
100
AcDbEntity
  8
0
  6
Continuous
 62
     7
370
    25
100
AcDbPolyline
 90
        8
 70
   128
 43
0.0
 10
6506.7910369386
 20
5484.5845720383
 10
6507.0277350593
 20
5484.5495145716
 10
6508.0820172283
 20
5484.7134767729
 10
6509.0570121963
 20
5485.1713833766
 10
6509.9231950451
 20
5485.8972844714
 10
6510.6507450816
 20
5486.8688672182
 10
6511.2009786361
 20
5488.0460596287
 10
6511.55039807
 20
5489.4309245004
  0
LINE
  5
92
330
1F
100
AcDbEntity
  8
0
  6
Continuous
 62
     7
370
    25
100
AcDbLine
 10
6498.9661607118
 20
5484.5494545927
 30
0.0
 11
6507.0070264368
 21
5484.5494545927
 31
0.0
  0
ARC
  5
93
330
1F
100
AcDbEntity
  8
0
  6
Continuous
 62
     7
370
    25
100
AcDbCircle
 10
6387.2849309724
 20
5508.8119733383
 30
0.0
 40
125.7677675998503
100
AcDbArc
 50
351.1352883097
 51
1.451294989
  0
ARC
  5
94
330
1F
100
AcDbEntity
  8
0
  6
Continuous
 62
     7
370
    25
100
AcDbCircle
 10
6511.2610216879
 20
5512.1532172254
 30
0.0
 40
1.758258061135047
100
AcDbArc
 50
354.912973019
 51
88.5629546362
  0
LINE
  5
95
330
1F
100
AcDbEntity
  8
0
  6
Continuous
 62
     7
370
    25
100
AcDbLine
 10
6511.3059985417
 20
5513.9371022422
 30
0.0
 11
6505.6491442922
 21
5513.9371022422
 31
0.0
  0
ARC
  5
96
330
1F
100
AcDbEntity
  8
0
  6
Continuous
 62
     7
370
    25
100
AcDbCircle
 10
6442.9042208298
 20
5525.0816987418
 30
0.0
 40
62.3856742424768
100
AcDbArc
 50
335.0921315971
 51
348.2544124221
  0
ARC
  5
97
330
1F
100
AcDbEntity
  8
0
  6
Continuous
 62
     7
370
    25
100
AcDbCircle
 10
6505.7802038479
 20
5512.1272380253
 30
0.0
 40
1.814576461251319
100
AcDbArc
 50
94.1575454791
 51
171.9267745081
  0
ARC
  5
98
330
1F
100
AcDbEntity
  8
0
  6
Continuous
 62
     7
370
    25
100
AcDbCircle
 10
6506.8446383172
 20
5490.304518571
 30
0.0
 40
4.636642009802561
100
AcDbArc
 50
317.1665288732
 51
354.5712943279
  0
ARC
  5
99
330
1F
100
AcDbEntity
  8
0
  6
Continuous
 62
     7
370
    25
100
AcDbCircle
 10
6506.4322989188
 20
5490.828130249
 30
0.0
 40
5.119434142725966
100
AcDbArc
 50
349.1659929816
 51
40.5678102129
  0
LINE
  5
9A
330
1F
100
AcDbEntity
  8
0
  6
Continuous
 62
     7
370
    25
100
AcDbLine
 10
6508.1169819315
 20
5495.2994545927
 30
0.0
 11
6507.714133218
 21
5495.2994545927
 31
0.0
  0
LINE
  5
9B
330
1F
100
AcDbEntity
  8
0
  6
Continuous
 62
     7
370
    25
100
AcDbLine
 10
6507.714133218
 20
5486.0994545927
 30
0.0
 11
6508.1169819315
 21
5486.0994545927
 31
0.0
  0
LINE
  5
9C
330
1F
100
AcDbEntity
  8
0
  6
Continuous
 62
     7
370
    25
100
AcDbLine
 10
6458.1521572755
 20
5488.7837758299
 30
0.0
 11
6458.1649356298
 21
5488.5903864773
 31
0.0
  0
LINE
  5
9D
330
1F
100
AcDbEntity
  8
0
  6
Continuous
 62
     7
370
    25
100
AcDbLine
 10
6458.1649356298
 20
5488.5903864773
 30
0.0
 11
6458.2346533869
 21
5487.8328165112
 31
0.0
  0
LINE
  5
9E
330
1F
100
AcDbEntity
  8
0
  6
Continuous
 62
     7
370
    25
100
AcDbLine
 10
6465.1515411073
 20
5501.6390122614
 30
0.0
 11
6464.1229620028
 21
5501.6136177327
 31
0.0
  0
LINE
  5
9F
330
1F
100
AcDbEntity
  8
0
  6
Continuous
 62
     7
370
    25
100
AcDbLine
 10
6464.1084009449
 20
5479.7856567273
 30
0.0
 11
6465.1524516562
 21
5479.7598802348
 31
0.0
  0
LINE
  5
A0
330
1F
100
AcDbEntity
  8
0
  6
Continuous
 62
     7
370
    25
100
AcDbLine
 10
6506.5511823141
 20
5466.1994545927
 30
0.0
 11
6506.5511823141
 21
5484.5494545927
 31
0.0
  0
LINE
  5
A1
330
1F
100
AcDbEntity
  8
0
  6
Continuous
 62
     7
370
    25
100
AcDbLine
 10
6506.5511823141
 20
5513.9371022422
 30
0.0
 11
6506.5511823141
 21
5544.2021584546
 31
0.0
  0
LINE
  5
A2
330
1F
100
AcDbEntity
  8
0
  6
Continuous
 62
     7
370
    25
100
AcDbLine
 10
6456.5511823141
 20
5544.2021584546
 30
0.0
 11
6456.5511823141
 21
5466.1994545927
 31
0.0
  0
ARC
  5
A3
330
1F
100
AcDbEntity
  8
0
  6
Continuous
 62
     7
370
    25
100
AcDbCircle
 10
6504.5511823141
 20
5544.2021584546
 30
0.0
 40
1.999999999999996
100
AcDbArc
 50
0.0
 51
83.0
  0
ARC
  5
A4
330
1F
100
AcDbEntity
  8
0
  6
Continuous
 62
     7
370
    25
100
AcDbCircle
 10
6458.5511823141
 20
5544.2021584546
 30
0.0
 40
2.000000000000107
100
AcDbArc
 50
97.0
 51
180.0
  0
LINE
  5
A5
330
1F
100
AcDbEntity
  8
0
  6
Continuous
 62
     7
370
    25
100
AcDbLine
 10
6504.7949210009
 20
5546.1872507579
 30
0.0
 11
6496.5511823141
 21
5547.1994545927
 31
0.0
  0
LINE
  5
A6
330
1F
100
AcDbEntity
  8
0
  6
Continuous
 62
     7
370
    25
100
AcDbLine
 10
6466.5511823141
 20
5547.1994545927
 30
0.0
 11
6458.3074436272
 21
5546.1872507579
 31
0.0
  0
LINE
  5
A7
330
1F
100
AcDbEntity
  8
0
  6
Continuous
 62
     7
370
    25
100
AcDbLine
 10
6486.5511823141
 20
4634.6994545927
 30
0.0
 11
6486.5511823141
 21
4614.6994545927
 31
0.0
  0
LINE
  5
A8
330
1F
100
AcDbEntity
  8
0
  6
Continuous
 62
     7
370
    25
100
AcDbLine
 10
6516.5511823141
 20
4614.6994545927
 30
0.0
 11
6516.5511823141
 21
4634.6994545927
 31
0.0
  0
LINE
  5
A9
330
1F
100
AcDbEntity
  8
0
  6
Continuous
 62
     7
370
    25
100
AcDbLine
 10
6026.5511823141
 20
4634.6994545927
 30
0.0
 11
6026.5511823141
 21
4614.6994545927
 31
0.0
  0
LINE
  5
AA
330
1F
100
AcDbEntity
  8
0
  6
Continuous
 62
     7
370
    25
100
AcDbLine
 10
6056.5511823141
 20
4614.6994545927
 30
0.0
 11
6056.5511823141
 21
4634.6994545927
 31
0.0
  0
LINE
  5
AB
330
1F
100
AcDbEntity
  8
0
  6
Continuous
 62
     7
370
    25
100
AcDbLine
 10
6488.6182252025
 20
5565.7994545927
 30
0.0
 11
6494.2124186207
 21
5565.7994545927
 31
0.0
  0
LINE
  5
AC
330
1F
100
AcDbEntity
  8
0
  6
Continuous
 62
     7
370
    25
100
AcDbLine
 10
6488.6182252025
 20
5550.1994545927
 30
0.0
 11
6488.6182252025
 21
5565.7994545927
 31
0.0
  0
LINE
  5
AD
330
1F
100
AcDbEntity
  8
0
  6
Continuous
 62
     7
370
    25
100
AcDbLine
 10
6494.2124186207
 20
5550.1994545927
 30
0.0
 11
6488.6182252025
 21
5550.1994545927
 31
0.0
  0
LINE
  5
AE
330
1F
100
AcDbEntity
  8
0
  6
Continuous
 62
     7
370
    25
100
AcDbLine
 10
6494.2124186207
 20
5565.7994545927
 30
0.0
 11
6494.2124186207
 21
5550.1994545927
 31
0.0
  0
LINE
  5
AF
330
1F
100
AcDbEntity
  8
0
  6
Continuous
 62
     7
370
    25
100
AcDbLine
 10
6495.5511823141
 20
5567.5994545927
 30
0.0
 11
6467.5511823141
 21
5567.5994545927
 31
0.0
  0
LWPOLYLINE
  5
B0
330
1F
100
AcDbEntity
  8
0
  6
Continuous
 62
     7
370
    25
100
AcDbPolyline
 90
       34
 70
   128
 43
0.0
 10
6354.1214967348
 20
5695.6475012574
 10
6355.334640808
 20
5695.6845827273
 10
6356.2538100753
 20
5695.7944869162
 10
6356.8457833644
 20
5695.9732416002
 10
6357.0891652183
 20
5696.2143861193
 10
6356.9751591828
 20
5696.5092048824
 10
6356.5078857329
 20
5696.8470423712
 10
6355.7042333487
 20
5697.2156882587
 10
6354.5932481211
 20
5697.6018187218
 10
6353.215083951
 20
5697.9914779998
 10
6351.6195512822
 20
5698.3705827909
 10
6349.8643168225
 20
5698.7254312604
 10
6348.0128193185
 20
5699.0431982599
 10
6346.131976714
 20
5699.3123988622
 10
6344.2897675612
 20
5699.5233034561
 10
6342.5527740987
 20
5699.6682894002
 10
6340.9837757961
 20
5699.7421165245
 10
6339.6394803398
 20
5699.7421165245
 10
6338.5684740703
 20
5699.6682894002
 10
6337.8094659445
 20
5699.5233034561
 10
6337.3898884938
 20
5699.3123988622
 10
6337.3249063404
 20
5699.0431982599
 10
6337.6168681086
 20
5698.7254312604
 10
6338.2552215394
 20
5698.3705827909
 10
6339.2168948766
 20
5697.9914779998
 10
6340.4671307403
 20
5697.6018187218
 10
6341.9607423487
 20
5697.2156882587
 10
6343.643746687
 20
5696.8470423712
 10
6345.4553155931
 20
5696.5092048824
 10
6347.3299742469
 20
5696.2143861193
 10
6349.1999676002
 20
5695.9732416002
 10
6350.9977092211
 20
5695.7944869162
 10
6352.6582240433
 20
5695.6845827273
 10
6354.1214967348
 20
5695.6475012574
  0
LWPOLYLINE
  5
B1
330
1F
100
AcDbEntity
  8
0
  6
Continuous
 62
     7
370
    25
100
AcDbPolyline
 90
       30
 70
   128
 43
0.0
 10
6341.6644116117
 20
5699.341017261
 10
6343.0099079388
 20
5699.302638438
 10
6344.5513701111
 20
5699.1892965203
 10
6346.2167210704
 20
5699.0062912498
 10
6347.9280908569
 20
5698.7621797498
 10
6349.6054577214
 20
5698.4683764025
 10
6351.1703898535
 20
5698.138619126
 10
6352.5497127661
 20
5697.788327004
 10
6353.6789308528
 20
5697.4338793068
 10
6354.5052431309
 20
5697.0918496148
 10
6354.9900121565
 20
5696.7782308563
 10
6355.110570669
 20
5696.5076874959
 10
6354.8612814862
 20
5696.2928698403
 10
6354.2538010932
 20
5696.1438225244
 10
6353.3165345981
 20
5696.0675148352
 10
6352.0933075404
 20
5696.0675148352
 10
6350.641316658
 20
5696.1438225244
 10
6349.0284554305
 20
5696.2928698403
 10
6347.3301394566
 20
5696.5076874959
 10
6345.6257801036
 20
5696.7782308563
 10
6343.9950713205
 20
5697.0918496148
 10
6342.5142632377
 20
5697.4338793068
 10
6341.2525967953
 20
5697.788327004
 10
6340.269066114
 20
5698.138619126
 10
6339.6096599952
 20
5698.4683764025
 10
6339.3052115362
 20
5698.7621797498
 10
6339.3699564086
 20
5699.0062912498
 10
6339.8008672141
 20
5699.1892965203
 10
6340.5777950424
 20
5699.302638438
 10
6341.6644116117
 20
5699.341017261
  0
LINE
  5
B2
330
1F
100
AcDbEntity
  8
0
  6
Continuous
 62
     7
370
    25
100
AcDbLine
 10
6474.4801145022
 20
5567.6994545927
 30
0.0
 11
6491.5511823141
 21
5567.6994545927
 31
0.0
  0
LINE
  5
B3
330
1F
100
AcDbEntity
  8
0
  6
Continuous
 62
     7
370
    25
100
AcDbLine
 10
6471.5511823141
 20
5567.6994545927
 30
0.0
 11
6474.4801145022
 21
5567.6994545927
 31
0.0
  0
LWPOLYLINE
  5
B4
330
1F
100
AcDbEntity
  8
0
  6
Continuous
 62
     7
370
    25
100
AcDbPolyline
 90
       30
 70
   128
 43
0.0
 10
6342.010441754
 20
5699.2384195942
 10
6343.2718445607
 20
5699.2024394477
 10
6344.7169653472
 20
5699.0961813998
 10
6346.2782318716
 20
5698.9246139588
 10
6347.8826410464
 20
5698.6957594274
 10
6349.4551724819
 20
5698.4203187894
 10
6350.9222963557
 20
5698.1111713426
 10
6352.2154115863
 20
5697.7827724783
 10
6353.2740535425
 20
5697.4504777622
 10
6354.0487213032
 20
5697.1298249259
 10
6354.5031922648
 20
5696.8358073398
 10
6354.6162158702
 20
5696.5821729394
 10
6354.3825072613
 20
5696.3807813873
 10
6353.8129943929
 20
5696.2410495287
 10
6352.9343070537
 20
5696.16951107
 10
6351.7875316872
 20
5696.16951107
 10
6350.4262902349
 20
5696.2410495287
 10
6348.9142328342
 20
5696.3807813873
 10
6347.3220616086
 20
5696.5821729394
 10
6345.7242247151
 20
5696.8358073398
 10
6344.195435231
 20
5697.1298249259
 10
6342.8071776534
 20
5697.4504777622
 10
6341.6243653637
 20
5697.7827724783
 10
6340.7023053499
 20
5698.1111713426
 10
6340.0841121135
 20
5698.4203187894
 10
6339.7986916832
 20
5698.6957594274
 10
6339.8593900011
 20
5698.9246139588
 10
6340.2633688813
 20
5699.0961813998
 10
6340.9917387203
 20
5699.2024394477
 10
6342.010441754
 20
5699.2384195942
  0
LINE
  5
B5
330
1F
100
AcDbEntity
  8
0
  6
Continuous
 62
     7
370
    25
100
AcDbLine
 10
6499.2288518438
 20
5466.1994545927
 30
0.0
 11
6456.5511823141
 21
5466.1994545927
 31
0.0
  0
LINE
  5
B6
330
1F
100
AcDbEntity
  8
0
  6
Continuous
 62
     7
370
    25
100
AcDbLine
 10
6506.5511823141
 20
5466.1994545927
 30
0.0
 11
6499.2288518438
 21
5466.1994545927
 31
0.0
  0
LWPOLYLINE
  5
B7
330
1F
100
AcDbEntity
  8
0
  6
Continuous
 62
     7
370
    25
100
AcDbPolyline
 90
        3
 70
   128
 43
0.0
 10
6465.3246576348
 20
5501.5315522935
 10
6464.6035771009
 20
5501.6045252747
 10
6464.5333524484
 20
5501.5767497462
  0
LINE
  5
B8
330
1F
100
AcDbEntity
  8
0
  6
Continuous
 62
     7
370
    25
100
AcDbLine
 10
6464.119159602
 20
5479.8859331965
 30
0.0
 11
6464.9207273359
 21
5479.7923169391
 31
0.0
  0
LINE
  5
B9
330
1F
100
AcDbEntity
  8
0
  6
Continuous
 62
     7
370
    25
100
AcDbLine
 10
6464.0067397371
 20
5501.3525196811
 30
0.0
 11
6464.227066175
 21
5501.4084382762
 31
0.0
  0
LWPOLYLINE
  5
BA
330
1F
100
AcDbEntity
  8
0
  6
Continuous
 62
     7
370
    25
100
AcDbPolyline
 90
        3
 70
   128
 43
0.0
 10
6464.4636148734
 20
5501.4684740623
 10
6465.0291272728
 20
5501.6120004552
 10
6465.1303450629
 20
5501.6118899089
  0
LINE
  5
BB
330
1F
100
AcDbEntity
  8
0
  6
Continuous
 62
     7
370
    25
100
AcDbLine
 10
6507.0070264368
 20
5484.5494545927
 30
0.0
 11
6506.8198915013
 21
5484.5551514563
 31
0.0
  0
ARC
  5
BC
330
1F
100
AcDbEntity
  8
0
  6
Continuous
 62
     7
370
    25
100
AcDbCircle
 10
6503.4250850403
 20
5492.5669305476
 30
0.0
 40
1.939344517349396
100
AcDbArc
 50
42.6774878202
 51
85.1879690758
  0
LINE
  5
BD
330
1F
100
AcDbEntity
  8
0
  6
Continuous
 62
     7
370
    25
100
AcDbLine
 10
6503.5877709974
 20
5494.4994393927
 30
0.0
 11
6495.8095964043
 21
5494.4994393927
 31
0.0
  0
LWPOLYLINE
  5
BE
330
1F
100
AcDbEntity
  8
0
  6
Continuous
 62
     7
370
    25
100
AcDbPolyline
 90
        9
 70
   128
 43
0.0
 10
6512.7197722296
 20
5511.9723693081
 10
6512.6668875581
 20
5512.3180715032
 10
6512.5322123853
 20
5512.6161130781
 10
6512.3325950583
 20
5512.8292079634
 10
6512.0930084201
 20
5512.9306972251
 10
6511.843425618
 20
5512.9078841927
 10
6511.6150703552
 20
5512.7636228584
 10
6511.4365106937
 20
5512.5159608322
 10
6511.3300850872
 20
5512.1958815213
  0
ARC
  5
BF
330
1F
100
AcDbEntity
  8
0
  6
Continuous
 62
     7
370
    25
100
AcDbCircle
 10
6451.0630055418
 20
5523.2138594315
 30
0.0
 40
61.2659506917233
100
AcDbArc
 50
331.39489562
 51
349.6396457927
  0
ARC
  5
C0
330
1F
100
AcDbEntity
  8
0
  6
Continuous
 62
     7
370
    25
100
AcDbCircle
 10
6450.8545859669
 20
5523.2565999281
 30
0.0
 40
60.06465754095505
100
AcDbArc
 50
331.39489562
 51
349.6396457927
  0
ARC
  5
C1
330
1F
100
AcDbEntity
  8
0
  6
Continuous
 62
     7
370
    25
100
AcDbCircle
 10
6509.811170972
 20
5507.8996579897
 30
0.0
 40
4.556823095461105
100
AcDbArc
 50
70.5291383348
 51
88.380463816
  0
ARC
  5
C2
330
1F
100
AcDbEntity
  8
0
  6
Continuous
 62
     7
370
    25
100
AcDbCircle
 10
6490.9703032606
 20
5503.1959355906
 30
0.0
 40
9.64049613006977
100
AcDbArc
 50
311.0137676742
 51
333.142870565
  0
ARC
  5
C3
330
1F
100
AcDbEntity
  8
0
  6
Continuous
 62
     7
370
    25
100
AcDbCircle
 10
6441.9602814199
 20
5526.4037772994
 30
0.0
 40
63.86479502136959
100
AcDbArc
 50
334.431794574
 51
347.3839643844
  0
LINE
  5
C4
330
1F
100
AcDbEntity
  8
0
  6
Continuous
 62
     7
370
    25
100
AcDbLine
 10
6509.9399580703
 20
5512.4546608005
 30
0.0
 11
6504.2831038208
 21
5512.4546608005
 31
0.0
  0
ARC
  5
C5
330
1F
100
AcDbEntity
  8
0
  6
Continuous
 62
     7
370
    25
100
AcDbCircle
 10
6489.5915432521
 20
5504.3985599835
 30
0.0
 40
11.44774500389365
100
AcDbArc
 50
312.4030678369
 51
324.8668390626
  0
LWPOLYLINE
  5
C6
330
1F
100
AcDbEntity
  8
0
  6
Continuous
 62
     7
370
    25
100
AcDbPolyline
 90
        7
 70
   128
 43
0.0
 10
6499.5422127554
 20
5498.6993762725
 10
6499.4967418226
 20
5498.7513874316
 10
6499.4856458217
 20
5498.7766960839
 10
6499.4845926954
 20
5498.7992892631
 10
6499.4939691333
 20
5498.8176423207
 10
6499.5128749507
 20
5498.8307537848
 10
6499.5709350487
 20
5498.8406745789
  0
LWPOLYLINE
  5
C7
330
1F
100
AcDbEntity
  8
0
  6
Continuous
 62
     7
370
    25
100
AcDbPolyline
 90
       20
 70
   128
 43
0.0
 10
6507.5306391816
 20
5490.5386296223
 10
6507.3255964372
 20
5490.4374804785
 10
6507.1014718497
 20
5490.4213154768
 10
6506.8788468566
 20
5490.4925336113
 10
6506.6856465783
 20
5490.6459189754
 10
6506.548663691
 20
5490.8614860257
 10
6506.4841367664
 20
5491.1086056383
 10
6506.4949972485
 20
5491.3559782809
 10
6506.5751942334
 20
5491.5785550515
 10
6506.7150436069
 20
5491.7571438529
 10
6506.9025073671
 20
5491.875036807
 10
6507.121025077
 20
5491.9170638435
 10
6507.3472651338
 20
5491.8729434671
 10
6507.5523132523
 20
5491.7433973405
 10
6507.7079399955
 20
5491.5443146002
 10
6507.7948931638
 20
5491.3038882578
 10
6507.806799676
 20
5491.0536176089
 10
6507.7473130641
 20
5490.8206102372
 10
6507.6250651518
 20
5490.6260894694
 10
6507.5306391816
 20
5490.5386296223
  0
LWPOLYLINE
  5
C8
330
1F
100
AcDbEntity
  8
0
  6
Continuous
 62
     7
370
    25
100
AcDbPolyline
 90
       22
 70
   128
 43
0.0
 10
6511.4337796035
 20
5489.8922133478
 10
6511.4688407821
 20
5491.1777275298
 10
6511.2344130767
 20
5492.4207450625
 10
6510.7513264178
 20
5493.5108183832
 10
6510.0625051748
 20
5494.3510896937
 10
6509.2291541381
 20
5494.8668972005
 10
6508.3253202044
 20
5495.0124091431
 10
6507.4313129852
 20
5494.7746961468
 10
6506.6265689451
 20
5494.1748800545
 10
6505.9825931237
 20
5493.2662571583
 10
6505.5566055987
 20
5492.1295625899
 10
6505.3864572311
 20
5490.86579665
 10
6505.4872664502
 20
5489.5872504883
 10
6505.8500759143
 20
5488.4075285422
 10
6506.4426484105
 20
5487.4314542836
 10
6507.2123312719
 20
5486.7457561939
 10
6508.0907347987
 20
5486.4113615574
 10
6508.9998089827
 20
5486.4579828051
 10
6509.8587785932
 20
5486.8814774345
 10
6510.5913204109
 20
5487.6442160893
 10
6511.1323448804
 20
5488.6784260929
 10
6511.4337796035
 20
5489.8922133478
  0
LWPOLYLINE
  5
C9
330
1F
100
AcDbEntity
  8
0
  6
Continuous
 62
     7
370
    25
100
AcDbPolyline
 90
       20
 70
   128
 43
0.0
 10
6510.804812373
 20
5489.5934225524
 10
6510.6761659092
 20
5489.4980291285
 10
6510.5417441785
 20
5489.488510928
 10
6510.4141479751
 20
5489.5667713993
 10
6510.3100088031
 20
5489.726106388
 10
6510.2436776726
 20
5489.9450427352
 10
6510.2223192916
 20
5490.1929134379
 10
6510.2455944337
 20
5490.4393314423
 10
6510.308543113
 20
5490.6596220489
 10
6510.4041733191
 20
5490.8342680261
 10
6510.5239075798
 20
5490.946432728
 10
6510.6565796741
 20
5490.9815483484
 10
6510.7876192191
 20
5490.9303942837
 10
6510.9000939822
 20
5490.7946289805
 10
6510.9784323966
 20
5490.5908609481
 10
6511.0131753272
 20
5490.3480749398
 10
6511.0029138817
 20
5490.0982789335
 10
6510.9518923901
 20
5489.8681603916
 10
6510.866537194
 20
5489.6779579297
 10
6510.804812373
 20
5489.5934225524
  0
LWPOLYLINE
  5
CA
330
1F
100
AcDbEntity
  8
0
  6
Continuous
 62
     7
370
    25
100
AcDbPolyline
 90
       18
 70
   128
 43
0.0
 10
6510.1901294163
 20
5494.2440446977
 10
6509.9977677903
 20
5494.4524919103
 10
6509.1739214133
 20
5495.0498290437
 10
6508.2644480854
 20
5495.2947247118
 10
6507.3430279267
 20
5495.1673389239
 10
6506.4843089186
 20
5494.6779917191
 10
6505.7578593681
 20
5493.8663270976
 10
6505.2225318975
 20
5492.7981012998
 10
6504.9216955546
 20
5491.559855627
 10
6504.8797223109
 20
5490.2519053793
 10
6505.100012589
 20
5488.9802129073
 10
6505.5647197806
 20
5487.8478031719
 10
6506.2361960727
 20
5486.9464172752
 10
6507.0600424497
 20
5486.3490801418
 10
6507.9695157776
 20
5486.1041844737
 10
6508.8909359363
 20
5486.2315702615
 10
6509.7496549444
 20
5486.7209174664
 10
6510.102323396
 20
5487.0557149562
  0
LWPOLYLINE
  5
CB
330
1F
100
AcDbEntity
  8
0
  6
Continuous
 62
     7
370
    25
100
AcDbPolyline
 90
       13
 70
   128
 43
0.0
 10
6507.714133218
 20
5495.2994545927
 10
6506.9401792132
 20
5495.1673389239
 10
6506.0814602051
 20
5494.6779917191
 10
6505.3550106546
 20
5493.8663270976
 10
6504.8196831839
 20
5492.7981012998
 10
6504.5188468411
 20
5491.559855627
 10
6504.4768735974
 20
5490.2519053793
 10
6504.6971638755
 20
5488.9802129073
 10
6505.161871067
 20
5487.8478031719
 10
6505.8333473592
 20
5486.9464172752
 10
6506.6571937361
 20
5486.3490801418
 10
6507.5666670641
 20
5486.1041844737
 10
6507.714133218
 20
5486.0994545927
  0
ARC
  5
CC
330
1F
100
AcDbEntity
  8
0
  6
Continuous
 62
     7
370
    25
100
AcDbCircle
 10
6507.0553728508
 20
5491.1461446711
 30
0.0
 40
0.7705074296604371
100
AcDbArc
 50
319.0275685926
 51
85.1349081324
  0
ARC
  5
CD
330
1F
100
AcDbEntity
  8
0
  6
Continuous
 62
     7
370
    25
100
AcDbCircle
 10
6507.2047183916
 20
5490.9703617878
 30
0.0
 40
0.5436024287513799
100
AcDbArc
 50
266.422269197
 51
322.697502662
  0
LWPOLYLINE
  5
CE
330
1F
100
AcDbEntity
  8
0
  6
Continuous
 62
     7
370
    25
100
AcDbPolyline
 90
        9
 70
   128
 43
0.0
 10
6510.8862740023
 20
5489.7138325073
 10
6510.9656444558
 20
5489.9163176064
 10
6511.008264237
 20
5490.1539364168
 10
6511.0092521713
 20
5490.39685823
 10
6510.9694204866
 20
5490.6217674944
 10
6510.8916435373
 20
5490.8079577146
 10
6510.781613664
 20
5490.9343196595
 10
6510.6498452667
 20
5490.9817824363
 10
6510.6447990238
 20
5490.9802383512
  0
ARC
  5
CF
330
1F
100
AcDbEntity
  8
0
  6
Continuous
 62
     7
370
    25
100
AcDbCircle
 10
6510.5763832129
 20
5489.8188420458
 30
0.0
 40
0.3271991817123209
100
AcDbArc
 50
272.97428749
 51
341.2805450708
  0
ARC
  5
D0
330
1F
100
AcDbEntity
  8
0
  6
Continuous
 62
     7
370
    25
100
AcDbCircle
 10
6464.3397861916
 20
5484.6706877171
 30
0.0
 40
4.942630171209541
100
AcDbArc
 50
198.6883948792
 51
297.984438811
  0
LWPOLYLINE
  5
D1
330
1F
100
AcDbEntity
  8
0
  6
Continuous
 62
     7
370
    25
100
AcDbPolyline
 90
        6
 70
   128
 43
0.0
 10
6460.1656755245
 20
5499.1465277945
 10
6460.9676063838
 20
5500.3403133709
 10
6461.9918357079
 20
5501.0769297765
 10
6463.1751403855
 20
5501.5072382099
 10
6465.6789946123
 20
5501.4319089925
 10
6467.6818656397
 20
5500.5625278617
  0
LINE
  5
D2
330
1F
100
AcDbEntity
  8
0
  6
Continuous
 62
     7
370
    25
100
AcDbLine
 10
6473.6463199487
 20
5490.6999815092
 30
0.0
 11
6473.1384570516
 21
5490.6999815207
 31
0.0
  0
LWPOLYLINE
  5
D3
330
1F
100
AcDbEntity
  8
0
  6
Continuous
 62
     7
370
    25
100
AcDbPolyline
 90
       24
 70
   128
 43
0.0
 10
6473.1384570516
 20
5490.6999815207
 10
6472.6002069586
 20
5493.9027448944
 10
6471.137072197
 20
5496.7374228946
 10
6468.8833970449
 20
5499.1180118478
 10
6466.0943210168
 20
5500.7028258485
 10
6463.4652941024
 20
5501.0986925707
 10
6461.3729550697
 20
5500.4080674542
 10
6459.7972408588
 20
5498.7615341577
 10
6458.7204338303
 20
5496.129957798
 10
6458.3881962646
 20
5494.5007337564
 10
6458.189007838
 20
5492.7365286789
 10
6458.1464401483
 20
5489.3593361549
 10
6458.4699097487
 20
5486.4100907027
 10
6459.2208370189
 20
5483.7643220748
 10
6460.6174897087
 20
5481.599081145
 10
6461.5884436392
 20
5480.8625564906
 10
6462.7191537853
 20
5480.4173651627
 10
6465.1798222873
 20
5480.4317769069
 10
6467.7056387377
 20
5481.4637977076
 10
6470.1553243719
 20
5483.458289996
 10
6472.1629143916
 20
5486.4141948527
 10
6472.7865370466
 20
5488.1098827536
 10
6473.1052577471
 20
5489.8987242891
 10
6473.1384570418
 20
5490.6995506366
  0
LWPOLYLINE
  5
D4
330
1F
100
AcDbEntity
  8
0
  6
Continuous
 62
     7
370
    25
100
AcDbPolyline
 90
        9
 70
   128
 43
0.0
 10
6473.1384570418
 20
5490.6995506366
 10
6473.2045582553
 20
5490.6995474437
 10
6473.2724252389
 20
5490.6995443104
 10
6473.3407889646
 20
5490.6995412955
 10
6473.4083711157
 20
5490.6995384552
 10
6473.4739079903
 20
5490.6995358427
 10
6473.5361741302
 20
5490.6995335068
 10
6473.5940052363
 20
5490.6995314912
 10
6473.6463199388
 20
5490.6995298336
  0
LINE
  5
D5
330
1F
100
AcDbEntity
  8
0
  6
Continuous
 62
     7
370
    25
100
AcDbLine
 10
6473.1384570418
 20
5490.6995506366
 30
0.0
 11
6473.1384570516
 21
5490.6999815207
 31
0.0
  0
LINE
  5
D6
330
1F
100
AcDbEntity
  8
0
  6
Continuous
 62
     7
370
    25
100
AcDbLine
 10
6499.2288518437
 20
5484.4994545927
 30
0.0
 11
6499.4317188867
 21
5484.5494545927
 31
0.0
  0
LWPOLYLINE
  5
D7
330
1F
100
AcDbEntity
  8
0
  6
Continuous
 62
     7
370
    25
100
AcDbPolyline
 90
       10
 70
   128
 43
0.0
 10
6497.9817965883
 20
5496.5992017048
 10
6496.8982298608
 20
5496.0672445812
 10
6495.6074819923
 20
5494.7666446277
 10
6494.6740732292
 20
5492.9754406808
 10
6494.2962632604
 20
5490.9274256633
 10
6494.5260215968
 20
5488.9091402233
 10
6495.2949816834
 20
5487.1002199316
 10
6496.5076535081
 20
5485.6441013217
 10
6497.9913711694
 20
5484.7349936963
 10
6499.2288518437
 20
5484.4994545927
  0
LWPOLYLINE
  5
D8
330
1F
100
AcDbEntity
  8
0
  6
Continuous
 62
     7
370
    25
100
AcDbPolyline
 90
       27
 70
   128
 43
0.0
 10
6463.8735127844
 20
5479.6494545927
 10
6466.4974709178
 20
5480.2080957117
 10
6469.1155888935
 20
5481.7942971481
 10
6471.4786751981
 20
5484.3691692549
 10
6472.4347676382
 20
5486.0313645104
 10
6473.1154359598
 20
5487.8485971535
 10
6473.4546157201
 20
5489.6679110204
 10
6473.4752470795
 20
5491.5218539251
 10
6472.6922182847
 20
5494.7866373887
 10
6470.9882092923
 20
5497.6956927726
 10
6468.4362527757
 20
5500.1195166539
 10
6466.9779137945
 20
5500.9759211213
 10
6465.4998953923
 20
5501.5276633369
 10
6462.9060235934
 20
5501.6593945275
 10
6460.888387123
 20
5500.7189205481
 10
6459.3762147198
 20
5498.7986477681
 10
6458.3701572718
 20
5495.8583917011
 10
6458.0773391928
 20
5494.0884950121
 10
6457.9174930358
 20
5492.2011525807
 10
6457.949914124
 20
5488.6512552458
 10
6458.3727471149
 20
5485.528480909
 10
6459.2991464592
 20
5482.7517943574
 10
6460.0384832969
 20
5481.5586087199
 10
6460.9542072753
 20
5480.6275139169
 10
6462.0336507981
 20
5480.0000128927
 10
6463.2673575105
 20
5479.6839513786
 10
6463.8735127844
 20
5479.6494545927
  0
LINE
  5
D9
330
1F
100
AcDbEntity
  8
0
  6
Continuous
 62
     7
370
    25
100
AcDbLine
 10
6506.5511823141
 20
5466.1994545927
 30
0.0
 11
6456.5511823141
 21
5466.1994545927
 31
0.0
  0
LINE
  5
DA
330
1F
100
AcDbEntity
  8
0
  6
Continuous
 62
     7
370
    25
100
AcDbLine
 10
6496.5511823141
 20
5547.1994545927
 30
0.0
 11
6466.5511823141
 21
5547.1994545927
 31
0.0
  0
LINE
  5
DB
330
1F
100
AcDbEntity
  8
0
  6
Continuous
 62
     7
370
    25
100
AcDbLine
 10
6463.7491290781
 20
5501.4899695852
 30
0.0
 11
6464.1187495705
 21
5501.5978055789
 31
0.0
  0
LINE
  5
DC
330
1F
100
AcDbEntity
  8
0
  6
Continuous
 62
     7
370
    25
100
AcDbLine
 10
6464.5371057268
 20
5479.7907336395
 30
0.0
 11
6464.2433536676
 21
5479.7895212534
 31
0.0
  0
ARC
  5
DD
330
1F
100
AcDbEntity
  8
0
  6
Continuous
 62
     7
370
    25
100
AcDbCircle
 10
6023.5511823141
 20
5112.6994545927
 30
0.0
 40
2.000000000000909
100
AcDbArc
 50
90.0
 51
180.0
  0
LINE
  5
DE
330
1F
100
AcDbEntity
  8
0
  6
Continuous
 62
     7
370
    25
100
AcDbLine
 10
6023.5511823141
 20
5112.6994545927
 30
0.0
 11
6023.5511823141
 21
5114.6994545927
 31
0.0
  0
LINE
  5
DF
330
1F
100
AcDbEntity
  8
0
  6
Continuous
 62
     7
370
    25
100
AcDbLine
 10
6021.5511823141
 20
5112.6994545927
 30
0.0
 11
6023.5511823141
 21
5112.6994545927
 31
0.0
  0
ARC
  5
E0
330
1F
100
AcDbEntity
  8
0
  6
Continuous
 62
     7
370
    25
100
AcDbCircle
 10
6023.5511823141
 20
5076.6994545927
 30
0.0
 40
2.000000000000909
100
AcDbArc
 50
180.0
 51
270.0
  0
LINE
  5
E1
330
1F
100
AcDbEntity
  8
0
  6
Continuous
 62
     7
370
    25
100
AcDbLine
 10
6023.5511823141
 20
5076.6994545927
 30
0.0
 11
6021.5511823141
 21
5076.6994545927
 31
0.0
  0
LINE
  5
E2
330
1F
100
AcDbEntity
  8
0
  6
Continuous
 62
     7
370
    25
100
AcDbLine
 10
6023.5511823141
 20
5074.6994545927
 30
0.0
 11
6023.5511823141
 21
5076.6994545927
 31
0.0
  0
LINE
  5
E3
330
1F
100
AcDbEntity
  8
0
  6
Continuous
 62
     7
370
    25
100
AcDbLine
 10
6519.5511823141
 20
5112.6994545927
 30
0.0
 11
6519.5511823141
 21
5114.6994545927
 31
0.0
  0
ARC
  5
E4
330
1F
100
AcDbEntity
  8
0
  6
Continuous
 62
     7
370
    25
100
AcDbCircle
 10
6519.5511823141
 20
5112.6994545927
 30
0.0
 40
2.0
100
AcDbArc
 50
0.0
 51
90.0
  0
LINE
  5
E5
330
1F
100
AcDbEntity
  8
0
  6
Continuous
 62
     7
370
    25
100
AcDbLine
 10
6519.5511823141
 20
5112.6994545927
 30
0.0
 11
6521.5511823141
 21
5112.6994545927
 31
0.0
  0
LINE
  5
E6
330
1F
100
AcDbEntity
  8
0
  6
Continuous
 62
     7
370
    25
100
AcDbLine
 10
6519.5511823141
 20
5074.6994545927
 30
0.0
 11
6023.5511823141
 21
5074.6994545927
 31
0.0
  0
LINE
  5
E7
330
1F
100
AcDbEntity
  8
0
  6
Continuous
 62
     7
370
    25
100
AcDbLine
 10
6023.5511823141
 20
5076.6994545927
 30
0.0
 11
6519.5511823141
 21
5076.6994545927
 31
0.0
  0
LINE
  5
E8
330
1F
100
AcDbEntity
  8
0
  6
Continuous
 62
     7
370
    25
100
AcDbLine
 10
6519.5511823141
 20
5074.6994545927
 30
0.0
 11
6519.5511823141
 21
5076.6994545927
 31
0.0
  0
LINE
  5
E9
330
1F
100
AcDbEntity
  8
0
  6
Continuous
 62
     7
370
    25
100
AcDbLine
 10
6519.5511823141
 20
5112.6994545927
 30
0.0
 11
6023.5511823141
 21
5112.6994545927
 31
0.0
  0
LINE
  5
EA
330
1F
100
AcDbEntity
  8
0
  6
Continuous
 62
     7
370
    25
100
AcDbLine
 10
6023.5511823141
 20
5114.6994545927
 30
0.0
 11
6519.5511823141
 21
5114.6994545927
 31
0.0
  0
LINE
  5
EB
330
1F
100
AcDbEntity
  8
0
  6
Continuous
 62
     7
370
    25
100
AcDbLine
 10
6021.5511823141
 20
5076.6994545927
 30
0.0
 11
6021.5511823141
 21
5112.6994545927
 31
0.0
  0
LINE
  5
EC
330
1F
100
AcDbEntity
  8
0
  6
Continuous
 62
     7
370
    25
100
AcDbLine
 10
6023.5511823141
 20
5112.6994545927
 30
0.0
 11
6023.5511823141
 21
5076.6994545927
 31
0.0
  0
LINE
  5
ED
330
1F
100
AcDbEntity
  8
0
  6
Continuous
 62
     7
370
    25
100
AcDbLine
 10
6519.5511823141
 20
5076.6994545927
 30
0.0
 11
6519.5511823141
 21
5112.6994545927
 31
0.0
  0
LINE
  5
EE
330
1F
100
AcDbEntity
  8
0
  6
Continuous
 62
     7
370
    25
100
AcDbLine
 10
6521.5511823141
 20
5112.6994545927
 30
0.0
 11
6521.5511823141
 21
5076.6994545927
 31
0.0
  0
LINE
  5
EF
330
1F
100
AcDbEntity
  8
0
  6
Continuous
 62
     7
370
    25
100
AcDbLine
 10
6521.5511823141
 20
5076.6994545927
 30
0.0
 11
6519.5511823141
 21
5076.6994545927
 31
0.0
  0
ARC
  5
F0
330
1F
100
AcDbEntity
  8
0
  6
Continuous
 62
     7
370
    25
100
AcDbCircle
 10
6519.5511823141
 20
5076.6994545927
 30
0.0
 40
2.0
100
AcDbArc
 50
270.0
 51
0.0
  0
LINE
  5
F1
330
1F
100
AcDbEntity
  8
0
  6
Continuous
 62
     7
370
    25
100
AcDbLine
 10
6484.5511823141
 20
4639.6994545927
 30
0.0
 11
6484.5511823141
 21
4634.6994545927
 31
0.0
  0
LINE
  5
F2
330
1F
100
AcDbEntity
  8
0
  6
Continuous
 62
     7
370
    25
100
AcDbLine
 10
6518.5511823141
 20
4639.6994545927
 30
0.0
 11
6484.5511823141
 21
4639.6994545927
 31
0.0
  0
LINE
  5
F3
330
1F
100
AcDbEntity
  8
0
  6
Continuous
 62
     7
370
    25
100
AcDbLine
 10
6518.5511823141
 20
4639.6994545927
 30
0.0
 11
6518.5511823141
 21
4634.6994545927
 31
0.0
  0
LINE
  5
F4
330
1F
100
AcDbEntity
  8
0
  6
Continuous
 62
     7
370
    25
100
AcDbLine
 10
6518.5511823141
 20
4634.6994545927
 30
0.0
 11
6484.5511823141
 21
4634.6994545927
 31
0.0
  0
LINE
  5
F5
330
1F
100
AcDbEntity
  8
0
  6
Continuous
 62
     7
370
    25
100
AcDbLine
 10
6522.0511823141
 20
4639.6994545927
 30
0.0
 11
6518.5511823141
 21
4639.6994545927
 31
0.0
  0
LINE
  5
F6
330
1F
100
AcDbEntity
  8
0
  6
Continuous
 62
     7
370
    25
100
AcDbLine
 10
6522.0511823141
 20
4639.6994545927
 30
0.0
 11
6522.0511823141
 21
4634.6994545927
 31
0.0
  0
LINE
  5
F7
330
1F
100
AcDbEntity
  8
0
  6
Continuous
 62
     7
370
    25
100
AcDbLine
 10
6522.0511823141
 20
4634.6994545927
 30
0.0
 11
6518.5511823141
 21
4634.6994545927
 31
0.0
  0
LINE
  5
F8
330
1F
100
AcDbEntity
  8
0
  6
Continuous
 62
     7
370
    25
100
AcDbLine
 10
6024.5511823141
 20
4639.6994545927
 30
0.0
 11
6024.5511823141
 21
4634.6994545927
 31
0.0
  0
LINE
  5
F9
330
1F
100
AcDbEntity
  8
0
  6
Continuous
 62
     7
370
    25
100
AcDbLine
 10
6058.5511823141
 20
4639.6994545927
 30
0.0
 11
6024.5511823141
 21
4639.6994545927
 31
0.0
  0
LINE
  5
FA
330
1F
100
AcDbEntity
  8
0
  6
Continuous
 62
     7
370
    25
100
AcDbLine
 10
6058.5511823141
 20
4639.6994545927
 30
0.0
 11
6058.5511823141
 21
4634.6994545927
 31
0.0
  0
LINE
  5
FB
330
1F
100
AcDbEntity
  8
0
  6
Continuous
 62
     7
370
    25
100
AcDbLine
 10
6058.5511823141
 20
4634.6994545927
 30
0.0
 11
6024.5511823141
 21
4634.6994545927
 31
0.0
  0
LINE
  5
FC
330
1F
100
AcDbEntity
  8
0
  6
Continuous
 62
     7
370
    25
100
AcDbLine
 10
6481.0511823141
 20
4639.6994545927
 30
0.0
 11
6481.0511823141
 21
4634.6994545927
 31
0.0
  0
LINE
  5
FD
330
1F
100
AcDbEntity
  8
0
  6
Continuous
 62
     7
370
    25
100
AcDbLine
 10
6484.5511823141
 20
4639.6994545927
 30
0.0
 11
6481.0511823141
 21
4639.6994545927
 31
0.0
  0
LINE
  5
FE
330
1F
100
AcDbEntity
  8
0
  6
Continuous
 62
     7
370
    25
100
AcDbLine
 10
6484.5511823141
 20
4634.6994545927
 30
0.0
 11
6481.0511823141
 21
4634.6994545927
 31
0.0
  0
LINE
  5
FF
330
1F
100
AcDbEntity
  8
0
  6
Continuous
 62
     7
370
    25
100
AcDbLine
 10
6021.0511823141
 20
4639.6994545927
 30
0.0
 11
6021.0511823141
 21
4634.6994545927
 31
0.0
  0
LINE
  5
100
330
1F
100
AcDbEntity
  8
0
  6
Continuous
 62
     7
370
    25
100
AcDbLine
 10
6024.5511823141
 20
4634.6994545927
 30
0.0
 11
6021.0511823141
 21
4634.6994545927
 31
0.0
  0
LINE
  5
101
330
1F
100
AcDbEntity
  8
0
  6
Continuous
 62
     7
370
    25
100
AcDbLine
 10
6024.5511823141
 20
4639.6994545927
 30
0.0
 11
6021.0511823141
 21
4639.6994545927
 31
0.0
  0
LINE
  5
102
330
1F
100
AcDbEntity
  8
0
  6
Continuous
 62
     7
370
    25
100
AcDbLine
 10
6062.0511823141
 20
4639.6994545927
 30
0.0
 11
6062.0511823141
 21
4634.6994545927
 31
0.0
  0
LINE
  5
103
330
1F
100
AcDbEntity
  8
0
  6
Continuous
 62
     7
370
    25
100
AcDbLine
 10
6062.0511823141
 20
4634.6994545927
 30
0.0
 11
6058.5511823141
 21
4634.6994545927
 31
0.0
  0
LINE
  5
104
330
1F
100
AcDbEntity
  8
0
  6
Continuous
 62
     7
370
    25
100
AcDbLine
 10
6062.0511823141
 20
4639.6994545927
 30
0.0
 11
6058.5511823141
 21
4639.6994545927
 31
0.0
  0
LINE
  5
105
330
1F
100
AcDbEntity
  8
0
  6
Continuous
 62
     7
370
    25
100
AcDbLine
 10
6058.5511823141
 20
5074.6994545927
 30
0.0
 11
6058.5511823141
 21
4639.6994545927
 31
0.0
  0
LINE
  5
106
330
1F
100
AcDbEntity
  8
0
  6
Continuous
 62
     7
370
    25
100
AcDbLine
 10
6024.5511823141
 20
5074.6994545927
 30
0.0
 11
6024.5511823141
 21
4639.6994545927
 31
0.0
  0
LINE
  5
107
330
1F
100
AcDbEntity
  8
0
  6
Continuous
 62
     7
370
    25
100
AcDbLine
 10
6023.5511823141
 20
5074.6994545927
 30
0.0
 11
6021.5511823141
 21
5074.6994545927
 31
0.0
  0
LINE
  5
108
330
1F
100
AcDbEntity
  8
0
  6
Continuous
 62
     7
370
    25
100
AcDbLine
 10
6021.5511823141
 20
5074.6994545927
 30
0.0
 11
6021.5511823141
 21
4639.6994545927
 31
0.0
  0
LINE
  5
109
330
1F
100
AcDbEntity
  8
0
  6
Continuous
 62
     7
370
    25
100
AcDbLine
 10
6521.5511823141
 20
5074.6994545927
 30
0.0
 11
6519.5511823141
 21
5074.6994545927
 31
0.0
  0
LINE
  5
10A
330
1F
100
AcDbEntity
  8
0
  6
Continuous
 62
     7
370
    25
100
AcDbLine
 10
6521.5511823141
 20
5074.6994545927
 30
0.0
 11
6521.5511823141
 21
4639.6994545927
 31
0.0
  0
LINE
  5
10B
330
1F
100
AcDbEntity
  8
0
  6
Continuous
 62
     7
370
    25
100
AcDbLine
 10
6518.5511823141
 20
5074.6994545927
 30
0.0
 11
6518.5511823141
 21
4639.6994545927
 31
0.0
  0
LINE
  5
10C
330
1F
100
AcDbEntity
  8
0
  6
Continuous
 62
     7
370
    25
100
AcDbLine
 10
6484.5511823141
 20
5074.6994545927
 30
0.0
 11
6484.5511823141
 21
4639.6994545927
 31
0.0
  0
LINE
  5
10D
330
1F
100
AcDbEntity
  8
0
  6
Continuous
 62
     7
370
    25
100
AcDbLine
 10
6061.3796094388
 20
5074.6994545927
 30
0.0
 11
6061.3796094388
 21
4766.6994545927
 31
0.0
  0
LWPOLYLINE
  5
10E
330
1F
100
AcDbEntity
  8
0
  6
Continuous
 62
     7
370
    25
100
AcDbPolyline
 90
        6
 70
   128
 43
0.0
 10
6061.5511823141
 20
4764.9674037852
 10
6061.5483192835
 20
4765.049981518
 10
6061.4983019553
 20
4765.4488813346
 10
6061.4199596088
 20
4766.010428359
 10
6061.3796485415
 20
4766.6784210098
 10
6061.3796094388
 20
4766.6994545927
  0
LINE
  5
10F
330
1F
100
AcDbEntity
  8
0
  6
Continuous
 62
     7
370
    25
100
AcDbLine
 10
6061.5511823141
 20
4764.9674037852
 30
0.0
 11
6061.5511823141
 21
4639.6994545927
 31
0.0
  0
ARC
  5
110
330
1F
100
AcDbEntity
  8
0
  6
Continuous
 62
     7
370
    25
100
AcDbCircle
 10
6465.8441347814
 20
4767.3978301412
 30
0.0
 40
15.89397100992113
100
AcDbArc
 50
351.204107749
 51
357.4816326015
  0
LINE
  5
111
330
1F
100
AcDbEntity
  8
0
  6
Continuous
 62
     7
370
    25
100
AcDbLine
 10
6481.7227551893
 20
4766.6994545927
 30
0.0
 11
6481.7227551893
 21
5074.6994545927
 31
0.0
  0
LINE
  5
112
330
1F
100
AcDbEntity
  8
0
  6
Continuous
 62
     7
370
    25
100
AcDbLine
 10
6481.5511823141
 20
4764.9674037852
 30
0.0
 11
6481.5511823141
 21
4639.6994545927
 31
0.0
  0
LINE
  5
113
330
1F
100
AcDbEntity
  8
0
  6
Continuous
 62
     7
370
    25
100
AcDbLine
 10
6061.3796094388
 20
4766.6994545927
 30
0.0
 11
6481.7227551893
 21
4766.6994545927
 31
0.0
  0
LINE
  5
114
330
1F
100
AcDbEntity
  8
0
  6
Continuous
 62
     7
370
    25
100
AcDbLine
 10
6481.5511823141
 20
4764.6994545927
 30
0.0
 11
6061.5511823141
 21
4764.6994545927
 31
0.0
  0
LINE
  5
115
330
1F
100
AcDbEntity
  8
0
  6
Continuous
 62
     7
370
    25
100
AcDbLine
 10
6486.5511823141
 20
4614.6994545927
 30
0.0
 11
6516.5511823141
 21
4614.6994545927
 31
0.0
  0
LINE
  5
116
330
1F
100
AcDbEntity
  8
0
  6
Continuous
 62
     7
370
    25
100
AcDbLine
 10
6026.5511823141
 20
4614.6994545927
 30
0.0
 11
6056.5511823141
 21
4614.6994545927
 31
0.0
  0
LINE
  5
117
330
1F
100
AcDbEntity
  8
0
  6
Continuous
 62
     7
370
    25
100
AcDbLine
 10
6023.5511823141
 20
5426.6994545927
 30
0.0
 11
6519.5511823141
 21
5426.6994545927
 31
0.0
  0
LINE
  5
118
330
1F
100
AcDbEntity
  8
0
  6
Continuous
 62
     7
370
    25
100
AcDbLine
 10
6519.5511823141
 20
5426.6994545927
 30
0.0
 11
6519.5511823141
 21
5424.6994545927
 31
0.0
  0
LINE
  5
119
330
1F
100
AcDbEntity
  8
0
  6
Continuous
 62
     7
370
    25
100
AcDbLine
 10
6519.5511823141
 20
5424.6994545927
 30
0.0
 11
6023.5511823141
 21
5424.6994545927
 31
0.0
  0
LINE
  5
11A
330
1F
100
AcDbEntity
  8
0
  6
Continuous
 62
     7
370
    25
100
AcDbLine
 10
6023.5511823141
 20
5424.6994545927
 30
0.0
 11
6023.5511823141
 21
5426.6994545927
 31
0.0
  0
LINE
  5
11B
330
1F
100
AcDbEntity
  8
0
  6
Continuous
 62
     7
370
    25
100
AcDbLine
 10
6519.5511823141
 20
5462.6994545927
 30
0.0
 11
6519.5511823141
 21
5464.6994545927
 31
0.0
  0
ARC
  5
11C
330
1F
100
AcDbEntity
  8
0
  6
Continuous
 62
     7
370
    25
100
AcDbCircle
 10
6519.5511823141
 20
5462.6994545927
 30
0.0
 40
2.0
100
AcDbArc
 50
0.0
 51
90.0
  0
LINE
  5
11D
330
1F
100
AcDbEntity
  8
0
  6
Continuous
 62
     7
370
    25
100
AcDbLine
 10
6519.5511823141
 20
5462.6994545927
 30
0.0
 11
6521.5511823141
 21
5462.6994545927
 31
0.0
  0
LINE
  5
11E
330
1F
100
AcDbEntity
  8
0
  6
Continuous
 62
     7
370
    25
100
AcDbLine
 10
6519.5511823141
 20
5426.6994545927
 30
0.0
 11
6521.5511823141
 21
5426.6994545927
 31
0.0
  0
ARC
  5
11F
330
1F
100
AcDbEntity
  8
0
  6
Continuous
 62
     7
370
    25
100
AcDbCircle
 10
6519.5511823141
 20
5426.6994545927
 30
0.0
 40
2.0
100
AcDbArc
 50
270.0
 51
0.0
  0
LINE
  5
120
330
1F
100
AcDbEntity
  8
0
  6
Continuous
 62
     7
370
    25
100
AcDbLine
 10
6021.5511823141
 20
5426.6994545927
 30
0.0
 11
6023.5511823141
 21
5426.6994545927
 31
0.0
  0
ARC
  5
121
330
1F
100
AcDbEntity
  8
0
  6
Continuous
 62
     7
370
    25
100
AcDbCircle
 10
6023.5511823141
 20
5426.6994545927
 30
0.0
 40
2.0
100
AcDbArc
 50
180.0
 51
270.0
  0
LINE
  5
122
330
1F
100
AcDbEntity
  8
0
  6
Continuous
 62
     7
370
    25
100
AcDbLine
 10
6023.5511823141
 20
5464.6994545927
 30
0.0
 11
6519.5511823141
 21
5464.6994545927
 31
0.0
  0
LINE
  5
123
330
1F
100
AcDbEntity
  8
0
  6
Continuous
 62
     7
370
    25
100
AcDbLine
 10
6519.5511823141
 20
5462.6994545927
 30
0.0
 11
6023.5511823141
 21
5462.6994545927
 31
0.0
  0
LINE
  5
124
330
1F
100
AcDbEntity
  8
0
  6
Continuous
 62
     7
370
    25
100
AcDbLine
 10
6023.5511823141
 20
5464.6994545927
 30
0.0
 11
6023.5511823141
 21
5462.6994545927
 31
0.0
  0
LINE
  5
125
330
1F
100
AcDbEntity
  8
0
  6
Continuous
 62
     7
370
    25
100
AcDbLine
 10
6519.5511823141
 20
5426.6994545927
 30
0.0
 11
6519.5511823141
 21
5462.6994545927
 31
0.0
  0
LINE
  5
126
330
1F
100
AcDbEntity
  8
0
  6
Continuous
 62
     7
370
    25
100
AcDbLine
 10
6023.5511823141
 20
5462.6994545927
 30
0.0
 11
6023.5511823141
 21
5426.6994545927
 31
0.0
  0
LINE
  5
127
330
1F
100
AcDbEntity
  8
0
  6
Continuous
 62
     7
370
    25
100
AcDbLine
 10
6521.5511823141
 20
5462.6994545927
 30
0.0
 11
6521.5511823141
 21
5426.6994545927
 31
0.0
  0
LINE
  5
128
330
1F
100
AcDbEntity
  8
0
  6
Continuous
 62
     7
370
    25
100
AcDbLine
 10
6021.5511823141
 20
5426.6994545927
 30
0.0
 11
6021.5511823141
 21
5462.6994545927
 31
0.0
  0
LINE
  5
129
330
1F
100
AcDbEntity
  8
0
  6
Continuous
 62
     7
370
    25
100
AcDbLine
 10
6021.5511823141
 20
5462.6994545927
 30
0.0
 11
6023.5511823141
 21
5462.6994545927
 31
0.0
  0
ARC
  5
12A
330
1F
100
AcDbEntity
  8
0
  6
Continuous
 62
     7
370
    25
100
AcDbCircle
 10
6023.5511823141
 20
5462.6994545927
 30
0.0
 40
2.0
100
AcDbArc
 50
90.0
 51
180.0
  0
LINE
  5
12B
330
1F
100
AcDbEntity
  8
0
  6
Continuous
 62
     7
370
    25
100
AcDbLine
 10
6519.5511823141
 20
5424.6994545927
 30
0.0
 11
6519.5511823141
 21
5324.6994545927
 31
0.0
  0
LINE
  5
12C
330
1F
100
AcDbEntity
  8
0
  6
Continuous
 62
     7
370
    25
100
AcDbLine
 10
6023.5511823141
 20
5324.6994545927
 30
0.0
 11
6023.5511823141
 21
5424.6994545927
 31
0.0
  0
LINE
  5
12D
330
1F
100
AcDbEntity
  8
0
  6
Continuous
 62
     7
370
    25
100
AcDbLine
 10
6519.5511823141
 20
5324.6994545927
 30
0.0
 11
6023.5511823141
 21
5324.6994545927
 31
0.0
  0
LINE
  5
12E
330
1F
100
AcDbEntity
  8
0
  6
Continuous
 62
     7
370
    25
100
AcDbLine
 10
6058.5511823141
 20
5324.6994545927
 30
0.0
 11
6058.5511823141
 21
5114.6994545927
 31
0.0
  0
LINE
  5
12F
330
1F
100
AcDbEntity
  8
0
  6
Continuous
 62
     7
370
    25
100
AcDbLine
 10
6024.5511823141
 20
5324.6994545927
 30
0.0
 11
6024.5511823141
 21
5114.6994545927
 31
0.0
  0
LINE
  5
130
330
1F
100
AcDbEntity
  8
0
  6
Continuous
 62
     7
370
    25
100
AcDbLine
 10
6021.5511823141
 20
5424.6994545927
 30
0.0
 11
6023.5511823141
 21
5424.6994545927
 31
0.0
  0
LINE
  5
131
330
1F
100
AcDbEntity
  8
0
  6
Continuous
 62
     7
370
    25
100
AcDbLine
 10
6021.5511823141
 20
5424.6994545927
 30
0.0
 11
6021.5511823141
 21
5112.6994545927
 31
0.0
  0
LINE
  5
132
330
1F
100
AcDbEntity
  8
0
  6
Continuous
 62
     7
370
    25
100
AcDbLine
 10
6021.5511823141
 20
5076.6994545927
 30
0.0
 11
6021.5511823141
 21
5074.6994545927
 31
0.0
  0
LINE
  5
133
330
1F
100
AcDbEntity
  8
0
  6
Continuous
 62
     7
370
    25
100
AcDbLine
 10
6484.5511823141
 20
5324.6994545927
 30
0.0
 11
6484.5511823141
 21
5114.6994545927
 31
0.0
  0
LINE
  5
134
330
1F
100
AcDbEntity
  8
0
  6
Continuous
 62
     7
370
    25
100
AcDbLine
 10
6481.7227551893
 20
5324.6994545927
 30
0.0
 11
6481.7227551893
 21
5114.6994545927
 31
0.0
  0
LINE
  5
135
330
1F
100
AcDbEntity
  8
0
  6
Continuous
 62
     7
370
    25
100
AcDbLine
 10
6518.5511823141
 20
5324.6994545927
 30
0.0
 11
6518.5511823141
 21
5114.6994545927
 31
0.0
  0
LINE
  5
136
330
1F
100
AcDbEntity
  8
0
  6
Continuous
 62
     7
370
    25
100
AcDbLine
 10
6061.3796094388
 20
5114.6994545927
 30
0.0
 11
6061.3796094388
 21
5324.6994545927
 31
0.0
  0
LINE
  5
137
330
1F
100
AcDbEntity
  8
0
  6
Continuous
 62
     7
370
    25
100
AcDbLine
 10
6519.5511823141
 20
5424.6994545927
 30
0.0
 11
6521.5511823141
 21
5424.6994545927
 31
0.0
  0
LINE
  5
138
330
1F
100
AcDbEntity
  8
0
  6
Continuous
 62
     7
370
    25
100
AcDbLine
 10
6521.5511823141
 20
5424.6994545927
 30
0.0
 11
6521.5511823141
 21
5112.6994545927
 31
0.0
  0
LINE
  5
139
330
1F
100
AcDbEntity
  8
0
  6
Continuous
 62
     7
370
    25
100
AcDbLine
 10
6521.5511823141
 20
5076.6994545927
 30
0.0
 11
6521.5511823141
 21
5074.6994545927
 31
0.0
  0
LINE
  5
13A
330
1F
100
AcDbEntity
  8
0
  6
Continuous
 62
     7
370
    25
100
AcDbLine
 10
6023.5511823141
 20
5504.6994545927
 30
0.0
 11
6023.5511823141
 21
5464.6994545927
 31
0.0
  0
LINE
  5
13B
330
1F
100
AcDbEntity
  8
0
  6
Continuous
 62
     7
370
    25
100
AcDbLine
 10
6023.5511823141
 20
5504.6994545927
 30
0.0
 11
6456.5511823141
 21
5504.6994545927
 31
0.0
  0
LINE
  5
13C
330
1F
100
AcDbEntity
  8
0
  6
Continuous
 62
     7
370
    25
100
AcDbLine
 10
6512.9584469793
 20
5504.6994545927
 30
0.0
 11
6519.5511823141
 21
5504.6994545927
 31
0.0
  0
LINE
  5
13D
330
1F
100
AcDbEntity
  8
0
  6
Continuous
 62
     7
370
    25
100
AcDbLine
 10
6519.5511823141
 20
5504.6994545927
 30
0.0
 11
6519.5511823141
 21
5464.6994545927
 31
0.0
  0
LINE
  5
13E
330
1F
100
AcDbEntity
  8
0
  6
Continuous
 62
     8
370
    25
100
AcDbLine
 10
6496.0511823141
 20
5567.0994545927
 30
0.0
 11
6467.0511823141
 21
5567.0994545927
 31
0.0
  0
LWPOLYLINE
  5
13F
330
1F
100
AcDbEntity
  8
0
  6
Continuous
 62
     8
370
    25
100
AcDbPolyline
 90
       18
 70
   128
 43
0.0
 10
6359.4143031579
 20
5711.8925225497
 10
6359.2966793718
 20
5712.1687415303
 10
6358.8294059219
 20
5712.5065790191
 10
6358.0257535376
 20
5712.8752249065
 10
6356.9147683101
 20
5713.2613553697
 10
6355.5366041399
 20
5713.6510146476
 10
6353.9410714711
 20
5714.0301194388
 10
6352.1858370114
 20
5714.3849679082
 10
6350.3343395074
 20
5714.7027349077
 10
6348.4534969029
 20
5714.97193551
 10
6346.6112877501
 20
5715.182840104
 10
6344.8742942877
 20
5715.327826048
 10
6343.305295985
 20
5715.4016531723
 10
6341.9610005288
 20
5715.4016531723
 10
6340.8899942592
 20
5715.327826048
 10
6340.1309861335
 20
5715.182840104
 10
6339.7114086827
 20
5714.97193551
 10
6339.6305249972
 20
5714.8254599314
  0
LWPOLYLINE
  5
140
330
1F
100
AcDbEntity
  8
0
  6
Continuous
 62
     8
370
    25
100
AcDbPolyline
 90
       18
 70
   128
 43
0.0
 10
6361.7358233469
 20
5727.5520591975
 10
6361.6181995607
 20
5727.8282781781
 10
6361.1509261108
 20
5728.1661156669
 10
6360.3472737266
 20
5728.5347615543
 10
6359.236288499
 20
5728.9208920175
 10
6357.8581243289
 20
5729.3105512954
 10
6356.2625916601
 20
5729.6896560866
 10
6354.5073572004
 20
5730.044504556
 10
6352.6558596963
 20
5730.3622715556
 10
6350.7750170918
 20
5730.6314721579
 10
6348.9328079391
 20
5730.8423767518
 10
6347.1958144766
 20
5730.9873626958
 10
6345.626816174
 20
5731.0611898201
 10
6344.2825207177
 20
5731.0611898201
 10
6343.2115144482
 20
5730.9873626958
 10
6342.4525063224
 20
5730.8423767518
 10
6342.0329288717
 20
5730.6314721579
 10
6341.9520451861
 20
5730.4849965792
  0
LINE
  5
141
330
1F
100
AcDbEntity
  8
0
  6
Continuous
 62
     8
370
    25
100
AcDbLine
 10
6474.4801145022
 20
5709.9962662334
 30
0.0
 11
6491.551181576
 21
5709.9962662334
 31
0.0
  0
LINE
  5
142
330
1F
100
AcDbEntity
  8
0
  6
Continuous
 62
     8
370
    25
100
AcDbLine
 10
6471.5511835917
 20
5709.9962662334
 30
0.0
 11
6474.4801145022
 21
5709.9962662334
 31
0.0
  0
LWPOLYLINE
  5
143
330
1F
100
AcDbEntity
  8
0
  6
Continuous
 62
     8
370
    25
100
AcDbPolyline
 90
       13
 70
   128
 43
0.0
 10
6504.8508542728
 20
5493.8815556854
 10
6504.3458756311
 20
5492.6570504797
 10
6504.0960857414
 20
5491.2842322551
 10
6504.1204093945
 20
5489.8671096156
 10
6504.4170037614
 20
5488.5130477932
 10
6504.9633980113
 20
5487.3246343537
 10
6505.7181957655
 20
5486.3919068714
 10
6506.6242114044
 20
5485.7855314268
 10
6507.6128026125
 20
5485.5514487442
 10
6508.6090709148
 20
5485.7073935917
 10
6509.5375361978
 20
5486.2415511454
 10
6510.3278552974
 20
5487.1134521132
 10
6510.3401174245
 20
5487.1314139688
  0
LWPOLYLINE
  5
144
330
1F
100
AcDbEntity
  8
0
  6
Continuous
 62
     8
370
    25
100
AcDbPolyline
 90
       11
 70
   128
 43
0.0
 10
6506.8198915013
 20
5484.5551514563
 10
6506.6462604882
 20
5484.5706540689
 10
6505.6293108073
 20
5484.8662479884
 10
6504.690886057
 20
5485.4943141064
 10
6503.8844731376
 20
5486.4190548698
 10
6503.2560347408
 20
5487.5877633173
 10
6502.8413896382
 20
5488.9338271903
 10
6502.6641711378
 20
5490.3805255966
 10
6502.7344800691
 20
5491.8454018306
 10
6503.0483090709
 20
5493.2449631146
 10
6503.5877709974
 20
5494.4994393927
  0
ARC
  5
145
330
1F
100
AcDbEntity
  8
0
  6
Continuous
 62
     8
370
    25
100
AcDbCircle
 10
6499.9760774872
 20
5492.3685184376
 30
0.0
 40
4.679785115942425
100
AcDbArc
 50
119.4738902959
 51
152.9128078912
  0
ARC
  5
146
330
1F
100
AcDbEntity
  8
0
  6
Continuous
 62
     8
370
    25
100
AcDbCircle
 10
6387.8256966298
 20
5508.8165439708
 30
0.0
 40
124.9339399581847
100
AcDbArc
 50
351.9376532974
 51
1.4474426002
  0
LINE
  5
147
330
1F
100
AcDbEntity
  8
0
  6
Continuous
 62
     8
370
    25
100
AcDbLine
 10
6497.2967859131
 20
5495.9216807915
 30
0.0
 11
6495.8095964043
 21
5494.4994393927
 31
0.0
  0
ARC
  5
148
330
1F
100
AcDbEntity
  8
0
  6
Continuous
 62
     8
370
    25
100
AcDbCircle
 10
6475.9965301662
 20
5516.5792471476
 30
0.0
 40
29.66606654490797
100
AcDbArc
 50
311.9028575014
 51
315.9297728419
  0
ARC
  5
149
330
1F
100
AcDbEntity
  8
0
  6
Continuous
 62
     8
370
    25
100
AcDbCircle
 10
6512.7377664708
 20
5513.4899143279
 30
0.0
 40
1.517651699099455
100
AcDbArc
 50
269.3206489769
 51
280.4239026343
  0
ARC
  5
14A
330
1F
100
AcDbEntity
  8
0
  6
Continuous
 62
     8
370
    25
100
AcDbCircle
 10
6511.5181951075
 20
5512.3708770471
 30
0.0
 40
1.580459383476438
100
AcDbArc
 50
97.6955769159
 51
176.9611957059
  0
LWPOLYLINE
  5
14B
330
1F
100
AcDbEntity
  8
0
  6
Continuous
 62
     8
370
    25
100
AcDbPolyline
 90
        5
 70
   128
 43
0.0
 10
6505.6503921034
 20
5513.9097992322
 10
6505.3097848824
 20
5513.8786661433
 10
6504.8530743568
 20
5513.5901434746
 10
6504.4959550338
 20
5513.0948194222
 10
6504.2831038208
 20
5512.4546608005
  0
LWPOLYLINE
  5
14C
330
1F
100
AcDbEntity
  8
0
  6
Continuous
 62
     8
370
    25
100
AcDbPolyline
 90
        4
 70
   128
 43
0.0
 10
6503.9859112721
 20
5512.3826700784
 10
6504.0075034578
 20
5512.4124786164
 10
6504.0707775667
 20
5512.4364914677
 10
6504.2831038208
 20
5512.4546608005
  0
LINE
  5
14D
330
1F
100
AcDbEntity
  8
0
  6
Continuous
 62
     8
370
    25
100
AcDbLine
 10
6506.5511823141
 20
5544.2021584546
 30
0.0
 11
6456.5511823141
 21
5544.2021584546
 31
0.0
  0
LINE
  5
14E
330
1F
100
AcDbEntity
  8
0
  6
Continuous
 62
     8
370
    25
100
AcDbLine
 10
6504.7949210009
 20
5546.1872507579
 30
0.0
 11
6458.3074436272
 21
5546.1872507579
 31
0.0
  0
LINE
  5
14F
330
1F
100
AcDbEntity
  8
0
  6
Continuous
 62
     7
370
    25
100
AcDbLine
 10
7022.3638546103
 20
5567.5994545927
 30
0.0
 11
7022.3638546103
 21
5567.6994545927
 31
0.0
  0
LINE
  5
150
330
1F
100
AcDbEntity
  8
0
  6
Continuous
 62
     7
370
    25
100
AcDbLine
 10
7003.7638546103
 20
5567.6994545927
 30
0.0
 11
7003.7638546103
 21
5567.5994545927
 31
0.0
  0
LINE
  5
151
330
1F
100
AcDbEntity
  8
0
  6
Continuous
 62
     7
370
    25
100
AcDbLine
 10
7027.5638546103
 20
5547.1994545927
 30
0.0
 11
7027.5638546103
 21
5567.0994545927
 31
0.0
  0
LINE
  5
152
330
1F
100
AcDbEntity
  8
0
  6
Continuous
 62
     7
370
    25
100
AcDbLine
 10
6998.5638546103
 20
5567.0994545927
 30
0.0
 11
6998.5638546103
 21
5547.1994545927
 31
0.0
  0
ARC
  5
153
330
1F
100
AcDbEntity
  8
0
  6
Continuous
 62
     7
370
    25
100
AcDbCircle
 10
7027.0638546103
 20
5567.0994545927
 30
0.0
 40
0.5000000000009095
100
AcDbArc
 50
0.0
 51
90.0
  0
ARC
  5
154
330
1F
100
AcDbEntity
  8
0
  6
Continuous
 62
     7
370
    25
100
AcDbCircle
 10
6999.0638546103
 20
5567.0994545927
 30
0.0
 40
0.5
100
AcDbArc
 50
90.0
 51
180.0
  0
LINE
  5
155
330
1F
100
AcDbEntity
  8
0
  6
Continuous
 62
     7
370
    25
100
AcDbLine
 10
7157.3060321162
 20
5699.1659232835
 30
0.0
 11
7154.9845119272
 21
5714.8254599314
 31
0.0
  0
LINE
  5
156
330
1F
100
AcDbEntity
  8
0
  6
Continuous
 62
     7
370
    25
100
AcDbLine
 10
7135.2007337664
 20
5711.8925225497
 30
0.0
 11
7137.5222539554
 21
5696.2329859019
 31
0.0
  0
LINE
  5
157
330
1F
100
AcDbEntity
  8
0
  6
Continuous
 62
     7
370
    25
100
AcDbLine
 10
7154.9845119272
 20
5714.8254599314
 30
0.0
 11
7152.6629917383
 21
5730.4849965792
 31
0.0
  0
LINE
  5
158
330
1F
100
AcDbEntity
  8
0
  6
Continuous
 62
     7
370
    25
100
AcDbLine
 10
7132.8792135775
 20
5727.5520591975
 30
0.0
 11
7135.2007337664
 21
5711.8925225497
 31
0.0
  0
LWPOLYLINE
  5
159
330
1F
100
AcDbEntity
  8
0
  6
Continuous
 62
     7
370
    25
100
AcDbPolyline
 90
       50
 70
   128
 43
0.0
 10
7023.0638546103
 20
5709.9962662334
 10
7023.0924008011
 20
5712.625393574
 10
7023.3099802572
 20
5717.7090153919
 10
7023.7406856772
 20
5722.7625138139
 10
7024.3824132194
 20
5727.7652837024
 10
7025.2320551441
 20
5732.6975717338
 10
7026.2854995176
 20
5737.5399700927
 10
7027.537649839
 20
5742.2735213109
 10
7028.982452849
 20
5746.8798254919
 10
7030.6129364584
 20
5751.3411497488
 10
7032.4212603212
 20
5755.6405393903
 10
7034.3987821816
 20
5759.7619296769
 10
7036.5361437222
 20
5763.6902559362
 10
7038.8233522838
 20
5767.4115157375
 10
7041.2496752121
 20
5770.912556202
 10
7043.8042089084
 20
5774.1818340016
 10
7046.4759207341
 20
5777.2091544383
 10
7049.2538909201
 20
5779.9856855348
 10
7052.1275869533
 20
5782.5039104365
 10
7055.0871549861
 20
5784.7574958863
 10
7058.1236953824
 20
5786.7410541403
 10
7061.2294629901
 20
5788.4497828376
 10
7064.3978970436
 20
5789.8789895179
 10
7067.6233485848
 20
5791.0235555058
 10
7070.9003619863
 20
5791.8774766638
 10
7074.2224410728
 20
5792.4337248153
 10
7077.580470121
 20
5792.6847352972
 10
7080.9613700582
 20
5792.6236949608
 10
7084.3468752554
 20
5792.2465166659
 10
7087.7131709887
 20
5791.5542885092
 10
7091.0416526311
 20
5790.5521241173
 10
7094.3167135497
 20
5789.2476721731
 10
7097.5260182124
 20
5787.6495375443
 10
7100.6596551793
 20
5785.7662396063
 10
7103.7089751884
 20
5783.6058714734
 10
7106.6656561735
 20
5781.1762439443
 10
7109.5211568346
 20
5778.4852373603
 10
7112.2665045686
 20
5775.5411741843
 10
7114.8923038838
 20
5772.3531240036
 10
7117.3888651711
 20
5768.9311155383
 10
7119.7463853645
 20
5765.2862604855
 10
7121.9551396892
 20
5761.43080497
 10
7124.0056627556
 20
5757.3781260918
 10
7125.8888274236
 20
5753.142885311
 10
7127.5961269702
 20
5748.7407043604
 10
7129.1198232024
 20
5744.1878950659
 10
7130.4529119679
 20
5739.5016095704
 10
7131.5892006704
 20
5734.6997402871
 10
7132.5233696449
 20
5729.8008159968
 10
7132.8792135775
 20
5727.5520591975
  0
LWPOLYLINE
  5
15A
330
1F
100
AcDbEntity
  8
0
  6
Continuous
 62
     7
370
    25
100
AcDbPolyline
 90
       55
 70
   128
 43
0.0
 10
7152.6629917383
 20
5730.4849965792
 10
7152.1846817932
 20
5733.4815004501
 10
7151.1189427357
 20
5739.013227963
 10
7149.8288841541
 20
5744.4591840299
 10
7148.3177035013
 20
5749.8022730826
 10
7146.5890416712
 20
5755.0262247367
 10
7144.6471058414
 20
5760.1149620421
 10
7142.4966899628
 20
5765.0526152145
 10
7140.1432056615
 20
5769.8235358618
 10
7137.5928118547
 20
5774.4121681266
 10
7134.8524692746
 20
5778.8031573557
 10
7131.9298753662
 20
5782.9816223661
 10
7128.8336044113
 20
5786.9330825537
 10
7125.5731737428
 20
5790.6435658992
 10
7122.15909123
 20
5794.0997537565
 10
7118.6028672488
 20
5797.2891610423
 10
7114.9169738983
 20
5800.2003421446
 10
7111.1147384374
 20
5802.8231029709
 10
7107.2101674459
 20
5805.1486910057
 10
7103.2177117887
 20
5807.1699317098
 10
7099.1519965281
 20
5808.881283931
 10
7095.0275497894
 20
5810.2787995278
 10
7090.8585665991
 20
5811.3599900679
 10
7086.6587371915
 20
5812.1236209941
 10
7082.4411568467
 20
5812.5694660022
 10
7078.2183202751
 20
5812.6980590443
 10
7074.0021916076
 20
5812.510478836
 10
7069.8053114629
 20
5812.0083475428
 10
7065.6395735394
 20
5811.1938027819
 10
7061.516010246
 20
5810.0692392798
 10
7057.4456630682
 20
5808.6373734582
 10
7053.4397416603
 20
5806.9013823941
 10
7049.509728752
 20
5804.8650997706
 10
7045.6674130816
 20
5802.5332373348
 10
7041.9248430057
 20
5799.9115954265
 10
7038.2942064848
 20
5797.0072277244
 10
7034.7876559807
 20
5793.8285342544
 10
7031.4171058479
 20
5790.3852712308
 10
7028.19403233
 20
5786.6884825413
 10
7025.1293018171
 20
5782.7503710169
 10
7022.2330435523
 20
5778.5841347217
 10
7019.5145719424
 20
5774.2037935893
 10
7016.982354264
 20
5769.6240264767
 10
7014.6440137519
 20
5764.8600309654
 10
7012.5063560485
 20
5759.9274106921
 10
7010.5754673666
 20
5754.8422572748
 10
7008.8566321818
 20
5749.6208135159
 10
7007.3543923189
 20
5744.2793895528
 10
7006.0726453974
 20
5738.8344742415
 10
7005.0146702897
 20
5733.302708326
 10
7004.1831462138
 20
5727.7008595171
 10
7003.5801665451
 20
5722.0457975049
 10
7003.2072486189
 20
5716.3544678805
 10
7003.0670381707
 20
5710.9441030294
 10
7003.0638546103
 20
5709.9962662334
  0
LINE
  5
15B
330
1F
100
AcDbEntity
  8
0
  6
Continuous
 62
     7
370
    25
100
AcDbLine
 10
7003.0638546103
 20
5709.9962662334
 30
0.0
 11
7003.0638546103
 21
5567.6994545927
 31
0.0
  0
LINE
  5
15C
330
1F
100
AcDbEntity
  8
0
  6
Continuous
 62
     7
370
    25
100
AcDbLine
 10
7023.0638546103
 20
5567.6994545927
 30
0.0
 11
7023.0638546103
 21
5709.9962662334
 31
0.0
  0
LINE
  5
15D
330
1F
100
AcDbEntity
  8
0
  6
Continuous
 62
     7
370
    25
100
AcDbLine
 10
7139.9359915343
 20
5696.9991635961
 30
0.0
 11
7139.9952262255
 21
5696.5996030746
 31
0.0
  0
LINE
  5
15E
330
1F
100
AcDbEntity
  8
0
  6
Continuous
 62
     7
370
    25
100
AcDbLine
 10
7154.8330598461
 20
5698.7993061108
 30
0.0
 11
7154.7738251549
 21
5699.1988666324
 31
0.0
  0
LINE
  5
15F
330
1F
100
AcDbEntity
  8
0
  6
Continuous
 62
     7
370
    25
100
AcDbLine
 10
6988.0638546103
 20
5466.1994545927
 30
0.0
 11
6988.0638546103
 21
5464.6994545927
 31
0.0
  0
LINE
  5
160
330
1F
100
AcDbEntity
  8
0
  6
Continuous
 62
     7
370
    25
100
AcDbLine
 10
7038.0638546103
 20
5464.6994545927
 30
0.0
 11
7038.0638546103
 21
5466.1994545927
 31
0.0
  0
LINE
  5
161
330
1F
100
AcDbEntity
  8
0
  6
Continuous
 62
     7
370
    25
100
AcDbLine
 10
7038.0638546103
 20
5484.5494545927
 30
0.0
 11
7038.5196987331
 21
5484.5494545927
 31
0.0
  0
LWPOLYLINE
  5
162
330
1F
100
AcDbEntity
  8
0
  6
Continuous
 62
     7
370
    25
100
AcDbPolyline
 90
       11
 70
   128
 43
0.0
 10
7038.5311151431
 20
5484.5829506415
 10
7039.2848677983
 20
5484.6319483347
 10
7040.2879342993
 20
5485.0051568556
 10
7041.189298352
 20
5485.6528309265
 10
7041.9622362801
 20
5486.55388932
 10
7042.5696582115
 20
5487.6751735936
 10
7042.9747580316
 20
5488.9602028078
 10
7043.153397275
 20
5490.3378192536
 10
7043.0958748434
 20
5491.7366608528
 10
7042.8024383564
 20
5493.087678457
 10
7042.2570908835
 20
5494.3672779357
  0
ARC
  5
163
330
1F
100
AcDbEntity
  8
0
  6
Continuous
 62
     7
370
    25
100
AcDbCircle
 10
7087.3942822281
 20
5519.6542348933
 30
0.0
 40
51.73776410572341
100
AcDbArc
 50
197.5469126836
 51
209.2586141228
  0
LINE
  5
164
330
1F
100
AcDbEntity
  8
0
  6
Continuous
 62
     7
370
    25
100
AcDbLine
 10
7036.5216021954
 20
5490.6998263983
 30
0.0
 11
7036.4871778498
 21
5492.1817736219
 31
0.0
  0
LINE
  5
165
330
1F
100
AcDbEntity
  8
0
  6
Continuous
 62
     7
370
    25
100
AcDbLine
 10
7036.5216078223
 20
5490.6995841633
 30
0.0
 11
7036.5216021954
 21
5490.6998263983
 31
0.0
  0
LINE
  5
166
330
1F
100
AcDbEntity
  8
0
  6
Continuous
 62
     7
370
    25
100
AcDbLine
 10
7036.5259869322
 20
5490.5110661356
 30
0.0
 11
7036.5216078223
 21
5490.6995841633
 31
0.0
  0
LINE
  5
167
330
1F
100
AcDbEntity
  8
0
  6
Continuous
 62
     7
370
    25
100
AcDbLine
 10
7030.4895440037
 20
5501.6136987283
 30
0.0
 11
7029.4633038793
 21
5501.6390355525
 31
0.0
  0
ARC
  5
168
330
1F
100
AcDbEntity
  8
0
  6
Continuous
 62
     7
370
    25
100
AcDbCircle
 10
7036.0638546103
 20
5544.2021584546
 30
0.0
 40
2.000000000000107
100
AcDbArc
 50
0.0
 51
83.0
  0
ARC
  5
169
330
1F
100
AcDbEntity
  8
0
  6
Continuous
 62
     7
370
    25
100
AcDbCircle
 10
6990.0638546103
 20
5544.2021584546
 30
0.0
 40
2.0
100
AcDbArc
 50
97.0
 51
180.0
  0
LINE
  5
16A
330
1F
100
AcDbEntity
  8
0
  6
Continuous
 62
     7
370
    25
100
AcDbLine
 10
7038.0638546103
 20
5466.1994545927
 30
0.0
 11
7038.0638546103
 21
5544.2021584546
 31
0.0
  0
LINE
  5
16B
330
1F
100
AcDbEntity
  8
0
  6
Continuous
 62
     7
370
    25
100
AcDbLine
 10
6988.0638546103
 20
5544.2021584546
 30
0.0
 11
6988.0638546103
 21
5466.1994545927
 31
0.0
  0
LINE
  5
16C
330
1F
100
AcDbEntity
  8
0
  6
Continuous
 62
     7
370
    25
100
AcDbLine
 10
7036.3075932971
 20
5546.1872507579
 30
0.0
 11
7028.0638546103
 21
5547.1994545927
 31
0.0
  0
LINE
  5
16D
330
1F
100
AcDbEntity
  8
0
  6
Continuous
 62
     7
370
    25
100
AcDbLine
 10
6998.0638546103
 20
5547.1994545927
 30
0.0
 11
6989.8201159235
 21
5546.1872507579
 31
0.0
  0
LINE
  5
16E
330
1F
100
AcDbEntity
  8
0
  6
Continuous
 62
     7
370
    25
100
AcDbLine
 10
6720.0638546103
 20
5424.6994545927
 30
0.0
 11
6722.0638546103
 21
5424.6994545927
 31
0.0
  0
LINE
  5
16F
330
1F
100
AcDbEntity
  8
0
  6
Continuous
 62
     7
370
    25
100
AcDbLine
 10
6923.0638546103
 20
4634.6994545927
 30
0.0
 11
6923.0638546103
 21
4614.6994545927
 31
0.0
  0
LINE
  5
170
330
1F
100
AcDbEntity
  8
0
  6
Continuous
 62
     7
370
    25
100
AcDbLine
 10
6953.0638546103
 20
4614.6994545927
 30
0.0
 11
6953.0638546103
 21
4634.6994545927
 31
0.0
  0
LINE
  5
171
330
1F
100
AcDbEntity
  8
0
  6
Continuous
 62
     7
370
    25
100
AcDbLine
 10
7375.0638546103
 20
4634.6994545927
 30
0.0
 11
7375.0638546103
 21
4614.6994545927
 31
0.0
  0
LINE
  5
172
330
1F
100
AcDbEntity
  8
0
  6
Continuous
 62
     7
370
    25
100
AcDbLine
 10
7405.0638546103
 20
4614.6994545927
 30
0.0
 11
7405.0638546103
 21
4634.6994545927
 31
0.0
  0
LINE
  5
173
330
1F
100
AcDbEntity
  8
0
  6
Continuous
 62
     7
370
    25
100
AcDbLine
 10
7005.9968117219
 20
5550.1994545927
 30
0.0
 11
7000.4026183037
 21
5550.1994545927
 31
0.0
  0
LINE
  5
174
330
1F
100
AcDbEntity
  8
0
  6
Continuous
 62
     7
370
    25
100
AcDbLine
 10
7005.9968117219
 20
5565.7994545927
 30
0.0
 11
7005.9968117219
 21
5550.1994545927
 31
0.0
  0
LINE
  5
175
330
1F
100
AcDbEntity
  8
0
  6
Continuous
 62
     7
370
    25
100
AcDbLine
 10
7000.4026183037
 20
5565.7994545927
 30
0.0
 11
7005.9968117219
 21
5565.7994545927
 31
0.0
  0
LINE
  5
176
330
1F
100
AcDbEntity
  8
0
  6
Continuous
 62
     7
370
    25
100
AcDbLine
 10
7000.4026183037
 20
5550.1994545927
 30
0.0
 11
7000.4026183037
 21
5565.7994545927
 31
0.0
  0
LINE
  5
177
330
1F
100
AcDbEntity
  8
0
  6
Continuous
 62
     7
370
    25
100
AcDbLine
 10
7027.0638546103
 20
5567.5994545927
 30
0.0
 11
6999.0638546103
 21
5567.5994545927
 31
0.0
  0
LWPOLYLINE
  5
178
330
1F
100
AcDbEntity
  8
0
  6
Continuous
 62
     7
370
    25
100
AcDbPolyline
 90
       34
 70
   128
 43
0.0
 10
7140.4935401896
 20
5695.6475012574
 10
7141.9568128811
 20
5695.6845827273
 10
7143.6173277033
 20
5695.7944869162
 10
7145.4150693242
 20
5695.9732416002
 10
7147.2850626775
 20
5696.2143861193
 10
7149.1597213313
 20
5696.5092048824
 10
7150.9712902374
 20
5696.8470423712
 10
7152.6542945757
 20
5697.2156882587
 10
7154.1479061841
 20
5697.6018187218
 10
7155.3981420478
 20
5697.9914779998
 10
7156.359815385
 20
5698.3705827909
 10
7156.9981688158
 20
5698.7254312604
 10
7157.290130584
 20
5699.0431982599
 10
7157.2251484306
 20
5699.3123988622
 10
7156.8055709799
 20
5699.5233034561
 10
7156.0465628541
 20
5699.6682894002
 10
7154.9755565846
 20
5699.7421165245
 10
7153.6312611283
 20
5699.7421165245
 10
7152.0622628257
 20
5699.6682894002
 10
7150.3252693632
 20
5699.5233034561
 10
7148.4830602104
 20
5699.3123988622
 10
7146.6022176059
 20
5699.0431982599
 10
7144.7507201019
 20
5698.7254312604
 10
7142.9954856422
 20
5698.3705827909
 10
7141.3999529734
 20
5697.9914779998
 10
7140.0217888033
 20
5697.6018187218
 10
7138.9108035757
 20
5697.2156882587
 10
7138.1071511915
 20
5696.8470423712
 10
7137.6398777416
 20
5696.5092048824
 10
7137.525871706
 20
5696.2143861193
 10
7137.76925356
 20
5695.9732416002
 10
7138.3612268491
 20
5695.7944869162
 10
7139.2803961164
 20
5695.6845827273
 10
7140.4935401896
 20
5695.6475012574
  0
LWPOLYLINE
  5
179
330
1F
100
AcDbEntity
  8
0
  6
Continuous
 62
     7
370
    25
100
AcDbPolyline
 90
       30
 70
   128
 43
0.0
 10
7152.9506253127
 20
5699.341017261
 10
7154.037241882
 20
5699.302638438
 10
7154.8141697103
 20
5699.1892965203
 10
7155.2450805158
 20
5699.0062912498
 10
7155.3098253882
 20
5698.7621797498
 10
7155.0053769292
 20
5698.4683764025
 10
7154.3459708104
 20
5698.138619126
 10
7153.3624401291
 20
5697.788327004
 10
7152.1007736867
 20
5697.4338793068
 10
7150.6199656039
 20
5697.0918496148
 10
7148.9892568208
 20
5696.7782308563
 10
7147.2848974678
 20
5696.5076874959
 10
7145.5865814939
 20
5696.2928698403
 10
7143.9737202664
 20
5696.1438225244
 10
7142.521729384
 20
5696.0675148352
 10
7141.2985023263
 20
5696.0675148352
 10
7140.3612358312
 20
5696.1438225244
 10
7139.7537554382
 20
5696.2928698403
 10
7139.5044662554
 20
5696.5076874959
 10
7139.6250247679
 20
5696.7782308563
 10
7140.1097937935
 20
5697.0918496148
 10
7140.9361060716
 20
5697.4338793068
 10
7142.0653241583
 20
5697.788327004
 10
7143.4446470708
 20
5698.138619126
 10
7145.009579203
 20
5698.4683764025
 10
7146.6869460675
 20
5698.7621797498
 10
7148.398315854
 20
5699.0062912498
 10
7150.0636668133
 20
5699.1892965203
 10
7151.6051289856
 20
5699.302638438
 10
7152.9506253127
 20
5699.341017261
  0
LINE
  5
17A
330
1F
100
AcDbEntity
  8
0
  6
Continuous
 62
     7
370
    25
100
AcDbLine
 10
7020.1349224222
 20
5567.6994545927
 30
0.0
 11
7023.0638546103
 21
5567.6994545927
 31
0.0
  0
LINE
  5
17B
330
1F
100
AcDbEntity
  8
0
  6
Continuous
 62
     7
370
    25
100
AcDbLine
 10
7003.0638546103
 20
5567.6994545927
 30
0.0
 11
7020.1349224222
 21
5567.6994545927
 31
0.0
  0
LWPOLYLINE
  5
17C
330
1F
100
AcDbEntity
  8
0
  6
Continuous
 62
     7
370
    25
100
AcDbPolyline
 90
       30
 70
   128
 43
0.0
 10
7152.6045951704
 20
5699.2384195942
 10
7153.6232982041
 20
5699.2024394477
 10
7154.3516680431
 20
5699.0961813998
 10
7154.7556469233
 20
5698.9246139588
 10
7154.8163452411
 20
5698.6957594274
 10
7154.5309248109
 20
5698.4203187894
 10
7153.9127315745
 20
5698.1111713426
 10
7152.9906715607
 20
5697.7827724783
 10
7151.807859271
 20
5697.4504777622
 10
7150.4196016934
 20
5697.1298249259
 10
7148.8908122093
 20
5696.8358073398
 10
7147.2929753158
 20
5696.5821729394
 10
7145.7008040902
 20
5696.3807813873
 10
7144.1887466895
 20
5696.2410495287
 10
7142.8275052372
 20
5696.16951107
 10
7141.6807298707
 20
5696.16951107
 10
7140.8020425315
 20
5696.2410495287
 10
7140.2325296631
 20
5696.3807813873
 10
7139.9988210542
 20
5696.5821729394
 10
7140.1118446596
 20
5696.8358073398
 10
7140.5663156212
 20
5697.1298249259
 10
7141.3409833818
 20
5697.4504777622
 10
7142.3996253381
 20
5697.7827724783
 10
7143.6927405687
 20
5698.1111713426
 10
7145.1598644425
 20
5698.4203187894
 10
7146.732395878
 20
5698.6957594274
 10
7148.3368050528
 20
5698.9246139588
 10
7149.8980715772
 20
5699.0961813998
 10
7151.3431923637
 20
5699.2024394477
 10
7152.6045951704
 20
5699.2384195942
  0
LINE
  5
17D
330
1F
100
AcDbEntity
  8
0
  6
Continuous
 62
     7
370
    25
100
AcDbLine
 10
7038.0638546103
 20
5466.1994545927
 30
0.0
 11
6988.0638546103
 21
5466.1994545927
 31
0.0
  0
LINE
  5
17E
330
1F
100
AcDbEntity
  8
0
  6
Continuous
 62
     7
370
    25
100
AcDbLine
 10
7030.9917110347
 20
5501.344318982
 30
0.0
 11
7030.7635071804
 21
5501.3692515032
 31
0.0
  0
LWPOLYLINE
  5
17F
330
1F
100
AcDbEntity
  8
0
  6
Continuous
 62
     7
370
    25
100
AcDbPolyline
 90
       11
 70
   128
 43
0.0
 10
7038.5196987331
 20
5484.5494545927
 10
7038.8804646816
 20
5484.5706540689
 10
7039.8974143626
 20
5484.8662479884
 10
7040.8358391128
 20
5485.4943141064
 10
7041.6422520322
 20
5486.4190548698
 10
7042.270690429
 20
5487.5877633173
 10
7042.6853355317
 20
5488.9338271903
 10
7042.862554032
 20
5490.3805255966
 10
7042.7922451007
 20
5491.8454018306
 10
7042.4784160989
 20
5493.2449631146
 10
7041.9389541725
 20
5494.4994393927
  0
ARC
  5
180
330
1F
100
AcDbEntity
  8
0
  6
Continuous
 62
     7
370
    25
100
AcDbCircle
 10
7030.2107058885
 20
5484.6530334595
 30
0.0
 40
4.941018795494199
100
AcDbArc
 50
237.3579065079
 51
337.7696393453
  0
ARC
  5
181
330
1F
100
AcDbEntity
  8
0
  6
Continuous
 62
     7
370
    25
100
AcDbCircle
 10
7030.323134877
 20
5496.5507402071
 30
0.0
 40
5.060740357133213
100
AcDbArc
 50
13.453816728
 51
101.6739853377
  0
LINE
  5
182
330
1F
100
AcDbEntity
  8
0
  6
Continuous
 62
     7
370
    25
100
AcDbLine
 10
7036.5266868959
 20
5490.6999815163
 30
0.0
 11
7036.5003132031
 21
5490.6999815207
 31
0.0
  0
LWPOLYLINE
  5
183
330
1F
100
AcDbEntity
  8
0
  6
Continuous
 62
     7
370
    25
100
AcDbPolyline
 90
       24
 70
   128
 43
0.0
 10
7036.5003132031
 20
5490.6999815207
 10
7036.3106734875
 20
5493.9027448944
 10
7035.7203139572
 20
5496.7374228946
 10
7034.578223686
 20
5499.1180118478
 10
7032.7035982633
 20
5500.7028258485
 10
7030.3232408884
 20
5501.0986925707
 10
7027.8021933954
 20
5500.4080674542
 10
7025.3048573752
 20
5498.7615341577
 10
7023.0738903062
 20
5496.129957798
 10
7022.2518648256
 20
5494.5308972814
 10
7021.692319709
 20
5492.7365286789
 10
7021.5695098406
 20
5489.3593361549
 10
7022.45408955
 20
5486.4100907027
 10
7024.184201217
 20
5483.7643220748
 10
7026.6893680574
 20
5481.599081145
 10
7028.0720409769
 20
5480.8712789558
 10
7029.5026877191
 20
5480.4173651627
 10
7031.9542275605
 20
5480.4317769069
 10
7033.8553203291
 20
5481.4637977076
 10
7035.2593440993
 20
5483.458289996
 10
7036.1458900413
 20
5486.4141948527
 10
7036.3755137012
 20
5488.0776526106
 10
7036.4890310556
 20
5489.8987242891
 10
7036.5003131998
 20
5490.6995506366
  0
LWPOLYLINE
  5
184
330
1F
100
AcDbEntity
  8
0
  6
Continuous
 62
     7
370
    25
100
AcDbPolyline
 90
        4
 70
   128
 43
0.0
 10
7036.5003131998
 20
5490.6995506366
 10
7036.517786561
 20
5490.6995474437
 10
7036.5260788048
 20
5490.6995443104
 10
7036.526688547
 20
5490.699543559
  0
LINE
  5
185
330
1F
100
AcDbEntity
  8
0
  6
Continuous
 62
     7
370
    25
100
AcDbLine
 10
7036.5003131998
 20
5490.6995506366
 30
0.0
 11
7036.5003132031
 21
5490.6999815207
 31
0.0
  0
LWPOLYLINE
  5
186
330
1F
100
AcDbEntity
  8
0
  6
Continuous
 62
     7
370
    25
100
AcDbPolyline
 90
       27
 70
   128
 43
0.0
 10
7030.74152414
 20
5479.6494545927
 10
7033.0234581435
 20
5480.2080957117
 10
7034.7515473479
 20
5481.7942971481
 10
7035.9449516207
 20
5484.3691692549
 10
7036.342535835
 20
5486.0313645104
 10
7036.5976214879
 20
5487.8485971535
 10
7036.7170382499
 20
5489.6679110204
 10
7036.7235095124
 20
5491.5218539251
 10
7036.4415952267
 20
5494.7866373887
 10
7035.7227072058
 20
5497.6956927726
 10
7034.3476189204
 20
5500.1195166539
 10
7033.3757942911
 20
5500.9759211213
 10
7032.2303928517
 20
5501.5276633369
 10
7029.717924872
 20
5501.6593945275
 10
7027.1368391868
 20
5500.7189205481
 10
7024.6081524319
 20
5498.7986477681
 10
7022.4254825665
 20
5495.8583917011
 10
7021.6659310196
 20
5494.0884950121
 10
7021.2154637213
 20
5492.2011525807
 10
7021.3088615734
 20
5488.6512552458
 10
7022.4318929172
 20
5485.528480909
 10
7024.458893018
 20
5482.7517943574
 10
7025.7986856817
 20
5481.5586087199
 10
7027.2329978184
 20
5480.6275139169
 10
7028.684850785
 20
5480.0000128927
 10
7030.1138326324
 20
5479.6839513786
 10
7030.74152414
 20
5479.6494545927
  0
LINE
  5
187
330
1F
100
AcDbEntity
  8
0
  6
Continuous
 62
     7
370
    25
100
AcDbLine
 10
7028.0638546103
 20
5547.1994545927
 30
0.0
 11
6998.0638546103
 21
5547.1994545927
 31
0.0
  0
LINE
  5
188
330
1F
100
AcDbEntity
  8
0
  6
Continuous
 62
     7
370
    25
100
AcDbLine
 10
7030.6416065984
 20
5501.4656790441
 30
0.0
 11
7030.9917110347
 21
5501.344318982
 31
0.0
  0
LWPOLYLINE
  5
189
330
1F
100
AcDbEntity
  8
0
  6
Continuous
 62
     7
370
    25
100
AcDbPolyline
 90
        3
 70
   128
 43
0.0
 10
7031.0830927727
 20
5479.9883004641
 10
7030.628972739
 20
5479.7990356822
 10
7029.5125558884
 20
5479.7944151885
  0
LINE
  5
18A
330
1F
100
AcDbEntity
  8
0
  6
Continuous
 62
     7
370
    25
100
AcDbLine
 10
6921.0638546103
 20
4639.6994545927
 30
0.0
 11
6921.0638546103
 21
4634.6994545927
 31
0.0
  0
LINE
  5
18B
330
1F
100
AcDbEntity
  8
0
  6
Continuous
 62
     7
370
    25
100
AcDbLine
 10
6955.0638546103
 20
4639.6994545927
 30
0.0
 11
6921.0638546103
 21
4639.6994545927
 31
0.0
  0
LINE
  5
18C
330
1F
100
AcDbEntity
  8
0
  6
Continuous
 62
     7
370
    25
100
AcDbLine
 10
6955.0638546103
 20
4639.6994545927
 30
0.0
 11
6955.0638546103
 21
4634.6994545927
 31
0.0
  0
LINE
  5
18D
330
1F
100
AcDbEntity
  8
0
  6
Continuous
 62
     7
370
    25
100
AcDbLine
 10
6955.0638546103
 20
4634.6994545927
 30
0.0
 11
6921.0638546103
 21
4634.6994545927
 31
0.0
  0
LINE
  5
18E
330
1F
100
AcDbEntity
  8
0
  6
Continuous
 62
     7
370
    25
100
AcDbLine
 10
6917.5638546103
 20
4639.6994545927
 30
0.0
 11
6917.5638546103
 21
4634.6994545927
 31
0.0
  0
LINE
  5
18F
330
1F
100
AcDbEntity
  8
0
  6
Continuous
 62
     7
370
    25
100
AcDbLine
 10
6921.0638546103
 20
4634.6994545927
 30
0.0
 11
6917.5638546103
 21
4634.6994545927
 31
0.0
  0
LINE
  5
190
330
1F
100
AcDbEntity
  8
0
  6
Continuous
 62
     7
370
    25
100
AcDbLine
 10
6921.0638546103
 20
4639.6994545927
 30
0.0
 11
6917.5638546103
 21
4639.6994545927
 31
0.0
  0
LINE
  5
191
330
1F
100
AcDbEntity
  8
0
  6
Continuous
 62
     7
370
    25
100
AcDbLine
 10
6958.5638546103
 20
4639.6994545927
 30
0.0
 11
6958.5638546103
 21
4634.6994545927
 31
0.0
  0
LINE
  5
192
330
1F
100
AcDbEntity
  8
0
  6
Continuous
 62
     7
370
    25
100
AcDbLine
 10
6958.5638546103
 20
4634.6994545927
 30
0.0
 11
6955.0638546103
 21
4634.6994545927
 31
0.0
  0
LINE
  5
193
330
1F
100
AcDbEntity
  8
0
  6
Continuous
 62
     7
370
    25
100
AcDbLine
 10
6958.5638546103
 20
4639.6994545927
 30
0.0
 11
6955.0638546103
 21
4639.6994545927
 31
0.0
  0
LINE
  5
194
330
1F
100
AcDbEntity
  8
0
  6
Continuous
 62
     7
370
    25
100
AcDbLine
 10
7373.0638546103
 20
4639.6994545927
 30
0.0
 11
7373.0638546103
 21
4634.6994545927
 31
0.0
  0
LINE
  5
195
330
1F
100
AcDbEntity
  8
0
  6
Continuous
 62
     7
370
    25
100
AcDbLine
 10
7407.0638546103
 20
4639.6994545927
 30
0.0
 11
7373.0638546103
 21
4639.6994545927
 31
0.0
  0
LINE
  5
196
330
1F
100
AcDbEntity
  8
0
  6
Continuous
 62
     7
370
    25
100
AcDbLine
 10
7407.0638546103
 20
4639.6994545927
 30
0.0
 11
7407.0638546103
 21
4634.6994545927
 31
0.0
  0
LINE
  5
197
330
1F
100
AcDbEntity
  8
0
  6
Continuous
 62
     7
370
    25
100
AcDbLine
 10
7407.0638546103
 20
4634.6994545927
 30
0.0
 11
7373.0638546103
 21
4634.6994545927
 31
0.0
  0
LINE
  5
198
330
1F
100
AcDbEntity
  8
0
  6
Continuous
 62
     7
370
    25
100
AcDbLine
 10
7369.5638546103
 20
4639.6994545927
 30
0.0
 11
7369.5638546103
 21
4634.6994545927
 31
0.0
  0
LINE
  5
199
330
1F
100
AcDbEntity
  8
0
  6
Continuous
 62
     7
370
    25
100
AcDbLine
 10
7373.0638546103
 20
4634.6994545927
 30
0.0
 11
7369.5638546103
 21
4634.6994545927
 31
0.0
  0
LINE
  5
19A
330
1F
100
AcDbEntity
  8
0
  6
Continuous
 62
     7
370
    25
100
AcDbLine
 10
7373.0638546103
 20
4639.6994545927
 30
0.0
 11
7369.5638546103
 21
4639.6994545927
 31
0.0
  0
LINE
  5
19B
330
1F
100
AcDbEntity
  8
0
  6
Continuous
 62
     7
370
    25
100
AcDbLine
 10
7410.5638546103
 20
4639.6994545927
 30
0.0
 11
7410.5638546103
 21
4634.6994545927
 31
0.0
  0
LINE
  5
19C
330
1F
100
AcDbEntity
  8
0
  6
Continuous
 62
     7
370
    25
100
AcDbLine
 10
7410.5638546103
 20
4634.6994545927
 30
0.0
 11
7407.0638546103
 21
4634.6994545927
 31
0.0
  0
LINE
  5
19D
330
1F
100
AcDbEntity
  8
0
  6
Continuous
 62
     7
370
    25
100
AcDbLine
 10
7410.5638546103
 20
4639.6994545927
 30
0.0
 11
7407.0638546103
 21
4639.6994545927
 31
0.0
  0
LINE
  5
19E
330
1F
100
AcDbEntity
  8
0
  6
Continuous
 62
     7
370
    25
100
AcDbLine
 10
6720.0638546103
 20
5464.6994545927
 30
0.0
 11
6720.0638546103
 21
5462.6994545927
 31
0.0
  0
LINE
  5
19F
330
1F
100
AcDbEntity
  8
0
  6
Continuous
 62
     7
370
    25
100
AcDbLine
 10
6718.0638546103
 20
5462.6994545926
 30
0.0
 11
6720.0638546103
 21
5462.6994545927
 31
0.0
  0
ARC
  5
1A0
330
1F
100
AcDbEntity
  8
0
  6
Continuous
 62
     7
370
    25
100
AcDbCircle
 10
6720.0638546103
 20
5462.6994545927
 30
0.0
 40
1.999999999999091
100
AcDbArc
 50
90.0
 51
180.0000000039
  0
LINE
  5
1A1
330
1F
100
AcDbEntity
  8
0
  6
Continuous
 62
     7
370
    25
100
AcDbLine
 10
6720.0638546103
 20
5462.6994545927
 30
0.0
 11
6720.0638546103
 21
5426.6994545927
 31
0.0
  0
LINE
  5
1A2
330
1F
100
AcDbEntity
  8
0
  6
Continuous
 62
     7
370
    25
100
AcDbLine
 10
6718.0638546103
 20
5426.6994545927
 30
0.0
 11
6720.0638546103
 21
5426.6994545927
 31
0.0
  0
LINE
  5
1A3
330
1F
100
AcDbEntity
  8
0
  6
Continuous
 62
     7
370
    25
100
AcDbLine
 10
6718.0638546103
 20
5426.6994545927
 30
0.0
 11
6718.0638546103
 21
5462.6994545927
 31
0.0
  0
LINE
  5
1A4
330
1F
100
AcDbEntity
  8
0
  6
Continuous
 62
     7
370
    25
100
AcDbLine
 10
6720.0638546103
 20
5426.6994545927
 30
0.0
 11
6720.0638546103
 21
5424.6994545927
 31
0.0
  0
ARC
  5
1A5
330
1F
100
AcDbEntity
  8
0
  6
Continuous
 62
     7
370
    25
100
AcDbCircle
 10
6720.0638546103
 20
5426.6994545927
 30
0.0
 40
2.0
100
AcDbArc
 50
180.0
 51
270.0
  0
LINE
  5
1A6
330
1F
100
AcDbEntity
  8
0
  6
Continuous
 62
     7
370
    25
100
AcDbLine
 10
6720.0638546103
 20
5464.6994545927
 30
0.0
 11
7051.0638546103
 21
5464.6994545927
 31
0.0
  0
LINE
  5
1A7
330
1F
100
AcDbEntity
  8
0
  6
Continuous
 62
     7
370
    25
100
AcDbLine
 10
7051.0638546103
 20
5464.6994545927
 30
0.0
 11
7051.0638546103
 21
5462.6994545927
 31
0.0
  0
LINE
  5
1A8
330
1F
100
AcDbEntity
  8
0
  6
Continuous
 62
     7
370
    25
100
AcDbLine
 10
7051.0638546103
 20
5462.6994545927
 30
0.0
 11
6720.0638546103
 21
5462.6994545927
 31
0.0
  0
LINE
  5
1A9
330
1F
100
AcDbEntity
  8
0
  6
Continuous
 62
     7
370
    25
100
AcDbLine
 10
7051.0638546103
 20
5426.6994545927
 30
0.0
 11
7051.0638546103
 21
5462.6994545927
 31
0.0
  0
LINE
  5
1AA
330
1F
100
AcDbEntity
  8
0
  6
Continuous
 62
     7
370
    25
100
AcDbLine
 10
6720.0638546103
 20
5426.6994545927
 30
0.0
 11
7051.0638546103
 21
5426.6994545927
 31
0.0
  0
LINE
  5
1AB
330
1F
100
AcDbEntity
  8
0
  6
Continuous
 62
     7
370
    25
100
AcDbLine
 10
7051.0638546103
 20
5426.6994545927
 30
0.0
 11
7051.0638546103
 21
5424.6994545927
 31
0.0
  0
LINE
  5
1AC
330
1F
100
AcDbEntity
  8
0
  6
Continuous
 62
     7
370
    25
100
AcDbLine
 10
7051.0638546103
 20
5424.6994545927
 30
0.0
 11
7046.0638546103
 21
5424.6994545927
 31
0.0
  0
LINE
  5
1AD
330
1F
100
AcDbEntity
  8
0
  6
Continuous
 62
     7
370
    25
100
AcDbLine
 10
7046.0638546103
 20
5424.6994545927
 30
0.0
 11
6957.8922817351
 21
5424.6994545927
 31
0.0
  0
LINE
  5
1AE
330
1F
100
AcDbEntity
  8
0
  6
Continuous
 62
     7
370
    25
100
AcDbLine
 10
6918.2354274856
 20
5424.6994545927
 30
0.0
 11
6722.0638546103
 21
5424.6994545927
 31
0.0
  0
ARC
  5
1AF
330
1F
100
AcDbEntity
  8
0
  6
Continuous
 62
     7
370
    25
100
AcDbCircle
 10
6905.7972448908
 20
4767.0570284712
 30
0.0
 40
12.4433213146512
100
AcDbArc
 50
350.3324305136
 51
358.353309837
  0
LINE
  5
1B0
330
1F
100
AcDbEntity
  8
0
  6
Continuous
 62
     7
370
    25
100
AcDbLine
 10
6918.2354274856
 20
4766.6994545927
 30
0.0
 11
6918.2354274856
 21
5424.6994545927
 31
0.0
  0
LINE
  5
1B1
330
1F
100
AcDbEntity
  8
0
  6
Continuous
 62
     7
370
    25
100
AcDbLine
 10
6918.2354274856
 20
5424.6994545927
 30
0.0
 11
6921.0638546103
 21
5424.6994545927
 31
0.0
  0
LINE
  5
1B2
330
1F
100
AcDbEntity
  8
0
  6
Continuous
 62
     7
370
    25
100
AcDbLine
 10
6921.0638546103
 20
5424.6994545927
 30
0.0
 11
6921.0638546103
 21
4639.6994545927
 31
0.0
  0
LINE
  5
1B3
330
1F
100
AcDbEntity
  8
0
  6
Continuous
 62
     7
370
    25
100
AcDbLine
 10
6918.0638546103
 20
4764.9674037852
 30
0.0
 11
6918.0638546103
 21
4639.6994545927
 31
0.0
  0
LINE
  5
1B4
330
1F
100
AcDbEntity
  8
0
  6
Continuous
 62
     7
370
    25
100
AcDbLine
 10
6955.0638546103
 20
5424.6994545927
 30
0.0
 11
6955.0638546103
 21
4639.6994545927
 31
0.0
  0
LINE
  5
1B5
330
1F
100
AcDbEntity
  8
0
  6
Continuous
 62
     7
370
    25
100
AcDbLine
 10
6921.0638546103
 20
5424.6994545927
 30
0.0
 11
6955.0638546103
 21
5424.6994545927
 31
0.0
  0
LINE
  5
1B6
330
1F
100
AcDbEntity
  8
0
  6
Continuous
 62
     7
370
    25
100
AcDbLine
 10
6957.8922817351
 20
5424.6994545927
 30
0.0
 11
6957.8922817351
 21
5324.6994545927
 31
0.0
  0
LINE
  5
1B7
330
1F
100
AcDbEntity
  8
0
  6
Continuous
 62
     7
370
    25
100
AcDbLine
 10
6958.0638546103
 20
5324.6994545927
 30
0.0
 11
6958.0638546103
 21
5114.6994545927
 31
0.0
  0
LINE
  5
1B8
330
1F
100
AcDbEntity
  8
0
  6
Continuous
 62
     7
370
    25
100
AcDbLine
 10
6957.8922817351
 20
5114.6994545927
 30
0.0
 11
6957.8922817351
 21
4766.6994545927
 31
0.0
  0
LWPOLYLINE
  5
1B9
330
1F
100
AcDbEntity
  8
0
  6
Continuous
 62
     7
370
    25
100
AcDbPolyline
 90
        6
 70
   128
 43
0.0
 10
6958.0638546103
 20
4764.9674037852
 10
6958.0609915798
 20
4765.0499815181
 10
6958.0109742516
 20
4765.4488813347
 10
6957.9326319051
 20
4766.0104283591
 10
6957.8923208378
 20
4766.6784210099
 10
6957.8922817351
 20
4766.6994545927
  0
LINE
  5
1BA
330
1F
100
AcDbEntity
  8
0
  6
Continuous
 62
     7
370
    25
100
AcDbLine
 10
6958.0638546103
 20
4764.9674037852
 30
0.0
 11
6958.0638546103
 21
4639.6994545927
 31
0.0
  0
LINE
  5
1BB
330
1F
100
AcDbEntity
  8
0
  6
Continuous
 62
     7
370
    25
100
AcDbLine
 10
6955.0638546103
 20
5424.6994545927
 30
0.0
 11
6957.8922817351
 21
5424.6994545927
 31
0.0
  0
LINE
  5
1BC
330
1F
100
AcDbEntity
  8
0
  6
Continuous
 62
     7
370
    25
100
AcDbLine
 10
7416.0638546103
 20
5112.6994545927
 30
0.0
 11
6960.0638546103
 21
5112.6994545927
 31
0.0
  0
LINE
  5
1BD
330
1F
100
AcDbEntity
  8
0
  6
Continuous
 62
     7
370
    25
100
AcDbLine
 10
6960.0638546103
 20
5112.6994545927
 30
0.0
 11
6958.0638546103
 21
5114.6994545927
 31
0.0
  0
LINE
  5
1BE
330
1F
100
AcDbEntity
  8
0
  6
Continuous
 62
     7
370
    25
100
AcDbLine
 10
6958.0638546103
 20
5114.6994545927
 30
0.0
 11
7416.0638546103
 21
5114.6994545927
 31
0.0
  0
LINE
  5
1BF
330
1F
100
AcDbEntity
  8
0
  6
Continuous
 62
     7
370
    25
100
AcDbLine
 10
7416.0638546103
 20
5112.6994545927
 30
0.0
 11
7416.0638546103
 21
5114.6994545927
 31
0.0
  0
LINE
  5
1C0
330
1F
100
AcDbEntity
  8
0
  6
Continuous
 62
     7
370
    25
100
AcDbLine
 10
6960.0638546103
 20
5112.6994545927
 30
0.0
 11
6960.0638546103
 21
5076.6994545927
 31
0.0
  0
LINE
  5
1C1
330
1F
100
AcDbEntity
  8
0
  6
Continuous
 62
     7
370
    25
100
AcDbLine
 10
6958.0638546103
 20
5074.6994545927
 30
0.0
 11
6960.0638546103
 21
5076.6994545927
 31
0.0
  0
LINE
  5
1C2
330
1F
100
AcDbEntity
  8
0
  6
Continuous
 62
     7
370
    25
100
AcDbLine
 10
6958.0638546103
 20
5114.6994545927
 30
0.0
 11
6958.0638546103
 21
5074.6994545927
 31
0.0
  0
LINE
  5
1C3
330
1F
100
AcDbEntity
  8
0
  6
Continuous
 62
     7
370
    25
100
AcDbLine
 10
7416.0638546103
 20
5074.6994545927
 30
0.0
 11
7409.8922817351
 21
5074.6994545927
 31
0.0
  0
LINE
  5
1C4
330
1F
100
AcDbEntity
  8
0
  6
Continuous
 62
     7
370
    25
100
AcDbLine
 10
7370.2354274856
 20
5074.6994545927
 30
0.0
 11
6958.0638546103
 21
5074.6994545927
 31
0.0
  0
LINE
  5
1C5
330
1F
100
AcDbEntity
  8
0
  6
Continuous
 62
     7
370
    25
100
AcDbLine
 10
6960.0638546103
 20
5076.6994545927
 30
0.0
 11
7416.0638546103
 21
5076.6994545927
 31
0.0
  0
LINE
  5
1C6
330
1F
100
AcDbEntity
  8
0
  6
Continuous
 62
     7
370
    25
100
AcDbLine
 10
7416.0638546103
 20
5074.6994545927
 30
0.0
 11
7416.0638546103
 21
5076.6994545927
 31
0.0
  0
LINE
  5
1C7
330
1F
100
AcDbEntity
  8
0
  6
Continuous
 62
     7
370
    25
100
AcDbLine
 10
7416.0638546103
 20
5076.6994545927
 30
0.0
 11
7416.0638546103
 21
5112.6994545927
 31
0.0
  0
LINE
  5
1C8
330
1F
100
AcDbEntity
  8
0
  6
Continuous
 62
     7
370
    25
100
AcDbLine
 10
7051.0638546103
 20
5426.6994545927
 30
0.0
 11
7053.0638546103
 21
5426.6994545927
 31
0.0
  0
ARC
  5
1C9
330
1F
100
AcDbEntity
  8
0
  6
Continuous
 62
     7
370
    25
100
AcDbCircle
 10
7051.0638546103
 20
5426.6994545927
 30
0.0
 40
2.000000000000909
100
AcDbArc
 50
270.0
 51
0.0
  0
LINE
  5
1CA
330
1F
100
AcDbEntity
  8
0
  6
Continuous
 62
     7
370
    25
100
AcDbLine
 10
7051.0638546103
 20
5462.6994545927
 30
0.0
 11
7053.0638546103
 21
5462.6994545927
 31
0.0
  0
LINE
  5
1CB
330
1F
100
AcDbEntity
  8
0
  6
Continuous
 62
     7
370
    25
100
AcDbLine
 10
7053.0638546103
 20
5462.6994545927
 30
0.0
 11
7053.0638546103
 21
5426.6994545927
 31
0.0
  0
ARC
  5
1CC
330
1F
100
AcDbEntity
  8
0
  6
Continuous
 62
     7
370
    25
100
AcDbCircle
 10
7051.0638546103
 20
5462.6994545927
 30
0.0
 40
2.000000000000909
100
AcDbArc
 50
0.0
 51
90.0
  0
LINE
  5
1CD
330
1F
100
AcDbEntity
  8
0
  6
Continuous
 62
     7
370
    25
100
AcDbLine
 10
7407.0638546103
 20
5074.6994545927
 30
0.0
 11
7407.0638546103
 21
4639.6994545927
 31
0.0
  0
LINE
  5
1CE
330
1F
100
AcDbEntity
  8
0
  6
Continuous
 62
     7
370
    25
100
AcDbLine
 10
7373.0638546103
 20
5074.6994545927
 30
0.0
 11
7373.0638546103
 21
4639.6994545927
 31
0.0
  0
LINE
  5
1CF
330
1F
100
AcDbEntity
  8
0
  6
Continuous
 62
     7
370
    25
100
AcDbLine
 10
7407.0638546103
 20
5074.6994545927
 30
0.0
 11
7373.0638546103
 21
5074.6994545927
 31
0.0
  0
ARC
  5
1D0
330
1F
100
AcDbEntity
  8
0
  6
Continuous
 62
     7
370
    25
100
AcDbCircle
 10
7354.3568070784
 20
4767.3978301411
 30
0.0
 40
15.89397100920269
100
AcDbArc
 50
351.2041077489
 51
357.4816326017
  0
LINE
  5
1D1
330
1F
100
AcDbEntity
  8
0
  6
Continuous
 62
     7
370
    25
100
AcDbLine
 10
7370.2354274856
 20
4766.6994545927
 30
0.0
 11
7370.2354274856
 21
5074.6994545927
 31
0.0
  0
LINE
  5
1D2
330
1F
100
AcDbEntity
  8
0
  6
Continuous
 62
     7
370
    25
100
AcDbLine
 10
7370.0638546103
 20
4764.9674037852
 30
0.0
 11
7370.0638546103
 21
4639.6994545927
 31
0.0
  0
LINE
  5
1D3
330
1F
100
AcDbEntity
  8
0
  6
Continuous
 62
     7
370
    25
100
AcDbLine
 10
7373.0638546103
 20
5074.6994545927
 30
0.0
 11
7370.2354274856
 21
5074.6994545927
 31
0.0
  0
LINE
  5
1D4
330
1F
100
AcDbEntity
  8
0
  6
Continuous
 62
     7
370
    25
100
AcDbLine
 10
7410.0638546103
 20
5074.6994545927
 30
0.0
 11
7410.0638546103
 21
4639.6994545927
 31
0.0
  0
LINE
  5
1D5
330
1F
100
AcDbEntity
  8
0
  6
Continuous
 62
     7
370
    25
100
AcDbLine
 10
7409.8922817351
 20
5074.6994545927
 30
0.0
 11
7407.0638546103
 21
5074.6994545927
 31
0.0
  0
ARC
  5
1D6
330
1F
100
AcDbEntity
  8
0
  6
Continuous
 62
     7
370
    25
100
AcDbCircle
 10
7416.0638546103
 20
5112.6994545927
 30
0.0
 40
2.0
100
AcDbArc
 50
0.0
 51
90.0
  0
LINE
  5
1D7
330
1F
100
AcDbEntity
  8
0
  6
Continuous
 62
     7
370
    25
100
AcDbLine
 10
7416.0638546103
 20
5112.6994545927
 30
0.0
 11
7418.0638546103
 21
5112.6994545927
 31
0.0
  0
LINE
  5
1D8
330
1F
100
AcDbEntity
  8
0
  6
Continuous
 62
     7
370
    25
100
AcDbLine
 10
7418.0638546103
 20
5076.6994545927
 30
0.0
 11
7416.0638546103
 21
5076.6994545927
 31
0.0
  0
ARC
  5
1D9
330
1F
100
AcDbEntity
  8
0
  6
Continuous
 62
     7
370
    25
100
AcDbCircle
 10
7416.0638546103
 20
5076.6994545927
 30
0.0
 40
2.0
100
AcDbArc
 50
270.0
 51
0.0
  0
LINE
  5
1DA
330
1F
100
AcDbEntity
  8
0
  6
Continuous
 62
     7
370
    25
100
AcDbLine
 10
7418.0638546103
 20
5112.6994545927
 30
0.0
 11
7418.0638546103
 21
5076.6994545927
 31
0.0
  0
LINE
  5
1DB
330
1F
100
AcDbEntity
  8
0
  6
Continuous
 62
     7
370
    25
100
AcDbLine
 10
6718.0638546103
 20
5462.6994545926
 30
0.0
 11
6718.0638546103
 21
5504.6994545927
 31
0.0
  0
LINE
  5
1DC
330
1F
100
AcDbEntity
  8
0
  6
Continuous
 62
     7
370
    25
100
AcDbLine
 10
6718.0638546103
 20
5504.6994545927
 30
0.0
 11
6720.0638546103
 21
5504.6994545927
 31
0.0
  0
LINE
  5
1DD
330
1F
100
AcDbEntity
  8
0
  6
Continuous
 62
     7
370
    25
100
AcDbLine
 10
6720.0638546103
 20
5504.6994545927
 30
0.0
 11
6720.0638546103
 21
5464.6994545927
 31
0.0
  0
LINE
  5
1DE
330
1F
100
AcDbEntity
  8
0
  6
Continuous
 62
     7
370
    25
100
AcDbLine
 10
6722.0638546103
 20
5424.6994545927
 30
0.0
 11
6722.0638546103
 21
4766.6994545927
 31
0.0
  0
LINE
  5
1DF
330
1F
100
AcDbEntity
  8
0
  6
Continuous
 62
     7
370
    25
100
AcDbLine
 10
6722.0638546103
 20
4766.6994545927
 30
0.0
 11
6720.0638546103
 21
4766.6994545927
 31
0.0
  0
LINE
  5
1E0
330
1F
100
AcDbEntity
  8
0
  6
Continuous
 62
     7
370
    25
100
AcDbLine
 10
6720.0638546103
 20
4766.6994545927
 30
0.0
 11
6720.0638546103
 21
5424.6994545927
 31
0.0
  0
ARC
  5
1E1
330
1F
100
AcDbEntity
  8
0
  6
Continuous
 62
     7
370
    25
100
AcDbCircle
 10
6722.0638546103
 20
4766.6994545927
 30
0.0
 40
2.0
100
AcDbArc
 50
180.0
 51
270.0
  0
LINE
  5
1E2
330
1F
100
AcDbEntity
  8
0
  6
Continuous
 62
     7
370
    25
100
AcDbLine
 10
6722.0638546103
 20
4764.6994545927
 30
0.0
 11
6722.0638546103
 21
4766.6994545927
 31
0.0
  0
LINE
  5
1E3
330
1F
100
AcDbEntity
  8
0
  6
Continuous
 62
     7
370
    25
100
AcDbLine
 10
6722.0638546103
 20
4766.6994545927
 30
0.0
 11
6918.2354274856
 21
4766.6994545927
 31
0.0
  0
LINE
  5
1E4
330
1F
100
AcDbEntity
  8
0
  6
Continuous
 62
     7
370
    25
100
AcDbLine
 10
6918.0638546103
 20
4764.6994545927
 30
0.0
 11
6722.0638546103
 21
4764.6994545927
 31
0.0
  0
LINE
  5
1E5
330
1F
100
AcDbEntity
  8
0
  6
Continuous
 62
     7
370
    25
100
AcDbLine
 10
7046.0638546103
 20
5324.6994545927
 30
0.0
 11
7046.0638546103
 21
5424.6994545927
 31
0.0
  0
LINE
  5
1E6
330
1F
100
AcDbEntity
  8
0
  6
Continuous
 62
     7
370
    25
100
AcDbLine
 10
7046.0638546103
 20
5324.6994545927
 30
0.0
 11
6957.8922817351
 21
5324.6994545927
 31
0.0
  0
LINE
  5
1E7
330
1F
100
AcDbEntity
  8
0
  6
Continuous
 62
     7
370
    25
100
AcDbLine
 10
6957.8922817351
 20
4766.6994545927
 30
0.0
 11
7370.2354274856
 21
4766.6994545927
 31
0.0
  0
LINE
  5
1E8
330
1F
100
AcDbEntity
  8
0
  6
Continuous
 62
     7
370
    25
100
AcDbLine
 10
6957.8922817351
 20
5114.6994545927
 30
0.0
 11
6958.0638546103
 21
5114.6994545927
 31
0.0
  0
LINE
  5
1E9
330
1F
100
AcDbEntity
  8
0
  6
Continuous
 62
     7
370
    25
100
AcDbLine
 10
7370.0638546103
 20
4764.6994545927
 30
0.0
 11
6958.0638546103
 21
4764.6994545927
 31
0.0
  0
LINE
  5
1EA
330
1F
100
AcDbEntity
  8
0
  6
Continuous
 62
     7
370
    25
100
AcDbLine
 10
6938.0638546103
 20
4614.6994545927
 30
0.0
 11
6953.0638546103
 21
4614.6994545927
 31
0.0
  0
LINE
  5
1EB
330
1F
100
AcDbEntity
  8
0
  6
Continuous
 62
     7
370
    25
100
AcDbLine
 10
6923.0638546103
 20
4614.6994545927
 30
0.0
 11
6938.0638546103
 21
4614.6994545927
 31
0.0
  0
LINE
  5
1EC
330
1F
100
AcDbEntity
  8
0
  6
Continuous
 62
     7
370
    25
100
AcDbLine
 10
7390.0638546103
 20
4614.6994545927
 30
0.0
 11
7405.0638546103
 21
4614.6994545927
 31
0.0
  0
LINE
  5
1ED
330
1F
100
AcDbEntity
  8
0
  6
Continuous
 62
     7
370
    25
100
AcDbLine
 10
7375.0638546103
 20
4614.6994545927
 30
0.0
 11
7390.0638546103
 21
4614.6994545927
 31
0.0
  0
LINE
  5
1EE
330
1F
100
AcDbEntity
  8
0
  6
Continuous
 62
     8
370
    25
100
AcDbLine
 10
7027.5638546103
 20
5567.0994545927
 30
0.0
 11
6998.5638546103
 21
5567.0994545927
 31
0.0
  0
LWPOLYLINE
  5
1EF
330
1F
100
AcDbEntity
  8
0
  6
Continuous
 62
     8
370
    25
100
AcDbPolyline
 90
       18
 70
   128
 43
0.0
 10
7154.9845119272
 20
5714.8254599314
 10
7154.9036282417
 20
5714.97193551
 10
7154.4840507909
 20
5715.182840104
 10
7153.7250426652
 20
5715.327826048
 10
7152.6540363956
 20
5715.4016531723
 10
7151.3097409394
 20
5715.4016531723
 10
7149.7407426367
 20
5715.327826048
 10
7148.0037491743
 20
5715.182840104
 10
7146.1615400215
 20
5714.97193551
 10
7144.280697417
 20
5714.7027349077
 10
7142.429199913
 20
5714.3849679082
 10
7140.6739654533
 20
5714.0301194388
 10
7139.0784327845
 20
5713.6510146476
 10
7137.7002686143
 20
5713.2613553697
 10
7136.5892833868
 20
5712.8752249065
 10
7135.7856310025
 20
5712.5065790191
 10
7135.3183575526
 20
5712.1687415303
 10
7135.2007337664
 20
5711.8925225497
  0
LWPOLYLINE
  5
1F0
330
1F
100
AcDbEntity
  8
0
  6
Continuous
 62
     8
370
    25
100
AcDbPolyline
 90
       18
 70
   128
 43
0.0
 10
7152.6629917383
 20
5730.4849965792
 10
7152.5821080527
 20
5730.6314721579
 10
7152.162530602
 20
5730.8423767518
 10
7151.4035224762
 20
5730.9873626958
 10
7150.3325162067
 20
5731.0611898201
 10
7148.9882207504
 20
5731.0611898201
 10
7147.4192224478
 20
5730.9873626958
 10
7145.6822289853
 20
5730.8423767518
 10
7143.8400198326
 20
5730.6314721579
 10
7141.9591772281
 20
5730.3622715556
 10
7140.107679724
 20
5730.044504556
 10
7138.3524452643
 20
5729.6896560866
 10
7136.7569125955
 20
5729.3105512954
 10
7135.3787484254
 20
5728.9208920175
 10
7134.2677631978
 20
5728.5347615543
 10
7133.4641108136
 20
5728.1661156669
 10
7132.9968373637
 20
5727.8282781781
 10
7132.8792135775
 20
5727.5520591975
  0
LINE
  5
1F1
330
1F
100
AcDbEntity
  8
0
  6
Continuous
 62
     8
370
    25
100
AcDbLine
 10
7020.1349224222
 20
5709.9962662334
 30
0.0
 11
7023.0638531641
 21
5709.9962662334
 31
0.0
  0
LINE
  5
1F2
330
1F
100
AcDbEntity
  8
0
  6
Continuous
 62
     8
370
    25
100
AcDbLine
 10
7003.0638546199
 20
5709.9962662334
 30
0.0
 11
7020.1349224222
 21
5709.9962662334
 31
0.0
  0
LINE
  5
1F3
330
1F
100
AcDbEntity
  8
0
  6
Continuous
 62
     8
370
    25
100
AcDbLine
 10
7041.9389541725
 20
5494.4994393927
 30
0.0
 11
7038.0638546103
 21
5494.4994393927
 31
0.0
  0
ARC
  5
1F4
330
1F
100
AcDbEntity
  8
0
  6
Continuous
 62
     8
370
    25
100
AcDbCircle
 10
7091.4455605194
 20
5521.8088280761
 30
0.0
 40
56.53942679449695
100
AcDbArc
 50
199.2393809973
 51
208.8824993201
  0
ARC
  5
1F5
330
1F
100
AcDbEntity
  8
0
  6
Continuous
 62
     8
370
    25
100
AcDbCircle
 10
7041.9895458888
 20
5494.1723295187
 30
0.0
 40
0.3309990807294059
100
AcDbArc
 50
36.026647717
 51
98.7918629867
  0
LINE
  5
1F6
330
1F
100
AcDbEntity
  8
0
  6
Continuous
 62
     8
370
    25
100
AcDbLine
 10
7036.3075932971
 20
5546.1872507579
 30
0.0
 11
6989.8201159235
 21
5546.1872507579
 31
0.0
  0
LINE
  5
1F7
330
1F
100
AcDbEntity
  8
0
  6
Continuous
 62
     8
370
    25
100
AcDbLine
 10
7038.0638546103
 20
5544.2021584546
 30
0.0
 11
6988.0638546103
 21
5544.2021584546
 31
0.0
  0
LINE
  5
1F8
330
1F
100
AcDbEntity
  8
0
  6
Continuous
 62
     7
370
    25
100
AcDbLine
 10
6474.4801145022
 20
4137.7561457618
 30
0.0
 11
6344.7728664546
 21
4008.0488977142
 31
0.0
  0
LINE
  5
1F9
330
1F
100
AcDbEntity
  8
0
  6
Continuous
 62
     7
370
    25
100
AcDbLine
 10
6358.9150020784
 20
3993.9067620905
 30
0.0
 11
6488.6222501259
 21
4123.6140101381
 31
0.0
  0
LINE
  5
1FA
330
1F
100
AcDbEntity
  8
0
  6
Continuous
 62
     7
370
    25
100
AcDbLine
 10
6356.5934818894
 20
3991.5852419016
 30
0.0
 11
6358.9150020784
 21
3993.9067620905
 31
0.0
  0
LINE
  5
1FB
330
1F
100
AcDbEntity
  8
0
  6
Continuous
 62
     7
370
    25
100
AcDbLine
 10
6344.7728664546
 20
4008.0488977142
 30
0.0
 11
6342.4513462657
 21
4005.7273775253
 31
0.0
  0
LINE
  5
1FC
330
1F
100
AcDbEntity
  8
0
  6
Continuous
 62
     7
370
    25
100
AcDbLine
 10
6354.2719617005
 20
3989.2637217126
 30
0.0
 11
6356.5934818894
 21
3991.5852419016
 31
0.0
  0
LINE
  5
1FD
330
1F
100
AcDbEntity
  8
0
  6
Continuous
 62
     7
370
    25
100
AcDbLine
 10
6342.4513462657
 20
4005.7273775253
 30
0.0
 11
6340.1298260767
 21
4003.4058573363
 31
0.0
  0
ARC
  5
1FE
330
1F
100
AcDbEntity
  8
0
  6
Continuous
 62
     7
370
    25
100
AcDbCircle
 10
6506.3942269418
 20
4116.0673808929
 30
0.0
 40
0.9030657754912554
100
AcDbArc
 50
44.3047630948
 51
134.1149460118
  0
ARC
  5
1FF
330
1F
100
AcDbEntity
  8
0
  6
Continuous
 62
     7
370
    25
100
AcDbCircle
 10
6512.0518142774
 20
4110.2740216678
 30
0.0
 40
1.000000000000169
100
AcDbArc
 50
315.0
 51
45.0
  0
LINE
  5
200
330
1F
100
AcDbEntity
  8
0
  6
Continuous
 62
     7
370
    25
100
AcDbLine
 10
6512.7589210586
 20
4110.981128449
 30
0.0
 11
6507.0259901868
 21
4116.7140593208
 31
0.0
  0
ARC
  5
201
330
1F
100
AcDbEntity
  8
0
  6
Continuous
 62
     7
370
    25
100
AcDbCircle
 10
6504.9917721104
 20
4118.7703286869
 30
0.0
 40
2.000000000000981
100
AcDbArc
 50
225.0
 51
245.8154900929
  0
LINE
  5
202
330
1F
100
AcDbEntity
  8
0
  6
Continuous
 62
     7
370
    25
100
AcDbLine
 10
6503.577558548
 20
4117.3561151246
 30
0.0
 11
6503.0343207276
 21
4117.8993529449
 31
0.0
  0
LINE
  5
203
330
1F
100
AcDbEntity
  8
0
  6
Continuous
 62
     7
370
    25
100
AcDbLine
 10
6494.336907319
 20
4109.2019395363
 30
0.0
 11
6502.6583197325
 21
4100.8805271229
 31
0.0
  0
ARC
  5
204
330
1F
100
AcDbEntity
  8
0
  6
Continuous
 62
     7
370
    25
100
AcDbCircle
 10
6503.3654265137
 20
4101.5876339041
 30
0.0
 40
1.000000000000169
100
AcDbArc
 50
225.0
 51
315.0
  0
LINE
  5
205
330
1F
100
AcDbEntity
  8
0
  6
Continuous
 62
     7
370
    25
100
AcDbLine
 10
6511.3696731249
 20
4107.3719695259
 30
0.0
 11
6510.9668244114
 21
4107.7748182395
 31
0.0
  0
LINE
  5
206
330
1F
100
AcDbEntity
  8
0
  6
Continuous
 62
     7
370
    25
100
AcDbLine
 10
6504.4614420245
 20
4101.2694358526
 30
0.0
 11
6504.864290738
 21
4100.866587139
 31
0.0
  0
ARC
  5
207
330
1F
100
AcDbEntity
  8
0
  6
Continuous
 62
     7
370
    25
100
AcDbCircle
 10
6511.0161197343
 20
4107.0184161354
 30
0.0
 40
0.4999999999994413
100
AcDbArc
 50
340.5678059111
 51
45.0000000001
  0
ARC
  5
208
330
1F
100
AcDbEntity
  8
0
  6
Continuous
 62
     7
370
    25
100
AcDbCircle
 10
6505.2178441286
 20
4101.2201405296
 30
0.0
 40
0.5000000000005741
100
AcDbArc
 50
225.0
 51
289.432194089
  0
ARC
  5
209
330
1F
100
AcDbEntity
  8
0
  6
Continuous
 62
     7
370
    25
100
AcDbCircle
 10
6502.0572789685
 20
4110.1789812955
 30
0.0
 40
10.00000000000048
100
AcDbArc
 50
332.6174520989
 51
340.567805911
  0
ARC
  5
20A
330
1F
100
AcDbEntity
  8
0
  6
Continuous
 62
     7
370
    25
100
AcDbCircle
 10
6502.0572789685
 20
4110.1789812955
 30
0.0
 40
10.0000000000002
100
AcDbArc
 50
304.2094071617
 51
332.6174520989
  0
ARC
  5
20B
330
1F
100
AcDbEntity
  8
0
  6
Continuous
 62
     7
370
    25
100
AcDbCircle
 10
6502.0572789685
 20
4110.1789812955
 30
0.0
 40
10.00000000000079
100
AcDbArc
 50
289.432194089
 51
297.3090828704
  0
ARC
  5
20C
330
1F
100
AcDbEntity
  8
0
  6
Continuous
 62
     7
370
    25
100
AcDbCircle
 10
6502.0572789685
 20
4110.1789812955
 30
0.0
 40
9.999000000001166
100
AcDbArc
 50
297.2985981304
 51
304.2154870017
  0
LINE
  5
20D
330
1F
100
AcDbEntity
  8
0
  6
Continuous
 62
     7
370
    25
100
AcDbLine
 10
6494.2925399736
 20
4109.1755962037
 30
0.0
 11
6494.2983940549
 21
4109.1697421224
 31
0.0
  0
LINE
  5
20E
330
1F
100
AcDbEntity
  8
0
  6
Continuous
 62
     7
370
    25
100
AcDbLine
 10
6503.0737989248
 20
4117.9305854259
 30
0.0
 11
6503.0606640603
 21
4117.9437202904
 31
0.0
  0
LINE
  5
20F
330
1F
100
AcDbEntity
  8
0
  6
Continuous
 62
     7
370
    25
100
AcDbLine
 10
6465.5511823141
 20
4083.1850779499
 30
0.0
 11
6448.1933179378
 21
4083.1850779499
 31
0.0
  0
LINE
  5
210
330
1F
100
AcDbEntity
  8
0
  6
Continuous
 62
     7
370
    25
100
AcDbLine
 10
6419.9090466903
 20
4083.1850779499
 30
0.0
 11
6077.5511823141
 21
4083.1850779499
 31
0.0
  0
LINE
  5
211
330
1F
100
AcDbEntity
  8
0
  6
Continuous
 62
     7
370
    25
100
AcDbLine
 10
6077.5511823141
 20
3828.1850779499
 30
0.0
 11
6465.5511823141
 21
3828.1850779499
 31
0.0
  0
ARC
  5
212
330
1F
100
AcDbEntity
  8
0
  6
Continuous
 62
     7
370
    25
100
AcDbCircle
 10
6481.5511823141
 20
4130.6850779499
 30
0.0
 40
14.49999999999988
100
AcDbArc
 50
268.6028189727
 51
45.0
  0
ARC
  5
213
330
1F
100
AcDbEntity
  8
0
  6
Continuous
 62
     7
370
    25
100
AcDbCircle
 10
6481.5511823141
 20
4130.6850779499
 30
0.0
 40
14.49999999999988
100
AcDbArc
 50
45.0
 51
181.3971810273
  0
ARC
  5
214
330
1F
100
AcDbEntity
  8
0
  6
Continuous
 62
     7
370
    25
100
AcDbCircle
 10
6481.5511823141
 20
4130.6850779499
 30
0.0
 40
10.0000000000004
100
AcDbArc
 50
315.0
 51
135.0
  0
ARC
  5
215
330
1F
100
AcDbEntity
  8
0
  6
Continuous
 62
     7
370
    25
100
AcDbCircle
 10
6347.3177676853
 20
3996.4516633212
 30
0.0
 40
10.00136585515818
100
AcDbArc
 50
135.9469242514
 51
314.0530757486
  0
ARC
  5
216
330
1F
100
AcDbEntity
  8
0
  6
Continuous
 62
     7
370
    25
100
AcDbCircle
 10
6481.5511823141
 20
4130.68507795
 30
0.0
 40
25.00000000000058
100
AcDbArc
 50
251.2738673432
 51
300.6408060081
  0
ARC
  5
217
330
1F
100
AcDbEntity
  8
0
  6
Continuous
 62
     7
370
    25
100
AcDbCircle
 10
6481.5511823141
 20
4130.68507795
 30
0.0
 40
25.00000000001516
100
AcDbArc
 50
135.0000000002
 51
198.5268023242
  0
ARC
  5
218
330
1F
100
AcDbEntity
  8
0
  6
Continuous
 62
     7
370
    25
100
AcDbCircle
 10
6481.5511823141
 20
4130.68507795
 30
0.0
 40
24.99999999999966
100
AcDbArc
 50
329.3591939915
 51
45.0
  0
LINE
  5
219
330
1F
100
AcDbEntity
  8
0
  6
Continuous
 62
     7
370
    25
100
AcDbLine
 10
6504.2590172753
 20
4115.2091467271
 30
0.0
 11
6505.6487044177
 21
4116.5988338695
 31
0.0
  0
ARC
  5
21A
330
1F
100
AcDbEntity
  8
0
  6
Continuous
 62
     7
370
    25
100
AcDbCircle
 10
6506.3553713244
 20
4115.8917269514
 30
0.0
 40
0.9996891069323485
100
AcDbArc
 50
44.9821788244
 51
134.9821677314
  0
LINE
  5
21B
330
1F
100
AcDbEntity
  8
0
  6
Continuous
 62
     7
370
    25
100
AcDbLine
 10
6507.0624781056
 20
4116.598393995
 30
0.0
 11
6504.2831038208
 21
4113.8190197103
 31
0.0
  0
ARC
  5
21C
330
1F
100
AcDbEntity
  8
0
  6
Continuous
 62
     7
370
    25
100
AcDbCircle
 10
6504.9665415262
 20
4114.5261337249
 30
0.0
 40
0.9834110670550433
100
AcDbArc
 50
136.0098583595
 51
225.9754556471
  0
LINE
  5
21D
330
1F
100
AcDbEntity
  8
0
  6
Continuous
 62
     7
370
    25
100
AcDbLine
 10
6509.9399580703
 20
4108.1621654608
 30
0.0
 11
6512.7193323551
 21
4110.9415397455
 31
0.0
  0
LINE
  5
21E
330
1F
100
AcDbEntity
  8
0
  6
Continuous
 62
     7
370
    25
100
AcDbLine
 10
6509.9399580703
 20
4108.1621654608
 30
0.0
 11
6504.2831038208
 21
4113.8190197103
 31
0.0
  0
LINE
  5
21F
330
1F
100
AcDbEntity
  8
0
  6
Continuous
 62
     7
370
    25
100
AcDbLine
 10
6512.7193323551
 20
4110.9415397455
 30
0.0
 11
6507.0624781056
 21
4116.598393995
 31
0.0
  0
LINE
  5
220
330
1F
100
AcDbEntity
  8
0
  6
Continuous
 62
     7
370
    25
100
AcDbLine
 10
6512.7197722296
 20
4109.5277660576
 30
0.0
 11
6511.3300850872
 21
4108.1380789152
 31
0.0
  0
ARC
  5
221
330
1F
100
AcDbEntity
  8
0
  6
Continuous
 62
     7
370
    25
100
AcDbCircle
 10
6510.647072085
 20
4108.8456031661
 30
0.0
 40
0.9834110670529052
100
AcDbArc
 50
224.0245443529
 51
313.9901416407
  0
ARC
  5
222
330
1F
100
AcDbEntity
  8
0
  6
Continuous
 62
     7
370
    25
100
AcDbCircle
 10
6512.0126653115
 20
4110.2344329643
 30
0.0
 40
0.9996891069323481
100
AcDbArc
 50
315.0178322686
 51
45.0178211755
  0
LINE
  5
223
330
1F
100
AcDbEntity
  8
0
  6
Continuous
 62
     7
370
    25
100
AcDbLine
 10
6503.5877709974
 20
4101.8099783878
 30
0.0
 11
6509.9399580703
 21
4108.1621654608
 31
0.0
  0
LINE
  5
224
330
1F
100
AcDbEntity
  8
0
  6
Continuous
 62
     7
370
    25
100
AcDbLine
 10
6503.5877709974
 20
4101.8099783878
 30
0.0
 11
6495.8095964043
 21
4109.5881529808
 31
0.0
  0
ARC
  5
225
330
1F
100
AcDbEntity
  8
0
  6
Continuous
 62
     7
370
    25
100
AcDbCircle
 10
6496.935591372
 20
4114.9660319827
 30
0.0
 40
5.494492444771042
100
AcDbArc
 50
258.1745066983
 51
298.6614803554
  0
LWPOLYLINE
  5
226
330
1F
100
AcDbEntity
  8
0
  6
Continuous
 62
     7
370
    25
100
AcDbPolyline
 90
        5
 70
   128
 43
0.0
 10
6504.2831038208
 20
4113.8190197103
 10
6503.4260310694
 20
4113.1241243429
 10
6502.2863839324
 20
4112.3412674509
 10
6500.9668048417
 20
4111.3784786053
 10
6499.5709350487
 20
4110.1447861964
  0
ARC
  5
227
330
1F
100
AcDbEntity
  8
0
  6
Continuous
 62
     7
370
    25
100
AcDbCircle
 10
6504.2970728724
 20
4102.3843005519
 30
0.0
 40
0.9126637377099714
100
AcDbArc
 50
218.9971132516
 51
307.3566670065
  0
LINE
  5
228
330
1F
100
AcDbEntity
  8
0
  6
Continuous
 62
     7
370
    25
100
AcDbLine
 10
6511.3300850872
 20
4108.1380789152
 30
0.0
 11
6504.8508542728
 21
4101.6588481008
 31
0.0
  0
ARC
  5
229
330
1F
100
AcDbEntity
  8
0
  6
Continuous
 62
     7
370
    25
100
AcDbCircle
 10
6499.7327418618
 20
4110.3331228561
 30
0.0
 40
0.2482984940382637
100
AcDbArc
 50
140.1155268343
 51
229.3329364711
  0
LINE
  5
22A
330
1F
100
AcDbEntity
  8
0
  6
Continuous
 62
     7
370
    25
100
AcDbLine
 10
6499.5422127554
 20
4110.4923422072
 30
0.0
 11
6504.2590172753
 21
4115.2091467271
 31
0.0
  0
LINE
  5
22B
330
1F
100
AcDbEntity
  8
0
  6
Continuous
 62
     7
370
    25
100
AcDbLine
 10
6506.9865220029
 20
4116.6956715347
 30
0.0
 11
6506.9957649238
 21
4116.6838340578
 31
0.0
  0
LINE
  5
22C
330
1F
100
AcDbEntity
  8
0
  6
Continuous
 62
     7
370
    25
100
AcDbLine
 10
6512.7589210586
 20
4109.5669148866
 30
0.0
 11
6512.7197722296
 21
4109.5277660576
 31
0.0
  0
LINE
  5
22D
330
1F
100
AcDbEntity
  8
0
  6
Continuous
 62
     7
370
    25
100
AcDbLine
 10
6504.1754978871
 20
4116.9378371812
 30
0.0
 11
6504.7499132516
 21
4116.6793704887
 31
0.0
  0
ARC
  5
22E
330
1F
100
AcDbEntity
  8
0
  6
Continuous
 62
     7
370
    25
100
AcDbCircle
 10
6496.1695349422
 20
4116.2587467494
 30
0.0
 40
6.680297671217319
100
AcDbArc
 50
266.9113725662
 51
300.3226825937
  0
ARC
  5
22F
330
1F
100
AcDbEntity
  8
0
  6
Continuous
 62
     7
370
    25
100
AcDbCircle
 10
6510.0032301266
 20
4129.2180480985
 30
0.0
 40
13.58696896896332
100
AcDbArc
 50
244.585847602
 51
250.2469485171
  0
LINE
  5
230
330
1F
100
AcDbEntity
  8
0
  6
Continuous
 62
     7
370
    25
100
AcDbLine
 10
6504.8508542728
 20
4101.6588481008
 30
0.0
 11
6504.0725332948
 21
4100.8805271229
 31
0.0
  0
LWPOLYLINE
  5
231
330
1F
100
AcDbEntity
  8
0
  6
Continuous
 62
     7
370
    25
100
AcDbPolyline
 90
       17
 70
   128
 43
0.0
 10
6506.6472172875
 20
4101.295384393
 10
6506.548663691
 20
4101.2458290473
 10
6506.4841367664
 20
4101.2215527885
 10
6506.4949972485
 20
4101.2416644099
 10
6506.5751942334
 20
4101.3011648949
 10
6506.7150436069
 20
4101.3933952592
 10
6506.9025073671
 20
4101.5105461298
 10
6507.121025077
 20
4101.6422428633
 10
6507.3472651338
 20
4101.7742820009
 10
6507.5523132523
 20
4101.8895433315
 10
6507.7079399955
 20
4101.9718964583
 10
6507.7948931638
 20
4102.0110903015
 10
6507.806799676
 20
4102.0047791821
 10
6507.7473130641
 20
4101.9565222168
 10
6507.6250651518
 20
4101.8726960503
 10
6507.5306391816
 20
4101.8113972173
 10
6507.5306391816
 20
4101.8113972173
  0
LWPOLYLINE
  5
232
330
1F
100
AcDbEntity
  8
0
  6
Continuous
 62
     7
370
    25
100
AcDbPolyline
 90
        4
 70
   128
 43
0.0
 10
6507.6371253492
 20
4101.881880007
 10
6507.7552564812
 20
4101.9635814595
 10
6507.808265581
 20
4102.0081709123
 10
6507.8017759347
 20
4102.0089921179
  0
LWPOLYLINE
  5
233
330
1F
100
AcDbEntity
  8
0
  6
Continuous
 62
     7
370
    25
100
AcDbPolyline
 90
        4
 70
   128
 43
0.0
 10
6506.4872363429
 20
4101.2277786351
 10
6506.4860746548
 20
4101.2226184216
 10
6506.5519345116
 20
4101.2484326885
 10
6506.645186658
 20
4101.2953633521
  0
ARC
  5
234
330
1F
100
AcDbEntity
  8
0
  6
Continuous
 62
     7
370
    25
100
AcDbCircle
 10
6481.5511823141
 20
4130.6850779499
 30
0.0
 40
14.99999999999996
100
AcDbArc
 50
266.8103148958
 51
45.0
  0
ARC
  5
235
330
1F
100
AcDbEntity
  8
0
  6
Continuous
 62
     7
370
    25
100
AcDbCircle
 10
6481.5511823141
 20
4130.6850779499
 30
0.0
 40
14.99999999999996
100
AcDbArc
 50
45.0
 51
183.1896851042
  0
ARC
  5
236
330
1F
100
AcDbEntity
  8
0
  6
Continuous
 62
     7
370
    25
100
AcDbCircle
 10
6481.5511823141
 20
4130.6850779499
 30
0.0
 40
25.00000000000036
100
AcDbArc
 50
248.5781784782
 51
45.0
  0
ARC
  5
237
330
1F
100
AcDbEntity
  8
0
  6
Continuous
 62
     7
370
    25
100
AcDbCircle
 10
6481.5511823141
 20
4130.6850779499
 30
0.0
 40
25.00000000000036
100
AcDbArc
 50
45.0
 51
201.4218215218
  0
ARC
  5
238
330
1F
100
AcDbEntity
  8
0
  6
Continuous
 62
     7
370
    25
100
AcDbCircle
 10
6271.5511823141
 20
4335.6850779499
 30
0.0
 40
5.250000000000563
100
AcDbArc
 50
278.2132107017
 51
81.7867892983
  0
LINE
  5
239
330
1F
100
AcDbEntity
  8
0
  6
Continuous
 62
     7
370
    25
100
AcDbLine
 10
6272.3011823141
 20
4330.4889255272
 30
0.0
 11
6272.3011823141
 21
4340.8812303726
 31
0.0
  0
ARC
  5
23A
330
1F
100
AcDbEntity
  8
0
  6
Continuous
 62
     7
370
    25
100
AcDbCircle
 10
6271.5511823141
 20
4335.6850779499
 30
0.0
 40
5.250000000000563
100
AcDbArc
 50
98.2132107017
 51
261.7867892983
  0
LINE
  5
23B
330
1F
100
AcDbEntity
  8
0
  6
Continuous
 62
     7
370
    25
100
AcDbLine
 10
6270.8011823141
 20
4340.8812303726
 30
0.0
 11
6270.8011823141
 21
4330.4889255272
 31
0.0
  0
ARC
  5
23C
330
1F
100
AcDbEntity
  8
0
  6
Continuous
 62
     7
370
    25
100
AcDbCircle
 10
6271.5511823141
 20
4335.6850779499
 30
0.0
 40
5.249999999999662
100
AcDbArc
 50
81.7867892983
 51
98.2132107017
  0
ARC
  5
23D
330
1F
100
AcDbEntity
  8
0
  6
Continuous
 62
     7
370
    25
100
AcDbCircle
 10
6271.5511823141
 20
4335.6850779499
 30
0.0
 40
5.250000000000563
100
AcDbArc
 50
261.7867892983
 51
278.2132107017
  0
ARC
  5
23E
330
1F
100
AcDbEntity
  8
0
  6
Continuous
 62
     7
370
    25
100
AcDbCircle
 10
6378.0511823141
 20
4062.1850779499
 30
0.0
 40
34.99999999999998
100
AcDbArc
 50
36.8698976458
 51
54.5167960447
  0
ARC
  5
23F
330
1F
100
AcDbEntity
  8
0
  6
Continuous
 62
     7
370
    25
100
AcDbCircle
 10
6378.0511823141
 20
4062.1850779499
 30
0.0
 40
35.00000000000051
100
AcDbArc
 50
125.4832039553
 51
143.1301023542
  0
ARC
  5
240
330
1F
100
AcDbEntity
  8
0
  6
Continuous
 62
     7
370
    25
100
AcDbCircle
 10
6378.0511823141
 20
4062.1850779499
 30
0.0
 40
35.00000000000054
100
AcDbArc
 50
175.2275662214
 51
208.0910190857
  0
ARC
  5
241
330
1F
100
AcDbEntity
  8
0
  6
Continuous
 62
     7
370
    25
100
AcDbCircle
 10
6378.0511823141
 20
4062.1850779499
 30
0.0
 40
19.48700763430328
100
AcDbArc
 50
355.8127374345
 51
10.2788510036
  0
LWPOLYLINE
  5
242
330
1F
100
AcDbEntity
  8
0
  6
Continuous
 62
     7
370
    25
100
AcDbPolyline
 90
        3
 70
   128
 43
0.0
 10
6391.6732217023
 20
4064.4146541292
 10
6392.7734577172
 20
4064.9129809272
 10
6392.9082504284
 20
4064.997921086
  0
ARC
  5
243
330
1F
100
AcDbEntity
  8
0
  6
Continuous
 62
     7
370
    25
100
AcDbCircle
 10
6390.175537967
 20
4055.1850779499
 30
0.0
 40
5.000000000000401
100
AcDbArc
 50
30.808996929
 51
126.7080308427
  0
ARC
  5
244
330
1F
100
AcDbEntity
  8
0
  6
Continuous
 62
     7
370
    25
100
AcDbCircle
 10
6271.5511823141
 20
4335.6850779499
 30
0.0
 40
35.00000000000009
100
AcDbArc
 50
270.0
 51
63.7635701515
  0
ARC
  5
245
330
1F
100
AcDbEntity
  8
0
  6
Continuous
 62
     7
370
    25
100
AcDbCircle
 10
6271.5511823141
 20
4335.6850779499
 30
0.0
 40
35.0
100
AcDbArc
 50
116.2364298485
 51
270.0
  0
ARC
  5
246
330
1F
100
AcDbEntity
  8
0
  6
Continuous
 62
     7
370
    25
100
AcDbCircle
 10
6271.5511823141
 20
4335.6850779499
 30
0.0
 40
35.16921944985916
100
AcDbArc
 50
270.0
 51
292.5454334843
  0
ARC
  5
247
330
1F
100
AcDbEntity
  8
0
  6
Continuous
 62
     7
370
    25
100
AcDbCircle
 10
6271.5511823141
 20
4335.6850779499
 30
0.0
 40
35.16921944985857
100
AcDbArc
 50
138.4406424297
 51
150.3494538825
  0
LINE
  5
248
330
1F
100
AcDbEntity
  8
0
  6
Continuous
 62
     7
370
    25
100
AcDbLine
 10
6269.9355809022
 20
4300.5529867968
 30
0.0
 11
6271.5511823141
 21
4300.5158585001
 31
0.0
  0
CIRCLE
  5
249
330
1F
100
AcDbEntity
  8
0
  6
Continuous
 62
     7
370
    25
100
AcDbCircle
 10
6271.5511823141
 20
4335.6850779499
 30
0.0
 40
24.96512544439429
  0
CIRCLE
  5
24A
330
1F
100
AcDbEntity
  8
0
  6
Continuous
 62
     7
370
    25
100
AcDbCircle
 10
6271.5511823141
 20
4335.6850779499
 30
0.0
 40
22.0
  0
CIRCLE
  5
24B
330
1F
100
AcDbEntity
  8
0
  6
Continuous
 62
     7
370
    25
100
AcDbCircle
 10
6271.5511823141
 20
4335.6850779499
 30
0.0
 40
20.5
  0
CIRCLE
  5
24C
330
1F
100
AcDbEntity
  8
0
  6
Continuous
 62
     7
370
    25
100
AcDbCircle
 10
6271.5511823141
 20
4335.6850779499
 30
0.0
 40
19.48700763430406
  0
CIRCLE
  5
24D
330
1F
100
AcDbEntity
  8
0
  6
Continuous
 62
     7
370
    25
100
AcDbCircle
 10
6271.5511823141
 20
4335.6850779499
 30
0.0
 40
5.699999999999818
  0
CIRCLE
  5
24E
330
1F
100
AcDbEntity
  8
0
  6
Continuous
 62
     7
370
    25
100
AcDbCircle
 10
6271.5511823141
 20
4349.6850779499
 30
0.0
 40
5.0
  0
CIRCLE
  5
24F
330
1F
100
AcDbEntity
  8
0
  6
Continuous
 62
     7
370
    25
100
AcDbCircle
 10
6283.675537967
 20
4342.6850779499
 30
0.0
 40
5.0
  0
CIRCLE
  5
250
330
1F
100
AcDbEntity
  8
0
  6
Continuous
 62
     7
370
    25
100
AcDbCircle
 10
6283.675537967
 20
4328.6850779499
 30
0.0
 40
5.0
  0
CIRCLE
  5
251
330
1F
100
AcDbEntity
  8
0
  6
Continuous
 62
     7
370
    25
100
AcDbCircle
 10
6271.5511823141
 20
4321.6850779499
 30
0.0
 40
5.0
  0
CIRCLE
  5
252
330
1F
100
AcDbEntity
  8
0
  6
Continuous
 62
     7
370
    25
100
AcDbCircle
 10
6259.4268266611
 20
4328.6850779499
 30
0.0
 40
5.0
  0
CIRCLE
  5
253
330
1F
100
AcDbEntity
  8
0
  6
Continuous
 62
     7
370
    25
100
AcDbCircle
 10
6259.4268266611
 20
4342.6850779499
 30
0.0
 40
5.0
  0
ARC
  5
254
330
1F
100
AcDbEntity
  8
0
  6
Continuous
 62
     7
370
    25
100
AcDbCircle
 10
6271.5511823141
 20
4335.6850779499
 30
0.0
 40
18.0000000000002
100
AcDbArc
 50
319.1559374362
 51
340.8440625638
  0
ARC
  5
255
330
1F
100
AcDbEntity
  8
0
  6
Continuous
 62
     7
370
    25
100
AcDbCircle
 10
6271.5511823141
 20
4335.6850779499
 30
0.0
 40
17.99999999999948
100
AcDbArc
 50
259.1559374363
 51
280.8440625637
  0
ARC
  5
256
330
1F
100
AcDbEntity
  8
0
  6
Continuous
 62
     7
370
    25
100
AcDbCircle
 10
6271.5511823141
 20
4335.6850779499
 30
0.0
 40
18.00000000000006
100
AcDbArc
 50
199.1559374363
 51
220.8440625637
  0
ARC
  5
257
330
1F
100
AcDbEntity
  8
0
  6
Continuous
 62
     7
370
    25
100
AcDbCircle
 10
6271.5511823141
 20
4335.6850779499
 30
0.0
 40
18.00000000000065
100
AcDbArc
 50
139.1559374363
 51
160.8440625637
  0
ARC
  5
258
330
1F
100
AcDbEntity
  8
0
  6
Continuous
 62
     7
370
    25
100
AcDbCircle
 10
6271.5511823141
 20
4335.6850779499
 30
0.0
 40
18.00000000000038
100
AcDbArc
 50
79.1559374363
 51
100.8440625637
  0
ARC
  5
259
330
1F
100
AcDbEntity
  8
0
  6
Continuous
 62
     7
370
    25
100
AcDbCircle
 10
6271.5511823141
 20
4335.6850779499
 30
0.0
 40
17.9999999999994
100
AcDbArc
 50
19.1559374363
 51
40.8440625637
  0
LINE
  5
25A
330
1F
100
AcDbEntity
  8
0
  6
Continuous
 62
     7
370
    25
100
AcDbLine
 10
6481.5511823141
 20
3830.6850779499
 30
0.0
 11
6481.5511823141
 21
4080.6850779499
 31
0.0
  0
LINE
  5
25B
330
1F
100
AcDbEntity
  8
0
  6
Continuous
 62
     7
370
    25
100
AcDbLine
 10
6469.0511823141
 20
3830.6850779499
 30
0.0
 11
6481.5511823141
 21
3830.6850779499
 31
0.0
  0
LINE
  5
25C
330
1F
100
AcDbEntity
  8
0
  6
Continuous
 62
     7
370
    25
100
AcDbLine
 10
6469.0511823141
 20
3830.6850779499
 30
0.0
 11
6469.0511823141
 21
4080.6850779499
 31
0.0
  0
LINE
  5
25D
330
1F
100
AcDbEntity
  8
0
  6
Continuous
 62
     7
370
    25
100
AcDbLine
 10
6469.0511823141
 20
4080.6850779499
 30
0.0
 11
6481.5511823141
 21
4080.6850779499
 31
0.0
  0
LINE
  5
25E
330
1F
100
AcDbEntity
  8
0
  6
Continuous
 62
     7
370
    25
100
AcDbLine
 10
6466.5511823141
 20
3830.6850779499
 30
0.0
 11
6469.0511823141
 21
3830.6850779499
 31
0.0
  0
LINE
  5
25F
330
1F
100
AcDbEntity
  8
0
  6
Continuous
 62
     7
370
    25
100
AcDbLine
 10
6466.5511823141
 20
3830.6850779499
 30
0.0
 11
6466.5511823141
 21
4080.6850779499
 31
0.0
  0
LINE
  5
260
330
1F
100
AcDbEntity
  8
0
  6
Continuous
 62
     7
370
    25
100
AcDbLine
 10
6466.5511823141
 20
4080.6850779499
 30
0.0
 11
6469.0511823141
 21
4080.6850779499
 31
0.0
  0
LINE
  5
261
330
1F
100
AcDbEntity
  8
0
  6
Continuous
 62
     7
370
    25
100
AcDbLine
 10
6076.5511823141
 20
3830.6850779499
 30
0.0
 11
6076.5511823141
 21
4080.6850779499
 31
0.0
  0
LINE
  5
262
330
1F
100
AcDbEntity
  8
0
  6
Continuous
 62
     7
370
    25
100
AcDbLine
 10
6074.0511823141
 20
3830.6850779499
 30
0.0
 11
6076.5511823141
 21
3830.6850779499
 31
0.0
  0
LINE
  5
263
330
1F
100
AcDbEntity
  8
0
  6
Continuous
 62
     7
370
    25
100
AcDbLine
 10
6074.0511823141
 20
3830.6850779499
 30
0.0
 11
6074.0511823141
 21
4080.6850779499
 31
0.0
  0
LINE
  5
264
330
1F
100
AcDbEntity
  8
0
  6
Continuous
 62
     7
370
    25
100
AcDbLine
 10
6074.0511823141
 20
4080.6850779499
 30
0.0
 11
6076.5511823141
 21
4080.6850779499
 31
0.0
  0
LINE
  5
265
330
1F
100
AcDbEntity
  8
0
  6
Continuous
 62
     7
370
    25
100
AcDbLine
 10
6061.5511823141
 20
3830.6850779499
 30
0.0
 11
6074.0511823141
 21
3830.6850779499
 31
0.0
  0
LINE
  5
266
330
1F
100
AcDbEntity
  8
0
  6
Continuous
 62
     7
370
    25
100
AcDbLine
 10
6061.5511823141
 20
3830.6850779499
 30
0.0
 11
6061.5511823141
 21
4080.6850779499
 31
0.0
  0
LINE
  5
267
330
1F
100
AcDbEntity
  8
0
  6
Continuous
 62
     7
370
    25
100
AcDbLine
 10
6061.5511823141
 20
4080.6850779499
 30
0.0
 11
6074.0511823141
 21
4080.6850779499
 31
0.0
  0
LINE
  5
268
330
1F
100
AcDbEntity
  8
0
  6
Continuous
 62
     7
370
    25
100
AcDbLine
 10
6465.5511823141
 20
3830.6850779499
 30
0.0
 11
6466.5511823141
 21
3830.6850779499
 31
0.0
  0
LINE
  5
269
330
1F
100
AcDbEntity
  8
0
  6
Continuous
 62
     7
370
    25
100
AcDbLine
 10
6465.5511823141
 20
3830.6850779499
 30
0.0
 11
6465.5511823141
 21
4080.6850779499
 31
0.0
  0
LINE
  5
26A
330
1F
100
AcDbEntity
  8
0
  6
Continuous
 62
     7
370
    25
100
AcDbLine
 10
6465.5511823141
 20
4080.6850779499
 30
0.0
 11
6466.5511823141
 21
4080.6850779499
 31
0.0
  0
LINE
  5
26B
330
1F
100
AcDbEntity
  8
0
  6
Continuous
 62
     7
370
    25
100
AcDbLine
 10
6077.5511823141
 20
3830.6850779499
 30
0.0
 11
6077.5511823141
 21
4080.6850779499
 31
0.0
  0
LINE
  5
26C
330
1F
100
AcDbEntity
  8
0
  6
Continuous
 62
     7
370
    25
100
AcDbLine
 10
6076.5511823141
 20
3830.6850779499
 30
0.0
 11
6077.5511823141
 21
3830.6850779499
 31
0.0
  0
LINE
  5
26D
330
1F
100
AcDbEntity
  8
0
  6
Continuous
 62
     7
370
    25
100
AcDbLine
 10
6076.5511823141
 20
4080.6850779499
 30
0.0
 11
6077.5511823141
 21
4080.6850779499
 31
0.0
  0
LINE
  5
26E
330
1F
100
AcDbEntity
  8
0
  6
Continuous
 62
     7
370
    25
100
AcDbLine
 10
6077.5511823141
 20
4080.6850779499
 30
0.0
 11
6077.5511823141
 21
4083.1850779499
 31
0.0
  0
LINE
  5
26F
330
1F
100
AcDbEntity
  8
0
  6
Continuous
 62
     7
370
    25
100
AcDbLine
 10
6465.5511823141
 20
4083.1850779499
 30
0.0
 11
6465.5511823141
 21
4080.6850779499
 31
0.0
  0
CIRCLE
  5
270
330
1F
100
AcDbEntity
  8
0
  6
Continuous
 62
     7
370
    25
100
AcDbCircle
 10
6146.5511823141
 20
4055.6850779499
 30
0.0
 40
10.0
  0
CIRCLE
  5
271
330
1F
100
AcDbEntity
  8
0
  6
Continuous
 62
     7
370
    25
100
AcDbCircle
 10
6446.5511823141
 20
4055.6850779499
 30
0.0
 40
10.0
  0
ARC
  5
272
330
1F
100
AcDbEntity
  8
0
  6
Continuous
 62
     7
370
    25
100
AcDbCircle
 10
6396.5511823141
 20
4055.6850779499
 30
0.0
 40
10.0
100
AcDbArc
 50
180.0
 51
207.9687515418
  0
ARC
  5
273
330
1F
100
AcDbEntity
  8
0
  6
Continuous
 62
     7
370
    25
100
AcDbCircle
 10
6396.5511823141
 20
4055.6850779499
 30
0.0
 40
10.00000000000034
100
AcDbArc
 50
62.0312484582
 51
180.0
  0
CIRCLE
  5
274
330
1F
100
AcDbEntity
  8
0
  6
Continuous
 62
     7
370
    25
100
AcDbCircle
 10
6346.5511823141
 20
4055.6850779499
 30
0.0
 40
10.0
  0
CIRCLE
  5
275
330
1F
100
AcDbEntity
  8
0
  6
Continuous
 62
     7
370
    25
100
AcDbCircle
 10
6296.5511823141
 20
4055.6850779499
 30
0.0
 40
9.99999999999909
  0
CIRCLE
  5
276
330
1F
100
AcDbEntity
  8
0
  6
Continuous
 62
     7
370
    25
100
AcDbCircle
 10
6196.5511823141
 20
4055.6850779499
 30
0.0
 40
10.0
  0
CIRCLE
  5
277
330
1F
100
AcDbEntity
  8
0
  6
Continuous
 62
     7
370
    25
100
AcDbCircle
 10
6246.5511823141
 20
4055.6850779499
 30
0.0
 40
10.00000000000091
  0
CIRCLE
  5
278
330
1F
100
AcDbEntity
  8
0
  6
Continuous
 62
     7
370
    25
100
AcDbCircle
 10
6096.5511823141
 20
4055.6850779499
 30
0.0
 40
10.0
  0
CIRCLE
  5
279
330
1F
100
AcDbEntity
  8
0
  6
Continuous
 62
     7
370
    25
100
AcDbCircle
 10
6146.5511823141
 20
3855.6850779499
 30
0.0
 40
10.0
  0
CIRCLE
  5
27A
330
1F
100
AcDbEntity
  8
0
  6
Continuous
 62
     7
370
    25
100
AcDbCircle
 10
6446.5511823141
 20
3855.6850779499
 30
0.0
 40
10.0
  0
CIRCLE
  5
27B
330
1F
100
AcDbEntity
  8
0
  6
Continuous
 62
     7
370
    25
100
AcDbCircle
 10
6396.5511823141
 20
3855.6850779499
 30
0.0
 40
10.0
  0
CIRCLE
  5
27C
330
1F
100
AcDbEntity
  8
0
  6
Continuous
 62
     7
370
    25
100
AcDbCircle
 10
6346.5511823141
 20
3855.6850779499
 30
0.0
 40
10.0
  0
CIRCLE
  5
27D
330
1F
100
AcDbEntity
  8
0
  6
Continuous
 62
     7
370
    25
100
AcDbCircle
 10
6296.5511823141
 20
3855.6850779499
 30
0.0
 40
9.99999999999909
  0
CIRCLE
  5
27E
330
1F
100
AcDbEntity
  8
0
  6
Continuous
 62
     7
370
    25
100
AcDbCircle
 10
6196.5511823141
 20
3855.6850779499
 30
0.0
 40
10.0
  0
CIRCLE
  5
27F
330
1F
100
AcDbEntity
  8
0
  6
Continuous
 62
     7
370
    25
100
AcDbCircle
 10
6246.5511823141
 20
3855.6850779499
 30
0.0
 40
10.00000000000091
  0
CIRCLE
  5
280
330
1F
100
AcDbEntity
  8
0
  6
Continuous
 62
     7
370
    25
100
AcDbCircle
 10
6096.5511823141
 20
3855.6850779499
 30
0.0
 40
10.0
  0
LINE
  5
281
330
1F
100
AcDbEntity
  8
0
  6
Continuous
 62
     7
370
    25
100
AcDbLine
 10
6077.5511823141
 20
3830.6850779499
 30
0.0
 11
6465.5511823141
 21
3830.6850779499
 31
0.0
  0
CIRCLE
  5
282
330
1F
100
AcDbEntity
  8
0
  6
Continuous
 62
     7
370
    25
100
AcDbCircle
 10
6246.5511823141
 20
3955.6850779499
 30
0.0
 40
10.00000000000091
  0
CIRCLE
  5
283
330
1F
100
AcDbEntity
  8
0
  6
Continuous
 62
     7
370
    25
100
AcDbCircle
 10
6196.5511823141
 20
3955.6850779499
 30
0.0
 40
10.0
  0
CIRCLE
  5
284
330
1F
100
AcDbEntity
  8
0
  6
Continuous
 62
     7
370
    25
100
AcDbCircle
 10
6296.5511823141
 20
3955.6850779499
 30
0.0
 40
9.99999999999909
  0
CIRCLE
  5
285
330
1F
100
AcDbEntity
  8
0
  6
Continuous
 62
     7
370
    25
100
AcDbCircle
 10
6346.5511823141
 20
3955.6850779499
 30
0.0
 40
10.0
  0
CIRCLE
  5
286
330
1F
100
AcDbEntity
  8
0
  6
Continuous
 62
     7
370
    25
100
AcDbCircle
 10
6396.5511823141
 20
3955.6850779499
 30
0.0
 40
10.0
  0
CIRCLE
  5
287
330
1F
100
AcDbEntity
  8
0
  6
Continuous
 62
     7
370
    25
100
AcDbCircle
 10
6446.5511823141
 20
3955.6850779499
 30
0.0
 40
10.0
  0
CIRCLE
  5
288
330
1F
100
AcDbEntity
  8
0
  6
Continuous
 62
     7
370
    25
100
AcDbCircle
 10
6146.5511823141
 20
3955.6850779499
 30
0.0
 40
10.0
  0
CIRCLE
  5
289
330
1F
100
AcDbEntity
  8
0
  6
Continuous
 62
     7
370
    25
100
AcDbCircle
 10
6096.5511823141
 20
3955.6850779499
 30
0.0
 40
10.0
  0
CIRCLE
  5
28A
330
1F
100
AcDbEntity
  8
0
  6
Continuous
 62
     7
370
    25
100
AcDbCircle
 10
6096.5511823141
 20
3905.6850779499
 30
0.0
 40
10.0
  0
CIRCLE
  5
28B
330
1F
100
AcDbEntity
  8
0
  6
Continuous
 62
     7
370
    25
100
AcDbCircle
 10
6246.5511823141
 20
3905.6850779499
 30
0.0
 40
10.00000000000091
  0
CIRCLE
  5
28C
330
1F
100
AcDbEntity
  8
0
  6
Continuous
 62
     7
370
    25
100
AcDbCircle
 10
6196.5511823141
 20
3905.6850779499
 30
0.0
 40
10.0
  0
CIRCLE
  5
28D
330
1F
100
AcDbEntity
  8
0
  6
Continuous
 62
     7
370
    25
100
AcDbCircle
 10
6296.5511823141
 20
3905.6850779499
 30
0.0
 40
9.99999999999909
  0
CIRCLE
  5
28E
330
1F
100
AcDbEntity
  8
0
  6
Continuous
 62
     7
370
    25
100
AcDbCircle
 10
6346.5511823141
 20
3905.6850779499
 30
0.0
 40
10.0
  0
CIRCLE
  5
28F
330
1F
100
AcDbEntity
  8
0
  6
Continuous
 62
     7
370
    25
100
AcDbCircle
 10
6396.5511823141
 20
3905.6850779499
 30
0.0
 40
10.0
  0
CIRCLE
  5
290
330
1F
100
AcDbEntity
  8
0
  6
Continuous
 62
     7
370
    25
100
AcDbCircle
 10
6446.5511823141
 20
3905.6850779499
 30
0.0
 40
10.0
  0
CIRCLE
  5
291
330
1F
100
AcDbEntity
  8
0
  6
Continuous
 62
     7
370
    25
100
AcDbCircle
 10
6146.5511823141
 20
3905.6850779499
 30
0.0
 40
10.0
  0
CIRCLE
  5
292
330
1F
100
AcDbEntity
  8
0
  6
Continuous
 62
     7
370
    25
100
AcDbCircle
 10
6096.5511823141
 20
4005.6850779499
 30
0.0
 40
10.0
  0
CIRCLE
  5
293
330
1F
100
AcDbEntity
  8
0
  6
Continuous
 62
     7
370
    25
100
AcDbCircle
 10
6246.5511823141
 20
4005.6850779499
 30
0.0
 40
10.00000000000091
  0
CIRCLE
  5
294
330
1F
100
AcDbEntity
  8
0
  6
Continuous
 62
     7
370
    25
100
AcDbCircle
 10
6196.5511823141
 20
4005.6850779499
 30
0.0
 40
10.0
  0
CIRCLE
  5
295
330
1F
100
AcDbEntity
  8
0
  6
Continuous
 62
     7
370
    25
100
AcDbCircle
 10
6296.5511823141
 20
4005.6850779499
 30
0.0
 40
9.99999999999909
  0
ARC
  5
296
330
1F
100
AcDbEntity
  8
0
  6
Continuous
 62
     7
370
    25
100
AcDbCircle
 10
6346.5511823141
 20
4005.6850779499
 30
0.0
 40
10.0
100
AcDbArc
 50
180.0
 51
212.1178647532
  0
ARC
  5
297
330
1F
100
AcDbEntity
  8
0
  6
Continuous
 62
     7
370
    25
100
AcDbCircle
 10
6346.5511823141
 20
4005.6850779499
 30
0.0
 40
10.0
100
AcDbArc
 50
62.0312484582
 51
180.0
  0
CIRCLE
  5
298
330
1F
100
AcDbEntity
  8
0
  6
Continuous
 62
     7
370
    25
100
AcDbCircle
 10
6396.5511823141
 20
4005.6850779499
 30
0.0
 40
10.0
  0
CIRCLE
  5
299
330
1F
100
AcDbEntity
  8
0
  6
Continuous
 62
     7
370
    25
100
AcDbCircle
 10
6446.5511823141
 20
4005.6850779499
 30
0.0
 40
10.0
  0
CIRCLE
  5
29A
330
1F
100
AcDbEntity
  8
0
  6
Continuous
 62
     7
370
    25
100
AcDbCircle
 10
6146.5511823141
 20
4005.6850779499
 30
0.0
 40
10.0
  0
LINE
  5
29B
330
1F
100
AcDbEntity
  8
0
  6
Continuous
 62
     7
370
    25
100
AcDbLine
 10
6077.5511823141
 20
3828.1850779499
 30
0.0
 11
6077.5511823141
 21
3830.6850779499
 31
0.0
  0
LINE
  5
29C
330
1F
100
AcDbEntity
  8
0
  6
Continuous
 62
     7
370
    25
100
AcDbLine
 10
6465.5511823141
 20
3830.6850779499
 30
0.0
 11
6465.5511823141
 21
3828.1850779499
 31
0.0
  0
LINE
  5
29D
330
1F
100
AcDbEntity
  8
0
  6
Continuous
 62
     7
370
    25
100
AcDbLine
 10
6519.5511823141
 20
4425.6850779499
 30
0.0
 11
6023.5511823141
 21
4425.6850779499
 31
0.0
  0
LINE
  5
29E
330
1F
100
AcDbEntity
  8
0
  6
Continuous
 62
     7
370
    25
100
AcDbLine
 10
6519.5511823141
 20
4423.6850779499
 30
0.0
 11
6519.5511823141
 21
4425.6850779499
 31
0.0
  0
LINE
  5
29F
330
1F
100
AcDbEntity
  8
0
  6
Continuous
 62
     7
370
    25
100
AcDbLine
 10
6023.5511823141
 20
4425.6850779499
 30
0.0
 11
6023.5511823141
 21
4423.6850779499
 31
0.0
  0
LINE
  5
2A0
330
1F
100
AcDbEntity
  8
0
  6
Continuous
 62
     7
370
    25
100
AcDbLine
 10
6023.5511823141
 20
4423.6850779499
 30
0.0
 11
6519.5511823141
 21
4423.6850779499
 31
0.0
  0
LINE
  5
2A1
330
1F
100
AcDbEntity
  8
0
  6
Continuous
 62
     7
370
    25
100
AcDbLine
 10
6521.5511823141
 20
4423.6850779499
 30
0.0
 11
6519.5511823141
 21
4423.6850779499
 31
0.0
  0
ARC
  5
2A2
330
1F
100
AcDbEntity
  8
0
  6
Continuous
 62
     7
370
    25
100
AcDbCircle
 10
6519.5511823141
 20
4423.6850779499
 30
0.0
 40
2.0
100
AcDbArc
 50
0.0
 51
90.0
  0
LINE
  5
2A3
330
1F
100
AcDbEntity
  8
0
  6
Continuous
 62
     7
370
    25
100
AcDbLine
 10
6519.5511823141
 20
4092.6850779499
 30
0.0
 11
6519.5511823141
 21
4423.6850779499
 31
0.0
  0
LINE
  5
2A4
330
1F
100
AcDbEntity
  8
0
  6
Continuous
 62
     7
370
    25
100
AcDbLine
 10
6023.5511823141
 20
4423.6850779499
 30
0.0
 11
6023.5511823141
 21
4092.6850779499
 31
0.0
  0
LINE
  5
2A5
330
1F
100
AcDbEntity
  8
0
  6
Continuous
 62
     7
370
    25
100
AcDbLine
 10
6130.9351360924
 20
4415.6850779499
 30
0.0
 11
6412.1672285357
 21
4415.6850779499
 31
0.0
  0
ARC
  5
2A6
330
1F
100
AcDbEntity
  8
0
  6
Continuous
 62
     7
370
    25
100
AcDbCircle
 10
6130.9351360924
 20
4360.6850779499
 30
0.0
 40
55.00000000000023
100
AcDbArc
 50
90.0
 51
170.9966072197
  0
LINE
  5
2A7
330
1F
100
AcDbEntity
  8
0
  6
Continuous
 62
     7
370
    25
100
AcDbLine
 10
6052.2288331578
 20
4215.3969458597
 30
0.0
 11
6076.6127869362
 21
4369.2921902503
 31
0.0
  0
ARC
  5
2A8
330
1F
100
AcDbEntity
  8
0
  6
Continuous
 62
     7
370
    25
100
AcDbCircle
 10
6106.5511823141
 20
4206.7898335593
 30
0.0
 40
54.99999999999989
100
AcDbArc
 50
170.9966072197
 51
248.6484970071
  0
ARC
  5
2A9
330
1F
100
AcDbEntity
  8
0
  6
Continuous
 62
     7
370
    25
100
AcDbCircle
 10
6271.5511823141
 20
4628.8715002378
 30
0.0
 40
508.1864222878618
100
AcDbArc
 50
248.6484970071
 51
291.3515029929
  0
ARC
  5
2AA
330
1F
100
AcDbEntity
  8
0
  6
Continuous
 62
     7
370
    25
100
AcDbCircle
 10
6436.5511823141
 20
4206.7898335593
 30
0.0
 40
54.99999999999989
100
AcDbArc
 50
291.3515029929
 51
9.0033927803
  0
LINE
  5
2AB
330
1F
100
AcDbEntity
  8
0
  6
Continuous
 62
     7
370
    25
100
AcDbLine
 10
6466.4895776919
 20
4369.2921902503
 30
0.0
 11
6490.8735314703
 21
4215.3969458597
 31
0.0
  0
ARC
  5
2AC
330
1F
100
AcDbEntity
  8
0
  6
Continuous
 62
     7
370
    25
100
AcDbCircle
 10
6412.1672285357
 20
4360.6850779499
 30
0.0
 40
55.00000000000113
100
AcDbArc
 50
9.0033927803
 51
90.0
  0
LINE
  5
2AD
330
1F
100
AcDbEntity
  8
0
  6
Continuous
 62
     7
370
    25
100
AcDbLine
 10
6521.5511823141
 20
4423.6850779499
 30
0.0
 11
6521.5511823141
 21
4092.6850779499
 31
0.0
  0
LINE
  5
2AE
330
1F
100
AcDbEntity
  8
0
  6
Continuous
 62
     7
370
    25
100
AcDbLine
 10
6521.5511823141
 20
4092.6850779499
 30
0.0
 11
6519.5511823141
 21
4092.6850779499
 31
0.0
  0
LINE
  5
2AF
330
1F
100
AcDbEntity
  8
0
  6
Continuous
 62
     7
370
    25
100
AcDbLine
 10
6412.1672285357
 20
4415.6850779499
 30
0.0
 11
6412.1672285357
 21
4410.6850779499
 31
0.0
  0
LINE
  5
2B0
330
1F
100
AcDbEntity
  8
0
  6
Continuous
 62
     7
370
    25
100
AcDbLine
 10
6412.1672285357
 20
4410.6850779499
 30
0.0
 11
6130.9351360924
 21
4410.6850779499
 31
0.0
  0
LINE
  5
2B1
330
1F
100
AcDbEntity
  8
0
  6
Continuous
 62
     7
370
    25
100
AcDbLine
 10
6130.9351360924
 20
4415.6850779499
 30
0.0
 11
6130.9351360924
 21
4410.6850779499
 31
0.0
  0
LINE
  5
2B2
330
1F
100
AcDbEntity
  8
0
  6
Continuous
 62
     7
370
    25
100
AcDbLine
 10
6466.4895776919
 20
4369.2921902503
 30
0.0
 11
6461.5511823141
 21
4368.5097254957
 31
0.0
  0
ARC
  5
2B3
330
1F
100
AcDbEntity
  8
0
  6
Continuous
 62
     7
370
    25
100
AcDbCircle
 10
6412.1672285357
 20
4360.6850779499
 30
0.0
 40
49.99999999999984
100
AcDbArc
 50
9.0033927803
 51
90.0
  0
LINE
  5
2B4
330
1F
100
AcDbEntity
  8
0
  6
Continuous
 62
     7
370
    25
100
AcDbLine
 10
6023.5511823141
 20
4423.6850779499
 30
0.0
 11
6021.5511823141
 21
4423.6850779499
 31
0.0
  0
ARC
  5
2B5
330
1F
100
AcDbEntity
  8
0
  6
Continuous
 62
     7
370
    25
100
AcDbCircle
 10
6023.5511823141
 20
4423.6850779499
 30
0.0
 40
2.0
100
AcDbArc
 50
90.0
 51
180.0
  0
LINE
  5
2B6
330
1F
100
AcDbEntity
  8
0
  6
Continuous
 62
     7
370
    25
100
AcDbLine
 10
6023.5511823141
 20
4092.6850779499
 30
0.0
 11
6021.5511823141
 21
4092.6850779499
 31
0.0
  0
LINE
  5
2B7
330
1F
100
AcDbEntity
  8
0
  6
Continuous
 62
     7
370
    25
100
AcDbLine
 10
6021.5511823141
 20
4092.6850779499
 30
0.0
 11
6021.5511823141
 21
4423.6850779499
 31
0.0
  0
LINE
  5
2B8
330
1F
100
AcDbEntity
  8
0
  6
Continuous
 62
     7
370
    25
100
AcDbLine
 10
6485.9351360924
 20
4214.6144811051
 30
0.0
 11
6461.5511823141
 21
4368.5097254957
 31
0.0
  0
LINE
  5
2B9
330
1F
100
AcDbEntity
  8
0
  6
Continuous
 62
     7
370
    25
100
AcDbLine
 10
6485.9351360924
 20
4214.6144811051
 30
0.0
 11
6490.8735314703
 21
4215.3969458597
 31
0.0
  0
ARC
  5
2BA
330
1F
100
AcDbEntity
  8
0
  6
Continuous
 62
     7
370
    25
100
AcDbCircle
 10
6130.9351360924
 20
4360.6850779499
 30
0.0
 40
49.99999999999984
100
AcDbArc
 50
90.0
 51
170.9966072197
  0
LINE
  5
2BB
330
1F
100
AcDbEntity
  8
0
  6
Continuous
 62
     7
370
    25
100
AcDbLine
 10
6076.6127869362
 20
4369.2921902503
 30
0.0
 11
6081.5511823141
 21
4368.5097254957
 31
0.0
  0
LINE
  5
2BC
330
1F
100
AcDbEntity
  8
0
  6
Continuous
 62
     7
370
    25
100
AcDbLine
 10
6081.5511823141
 20
4368.5097254957
 30
0.0
 11
6057.1672285357
 21
4214.6144811051
 31
0.0
  0
LINE
  5
2BD
330
1F
100
AcDbEntity
  8
0
  6
Continuous
 62
     7
370
    25
100
AcDbLine
 10
6057.1672285357
 20
4214.6144811051
 30
0.0
 11
6052.2288331578
 21
4215.3969458597
 31
0.0
  0
ARC
  5
2BE
330
1F
100
AcDbEntity
  8
0
  6
Continuous
 62
     7
370
    25
100
AcDbCircle
 10
6436.5511823141
 20
4206.7898335593
 30
0.0
 40
50.00000000000043
100
AcDbArc
 50
291.3515029929
 51
9.0033927803
  0
LINE
  5
2BF
330
1F
100
AcDbEntity
  8
0
  6
Continuous
 62
     7
370
    25
100
AcDbLine
 10
6454.7556112075
 20
4160.2216172668
 30
0.0
 11
6456.5760540968
 21
4155.5647956376
 31
0.0
  0
ARC
  5
2C0
330
1F
100
AcDbEntity
  8
0
  6
Continuous
 62
     7
370
    25
100
AcDbCircle
 10
6271.5511823141
 20
4628.8715002378
 30
0.0
 40
503.1864222878623
100
AcDbArc
 50
248.6484970071
 51
291.3515029929
  0
LINE
  5
2C1
330
1F
100
AcDbEntity
  8
0
  6
Continuous
 62
     7
370
    25
100
AcDbLine
 10
6088.3467534206
 20
4160.2216172668
 30
0.0
 11
6086.5263105313
 21
4155.5647956376
 31
0.0
  0
ARC
  5
2C2
330
1F
100
AcDbEntity
  8
0
  6
Continuous
 62
     7
370
    25
100
AcDbCircle
 10
6106.5511823141
 20
4206.7898335593
 30
0.0
 40
50.00000000000088
100
AcDbArc
 50
170.9966072197
 51
248.6484970071
  0
LINE
  5
2C3
330
1F
100
AcDbEntity
  8
0
  6
Continuous
 62
     7
370
    25
100
AcDbLine
 10
6519.5511823141
 20
4090.6850779499
 30
0.0
 11
6519.5511823141
 21
4092.6850779499
 31
0.0
  0
LINE
  5
2C4
330
1F
100
AcDbEntity
  8
0
  6
Continuous
 62
     7
370
    25
100
AcDbLine
 10
6519.5511823141
 20
4090.6850779499
 30
0.0
 11
6455.6933179378
 21
4090.6850779499
 31
0.0
  0
LINE
  5
2C5
330
1F
100
AcDbEntity
  8
0
  6
Continuous
 62
     7
370
    25
100
AcDbLine
 10
6427.4090466903
 20
4090.6850779499
 30
0.0
 11
6023.5511823141
 21
4090.6850779499
 31
0.0
  0
LINE
  5
2C6
330
1F
100
AcDbEntity
  8
0
  6
Continuous
 62
     7
370
    25
100
AcDbLine
 10
6023.5511823141
 20
4092.6850779499
 30
0.0
 11
6023.5511823141
 21
4090.6850779499
 31
0.0
  0
ARC
  5
2C7
330
1F
100
AcDbEntity
  8
0
  6
Continuous
 62
     7
370
    25
100
AcDbCircle
 10
6519.5511823141
 20
4092.6850779499
 30
0.0
 40
2.0
100
AcDbArc
 50
270.0
 51
0.0
  0
ARC
  5
2C8
330
1F
100
AcDbEntity
  8
0
  6
Continuous
 62
     7
370
    25
100
AcDbCircle
 10
6023.5511823141
 20
4092.6850779499
 30
0.0
 40
2.0
100
AcDbArc
 50
180.0
 51
270.0
  0
LWPOLYLINE
  5
2C9
330
1F
100
AcDbEntity
  8
0
  6
Continuous
 62
     7
370
    25
100
AcDbPolyline
 90
       14
 70
   128
 43
0.0
 10
6172.1855905319
 20
4135.593632556
 10
6172.6348682254
 20
4135.6915262692
 10
6173.1537678445
 20
4136.1507954932
 10
6173.7384560467
 20
4136.9680474022
 10
6174.3846134806
 20
4138.137244593
 10
6175.0874666937
 20
4139.6497496859
 10
6175.8418233969
 20
4141.4943891333
 10
6176.6421108218
 20
4143.6575357635
 10
6177.4824168893
 20
4146.1232094505
 10
6178.356533885
 20
4148.8731951664
 10
6179.2580043178
 20
4151.8871775439
 10
6180.1801686248
 20
4155.1428909551
 10
6181.1162143684
 20
4158.6162839975
 10
6182.0592265623
 20
4162.2816971721
  0
ARC
  5
2CA
330
1F
100
AcDbEntity
  8
0
  6
Continuous
 62
     7
370
    25
100
AcDbCircle
 10
6271.5511823141
 20
4548.5092238014
 30
0.0
 40
396.4599758745483
100
AcDbArc
 50
256.9543331213
 51
283.0456668787
  0
LWPOLYLINE
  5
2CB
330
1F
100
AcDbEntity
  8
0
  6
Continuous
 62
     7
370
    25
100
AcDbPolyline
 90
       14
 70
   128
 43
0.0
 10
6370.9167740962
 20
4135.593632556
 10
6370.4674964027
 20
4135.6915262692
 10
6369.9485967837
 20
4136.1507954932
 10
6369.3639085814
 20
4136.9680474022
 10
6368.7177511475
 20
4138.137244593
 10
6368.0148979344
 20
4139.6497496859
 10
6367.2605412312
 20
4141.4943891333
 10
6366.4602538063
 20
4143.6575357635
 10
6365.6199477388
 20
4146.1232094505
 10
6364.7458307432
 20
4148.8731951664
 10
6363.8443603103
 20
4151.8871775439
 10
6362.9221960033
 20
4155.1428909551
 10
6361.9861502597
 20
4158.6162839975
 10
6361.0431380658
 20
4162.2816971721
  0
LWPOLYLINE
  5
2CC
330
1F
100
AcDbEntity
  8
0
  6
Continuous
 62
     7
370
    25
100
AcDbPolyline
 90
        7
 70
   128
 43
0.0
 10
6361.0431380658
 20
4162.2816971721
 10
6375.5634940128
 20
4166.3190630595
 10
6390.0142363718
 20
4170.78519679
 10
6404.3534876577
 20
4175.6693354299
 10
6418.8235079286
 20
4181.0696347688
 10
6433.1326286615
 20
4186.8882371002
 10
6447.2341053388
 20
4193.1042796938
  0
LWPOLYLINE
  5
2CD
330
1F
100
AcDbEntity
  8
0
  6
Continuous
 62
     7
370
    25
100
AcDbPolyline
 90
       15
 70
   128
 43
0.0
 10
6454.7556112075
 20
4160.2216172668
 10
6455.1162066788
 20
4160.5701843086
 10
6455.3332171213
 20
4161.2762219115
 10
6455.4049641394
 20
4162.3342694614
 10
6455.3308928298
 20
4163.7361438403
 10
6455.1115760723
 20
4165.4710027154
 10
6454.7487100998
 20
4167.5254283955
 10
6454.2451013788
 20
4169.883531606
 10
6453.6046449043
 20
4172.5270743791
 10
6452.8322940744
 20
4175.4356111091
 10
6451.9340223808
 20
4178.5866466826
 10
6450.9167772083
 20
4181.9558104592
 10
6449.7884261024
 20
4185.517044758
 10
6448.557695921
 20
4189.2428063924
 10
6447.2341053388
 20
4193.1042796938
  0
LWPOLYLINE
  5
2CE
330
1F
100
AcDbEntity
  8
0
  6
Continuous
 62
     7
370
    25
100
AcDbPolyline
 90
       15
 70
   128
 43
0.0
 10
6095.8682592893
 20
4193.1042796938
 10
6094.5446687071
 20
4189.2428063924
 10
6093.3139385257
 20
4185.517044758
 10
6092.1855874198
 20
4181.9558104592
 10
6091.1683422473
 20
4178.5866466826
 10
6090.2700705537
 20
4175.4356111091
 10
6089.4977197239
 20
4172.5270743791
 10
6088.8572632493
 20
4169.883531606
 10
6088.3536545283
 20
4167.5254283955
 10
6087.9907885558
 20
4165.4710027154
 10
6087.7714717983
 20
4163.7361438404
 10
6087.6974004887
 20
4162.3342694614
 10
6087.7691475068
 20
4161.2762219115
 10
6087.9861579493
 20
4160.5701843087
 10
6088.3467534206
 20
4160.2216172668
  0
LWPOLYLINE
  5
2CF
330
1F
100
AcDbEntity
  8
0
  6
Continuous
 62
     7
370
    25
100
AcDbPolyline
 90
        7
 70
   128
 43
0.0
 10
6095.8682592893
 20
4193.1042796938
 10
6109.7063801408
 20
4186.9998385024
 10
6123.744937584
 20
4181.2780332711
 10
6137.9397271493
 20
4175.9586753635
 10
6152.5440047849
 20
4170.9622948078
 10
6167.2652807419
 20
4166.3994791668
 10
6182.0592265623
 20
4162.2816971721
  0
LWPOLYLINE
  5
2D0
330
1F
100
AcDbEntity
  8
0
  6
Continuous
 62
     7
370
    25
100
AcDbPolyline
 90
       17
 70
   128
 43
0.0
 10
6485.9351360924
 20
4214.6144811051
 10
6485.9567109847
 20
4213.2528519764
 10
6485.5992935157
 20
4211.8416446998
 10
6484.8656254534
 20
4210.3916847191
 10
6483.7613348033
 20
4208.9140947523
 10
6482.2948926359
 20
4207.4202094681
 10
6480.477548105
 20
4205.9214885378
 10
6478.3232421542
 20
4204.4294287269
 10
6475.8485005756
 20
4202.9554757034
 10
6473.0723072398
 20
4201.510936237
 10
6470.0159584691
 20
4200.1068914645
 10
6466.7028996727
 20
4198.7541118858
 10
6463.1585454957
 20
4197.462974743
 10
6459.410084862
 20
4196.2433844157
 10
6455.4862724067
 20
4195.1046964443
 10
6451.4172078976
 20
4194.055645763
 10
6447.2341053388
 20
4193.1042796938
  0
LWPOLYLINE
  5
2D1
330
1F
100
AcDbEntity
  8
0
  6
Continuous
 62
     7
370
    25
100
AcDbPolyline
 90
        7
 70
   128
 43
0.0
 10
6447.2341053388
 20
4193.1042796938
 10
6445.8719957872
 20
4207.389578512
 10
6444.4834343553
 20
4221.8502786053
 10
6443.0737541439
 20
4236.4439599713
 10
6441.6190331775
 20
4251.4291120605
 10
6440.1493775814
 20
4266.507073818
 10
6438.6707988576
 20
4281.6294785903
  0
LWPOLYLINE
  5
2D2
330
1F
100
AcDbEntity
  8
0
  6
Continuous
 62
     7
370
    25
100
AcDbPolyline
 90
       16
 70
   128
 43
0.0
 10
6474.0771579434
 20
4289.4541261361
 10
6473.924966996
 20
4289.2319290105
 10
6473.4082875147
 20
4288.9534469613
 10
6472.5309447484
 20
4288.6207417371
 10
6471.2994341253
 20
4288.2362765289
 10
6469.7228731637
 20
4287.8028977341
 10
6467.8129339703
 20
4287.323813883
 10
6465.5837568258
 20
4286.8025718843
 10
6463.0518454964
 20
4286.2430307657
 10
6460.2359450483
 20
4285.6493331032
 10
6457.1569030677
 20
4285.0258743516
 10
6453.8375153157
 20
4284.3772703027
 10
6450.3023569588
 20
4283.7083229122
 10
6446.5776006266
 20
4283.023984748
 10
6442.6908226416
 20
4282.3293223241
 10
6438.6707988576
 20
4281.6294785903
  0
LWPOLYLINE
  5
2D3
330
1F
100
AcDbEntity
  8
0
  6
Continuous
 62
     7
370
    25
100
AcDbPolyline
 90
        7
 70
   128
 43
0.0
 10
6104.4315657705
 20
4281.6294785903
 10
6102.9805445275
 20
4266.7893127126
 10
6101.5380503816
 20
4251.9915108747
 10
6100.1097673358
 20
4237.281810494
 10
6098.6722912009
 20
4222.4041767497
 10
6097.2565728137
 20
4207.6633592096
 10
6095.8682592893
 20
4193.1042796938
  0
LWPOLYLINE
  5
2D4
330
1F
100
AcDbEntity
  8
0
  6
Continuous
 62
     7
370
    25
100
AcDbPolyline
 90
       17
 70
   128
 43
0.0
 10
6095.8682592893
 20
4193.1042796938
 10
6091.6851567305
 20
4194.055645763
 10
6087.6160922214
 20
4195.1046964443
 10
6083.6922797661
 20
4196.2433844157
 10
6079.9438191324
 20
4197.462974743
 10
6076.3994649555
 20
4198.7541118859
 10
6073.0864061591
 20
4200.1068914645
 10
6070.0300573883
 20
4201.510936237
 10
6067.2538640525
 20
4202.9554757034
 10
6064.7791224739
 20
4204.4294287269
 10
6062.6248165231
 20
4205.9214885378
 10
6060.8074719922
 20
4207.4202094681
 10
6059.3410298248
 20
4208.9140947523
 10
6058.2367391747
 20
4210.3916847191
 10
6057.5030711124
 20
4211.8416446998
 10
6057.1456536434
 20
4213.2528519764
 10
6057.1672285357
 20
4214.6144811051
  0
LWPOLYLINE
  5
2D5
330
1F
100
AcDbEntity
  8
0
  6
Continuous
 62
     7
370
    25
100
AcDbPolyline
 90
       16
 70
   128
 43
0.0
 10
6104.4315657705
 20
4281.6294785903
 10
6100.4115419865
 20
4282.3293223241
 10
6096.5247640015
 20
4283.023984748
 10
6092.8000076693
 20
4283.7083229122
 10
6089.2648493124
 20
4284.3772703027
 10
6085.9454615604
 20
4285.0258743516
 10
6082.8664195798
 20
4285.6493331032
 10
6080.0505191317
 20
4286.2430307657
 10
6077.5186078023
 20
4286.8025718843
 10
6075.2894306578
 20
4287.323813883
 10
6073.3794914645
 20
4287.8028977341
 10
6071.8029305028
 20
4288.2362765289
 10
6070.5714198797
 20
4288.6207417371
 10
6069.6940771134
 20
4288.9534469613
 10
6069.1773976321
 20
4289.2319290105
 10
6069.0252066847
 20
4289.4541261361
  0
LINE
  5
2D6
330
1F
100
AcDbEntity
  8
0
  6
Continuous
 62
     7
370
    25
100
AcDbLine
 10
6438.6707988576
 20
4281.6294785903
 30
0.0
 11
6425.0015510659
 21
4360.6850779499
 31
0.0
  0
LWPOLYLINE
  5
2D7
330
1F
100
AcDbEntity
  8
0
  6
Continuous
 62
     7
370
    25
100
AcDbPolyline
 90
       16
 70
   128
 43
0.0
 10
6461.5511823141
 20
4368.5097254957
 10
6461.390123945
 20
4368.3002214721
 10
6460.851309616
 20
4368.0322758264
 10
6459.9388744012
 20
4367.7079448794
 10
6458.6598206891
 20
4367.3297176751
 10
6457.0239644437
 20
4366.9004968785
 10
6455.0438598725
 20
4366.4235764997
 10
6452.7347030808
 20
4365.9026166143
 10
6450.1142154509
 20
4365.3416152745
 10
6447.2025076407
 20
4364.7448778261
 10
6444.0219252473
 20
4364.1169838685
 10
6440.5968773173
 20
4363.462752108
 10
6436.9536490227
 20
4362.7872033779
 10
6433.1201999378
 20
4362.0955221061
 10
6429.1259494664
 20
4361.3930165283
 10
6425.0015510659
 20
4360.6850779499
  0
LINE
  5
2D8
330
1F
100
AcDbEntity
  8
0
  6
Continuous
 62
     7
370
    25
100
AcDbLine
 10
6118.1008135622
 20
4360.6850779499
 30
0.0
 11
6104.4315657705
 21
4281.6294785903
 31
0.0
  0
LWPOLYLINE
  5
2D9
330
1F
100
AcDbEntity
  8
0
  6
Continuous
 62
     7
370
    25
100
AcDbPolyline
 90
       16
 70
   128
 43
0.0
 10
6118.1008135622
 20
4360.6850779499
 10
6113.9764151617
 20
4361.3930165283
 10
6109.9821646903
 20
4362.0955221061
 10
6106.1487156054
 20
4362.7872033779
 10
6102.5054873108
 20
4363.462752108
 10
6099.0804393808
 20
4364.1169838685
 10
6095.8998569874
 20
4364.7448778261
 10
6092.9881491772
 20
4365.3416152745
 10
6090.3676615473
 20
4365.9026166143
 10
6088.0585047556
 20
4366.4235764997
 10
6086.0784001844
 20
4366.9004968785
 10
6084.442543939
 20
4367.3297176751
 10
6083.1634902269
 20
4367.7079448794
 10
6082.2510550121
 20
4368.0322758264
 10
6081.7122406831
 20
4368.3002214721
 10
6081.5511823141
 20
4368.5097254957
  0
LWPOLYLINE
  5
2DA
330
1F
100
AcDbEntity
  8
0
  6
Continuous
 62
     7
370
    25
100
AcDbPolyline
 90
       10
 70
   128
 43
0.0
 10
6255.2874234374
 20
4303.6348223915
 10
6253.3809259467
 20
4299.8826341987
 10
6244.4054966696
 20
4282.2426768335
 10
6235.4535893486
 20
4264.7027827774
 10
6226.7407780078
 20
4247.7007433098
 10
6218.0581303101
 20
4230.8432870375
 10
6209.4199440399
 20
4214.1750455258
 10
6200.8405169818
 20
4197.7406503403
 10
6191.4086769558
 20
4179.8357528421
 10
6182.0592265623
 20
4162.2816971721
  0
LINE
  5
2DB
330
1F
100
AcDbEntity
  8
0
  6
Continuous
 62
     7
370
    25
100
AcDbLine
 10
6255.2886796289
 20
4303.6341935653
 30
0.0
 11
6255.2874234374
 21
4303.6348223915
 31
0.0
  0
ARC
  5
2DC
330
1F
100
AcDbEntity
  8
0
  6
Continuous
 62
     7
370
    25
100
AcDbCircle
 10
6271.5511823144
 20
4336.1561851548
 30
0.0
 40
36.36136590380902
100
AcDbArc
 50
243.4328250444
 51
296.5671733244
  0
LINE
  5
2DD
330
1F
100
AcDbEntity
  8
0
  6
Continuous
 62
     7
370
    25
100
AcDbLine
 10
6287.8149412059
 20
4303.6348223617
 30
0.0
 11
6287.8136840736
 21
4303.6341931034
 31
0.0
  0
LWPOLYLINE
  5
2DE
330
1F
100
AcDbEntity
  8
0
  6
Continuous
 62
     7
370
    25
100
AcDbPolyline
 90
       10
 70
   128
 43
0.0
 10
6361.0431380658
 20
4162.2816971721
 10
6351.6936448416
 20
4179.8358337248
 10
6342.261761279
 20
4197.7408151109
 10
6333.6823440759
 20
4214.1751926519
 10
6325.0441678763
 20
4230.8434156606
 10
6316.3615304129
 20
4247.7008527335
 10
6307.6487294178
 20
4264.7028724671
 10
6298.6968333404
 20
4282.2427447781
 10
6289.7214153966
 20
4299.8826800161
 10
6287.8149412059
 20
4303.6348223617
  0
LWPOLYLINE
  5
2DF
330
1F
100
AcDbEntity
  8
0
  6
Continuous
 62
     7
370
    25
100
AcDbPolyline
 90
       19
 70
   128
 43
0.0
 10
6412.1672285357
 20
4410.6850779499
 10
6413.2858134485
 20
4410.4948128545
 10
6414.3958852546
 20
4409.9254656005
 10
6415.4889956375
 20
4408.9813692644
 10
6416.556825367
 20
4407.6697089892
 10
6417.591247614
 20
4406.0004673018
 10
6418.5843898008
 20
4403.9863481391
 10
6419.5286935155
 20
4401.6426801644
 10
6420.4169720368
 20
4398.9873001059
 10
6421.2424650287
 20
4396.0404170092
 10
6421.9988899911
 20
4392.8244584342
 10
6422.6804900734
 20
4389.3638997675
 10
6423.2820778872
 20
4385.6850779499
 10
6423.7990749862
 20
4381.815991037
 10
6424.2275467101
 20
4377.7860851162
 10
6424.5642321305
 20
4373.626030205
 10
6424.8065688681
 20
4369.3674868333
 10
6424.9527125939
 20
4365.0428650873
 10
6425.0015510659
 20
4360.6850779499
  0
LWPOLYLINE
  5
2E0
330
1F
100
AcDbEntity
  8
0
  6
Continuous
 62
     7
370
    25
100
AcDbPolyline
 90
       19
 70
   128
 43
0.0
 10
6118.1008135622
 20
4360.6850779499
 10
6118.1496520342
 20
4365.0428650873
 10
6118.29579576
 20
4369.3674868333
 10
6118.5381324976
 20
4373.626030205
 10
6118.874817918
 20
4377.7860851162
 10
6119.303289642
 20
4381.815991037
 10
6119.8202867409
 20
4385.6850779499
 10
6120.4218745547
 20
4389.3638997675
 10
6121.103474637
 20
4392.8244584342
 10
6121.8598995994
 20
4396.0404170092
 10
6122.6853925913
 20
4398.9873001059
 10
6123.5736711126
 20
4401.6426801644
 10
6124.5179748273
 20
4403.9863481391
 10
6125.5111170141
 20
4406.0004673018
 10
6126.5455392612
 20
4407.6697089892
 10
6127.6133689906
 20
4408.9813692644
 10
6128.7064793735
 20
4409.9254656005
 10
6129.8165511796
 20
4410.4948128545
 10
6130.9351360924
 20
4410.6850779499
  0
LINE
  5
2E1
330
1F
100
AcDbEntity
  8
0
  6
Continuous
 62
     7
370
    25
100
AcDbLine
 10
6195.3887329726
 20
4360.6850779499
 30
0.0
 11
6118.1008135622
 21
4360.6850779499
 31
0.0
  0
LWPOLYLINE
  5
2E2
330
1F
100
AcDbEntity
  8
0
  6
Continuous
 62
     7
370
    25
100
AcDbPolyline
 90
       19
 70
   128
 43
0.0
 10
6195.3887329726
 20
4360.6850779499
 10
6195.4129731076
 20
4365.0428650873
 10
6195.4855090305
 20
4369.3674868333
 10
6195.605788699
 20
4373.626030205
 10
6195.7728967124
 20
4377.7860851162
 10
6195.9855612778
 20
4381.8159910369
 10
6196.2421638893
 20
4385.6850779499
 10
6196.5407516461
 20
4389.3638997675
 10
6196.8790521152
 20
4392.8244584342
 10
6197.2544906257
 20
4396.0404170092
 10
6197.6642098639
 20
4398.9873001059
 10
6198.1050916189
 20
4401.6426801644
 10
6198.5737805143
 20
4403.9863481391
 10
6199.0667095448
 20
4406.0004673018
 10
6199.5801272226
 20
4407.6697089892
 10
6200.1101261293
 20
4408.9813692644
 10
6200.6526726533
 20
4409.9254656005
 10
6201.2036376877
 20
4410.4948128545
 10
6201.7588280561
 20
4410.6850779499
  0
LINE
  5
2E3
330
1F
100
AcDbEntity
  8
0
  6
Continuous
 62
     7
370
    25
100
AcDbLine
 10
6425.0015510659
 20
4360.6850779499
 30
0.0
 11
6347.7136316555
 21
4360.6850779499
 31
0.0
  0
LWPOLYLINE
  5
2E4
330
1F
100
AcDbEntity
  8
0
  6
Continuous
 62
     7
370
    25
100
AcDbPolyline
 90
       19
 70
   128
 43
0.0
 10
6341.3435365721
 20
4410.6850779499
 10
6341.8987269404
 20
4410.4948128545
 10
6342.4496919749
 20
4409.9254656005
 10
6342.9922384988
 20
4408.9813692644
 10
6343.5222374055
 20
4407.6697089892
 10
6344.0356550833
 20
4406.0004673018
 10
6344.5285841138
 20
4403.9863481391
 10
6344.9972730092
 20
4401.6426801644
 10
6345.4381547642
 20
4398.9873001059
 10
6345.8478740024
 20
4396.0404170092
 10
6346.2233125129
 20
4392.8244584342
 10
6346.561612982
 20
4389.3638997675
 10
6346.8602007388
 20
4385.6850779499
 10
6347.1168033503
 20
4381.815991037
 10
6347.3294679157
 20
4377.7860851162
 10
6347.4965759291
 20
4373.626030205
 10
6347.6168555977
 20
4369.3674868333
 10
6347.6893915205
 20
4365.0428650873
 10
6347.7136316555
 20
4360.6850779499
  0
LWPOLYLINE
  5
2E5
330
1F
100
AcDbEntity
  8
0
  6
Continuous
 62
     7
370
    25
100
AcDbPolyline
 90
        5
 70
   128
 43
0.0
 10
6347.7136316555
 20
4360.6850779499
 10
6334.1318964655
 20
4361.4998343868
 10
6320.5110343765
 20
4362.316390336
 10
6306.8157708005
 20
4363.1373868769
 10
6293.1044707029
 20
4363.9598776767
  0
LWPOLYLINE
  5
2E6
330
1F
100
AcDbEntity
  8
0
  6
Continuous
 62
     7
370
    25
100
AcDbPolyline
 90
        3
 70
   128
 43
0.0
 10
6286.1106101423
 20
4367.9339449005
 10
6289.7251741203
 20
4366.1401971929
 10
6293.1044707029
 20
4363.9598776767
  0
LINE
  5
2E7
330
1F
100
AcDbEntity
  8
0
  6
Continuous
 62
     7
370
    25
100
AcDbLine
 10
6286.1106101423
 20
4367.9339449005
 30
0.0
 11
6286.1106101423
 21
4410.6850779499
 31
0.0
  0
LINE
  5
2E8
330
1F
100
AcDbEntity
  8
0
  6
Continuous
 62
     7
370
    25
100
AcDbLine
 10
6256.9917544859
 20
4367.9339449005
 30
0.0
 11
6256.9917544859
 21
4410.6850779499
 31
0.0
  0
LWPOLYLINE
  5
2E9
330
1F
100
AcDbEntity
  8
0
  6
Continuous
 62
     7
370
    25
100
AcDbPolyline
 90
        3
 70
   128
 43
0.0
 10
6249.9978939252
 20
4363.9598776767
 10
6253.3771905078
 20
4366.1401971929
 10
6256.9917544859
 20
4367.9339449005
  0
LWPOLYLINE
  5
2EA
330
1F
100
AcDbEntity
  8
0
  6
Continuous
 62
     7
370
    25
100
AcDbPolyline
 90
        4
 70
   128
 43
0.0
 10
6249.9978939252
 20
4363.9598776767
 10
6232.3290456673
 20
4362.9001121915
 10
6214.6672385601
 20
4361.8413867067
 10
6195.3887329726
 20
4360.6850779499
  0
ARC
  5
2EB
330
1F
100
AcDbEntity
  8
0
  6
Continuous
 62
     7
370
    25
100
AcDbCircle
 10
6271.8732891489
 20
4335.4961637869
 30
0.0
 40
35.62697500099395
100
AcDbArc
 50
296.5808470705
 51
341.9049433095
  0
LWPOLYLINE
  5
2EC
330
1F
100
AcDbEntity
  8
0
  6
Continuous
 62
     7
370
    25
100
AcDbPolyline
 90
        8
 70
   128
 43
0.0
 10
6305.7382441855
 20
4324.4306241215
 10
6330.2948688521
 20
4316.3740981899
 10
6347.9089606404
 20
4310.6214325648
 10
6365.4708674285
 20
4304.9156907678
 10
6383.025142871
 20
4299.2497404879
 10
6400.5019330862
 20
4293.6537344545
 10
6419.6399890416
 20
4287.5871179643
 10
6438.6707988576
 20
4281.6294785903
  0
LWPOLYLINE
  5
2ED
330
1F
100
AcDbEntity
  8
0
  6
Continuous
 62
     7
370
    25
100
AcDbPolyline
 90
        8
 70
   128
 43
0.0
 10
6104.4315657705
 20
4281.6294785903
 10
6123.4426731797
 20
4287.5809093034
 10
6142.600274039
 20
4293.6536842492
 10
6160.0201021176
 20
4299.2313736009
 10
6177.5169532098
 20
4304.8785904107
 10
6195.1359081746
 20
4310.6026998438
 10
6212.8074298197
 20
4316.3740766019
 10
6237.3641204303
 20
4324.4306241174
  0
ARC
  5
2EE
330
1F
100
AcDbEntity
  8
0
  6
Continuous
 62
     7
370
    25
100
AcDbCircle
 10
6271.2312904125
 20
4335.4980728537
 30
0.0
 40
35.62967336554024
100
AcDbArc
 50
198.0968685326
 51
243.4173412666
  0
ARC
  5
2EF
330
1F
100
AcDbEntity
  8
0
  6
Continuous
 62
     7
370
    25
100
AcDbCircle
 10
6271.5511823141
 20
4333.6691302592
 30
0.0
 40
37.22975236397954
100
AcDbArc
 50
66.9789247894
 51
113.0210752106
  0
LWPOLYLINE
  5
2F0
330
1F
100
AcDbEntity
  8
0
  6
Continuous
 62
     7
370
    25
100
AcDbPolyline
 90
        3
 70
   128
 43
0.0
 10
6237.3641204753
 20
4346.9395317676
 10
6213.1026574538
 20
4354.8994457356
 10
6195.3887329726
 20
4360.6850779499
  0
LINE
  5
2F1
330
1F
100
AcDbEntity
  8
0
  6
Continuous
 62
     7
370
    25
100
AcDbLine
 10
6237.363950653
 20
4346.9390114869
 30
0.0
 11
6237.3641204753
 21
4346.9395317676
 31
0.0
  0
ARC
  5
2F2
330
1F
100
AcDbEntity
  8
0
  6
Continuous
 62
     7
370
    25
100
AcDbCircle
 10
6271.8609474622
 20
4335.6850779516
 30
0.0
 40
36.2862757597855
100
AcDbArc
 50
161.9321529337
 51
198.0677321103
  0
LINE
  5
2F3
330
1F
100
AcDbEntity
  8
0
  6
Continuous
 62
     7
370
    25
100
AcDbLine
 10
6237.3641204303
 20
4324.4306241174
 30
0.0
 11
6237.3639280733
 21
4324.4312136296
 31
0.0
  0
LINE
  5
2F4
330
1F
100
AcDbEntity
  8
0
  6
Continuous
 62
     7
370
    25
100
AcDbLine
 10
6305.7384139711
 20
4324.4311444143
 30
0.0
 11
6305.7382441855
 21
4324.4306241215
 31
0.0
  0
ARC
  5
2F5
330
1F
100
AcDbEntity
  8
0
  6
Continuous
 62
     7
370
    25
100
AcDbCircle
 10
6271.2414171659
 20
4335.6850779483
 30
0.0
 40
36.286275759791
100
AcDbArc
 50
341.9321529337
 51
18.0677321103
  0
LINE
  5
2F6
330
1F
100
AcDbEntity
  8
0
  6
Continuous
 62
     7
370
    25
100
AcDbLine
 10
6305.7382441932
 20
4346.9395317809
 30
0.0
 11
6305.7384365556
 21
4346.9389422705
 31
0.0
  0
LWPOLYLINE
  5
2F7
330
1F
100
AcDbEntity
  8
0
  6
Continuous
 62
     7
370
    25
100
AcDbPolyline
 90
        3
 70
   128
 43
0.0
 10
6347.7136316555
 20
4360.6850779499
 10
6329.9997071743
 20
4354.8994457356
 10
6305.7382441932
 20
4346.9395317809
  0
ARC
  5
2F8
330
1F
100
AcDbEntity
  8
0
  6
Continuous
 62
     7
370
    25
100
AcDbCircle
 10
6271.9161477576
 20
4335.9041778524
 30
0.0
 40
35.57686388132436
100
AcDbArc
 50
18.0702856206
 51
45.4401211229
  0
LWPOLYLINE
  5
2F9
330
1F
100
AcDbEntity
  8
0
  6
Continuous
 62
     7
370
    25
100
AcDbPolyline
 90
        3
 70
   128
 43
0.0
 10
6293.1044707029
 20
4363.9598776767
 10
6294.9863056724
 20
4362.5997116071
 10
6296.8788068434
 20
4361.2533177786
  0
LWPOLYLINE
  5
2FA
330
1F
100
AcDbEntity
  8
0
  6
Continuous
 62
     7
370
    25
100
AcDbPolyline
 90
        3
 70
   128
 43
0.0
 10
6246.2236678697
 20
4361.2533954571
 10
6248.1158800167
 20
4362.5995832739
 10
6249.9978939252
 20
4363.9598776767
  0
ARC
  5
2FB
330
1F
100
AcDbEntity
  8
0
  6
Continuous
 62
     7
370
    25
100
AcDbCircle
 10
6271.185059128
 20
4335.9048401242
 30
0.0
 40
35.57555777516226
100
AcDbArc
 50
134.5590846131
 51
161.9301500201
  0
ARC
  5
2FC
330
1F
100
AcDbEntity
  8
0
  6
Continuous
 62
     7
370
    25
100
AcDbCircle
 10
6271.5511823132
 20
4336.0430042549
 30
0.0
 40
35.57314952072032
100
AcDbArc
 50
243.3736234889
 51
296.6263765135
  0
ARC
  5
2FD
330
1F
100
AcDbEntity
  8
0
  6
Continuous
 62
     7
370
    25
100
AcDbCircle
 10
6271.6269735349
 20
4295.5146726321
 30
0.0
 40
18.10902752854209
100
AcDbArc
 50
26.6390963673
 51
28.8133109148
  0
ARC
  5
2FE
330
1F
100
AcDbEntity
  8
0
  6
Continuous
 62
     7
370
    25
100
AcDbCircle
 10
6271.4773821776
 20
4295.5146923739
 30
0.0
 40
18.11078103808395
100
AcDbArc
 50
151.1897818051
 51
153.3637837077
  0
ARC
  5
2FF
330
1F
100
AcDbEntity
  8
0
  6
Continuous
 62
     7
370
    25
100
AcDbCircle
 10
6271.3130739973
 20
4335.5469455414
 30
0.0
 40
35.02298686040135
100
AcDbArc
 50
198.1212961671
 51
243.3559801231
  0
ARC
  5
300
330
1F
100
AcDbEntity
  8
0
  6
Continuous
 62
     7
370
    25
100
AcDbCircle
 10
6271.4718888829
 20
4295.5150951604
 30
0.0
 40
18.10709507533479
100
AcDbArc
 50
151.1826798745
 51
153.3571335339
  0
ARC
  5
301
330
1F
100
AcDbEntity
  8
0
  6
Continuous
 62
     7
370
    25
100
AcDbCircle
 10
6225.3896797259
 20
4361.1129069439
 30
0.0
 40
38.58726608019128
100
AcDbArc
 50
288.0785791663
 51
289.1174376582
  0
ARC
  5
302
330
1F
100
AcDbEntity
  8
0
  6
Continuous
 62
     7
370
    25
100
AcDbCircle
 10
6271.7911056347
 20
4335.5453822047
 30
0.0
 40
35.02077563486365
100
AcDbArc
 50
296.6425414792
 51
341.8802402111
  0
ARC
  5
303
330
1F
100
AcDbEntity
  8
0
  6
Continuous
 62
     7
370
    25
100
AcDbCircle
 10
6317.7126934041
 20
4361.1098544134
 30
0.0
 40
38.58436689768309
100
AcDbArc
 50
250.8810654002
 51
251.9200021744
  0
ARC
  5
304
330
1F
100
AcDbEntity
  8
0
  6
Continuous
 62
     7
370
    25
100
AcDbCircle
 10
6271.6295057562
 20
4295.5151076056
 30
0.0
 40
18.10795649481329
100
AcDbArc
 50
26.6414548649
 51
28.8158040606
  0
LINE
  5
305
330
1F
100
AcDbEntity
  8
0
  6
Continuous
 62
     7
370
    25
100
AcDbLine
 10
6255.6071581892
 20
4304.2430509394
 30
0.0
 11
6255.6083400215
 21
4304.2424578879
 31
0.0
  0
LINE
  5
306
330
1F
100
AcDbEntity
  8
0
  6
Continuous
 62
     7
370
    25
100
AcDbLine
 10
6238.0270587063
 20
4324.6542516444
 30
0.0
 11
6238.0272205888
 21
4324.6537563164
 31
0.0
  0
LINE
  5
307
330
1F
100
AcDbEntity
  8
0
  6
Continuous
 62
     7
370
    25
100
AcDbLine
 10
6305.075149563
 20
4324.6537732395
 30
0.0
 11
6305.0753059275
 21
4324.6542516424
 31
0.0
  0
LINE
  5
308
330
1F
100
AcDbEntity
  8
0
  6
Continuous
 62
     7
370
    25
100
AcDbLine
 10
6287.4940246003
 20
4304.2424578991
 30
0.0
 11
6287.4952221421
 21
4304.2430587958
 31
0.0
  0
ARC
  5
309
330
1F
100
AcDbEntity
  8
0
  6
Continuous
 62
     7
370
    25
100
AcDbCircle
 10
6287.4554312974
 20
4350.7018897113
 30
0.0
 40
14.14682441179996
100
AcDbArc
 50
48.2322755351
 51
67.2291281937
  0
LWPOLYLINE
  5
30A
330
1F
100
AcDbEntity
  8
0
  6
Continuous
 62
     7
370
    25
100
AcDbPolyline
 90
       17
 70
   128
 43
0.0
 10
6246.2236678697
 20
4361.2533954571
 10
6247.8813918074
 20
4362.3736999783
 10
6248.6303103017
 20
4362.8513727622
 10
6249.13593338
 20
4363.1647588884
 10
6249.4758630807
 20
4363.3708796381
 10
6249.7039748552
 20
4363.506385301
 10
6249.8570245844
 20
4363.5952082063
 10
6249.959829769
 20
4363.6531256497
 10
6250.029041831
 20
4363.6905955565
 10
6250.0757920092
 20
4363.7145656925
 10
6250.1075074819
 20
4363.7296495993
 10
6250.1291406927
 20
4363.7389010676
 10
6250.1439933741
 20
4363.7443280742
 10
6250.1580372599
 20
4363.7479929873
 10
6250.1640322008
 20
4363.7485737166
 10
6250.1693845513
 20
4363.7476546376
 10
6250.1714491438
 20
4363.7461111514
  0
ARC
  5
30B
330
1F
100
AcDbEntity
  8
0
  6
Continuous
 62
     7
370
    25
100
AcDbCircle
 10
6271.7876795261
 20
4335.6850779933
 30
0.0
 40
35.51701910090499
100
AcDbArc
 50
161.9058966104
 51
198.0941035217
  0
ARC
  5
30C
330
1F
100
AcDbEntity
  8
0
  6
Continuous
 62
     7
370
    25
100
AcDbCircle
 10
6225.3895714883
 20
4361.1152919801
 30
0.0
 40
38.58899043496015
100
AcDbArc
 50
288.0776331283
 51
289.1164446423
  0
ARC
  5
30D
330
1F
100
AcDbEntity
  8
0
  6
Continuous
 62
     7
370
    25
100
AcDbCircle
 10
6225.3895841192
 20
4310.2524218498
 30
0.0
 40
38.59133728033252
100
AcDbArc
 50
70.8847615934
 51
71.9235097752
  0
ARC
  5
30E
330
1F
100
AcDbEntity
  8
0
  6
Continuous
 62
     7
370
    25
100
AcDbCircle
 10
6271.3146849225
 20
4335.6850779065
 30
0.0
 40
35.51701927154615
100
AcDbArc
 50
341.9058967004
 51
18.0941034317
  0
ARC
  5
30F
330
1F
100
AcDbEntity
  8
0
  6
Continuous
 62
     7
370
    25
100
AcDbCircle
 10
6317.7127957014
 20
4310.2560246694
 30
0.0
 40
38.58789115791702
100
AcDbArc
 50
108.0781715528
 51
109.1170127472
  0
ARC
  5
310
330
1F
100
AcDbEntity
  8
0
  6
Continuous
 62
     7
370
    25
100
AcDbCircle
 10
6317.7127805144
 20
4361.1177340662
 30
0.0
 40
38.59133729742122
100
AcDbArc
 50
250.8847615935
 51
251.9235097749
  0
ARC
  5
311
330
1F
100
AcDbEntity
  8
0
  6
Continuous
 62
     7
370
    25
100
AcDbCircle
 10
6317.7126880559
 20
4310.2583793305
 30
0.0
 40
38.58619249048203
100
AcDbArc
 50
108.079104489
 51
109.117991968
  0
ARC
  5
312
330
1F
100
AcDbEntity
  8
0
  6
Continuous
 62
     7
370
    25
100
AcDbCircle
 10
6271.8149830447
 20
4335.8429145412
 30
0.0
 40
34.99244184288113
100
AcDbArc
 50
18.103706907
 51
52.8831394849
  0
ARC
  5
313
330
1F
100
AcDbEntity
  8
0
  6
Continuous
 62
     7
370
    25
100
AcDbCircle
 10
6271.2826881874
 20
4335.8462614743
 30
0.0
 40
34.98694079165513
100
AcDbArc
 50
127.1140390975
 51
161.8992157545
  0
ARC
  5
314
330
1F
100
AcDbEntity
  8
0
  6
Continuous
 62
     7
370
    25
100
AcDbCircle
 10
6225.389647056
 20
4310.2689836741
 30
0.0
 40
38.57612099668744
100
AcDbArc
 50
70.8768065045
 51
71.9159659967
  0
LINE
  5
315
330
1F
100
AcDbEntity
  8
0
  6
Continuous
 62
     7
370
    25
100
AcDbLine
 10
6305.0753059239
 20
4346.7159042562
 30
0.0
 11
6305.0751460846
 21
4346.7163933169
 31
0.0
  0
LINE
  5
316
330
1F
100
AcDbEntity
  8
0
  6
Continuous
 62
     7
370
    25
100
AcDbLine
 10
6238.0271993462
 20
4346.7163345142
 30
0.0
 11
6238.0270586855
 21
4346.7159042627
 31
0.0
  0
LINE
  5
317
330
1F
100
AcDbEntity
  8
0
  6
Continuous
 62
     7
370
    25
100
AcDbLine
 10
6521.5511823141
 20
4092.6850779499
 30
0.0
 11
6521.5511823141
 21
3727.6850779499
 31
0.0
  0
LINE
  5
318
330
1F
100
AcDbEntity
  8
0
  6
Continuous
 62
     7
370
    25
100
AcDbLine
 10
6521.5511823141
 20
3727.6850779499
 30
0.0
 11
6519.5511823141
 21
3727.6850779499
 31
0.0
  0
LINE
  5
319
330
1F
100
AcDbEntity
  8
0
  6
Continuous
 62
     7
370
    25
100
AcDbLine
 10
6023.5511823141
 20
3727.6850779499
 30
0.0
 11
6519.5511823141
 21
3727.6850779499
 31
0.0
  0
ARC
  5
31A
330
1F
100
AcDbEntity
  8
0
  6
Continuous
 62
     7
370
    25
100
AcDbCircle
 10
6131.5511823141
 20
3815.6850779499
 30
0.0
 40
87.0710678118653
100
AcDbArc
 50
180.0
 51
270.0
  0
LINE
  5
31B
330
1F
100
AcDbEntity
  8
0
  6
Continuous
 62
     7
370
    25
100
AcDbLine
 10
6411.5511823141
 20
3728.6140101381
 30
0.0
 11
6131.5511823141
 21
3728.6140101381
 31
0.0
  0
ARC
  5
31C
330
1F
100
AcDbEntity
  8
0
  6
Continuous
 62
     7
370
    25
100
AcDbCircle
 10
6411.5511823141
 20
3815.6850779499
 30
0.0
 40
87.0710678118653
100
AcDbArc
 50
270.0
 51
0.0
  0
LINE
  5
31D
330
1F
100
AcDbEntity
  8
0
  6
Continuous
 62
     7
370
    25
100
AcDbLine
 10
6021.5511823141
 20
3727.6850779499
 30
0.0
 11
6021.5511823141
 21
4092.6850779499
 31
0.0
  0
LINE
  5
31E
330
1F
100
AcDbEntity
  8
0
  6
Continuous
 62
     7
370
    25
100
AcDbLine
 10
6021.5511823141
 20
3727.6850779499
 30
0.0
 11
6023.5511823141
 21
3727.6850779499
 31
0.0
  0
LINE
  5
31F
330
1F
100
AcDbEntity
  8
0
  6
Continuous
 62
     7
370
    25
100
AcDbLine
 10
6495.08671622
 20
3815.6850779499
 30
0.0
 11
6498.6222501259
 21
3815.6850779499
 31
0.0
  0
LINE
  5
320
330
1F
100
AcDbEntity
  8
0
  6
Continuous
 62
     7
370
    25
100
AcDbLine
 10
6044.4801145022
 20
3815.6850779499
 30
0.0
 11
6048.0156484081
 21
3815.6850779499
 31
0.0
  0
ARC
  5
321
330
1F
100
AcDbEntity
  8
0
  6
Continuous
 62
     7
370
    25
100
AcDbCircle
 10
6411.5511823141
 20
3815.6850779499
 30
0.0
 40
83.53553390593243
100
AcDbArc
 50
270.0
 51
0.0
  0
LINE
  5
322
330
1F
100
AcDbEntity
  8
0
  6
Continuous
 62
     7
370
    25
100
AcDbLine
 10
6411.5511823141
 20
3732.149544044
 30
0.0
 11
6411.5511823141
 21
3728.6140101381
 31
0.0
  0
ARC
  5
323
330
1F
100
AcDbEntity
  8
0
  6
Continuous
 62
     7
370
    25
100
AcDbCircle
 10
6131.5511823141
 20
3815.6850779499
 30
0.0
 40
83.53553390593243
100
AcDbArc
 50
180.0
 51
270.0
  0
LINE
  5
324
330
1F
100
AcDbEntity
  8
0
  6
Continuous
 62
     7
370
    25
100
AcDbLine
 10
6131.5511823141
 20
3728.6140101381
 30
0.0
 11
6131.5511823141
 21
3732.149544044
 31
0.0
  0
LINE
  5
325
330
1F
100
AcDbEntity
  8
0
  6
Continuous
 62
     7
370
    25
100
AcDbLine
 10
6131.5511823141
 20
3732.149544044
 30
0.0
 11
6411.5511823141
 21
3732.149544044
 31
0.0
  0
LINE
  5
326
330
1F
100
AcDbEntity
  8
0
  6
Continuous
 62
     7
370
    25
100
AcDbLine
 10
6519.5511823141
 20
3725.6850779499
 30
0.0
 11
6023.5511823141
 21
3725.6850779499
 31
0.0
  0
LINE
  5
327
330
1F
100
AcDbEntity
  8
0
  6
Continuous
 62
     7
370
    25
100
AcDbLine
 10
6023.5511823141
 20
3725.6850779499
 30
0.0
 11
6023.5511823141
 21
3727.6850779499
 31
0.0
  0
LINE
  5
328
330
1F
100
AcDbEntity
  8
0
  6
Continuous
 62
     7
370
    25
100
AcDbLine
 10
6519.5511823141
 20
3725.6850779499
 30
0.0
 11
6519.5511823141
 21
3727.6850779499
 31
0.0
  0
ARC
  5
329
330
1F
100
AcDbEntity
  8
0
  6
Continuous
 62
     7
370
    25
100
AcDbCircle
 10
6519.5511823141
 20
3727.6850779499
 30
0.0
 40
2.0
100
AcDbArc
 50
270.0
 51
0.0
  0
ARC
  5
32A
330
1F
100
AcDbEntity
  8
0
  6
Continuous
 62
     7
370
    25
100
AcDbCircle
 10
6023.5511823141
 20
3727.6850779499
 30
0.0
 40
2.000000000000909
100
AcDbArc
 50
180.0
 51
270.0
  0
LINE
  5
32B
330
1F
100
AcDbEntity
  8
0
  6
Continuous
 62
     7
370
    25
100
AcDbLine
 10
6495.08671622
 20
3815.6850779499
 30
0.0
 11
6492.7227551893
 21
3815.6850779499
 31
0.0
  0
LINE
  5
32C
330
1F
100
AcDbEntity
  8
0
  6
Continuous
 62
     7
370
    25
100
AcDbLine
 10
6050.3796094388
 20
3815.6850779499
 30
0.0
 11
6048.0156484081
 21
3815.6850779499
 31
0.0
  0
ARC
  5
32D
330
1F
100
AcDbEntity
  8
0
  6
Continuous
 62
     7
370
    25
100
AcDbCircle
 10
6411.5511823141
 20
3815.6850779499
 30
0.0
 40
81.17157287525379
100
AcDbArc
 50
270.0
 51
0.0
  0
LINE
  5
32E
330
1F
100
AcDbEntity
  8
0
  6
Continuous
 62
     7
370
    25
100
AcDbLine
 10
6411.5511823141
 20
3732.149544044
 30
0.0
 11
6411.5511823141
 21
3734.5135050747
 31
0.0
  0
ARC
  5
32F
330
1F
100
AcDbEntity
  8
0
  6
Continuous
 62
     7
370
    25
100
AcDbCircle
 10
6131.5511823141
 20
3815.6850779499
 30
0.0
 40
81.17157287525379
100
AcDbArc
 50
180.0
 51
270.0
  0
LINE
  5
330
330
1F
100
AcDbEntity
  8
0
  6
Continuous
 62
     7
370
    25
100
AcDbLine
 10
6131.5511823141
 20
3734.5135050747
 30
0.0
 11
6131.5511823141
 21
3732.149544044
 31
0.0
  0
LINE
  5
331
330
1F
100
AcDbEntity
  8
0
  6
Continuous
 62
     7
370
    25
100
AcDbLine
 10
6411.5511823141
 20
3734.5135050747
 30
0.0
 11
6131.5511823141
 21
3734.5135050747
 31
0.0
  0
LINE
  5
332
330
1F
100
AcDbEntity
  8
0
  6
Continuous
 62
     7
370
    25
100
AcDbLine
 10
6489.8943280646
 20
3815.6850779499
 30
0.0
 11
6492.7227551893
 21
3815.6850779499
 31
0.0
  0
LINE
  5
333
330
1F
100
AcDbEntity
  8
0
  6
Continuous
 62
     7
370
    25
100
AcDbLine
 10
6050.3796094388
 20
3815.6850779499
 30
0.0
 11
6053.2080365635
 21
3815.6850779499
 31
0.0
  0
ARC
  5
334
330
1F
100
AcDbEntity
  8
0
  6
Continuous
 62
     7
370
    25
100
AcDbCircle
 10
6411.5511823141
 20
3815.6850779499
 30
0.0
 40
78.34314575050757
100
AcDbArc
 50
270.0
 51
0.0
  0
LINE
  5
335
330
1F
100
AcDbEntity
  8
0
  6
Continuous
 62
     7
370
    25
100
AcDbLine
 10
6411.5511823141
 20
3737.3419321994
 30
0.0
 11
6411.5511823141
 21
3734.5135050747
 31
0.0
  0
ARC
  5
336
330
1F
100
AcDbEntity
  8
0
  6
Continuous
 62
     7
370
    25
100
AcDbCircle
 10
6131.5511823141
 20
3815.6850779499
 30
0.0
 40
78.34314575050757
100
AcDbArc
 50
180.0
 51
270.0
  0
LINE
  5
337
330
1F
100
AcDbEntity
  8
0
  6
Continuous
 62
     7
370
    25
100
AcDbLine
 10
6131.5511823141
 20
3737.3419321994
 30
0.0
 11
6131.5511823141
 21
3734.5135050747
 31
0.0
  0
LINE
  5
338
330
1F
100
AcDbEntity
  8
0
  6
Continuous
 62
     7
370
    25
100
AcDbLine
 10
6131.5511823141
 20
3737.3419321994
 30
0.0
 11
6411.5511823141
 21
3737.3419321994
 31
0.0
  0
ARC
  5
339
330
1F
100
AcDbEntity
  8
0
  6
Continuous
 62
     7
370
    25
100
AcDbCircle
 10
6131.5511823141
 20
3815.6850779499
 30
0.0
 40
65.0
100
AcDbArc
 50
180.0
 51
270.0
  0
LINE
  5
33A
330
1F
100
AcDbEntity
  8
0
  6
Continuous
 62
     7
370
    25
100
AcDbLine
 10
6411.5511823141
 20
3750.6850779499
 30
0.0
 11
6131.5511823141
 21
3750.6850779499
 31
0.0
  0
ARC
  5
33B
330
1F
100
AcDbEntity
  8
0
  6
Continuous
 62
     7
370
    25
100
AcDbCircle
 10
6411.5511823141
 20
3815.6850779499
 30
0.0
 40
65.0
100
AcDbArc
 50
270.0
 51
0.0
  0
LINE
  5
33C
330
1F
100
AcDbEntity
  8
0
  6
Continuous
 62
     7
370
    25
100
AcDbLine
 10
6471.5511823141
 20
3815.6850779499
 30
0.0
 11
6471.5511823141
 21
3830.6850779499
 31
0.0
  0
LINE
  5
33D
330
1F
100
AcDbEntity
  8
0
  6
Continuous
 62
     7
370
    25
100
AcDbLine
 10
6471.5511823141
 20
4080.6850779499
 30
0.0
 11
6471.5511823141
 21
4090.6850779499
 31
0.0
  0
LINE
  5
33E
330
1F
100
AcDbEntity
  8
0
  6
Continuous
 62
     7
370
    25
100
AcDbLine
 10
6471.5511823141
 20
3815.6850779499
 30
0.0
 11
6476.5511823141
 21
3815.6850779499
 31
0.0
  0
LINE
  5
33F
330
1F
100
AcDbEntity
  8
0
  6
Continuous
 62
     7
370
    25
100
AcDbLine
 10
6071.5511823141
 20
4090.6850779499
 30
0.0
 11
6071.5511823141
 21
4080.6850779499
 31
0.0
  0
LINE
  5
340
330
1F
100
AcDbEntity
  8
0
  6
Continuous
 62
     7
370
    25
100
AcDbLine
 10
6071.5511823141
 20
3830.6850779499
 30
0.0
 11
6071.5511823141
 21
3815.6850779499
 31
0.0
  0
LINE
  5
341
330
1F
100
AcDbEntity
  8
0
  6
Continuous
 62
     7
370
    25
100
AcDbLine
 10
6066.5511823141
 20
3815.6850779499
 30
0.0
 11
6071.5511823141
 21
3815.6850779499
 31
0.0
  0
ARC
  5
342
330
1F
100
AcDbEntity
  8
0
  6
Continuous
 62
     7
370
    25
100
AcDbCircle
 10
6411.5511823141
 20
3815.6850779499
 30
0.0
 40
60.0
100
AcDbArc
 50
270.0
 51
0.0
  0
LINE
  5
343
330
1F
100
AcDbEntity
  8
0
  6
Continuous
 62
     7
370
    25
100
AcDbLine
 10
6411.5511823141
 20
3755.6850779499
 30
0.0
 11
6411.5511823141
 21
3750.6850779499
 31
0.0
  0
ARC
  5
344
330
1F
100
AcDbEntity
  8
0
  6
Continuous
 62
     7
370
    25
100
AcDbCircle
 10
6131.5511823141
 20
3815.6850779499
 30
0.0
 40
60.0
100
AcDbArc
 50
180.0
 51
270.0
  0
LINE
  5
345
330
1F
100
AcDbEntity
  8
0
  6
Continuous
 62
     7
370
    25
100
AcDbLine
 10
6131.5511823141
 20
3750.6850779499
 30
0.0
 11
6131.5511823141
 21
3755.6850779499
 31
0.0
  0
LINE
  5
346
330
1F
100
AcDbEntity
  8
0
  6
Continuous
 62
     7
370
    25
100
AcDbLine
 10
6131.5511823141
 20
3755.6850779499
 30
0.0
 11
6411.5511823141
 21
3755.6850779499
 31
0.0
  0
LINE
  5
347
330
1F
100
AcDbEntity
  8
0
  6
Continuous
 62
     7
370
    25
100
AcDbLine
 10
6411.5511823141
 20
3815.6850779499
 30
0.0
 11
6471.5511823141
 21
3815.6850779499
 31
0.0
  0
LINE
  5
348
330
1F
100
AcDbEntity
  8
0
  6
Continuous
 62
     7
370
    25
100
AcDbLine
 10
6071.5511823141
 20
3815.6850779499
 30
0.0
 11
6131.5511823141
 21
3815.6850779499
 31
0.0
  0
LINE
  5
349
330
1F
100
AcDbEntity
  8
0
  6
Continuous
 62
     7
370
    25
100
AcDbLine
 10
6411.5511823141
 20
3815.6850779499
 30
0.0
 11
6411.5511823141
 21
3755.6850779499
 31
0.0
  0
LINE
  5
34A
330
1F
100
AcDbEntity
  8
0
  6
Continuous
 62
     7
370
    25
100
AcDbLine
 10
6131.5511823141
 20
3815.6850779499
 30
0.0
 11
6411.5511823141
 21
3815.6850779499
 31
0.0
  0
LINE
  5
34B
330
1F
100
AcDbEntity
  8
0
  6
Continuous
 62
     7
370
    25
100
AcDbLine
 10
6131.5511823141
 20
3755.6850779499
 30
0.0
 11
6131.5511823141
 21
3815.6850779499
 31
0.0
  0
ARC
  5
34C
330
1F
100
AcDbEntity
  8
0
  6
Continuous
 62
     7
370
    25
100
AcDbCircle
 10
6518.5511823141
 20
4222.6850779499
 30
0.0
 40
3.5
100
AcDbArc
 50
0.0
 51
31.0027191339
  0
LINE
  5
34D
330
1F
100
AcDbEntity
  8
0
  6
Continuous
 62
     7
370
    25
100
AcDbLine
 10
6522.0511823141
 20
4222.6850779499
 30
0.0
 11
6522.0511823141
 21
4188.6850779499
 31
0.0
  0
ARC
  5
34E
330
1F
100
AcDbEntity
  8
0
  6
Continuous
 62
     7
370
    25
100
AcDbCircle
 10
6518.5511823141
 20
4188.6850779499
 30
0.0
 40
3.5
100
AcDbArc
 50
328.9972808661
 51
0.0
  0
ARC
  5
34F
330
1F
100
AcDbEntity
  8
0
  6
Continuous
 62
     7
370
    25
100
AcDbCircle
 10
6024.5511823141
 20
4188.6850779499
 30
0.0
 40
3.5
100
AcDbArc
 50
180.0
 51
211.0027191339
  0
LINE
  5
350
330
1F
100
AcDbEntity
  8
0
  6
Continuous
 62
     7
370
    25
100
AcDbLine
 10
6021.0511823141
 20
4188.6850779499
 30
0.0
 11
6021.0511823141
 21
4222.6850779499
 31
0.0
  0
ARC
  5
351
330
1F
100
AcDbEntity
  8
0
  6
Continuous
 62
     7
370
    25
100
AcDbCircle
 10
6024.5511823141
 20
4222.6850779499
 30
0.0
 40
3.500000000000177
100
AcDbArc
 50
148.9972808661
 51
180.0
  0
ARC
  5
352
330
1F
100
AcDbEntity
  8
0
  6
Continuous
 62
     7
370
    25
100
AcDbCircle
 10
6518.5511823141
 20
3736.6850779499
 30
0.0
 40
3.500000000000909
100
AcDbArc
 50
328.9972808661
 51
0.0
  0
LINE
  5
353
330
1F
100
AcDbEntity
  8
0
  6
Continuous
 62
     7
370
    25
100
AcDbLine
 10
6522.0511823141
 20
3770.6850779499
 30
0.0
 11
6522.0511823141
 21
3736.6850779499
 31
0.0
  0
ARC
  5
354
330
1F
100
AcDbEntity
  8
0
  6
Continuous
 62
     7
370
    25
100
AcDbCircle
 10
6518.5511823141
 20
3770.6850779499
 30
0.0
 40
3.500000000000909
100
AcDbArc
 50
0.0
 51
31.0027191339
  0
ARC
  5
355
330
1F
100
AcDbEntity
  8
0
  6
Continuous
 62
     7
370
    25
100
AcDbCircle
 10
6024.5511823141
 20
3736.6850779499
 30
0.0
 40
3.5
100
AcDbArc
 50
180.0
 51
211.0027191339
  0
LINE
  5
356
330
1F
100
AcDbEntity
  8
0
  6
Continuous
 62
     7
370
    25
100
AcDbLine
 10
6021.0511823141
 20
3736.6850779499
 30
0.0
 11
6021.0511823141
 21
3770.6850779499
 31
0.0
  0
ARC
  5
357
330
1F
100
AcDbEntity
  8
0
  6
Continuous
 62
     7
370
    25
100
AcDbCircle
 10
6024.5511823141
 20
3770.6850779499
 30
0.0
 40
3.5
100
AcDbArc
 50
148.9972808661
 51
180.0
  0
ARC
  5
358
330
1F
100
AcDbEntity
  8
0
  6
Continuous
 62
     8
370
    25
100
AcDbCircle
 10
6481.5511823141
 20
4130.6850779499
 30
0.0
 40
14.00000000000013
100
AcDbArc
 50
270.5846914028
 51
45.0
  0
ARC
  5
359
330
1F
100
AcDbEntity
  8
0
  6
Continuous
 62
     8
370
    25
100
AcDbCircle
 10
6481.5511823141
 20
4130.6850779499
 30
0.0
 40
14.00000000000013
100
AcDbArc
 50
45.0
 51
179.4153085972
  0
ARC
  5
35A
330
1F
100
AcDbEntity
  8
0
  6
Continuous
 62
     8
370
    25
100
AcDbCircle
 10
6351.9608080632
 20
4001.0947036991
 30
0.0
 40
10.00136585515853
100
AcDbArc
 50
135.9469242514
 51
314.0530757486
  0
ARC
  5
35B
330
1F
100
AcDbEntity
  8
0
  6
Continuous
 62
     8
370
    25
100
AcDbCircle
 10
6349.6392878743
 20
3998.7731835101
 30
0.0
 40
10.00136585515884
100
AcDbArc
 50
135.9469242514
 51
314.0530757486
  0
LINE
  5
35C
330
1F
100
AcDbEntity
  8
0
  6
Continuous
 62
     8
370
    25
100
AcDbLine
 10
6506.9957649238
 20
4116.6838340578
 30
0.0
 11
6507.0624781056
 21
4116.598393995
 31
0.0
  0
LINE
  5
35D
330
1F
100
AcDbEntity
  8
0
  6
Continuous
 62
     8
370
    25
100
AcDbLine
 10
6512.7193323551
 20
4110.9415397455
 30
0.0
 11
6512.7589210586
 21
4110.981128449
 31
0.0
  0
LINE
  5
35E
330
1F
100
AcDbEntity
  8
0
  6
Continuous
 62
     8
370
    25
100
AcDbLine
 10
6495.8095964043
 20
4109.5881529808
 30
0.0
 11
6503.577558548
 21
4117.3561151246
 31
0.0
  0
LINE
  5
35F
330
1F
100
AcDbEntity
  8
0
  6
Continuous
 62
     8
370
    25
100
AcDbLine
 10
6502.6583197325
 20
4100.8805271229
 30
0.0
 11
6503.5877709974
 21
4101.8099783878
 31
0.0
  0
LINE
  5
360
330
1F
100
AcDbEntity
  8
0
  6
Continuous
 62
     8
370
    25
100
AcDbLine
 10
6511.3696731249
 20
4107.3719695259
 30
0.0
 11
6504.864290738
 21
4100.866587139
 31
0.0
  0
LINE
  5
361
330
1F
100
AcDbEntity
  8
0
  6
Continuous
 62
     8
370
    25
100
AcDbLine
 10
6511.4876376694
 20
4106.8520706006
 30
0.0
 11
6505.3841896634
 21
4100.7486225946
 31
0.0
  0
ARC
  5
362
330
1F
100
AcDbEntity
  8
0
  6
Continuous
 62
     8
370
    25
100
AcDbCircle
 10
6481.5511823141
 20
4130.6850779499
 30
0.0
 40
23.24373868681085
100
AcDbArc
 50
250.4817377185
 51
45.0
  0
ARC
  5
363
330
1F
100
AcDbEntity
  8
0
  6
Continuous
 62
     8
370
    25
100
AcDbCircle
 10
6481.5511823141
 20
4130.6850779499
 30
0.0
 40
23.24373868681054
100
AcDbArc
 50
45.0
 51
199.5182622815
  0
ARC
  5
364
330
1F
100
AcDbEntity
  8
0
  6
Continuous
 62
     8
370
    25
100
AcDbCircle
 10
6378.0511823141
 20
4062.1850779499
 30
0.0
 40
24.96512544439519
100
AcDbArc
 50
57.2642383
 51
122.7357617
  0
ARC
  5
365
330
1F
100
AcDbEntity
  8
0
  6
Continuous
 62
     8
370
    25
100
AcDbCircle
 10
6378.0511823141
 20
4062.1850779499
 30
0.0
 40
24.96512544439491
100
AcDbArc
 50
177.5889604222
 51
205.7296248849
  0
LWPOLYLINE
  5
366
330
1F
100
AcDbEntity
  8
0
  6
Continuous
 62
     8
370
    25
100
AcDbPolyline
 90
        3
 70
   128
 43
0.0
 10
6400.0229639518
 20
4063.2989952113
 10
6399.9495227989
 20
4064.2975845199
 10
6399.8540109615
 20
4065.1238979464
  0
ARC
  5
367
330
1F
100
AcDbEntity
  8
0
  6
Continuous
 62
     8
370
    25
100
AcDbCircle
 10
6378.0511823141
 20
4062.1850779499
 30
0.0
 40
22.00000000000028
100
AcDbArc
 50
72.6585571972
 51
107.3414428028
  0
ARC
  5
368
330
1F
100
AcDbEntity
  8
0
  6
Continuous
 62
     8
370
    25
100
AcDbCircle
 10
6378.0511823141
 20
4062.1850779499
 30
0.0
 40
20.49999999999944
100
AcDbArc
 50
358.990860265
 51
9.405719464
  0
LINE
  5
369
330
1F
100
AcDbEntity
  8
0
  6
Continuous
 62
     8
370
    25
100
AcDbLine
 10
6077.5511823141
 20
4080.6850779499
 30
0.0
 11
6417.4090466903
 21
4080.6850779499
 31
0.0
  0
LINE
  5
36A
330
1F
100
AcDbEntity
  8
0
  6
Continuous
 62
     8
370
    25
100
AcDbLine
 10
6445.6933179378
 20
4080.6850779499
 30
0.0
 11
6465.5511823141
 21
4080.6850779499
 31
0.0
  0
LINE
  5
36B
330
1F
100
AcDbEntity
  8
0
  6
Continuous
 62
     8
370
    25
100
AcDbLine
 10
6023.5511823141
 20
4092.6850779499
 30
0.0
 11
6429.4090466903
 21
4092.6850779499
 31
0.0
  0
LINE
  5
36C
330
1F
100
AcDbEntity
  8
0
  6
Continuous
 62
     8
370
    25
100
AcDbLine
 10
6457.6933179378
 20
4092.6850779499
 30
0.0
 11
6519.5511823141
 21
4092.6850779499
 31
0.0
  0
LINE
  5
36D
330
1F
100
AcDbEntity
  8
0
  6
Continuous
 62
     8
370
    25
100
AcDbLine
 10
6255.6083400215
 20
4304.2424578879
 30
0.0
 11
6255.7133972702
 21
4304.4301572216
 31
0.0
  0
LINE
  5
36E
330
1F
100
AcDbEntity
  8
0
  6
Continuous
 62
     8
370
    25
100
AcDbLine
 10
6287.3889673579
 20
4304.4301572216
 30
0.0
 11
6287.4940246003
 21
4304.2424578991
 31
0.0
  0
LINE
  5
36F
330
1F
100
AcDbEntity
  8
0
  6
Continuous
 62
     8
370
    25
100
AcDbLine
 10
6238.0270587063
 20
4324.6542516444
 30
0.0
 11
6238.1970911398
 21
4324.7138426016
 31
0.0
  0
LINE
  5
370
330
1F
100
AcDbEntity
  8
0
  6
Continuous
 62
     8
370
    25
100
AcDbLine
 10
6304.9052734883
 20
4324.7138426016
 30
0.0
 11
6305.0753059275
 21
4324.6542516424
 31
0.0
  0
LINE
  5
371
330
1F
100
AcDbEntity
  8
0
  6
Continuous
 62
     8
370
    25
100
AcDbLine
 10
6285.9301718306
 20
4367.5994362195
 30
0.0
 11
6286.1106101423
 21
4367.9339449005
 31
0.0
  0
LINE
  5
372
330
1F
100
AcDbEntity
  8
0
  6
Continuous
 62
     8
370
    25
100
AcDbLine
 10
6256.9917544859
 20
4367.9339449005
 30
0.0
 11
6257.218831134
 21
4367.5129749339
 31
0.0
  0
LINE
  5
373
330
1F
100
AcDbEntity
  8
0
  6
Continuous
 62
     8
370
    25
100
AcDbLine
 10
6292.809044449
 20
4363.5960036066
 30
0.0
 11
6292.9309155047
 21
4363.7461111766
 31
0.0
  0
LINE
  5
374
330
1F
100
AcDbEntity
  8
0
  6
Continuous
 62
     8
370
    25
100
AcDbLine
 10
6250.1714491438
 20
4363.7461111514
 30
0.0
 11
6250.2933201791
 21
4363.5960036066
 31
0.0
  0
LINE
  5
375
330
1F
100
AcDbEntity
  8
0
  6
Continuous
 62
     8
370
    25
100
AcDbLine
 10
6304.9052734883
 20
4346.6563132983
 30
0.0
 11
6305.0753059239
 21
4346.7159042562
 31
0.0
  0
LINE
  5
376
330
1F
100
AcDbEntity
  8
0
  6
Continuous
 62
     8
370
    25
100
AcDbLine
 10
6238.027058711
 20
4346.7159042538
 30
0.0
 11
6238.1970911398
 21
4346.6563132983
 31
0.0
  0
LINE
  5
377
330
1F
100
AcDbEntity
  8
0
  6
Continuous
 62
     8
370
    25
100
AcDbLine
 10
6519.5511823141
 20
3727.6850779499
 30
0.0
 11
6519.5511823141
 21
4090.6850779499
 31
0.0
  0
LINE
  5
378
330
1F
100
AcDbEntity
  8
0
  6
Continuous
 62
     8
370
    25
100
AcDbLine
 10
6023.5511823141
 20
4090.6850779499
 30
0.0
 11
6023.5511823141
 21
3727.6850779499
 31
0.0
  0
LINE
  5
379
330
1F
100
AcDbEntity
  8
0
  6
Continuous
 62
     8
370
    25
100
AcDbLine
 10
6044.4801145022
 20
3815.6850779499
 30
0.0
 11
6044.4801145022
 21
4090.6850779499
 31
0.0
  0
LINE
  5
37A
330
1F
100
AcDbEntity
  8
0
  6
Continuous
 62
     8
370
    25
100
AcDbLine
 10
6498.6222501259
 20
4090.6850779499
 30
0.0
 11
6498.6222501259
 21
3815.6850779499
 31
0.0
  0
LINE
  5
37B
330
1F
100
AcDbEntity
  8
0
  6
Continuous
 62
     8
370
    25
100
AcDbLine
 10
6495.08671622
 20
3815.6850779499
 30
0.0
 11
6495.08671622
 21
4090.6850779499
 31
0.0
  0
LINE
  5
37C
330
1F
100
AcDbEntity
  8
0
  6
Continuous
 62
     8
370
    25
100
AcDbLine
 10
6048.0156484081
 20
4090.6850779499
 30
0.0
 11
6048.0156484081
 21
3815.6850779499
 31
0.0
  0
LINE
  5
37D
330
1F
100
AcDbEntity
  8
0
  6
Continuous
 62
     8
370
    25
100
AcDbLine
 10
6492.7227551893
 20
4090.6850779499
 30
0.0
 11
6492.7227551893
 21
3815.6850779499
 31
0.0
  0
LINE
  5
37E
330
1F
100
AcDbEntity
  8
0
  6
Continuous
 62
     8
370
    25
100
AcDbLine
 10
6050.3796094388
 20
3815.6850779499
 30
0.0
 11
6050.3796094388
 21
4090.6850779499
 31
0.0
  0
LINE
  5
37F
330
1F
100
AcDbEntity
  8
0
  6
Continuous
 62
     8
370
    25
100
AcDbLine
 10
6489.8943280646
 20
3815.6850779499
 30
0.0
 11
6489.8943280646
 21
4090.6850779499
 31
0.0
  0
LINE
  5
380
330
1F
100
AcDbEntity
  8
0
  6
Continuous
 62
     8
370
    25
100
AcDbLine
 10
6053.2080365635
 20
4090.6850779499
 30
0.0
 11
6053.2080365635
 21
3815.6850779499
 31
0.0
  0
LINE
  5
381
330
1F
100
AcDbEntity
  8
0
  6
Continuous
 62
     8
370
    25
100
AcDbLine
 10
6066.5511823141
 20
3815.6850779499
 30
0.0
 11
6066.5511823141
 21
3830.6850779499
 31
0.0
  0
LINE
  5
382
330
1F
100
AcDbEntity
  8
0
  6
Continuous
 62
     8
370
    25
100
AcDbLine
 10
6066.5511823141
 20
4080.6850779499
 30
0.0
 11
6066.5511823141
 21
4090.6850779499
 31
0.0
  0
LINE
  5
383
330
1F
100
AcDbEntity
  8
0
  6
Continuous
 62
     8
370
    25
100
AcDbLine
 10
6476.5511823141
 20
4090.6850779499
 30
0.0
 11
6476.5511823141
 21
4080.6850779499
 31
0.0
  0
LINE
  5
384
330
1F
100
AcDbEntity
  8
0
  6
Continuous
 62
     8
370
    25
100
AcDbLine
 10
6476.5511823141
 20
3830.6850779499
 30
0.0
 11
6476.5511823141
 21
3815.6850779499
 31
0.0
  0
LINE
  5
385
330
1F
100
AcDbEntity
  8
0
  6
Continuous
 62
     8
370
    25
100
AcDbLine
 10
6411.5511823141
 20
4083.1850779499
 30
0.0
 11
6411.5511823141
 21
4090.6850779499
 31
0.0
  0
LINE
  5
386
330
1F
100
AcDbEntity
  8
0
  6
Continuous
 62
     8
370
    25
100
AcDbLine
 10
6411.5511823141
 20
3815.6850779499
 30
0.0
 11
6411.5511823141
 21
3828.1850779499
 31
0.0
  0
LINE
  5
387
330
1F
100
AcDbEntity
  8
0
  6
Continuous
 62
     8
370
    25
100
AcDbLine
 10
6131.5511823141
 20
4090.6850779499
 30
0.0
 11
6131.5511823141
 21
4083.1850779499
 31
0.0
  0
LINE
  5
388
330
1F
100
AcDbEntity
  8
0
  6
Continuous
 62
     8
370
    25
100
AcDbLine
 10
6131.5511823141
 20
3828.1850779499
 30
0.0
 11
6131.5511823141
 21
3815.6850779499
 31
0.0
  0
ARC
  5
389
330
1F
100
AcDbEntity
  8
0
  6
Continuous
 62
     8
370
    25
100
AcDbCircle
 10
6378.0511823141
 20
4062.1850779499
 30
0.0
 40
36.32842712474595
100
AcDbArc
 50
35.3141882838
 51
51.6753454087
  0
ARC
  5
38A
330
1F
100
AcDbEntity
  8
0
  6
Continuous
 62
     8
370
    25
100
AcDbCircle
 10
6378.0511823141
 20
4062.1850779499
 30
0.0
 40
34.91421356237305
100
AcDbArc
 50
36.9755552947
 51
54.7147640367
  0
ARC
  5
38B
330
1F
100
AcDbEntity
  8
0
  6
Continuous
 62
     8
370
    25
100
AcDbCircle
 10
6378.0511823141
 20
4062.1850779499
 30
0.0
 40
36.32842712474642
100
AcDbArc
 50
176.3752368655
 51
206.9433484416
  0
ARC
  5
38C
330
1F
100
AcDbEntity
  8
0
  6
Continuous
 62
     8
370
    25
100
AcDbCircle
 10
6378.0511823141
 20
4062.1850779499
 30
0.0
 40
36.32842712474651
100
AcDbArc
 50
128.3246545913
 51
144.6858117162
  0
ARC
  5
38D
330
1F
100
AcDbEntity
  8
0
  6
Continuous
 62
     8
370
    25
100
AcDbCircle
 10
6378.0511823141
 20
4062.1850779499
 30
0.0
 40
34.91421356237377
100
AcDbArc
 50
125.2852359633
 51
143.0244447053
  0
ARC
  5
38E
330
1F
100
AcDbEntity
  8
0
  6
Continuous
 62
     8
370
    25
100
AcDbCircle
 10
6378.0511823141
 20
4062.1850779499
 30
0.0
 40
34.91421356237421
100
AcDbArc
 50
175.1641347853
 51
208.1544505217
  0
ENDSEC
  0
SECTION
  2
OBJECTS
  0
DICTIONARY
  5
C
330
0
100
AcDbDictionary
281
     1
  3
ACAD_GROUP
350
D
  3
ACAD_LAYOUT
350
1A
  3
ACAD_MLINESTYLE
350
17
  3
ACAD_PLOTSETTINGS
350
19
  3
ACAD_PLOTSTYLENAME
350
E
  3
ACAD_SCALELIST
350
47
  3
DWGPROPS
350
38F
  0
DICTIONARY
  5
D
102
{ACAD_REACTORS
330
C
102
}
330
C
100
AcDbDictionary
281
     1
  0
DICTIONARY
  5
1A
102
{ACAD_REACTORS
330
C
102
}
330
C
100
AcDbDictionary
281
     1
  3
Layout1
350
1E
  3
Layout2
350
26
  3
Model
350
22
  0
DICTIONARY
  5
17
102
{ACAD_REACTORS
330
C
102
}
330
C
100
AcDbDictionary
281
     1
  3
Standard
350
18
  0
DICTIONARY
  5
19
102
{ACAD_REACTORS
330
C
102
}
330
C
100
AcDbDictionary
281
     1
  0
ACDBDICTIONARYWDFLT
  5
E
102
{ACAD_REACTORS
330
C
102
}
330
C
100
AcDbDictionary
281
     1
  3
Normal
350
F
100
AcDbDictionaryWithDefault
340
F
  0
DICTIONARY
  5
47
102
{ACAD_REACTORS
330
C
102
}
330
C
100
AcDbDictionary
281
     1
  3
A0
350
48
  3
A1
350
49
  3
A2
350
4A
  3
A3
350
4B
  3
A4
350
4C
  3
A5
350
4D
  3
A6
350
4E
  3
A7
350
4F
  3
A8
350
50
  3
A9
350
51
  3
B0
350
52
  3
B1
350
53
  3
B2
350
54
  3
B3
350
55
  3
B4
350
56
  3
B5
350
57
  3
B6
350
58
  3
B7
350
59
  3
B8
350
5A
  3
B9
350
5B
  3
C0
350
5C
  3
C1
350
5D
  3
C2
350
5E
  3
C3
350
5F
  3
C4
350
60
  3
C5
350
61
  3
C6
350
62
  3
C7
350
63
  3
C8
350
64
  3
C9
350
65
  3
D0
350
66
  3
D1
350
67
  3
D2
350
68
  0
XRECORD
  5
38F
102
{ACAD_REACTORS
330
C
102
}
330
C
100
AcDbXrecord
280
     1
  1
DWGPROPS COOKIE
  2

  3

  4

  6

  7

  8
radek.stransky
  9

300
=
301
=
302
=
303
=
304
=
305
=
306
=
307
=
308
=
309
=
 40
0.0
 41
2459905.288781308
 42
2459905.288781632
  1

 90
        0
  0
LAYOUT
  5
1E
102
{ACAD_REACTORS
330
1A
102
}
330
1A
100
AcDbPlotSettings
  1

  2
none_device
  4

  6

 40
0.0
 41
0.0
 42
0.0
 43
0.0
 44
0.0
 45
0.0
 46
0.0
 47
0.0
 48
0.0
 49
0.0
140
0.0
141
0.0
142
1.0
143
1.0
 70
   688
 72
     1
 73
     0
 74
     5
  7

 75
    16
147
1.0
148
0.0
149
0.0
100
AcDbLayout
  1
Layout1
 70
     1
 71
     1
 10
0.0
 20
0.0
 11
420.0
 21
297.0
 12
0.0
 22
0.0
 32
0.0
 14
1.0000000000E+20
 24
1.0000000000E+20
 34
1.0000000000E+20
 15
-1.0000000000E+20
 25
-1.0000000000E+20
 35
-1.0000000000E+20
146
0.0
 13
0.0
 23
0.0
 33
0.0
 16
1.0
 26
0.0
 36
0.0
 17
0.0
 27
1.0
 37
0.0
 76
     0
330
1B
  0
LAYOUT
  5
26
102
{ACAD_REACTORS
330
1A
102
}
330
1A
100
AcDbPlotSettings
  1

  2
none_device
  4

  6

 40
0.0
 41
0.0
 42
0.0
 43
0.0
 44
0.0
 45
0.0
 46
0.0
 47
0.0
 48
0.0
 49
0.0
140
0.0
141
0.0
142
1.0
143
1.0
 70
   688
 72
     1
 73
     0
 74
     5
  7

 75
    16
147
1.0
148
0.0
149
0.0
100
AcDbLayout
  1
Layout2
 70
     1
 71
     2
 10
0.0
 20
0.0
 11
0.0
 21
0.0
 12
0.0
 22
0.0
 32
0.0
 14
0.0
 24
0.0
 34
0.0
 15
0.0
 25
0.0
 35
0.0
146
0.0
 13
0.0
 23
0.0
 33
0.0
 16
1.0
 26
0.0
 36
0.0
 17
0.0
 27
1.0
 37
0.0
 76
     0
330
23
  0
LAYOUT
  5
22
102
{ACAD_REACTORS
330
1A
102
}
330
1A
100
AcDbPlotSettings
  1

  2
none_device
  4
Letter_(8.50_x_11.00_Inches)
  6

 40
6.35
 41
6.35
 42
6.35000508
 43
6.35000508
 44
215.9
 45
279.4
 46
0.0
 47
0.0
 48
0.0
 49
0.0
140
0.0
141
0.0
142
1.0
143
1.0
 70
  1712
 72
     1
 73
     0
 74
     0
  7

 75
     0
147
1.0
148
0.0
149
0.0
100
AcDbLayout
  1
Model
 70
     1
 71
     0
 10
0.0
 20
0.0
 11
20000.0
 21
10000.0
 12
0.0
 22
0.0
 32
0.0
 14
0.0
 24
0.0
 34
0.0
 15
20000.0
 25
10000.0
 35
0.0
146
0.0
 13
0.0
 23
0.0
 33
0.0
 16
1.0
 26
0.0
 36
0.0
 17
0.0
 27
1.0
 37
0.0
 76
     0
330
1F
331
29
  0
MLINESTYLE
  5
18
102
{ACAD_REACTORS
330
17
102
}
330
17
100
AcDbMlineStyle
  2
Standard
 70
     0
  3

 62
   256
 51
90.0
 52
90.0
 71
     2
 49
0.5
 62
   256
  6
BYLAYER
 49
-0.5
 62
   256
  6
BYLAYER
  0
ACDBPLACEHOLDER
  5
F
102
{ACAD_REACTORS
330
E
102
}
330
E
  0
SCALE
  5
48
102
{ACAD_REACTORS
330
47
102
}
330
47
100
AcDbScale
 70
     0
300
1:1
140
1.0
141
1.0
290
     1
  0
SCALE
  5
49
102
{ACAD_REACTORS
330
47
102
}
330
47
100
AcDbScale
 70
     0
300
1:2
140
1.0
141
2.0
290
     0
  0
SCALE
  5
4A
102
{ACAD_REACTORS
330
47
102
}
330
47
100
AcDbScale
 70
     0
300
1:4
140
1.0
141
4.0
290
     0
  0
SCALE
  5
4B
102
{ACAD_REACTORS
330
47
102
}
330
47
100
AcDbScale
 70
     0
300
1:5
140
1.0
141
5.0
290
     0
  0
SCALE
  5
4C
102
{ACAD_REACTORS
330
47
102
}
330
47
100
AcDbScale
 70
     0
300
1:8
140
1.0
141
8.0
290
     0
  0
SCALE
  5
4D
102
{ACAD_REACTORS
330
47
102
}
330
47
100
AcDbScale
 70
     0
300
1:10
140
1.0
141
10.0
290
     0
  0
SCALE
  5
4E
102
{ACAD_REACTORS
330
47
102
}
330
47
100
AcDbScale
 70
     0
300
1:16
140
1.0
141
16.0
290
     0
  0
SCALE
  5
4F
102
{ACAD_REACTORS
330
47
102
}
330
47
100
AcDbScale
 70
     0
300
1:20
140
1.0
141
20.0
290
     0
  0
SCALE
  5
50
102
{ACAD_REACTORS
330
47
102
}
330
47
100
AcDbScale
 70
     0
300
1:30
140
1.0
141
30.0
290
     0
  0
SCALE
  5
51
102
{ACAD_REACTORS
330
47
102
}
330
47
100
AcDbScale
 70
     0
300
1:40
140
1.0
141
40.0
290
     0
  0
SCALE
  5
52
102
{ACAD_REACTORS
330
47
102
}
330
47
100
AcDbScale
 70
     0
300
1:50
140
1.0
141
50.0
290
     0
  0
SCALE
  5
53
102
{ACAD_REACTORS
330
47
102
}
330
47
100
AcDbScale
 70
     0
300
1:100
140
1.0
141
100.0
290
     0
  0
SCALE
  5
54
102
{ACAD_REACTORS
330
47
102
}
330
47
100
AcDbScale
 70
     0
300
2:1
140
2.0
141
1.0
290
     0
  0
SCALE
  5
55
102
{ACAD_REACTORS
330
47
102
}
330
47
100
AcDbScale
 70
     0
300
4:1
140
4.0
141
1.0
290
     0
  0
SCALE
  5
56
102
{ACAD_REACTORS
330
47
102
}
330
47
100
AcDbScale
 70
     0
300
8:1
140
8.0
141
1.0
290
     0
  0
SCALE
  5
57
102
{ACAD_REACTORS
330
47
102
}
330
47
100
AcDbScale
 70
     0
300
10:1
140
10.0
141
1.0
290
     0
  0
SCALE
  5
58
102
{ACAD_REACTORS
330
47
102
}
330
47
100
AcDbScale
 70
     0
300
100:1
140
100.0
141
1.0
290
     0
  0
SCALE
  5
59
102
{ACAD_REACTORS
330
47
102
}
330
47
100
AcDbScale
 70
     0
300
1/128" = 1'-0"
140
0.0078125
141
12.0
290
     0
  0
SCALE
  5
5A
102
{ACAD_REACTORS
330
47
102
}
330
47
100
AcDbScale
 70
     0
300
1/64" = 1'-0"
140
0.015625
141
12.0
290
     0
  0
SCALE
  5
5B
102
{ACAD_REACTORS
330
47
102
}
330
47
100
AcDbScale
 70
     0
300
1/32" = 1'-0"
140
0.03125
141
12.0
290
     0
  0
SCALE
  5
5C
102
{ACAD_REACTORS
330
47
102
}
330
47
100
AcDbScale
 70
     0
300
1/16" = 1'-0"
140
0.0625
141
12.0
290
     0
  0
SCALE
  5
5D
102
{ACAD_REACTORS
330
47
102
}
330
47
100
AcDbScale
 70
     0
300
3/32" = 1'-0"
140
0.09375
141
12.0
290
     0
  0
SCALE
  5
5E
102
{ACAD_REACTORS
330
47
102
}
330
47
100
AcDbScale
 70
     0
300
1/8" = 1'-0"
140
0.125
141
12.0
290
     0
  0
SCALE
  5
5F
102
{ACAD_REACTORS
330
47
102
}
330
47
100
AcDbScale
 70
     0
300
3/16" = 1'-0"
140
0.1875
141
12.0
290
     0
  0
SCALE
  5
60
102
{ACAD_REACTORS
330
47
102
}
330
47
100
AcDbScale
 70
     0
300
1/4" = 1'-0"
140
0.25
141
12.0
290
     0
  0
SCALE
  5
61
102
{ACAD_REACTORS
330
47
102
}
330
47
100
AcDbScale
 70
     0
300
3/8" = 1'-0"
140
0.375
141
12.0
290
     0
  0
SCALE
  5
62
102
{ACAD_REACTORS
330
47
102
}
330
47
100
AcDbScale
 70
     0
300
1/2" = 1'-0"
140
0.5
141
12.0
290
     0
  0
SCALE
  5
63
102
{ACAD_REACTORS
330
47
102
}
330
47
100
AcDbScale
 70
     0
300
3/4" = 1'-0"
140
0.75
141
12.0
290
     0
  0
SCALE
  5
64
102
{ACAD_REACTORS
330
47
102
}
330
47
100
AcDbScale
 70
     0
300
1" = 1'-0"
140
1.0
141
12.0
290
     0
  0
SCALE
  5
65
102
{ACAD_REACTORS
330
47
102
}
330
47
100
AcDbScale
 70
     0
300
1-1/2" = 1'-0"
140
1.5
141
12.0
290
     0
  0
SCALE
  5
66
102
{ACAD_REACTORS
330
47
102
}
330
47
100
AcDbScale
 70
     0
300
3" = 1'-0"
140
3.0
141
12.0
290
     0
  0
SCALE
  5
67
102
{ACAD_REACTORS
330
47
102
}
330
47
100
AcDbScale
 70
     0
300
6" = 1'-0"
140
6.0
141
12.0
290
     0
  0
SCALE
  5
68
102
{ACAD_REACTORS
330
47
102
}
330
47
100
AcDbScale
 70
     0
300
1'-0" = 1'-0"
140
12.0
141
12.0
290
     0
  0
ENDSEC
  0
EOF
