  0
SECTION
  2
HEADER
  9
$ACADVER
  1
AC1015
  9
$ACADMAINTVER
 70
     6
  9
$DWGCODEPAGE
  3
ANSI_1250
  9
$INSBASE
 10
0.0
 20
0.0
 30
0.0
  9
$EXTMIN
 10
0.0
 20
0.0
 30
0.0
  9
$EXTMAX
 10
20000.0
 20
10000.0
 30
0.0
  9
$LIMMIN
 10
0.0
 20
0.0
  9
$LIMMAX
 10
20000.0
 20
10000.0
  9
$ORTHOMODE
 70
     0
  9
$REGENMODE
 70
     1
  9
$FILLMODE
 70
     1
  9
$QTEXTMODE
 70
     0
  9
$MIRRTEXT
 70
     1
  9
$LTSCALE
 40
1.0
  9
$ATTMODE
 70
     1
  9
$TEXTSIZE
 40
2.0
  9
$TRACEWID
 40
1.0
  9
$TEXTSTYLE
  7
Standard
  9
$CLAYER
  8
0
  9
$CELTYPE
  6
ByLayer
  9
$CECOLOR
 62
   256
  9
$CELTSCALE
 40
1.0
  9
$DISPSILH
 70
     0
  9
$DIMSCALE
 40
1.0
  9
$DIMASZ
 40
2.0
  9
$DIMEXO
 40
1.0
  9
$DIMDLI
 40
3.75
  9
$DIMRND
 40
0.0
  9
$DIMDLE
 40
0.0
  9
$DIMEXE
 40
1.0
  9
$DIMTP
 40
0.0
  9
$DIMTM
 40
0.0
  9
$DIMTXT
 40
2.0
  9
$DIMCEN
 40
2.5
  9
$DIMTSZ
 40
0.0
  9
$DIMTOL
 70
     0
  9
$DIMLIM
 70
     0
  9
$DIMTIH
 70
     1
  9
$DIMTOH
 70
     1
  9
$DIMSE1
 70
     0
  9
$DIMSE2
 70
     0
  9
$DIMTAD
 70
     1
  9
$DIMZIN
 70
     0
  9
$DIMBLK
  1

  9
$DIMASO
 70
     1
  9
$DIMSHO
 70
     1
  9
$DIMPOST
  1

  9
$DIMAPOST
  1

  9
$DIMALT
 70
     0
  9
$DIMALTD
 70
     3
  9
$DIMALTF
 40
0.0393700787
  9
$DIMLFAC
 40
1.0
  9
$DIMTOFL
 70
     1
  9
$DIMTVP
 40
0.0
  9
$DIMTIX
 70
     0
  9
$DIMSOXD
 70
     0
  9
$DIMSAH
 70
     0
  9
$DIMBLK1
  1

  9
$DIMBLK2
  1

  9
$DIMSTYLE
  2
ISO-25
  9
$DIMCLRD
 70
     0
  9
$DIMCLRE
 70
     0
  9
$DIMCLRT
 70
     0
  9
$DIMTFAC
 40
1.0
  9
$DIMGAP
 40
1.524
  9
$DIMJUST
 70
     0
  9
$DIMSD1
 70
     0
  9
$DIMSD2
 70
     0
  9
$DIMTOLJ
 70
     0
  9
$DIMTZIN
 70
     0
  9
$DIMALTZ
 70
     0
  9
$DIMALTTZ
 70
     0
  9
$DIMUPT
 70
     0
  9
$DIMDEC
 70
     2
  9
$DIMTDEC
 70
     0
  9
$DIMALTU
 70
     2
  9
$DIMALTTD
 70
     3
  9
$DIMTXSTY
  7
Standard
  9
$DIMAUNIT
 70
     0
  9
$DIMADEC
 70
     2
  9
$DIMALTRND
 40
0.0
  9
$DIMAZIN
 70
     0
  9
$DIMDSEP
 70
    44
  9
$DIMATFIT
 70
     3
  9
$DIMFRAC
 70
     0
  9
$DIMLDRBLK
  1

  9
$DIMLUNIT
 70
     2
  9
$DIMLWD
 70
    -2
  9
$DIMLWE
 70
    -2
  9
$DIMTMOVE
 70
     0
  9
$LUNITS
 70
     2
  9
$LUPREC
 70
     3
  9
$SKETCHINC
 40
1.0
  9
$FILLETRAD
 40
10.0
  9
$AUNITS
 70
     0
  9
$AUPREC
 70
     2
  9
$MENU
  1
.
  9
$ELEVATION
 40
0.0
  9
$PELEVATION
 40
0.0
  9
$THICKNESS
 40
0.0
  9
$LIMCHECK
 70
     0
  9
$CHAMFERA
 40
0.0
  9
$CHAMFERB
 40
0.0
  9
$CHAMFERC
 40
0.0
  9
$CHAMFERD
 40
0.0
  9
$SKPOLY
 70
     0
  9
$TDCREATE
 40
2459842.286111134
  9
$TDUCREATE
 40
2459842.202777801
  9
$TDUPDATE
 40
2459842.286111771
  9
$TDUUPDATE
 40
2459842.202778438
  9
$TDINDWG
 40
0.0000000116
  9
$TDUSRTIMER
 40
0.0000000116
  9
$USRTIMER
 70
     1
  9
$ANGBASE
 50
0.0
  9
$ANGDIR
 70
     0
  9
$PDMODE
 70
     0
  9
$PDSIZE
 40
-1.0
  9
$PLINEWID
 40
0.0
  9
$SPLFRAME
 70
     0
  9
$SPLINETYPE
 70
     6
  9
$SPLINESEGS
 70
     8
  9
$HANDSEED
  5
47B
  9
$SURFTAB1
 70
     6
  9
$SURFTAB2
 70
     6
  9
$SURFTYPE
 70
     6
  9
$SURFU
 70
     6
  9
$SURFV
 70
     6
  9
$UCSBASE
  2

  9
$UCSNAME
  2

  9
$UCSORG
 10
0.0
 20
0.0
 30
0.0
  9
$UCSXDIR
 10
1.0
 20
0.0
 30
0.0
  9
$UCSYDIR
 10
0.0
 20
1.0
 30
0.0
  9
$UCSORTHOREF
  2

  9
$UCSORTHOVIEW
 70
     0
  9
$UCSORGTOP
 10
0.0
 20
0.0
 30
0.0
  9
$UCSORGBOTTOM
 10
0.0
 20
0.0
 30
0.0
  9
$UCSORGLEFT
 10
0.0
 20
0.0
 30
0.0
  9
$UCSORGRIGHT
 10
0.0
 20
0.0
 30
0.0
  9
$UCSORGFRONT
 10
0.0
 20
0.0
 30
0.0
  9
$UCSORGBACK
 10
0.0
 20
0.0
 30
0.0
  9
$PUCSBASE
  2

  9
$PUCSNAME
  2

  9
$PUCSORG
 10
0.0
 20
0.0
 30
0.0
  9
$PUCSXDIR
 10
1.0
 20
0.0
 30
0.0
  9
$PUCSYDIR
 10
0.0
 20
1.0
 30
0.0
  9
$PUCSORTHOREF
  2

  9
$PUCSORTHOVIEW
 70
     0
  9
$PUCSORGTOP
 10
0.0
 20
0.0
 30
0.0
  9
$PUCSORGBOTTOM
 10
0.0
 20
0.0
 30
0.0
  9
$PUCSORGLEFT
 10
0.0
 20
0.0
 30
0.0
  9
$PUCSORGRIGHT
 10
0.0
 20
0.0
 30
0.0
  9
$PUCSORGFRONT
 10
0.0
 20
0.0
 30
0.0
  9
$PUCSORGBACK
 10
0.0
 20
0.0
 30
0.0
  9
$USERI1
 70
     0
  9
$USERI2
 70
     0
  9
$USERI3
 70
     0
  9
$USERI4
 70
     0
  9
$USERI5
 70
     0
  9
$USERR1
 40
0.0
  9
$USERR2
 40
0.0
  9
$USERR3
 40
0.0
  9
$USERR4
 40
0.0
  9
$USERR5
 40
0.0
  9
$WORLDVIEW
 70
     1
  9
$SHADEDGE
 70
     3
  9
$SHADEDIF
 70
    70
  9
$TILEMODE
 70
     1
  9
$MAXACTVP
 70
    64
  9
$PINSBASE
 10
0.0
 20
0.0
 30
0.0
  9
$PLIMCHECK
 70
     0
  9
$PEXTMIN
 10
1.0000000000E+20
 20
1.0000000000E+20
 30
1.0000000000E+20
  9
$PEXTMAX
 10
-1.0000000000E+20
 20
-1.0000000000E+20
 30
-1.0000000000E+20
  9
$PLIMMIN
 10
0.0
 20
0.0
  9
$PLIMMAX
 10
420.0
 20
297.0
  9
$UNITMODE
 70
     0
  9
$VISRETAIN
 70
     1
  9
$PLINEGEN
 70
     0
  9
$PSLTSCALE
 70
     1
  9
$TREEDEPTH
 70
  3020
  9
$CMLSTYLE
  2
Standard
  9
$CMLJUST
 70
     0
  9
$CMLSCALE
 40
20.0
  9
$PROXYGRAPHICS
 70
     1
  9
$MEASUREMENT
 70
     1
  9
$CELWEIGHT
370
    -1
  9
$ENDCAPS
280
     0
  9
$JOINSTYLE
280
     0
  9
$LWDISPLAY
290
     1
  9
$INSUNITS
 70
     4
  9
$HYPERLINKBASE
  1

  9
$STYLESHEET
  1

  9
$XEDIT
290
     1
  9
$CEPSNTYPE
380
     0
  9
$PSTYLEMODE
290
     1
  9
$FINGERPRINTGUID
  2
{40fa39db-4831-4ad1-a785-3fdc538600ca}
  9
$VERSIONGUID
  2
{FAEB1C32-E019-11D5-929B-00C0DF256EC4}
  9
$EXTNAMES
290
     1
  9
$PSVPSCALE
 40
0.0
  9
$OLESTARTUP
290
     0
  0
ENDSEC
  0
SECTION
  2
CLASSES
  0
CLASS
  1
ACDBDICTIONARYWDFLT
  2
AcDbDictionaryWithDefault
  3
ObjectDBX Classes
 90
        0
280
     0
281
     0
  0
CLASS
  1
VISUALSTYLE
  2
AcDbVisualStyle
  3
ObjectDBX Classes
 90
     4095
280
     0
281
     0
  0
CLASS
  1
MATERIAL
  2
AcDbMaterial
  3
ObjectDBX Classes
 90
     1153
280
     0
281
     0
  0
CLASS
  1
SCALE
  2
AcDbScale
  3
ObjectDBX Classes
 90
     1153
280
     0
281
     0
  0
CLASS
  1
TABLESTYLE
  2
AcDbTableStyle
  3
ObjectDBX Classes
 90
     4095
280
     0
281
     0
  0
CLASS
  1
MLEADERSTYLE
  2
AcDbMLeaderStyle
  3
ACDB_MLEADERSTYLE_CLASS
 90
     4095
280
     0
281
     0
  0
CLASS
  1
SUN
  2
AcDbSun
  3
SCENEOE
 90
     1153
280
     0
281
     0
  0
CLASS
  1
ACDBPLACEHOLDER
  2
AcDbPlaceHolder
  3
ObjectDBX Classes
 90
        0
280
     0
281
     0
  0
CLASS
  1
LAYOUT
  2
AcDbLayout
  3
ObjectDBX Classes
 90
        0
280
     0
281
     0
  0
ENDSEC
  0
SECTION
  2
TABLES
  0
TABLE
  2
VPORT
  5
8
330
0
100
AcDbSymbolTable
 70
     1
  0
VPORT
  5
29
330
8
100
AcDbSymbolTableRecord
100
AcDbViewportTableRecord
  2
*Active
 70
     0
 10
0.0
 20
0.0
 11
1.0
 21
1.0
 12
10000.0
 22
5000.0
 13
0.0
 23
0.0
 14
10.0
 24
10.0
 15
10.0
 25
10.0
 16
0.0
 26
0.0
 36
1.0
 17
0.0
 27
0.0
 37
0.0
 40
10000.0
 41
2.0
 42
50.0
 43
0.0
 44
0.0
 50
0.0
 51
0.0
 71
     0
 72
  2000
 73
     1
 74
     3
 75
     0
 76
     0
 77
     0
 78
     0
281
     0
 65
     1
110
0.0
120
0.0
130
0.0
111
1.0
121
0.0
131
0.0
112
0.0
122
1.0
132
0.0
 79
     0
146
0.0
  0
ENDTAB
  0
TABLE
  2
LTYPE
  5
5
330
0
100
AcDbSymbolTable
 70
     6
  0
LTYPE
  5
14
330
5
100
AcDbSymbolTableRecord
100
AcDbLinetypeTableRecord
  2
ByBlock
 70
     0
  3

 72
    65
 73
     0
 40
0.0
  0
LTYPE
  5
15
330
5
100
AcDbSymbolTableRecord
100
AcDbLinetypeTableRecord
  2
ByLayer
 70
     0
  3

 72
    65
 73
     0
 40
0.0
  0
LTYPE
  5
16
330
5
100
AcDbSymbolTableRecord
100
AcDbLinetypeTableRecord
  2
Continuous
 70
     0
  3
Solid line
 72
    65
 73
     0
 40
0.0
  0
LTYPE
  5
6E
330
5
100
AcDbSymbolTableRecord
100
AcDbLinetypeTableRecord
  2
HIDDEN
 70
     0
  3
Hidden __ __ __ __ __ __ __ __ __ __ __ __ __ __
 72
    65
 73
     2
 40
1.905
 49
1.27
 74
     0
 49
-0.635
 74
     0
  0
LTYPE
  5
6F
330
5
100
AcDbSymbolTableRecord
100
AcDbLinetypeTableRecord
  2
PHANTOM
 70
     0
  3
Phantom ______  __  __  ______  __  __  ______
 72
    65
 73
     6
 40
12.7
 49
6.35
 74
     0
 49
-1.27
 74
     0
 49
1.27
 74
     0
 49
-1.27
 74
     0
 49
1.27
 74
     0
 49
-1.27
 74
     0
  0
LTYPE
  5
70
330
5
100
AcDbSymbolTableRecord
100
AcDbLinetypeTableRecord
  2
CENTER
 70
     0
  3
Center ____ _ ____ _ ____ _ ____ _ ____ _ ____
 72
    65
 73
     4
 40
10.16
 49
6.35
 74
     0
 49
-1.27
 74
     0
 49
1.27
 74
     0
 49
-1.27
 74
     0
  0
LTYPE
  5
71
330
5
100
AcDbSymbolTableRecord
100
AcDbLinetypeTableRecord
  2
CENTERX2
 70
     0
  3
Center (2x) ________  __  ________  __  _____
 72
    65
 73
     4
 40
20.32
 49
12.7
 74
     0
 49
-2.54
 74
     0
 49
2.54
 74
     0
 49
-2.54
 74
     0
  0
LTYPE
  5
72
330
5
100
AcDbSymbolTableRecord
100
AcDbLinetypeTableRecord
  2
DOT2
 70
     0
  3
Dot (.5x) ........................................
 72
    65
 73
     2
 40
0.635
 49
0.0
 74
     0
 49
-0.635
 74
     0
  0
ENDTAB
  0
TABLE
  2
LAYER
  5
2
330
0
100
AcDbSymbolTable
 70
    13
  0
LAYER
  5
10
330
2
100
AcDbSymbolTableRecord
100
AcDbLayerTableRecord
  2
0
 70
     0
 62
     7
  6
Continuous
370
    -3
390
F
  0
LAYER
  5
73
330
2
100
AcDbSymbolTableRecord
100
AcDbLayerTableRecord
  2
FORMAT
 70
     0
 62
     7
  6
Continuous
370
    -3
390
F
  0
LAYER
  5
74
330
2
100
AcDbSymbolTableRecord
100
AcDbLayerTableRecord
  2
OSA
 70
     0
 62
     7
  6
CENTER
370
    -3
390
F
  0
LAYER
  5
75
330
2
100
AcDbSymbolTableRecord
100
AcDbLayerTableRecord
  2
0_35
 70
     0
 62
     7
  6
Continuous
370
    35
390
F
  0
LAYER
  5
76
330
2
100
AcDbSymbolTableRecord
100
AcDbLayerTableRecord
  2
0_5
 70
     0
 62
     7
  6
Continuous
370
    50
390
F
  0
LAYER
  5
77
330
2
100
AcDbSymbolTableRecord
100
AcDbLayerTableRecord
  2
0_25
 70
     0
 62
     7
  6
Continuous
370
    25
390
F
  0
LAYER
  5
78
330
2
100
AcDbSymbolTableRecord
100
AcDbLayerTableRecord
  2
0_18
 70
     0
 62
     7
  6
Continuous
370
    -3
390
F
  0
LAYER
  5
79
330
2
100
AcDbSymbolTableRecord
100
AcDbLayerTableRecord
  2
SLD-0
 70
     0
 62
   179
  6
Continuous
370
    -3
390
F
  0
LAYER
  5
7A
330
2
100
AcDbSymbolTableRecord
100
AcDbLayerTableRecord
  2
KOTY
 70
     0
 62
     7
  6
Continuous
370
    -3
390
F
  0
LAYER
  5
7B
330
2
100
AcDbSymbolTableRecord
100
AcDbLayerTableRecord
  2
SILNA
 70
     0
 62
   179
  6
Continuous
370
    -3
390
F
  0
LAYER
  5
7C
330
2
100
AcDbSymbolTableRecord
100
AcDbLayerTableRecord
  2
0_18_1
 70
     0
 62
   179
  6
Continuous
370
    -3
390
F
  0
LAYER
  5
7D
330
2
100
AcDbSymbolTableRecord
100
AcDbLayerTableRecord
  2
0_35_1
 70
     0
 62
   179
  6
Continuous
370
    35
390
F
  0
LAYER
  5
7E
330
2
100
AcDbSymbolTableRecord
100
AcDbLayerTableRecord
  2
0_5_1
 70
     0
 62
   179
  6
Continuous
370
    50
390
F
  0
ENDTAB
  0
TABLE
  2
STYLE
  5
3
330
0
100
AcDbSymbolTable
 70
     1
  0
STYLE
  5
11
330
3
100
AcDbSymbolTableRecord
100
AcDbTextStyleTableRecord
  2
Standard
 70
     0
 40
0.0
 41
1.0
 50
0.0
 71
     0
 42
2.0
  3
txt
  4

  0
ENDTAB
  0
TABLE
  2
VIEW
  5
6
330
0
100
AcDbSymbolTable
 70
     0
  0
ENDTAB
  0
TABLE
  2
UCS
  5
7
330
0
100
AcDbSymbolTable
 70
     0
  0
ENDTAB
  0
TABLE
  2
APPID
  5
9
330
0
100
AcDbSymbolTable
 70
     1
  0
APPID
  5
12
330
9
100
AcDbSymbolTableRecord
100
AcDbRegAppTableRecord
  2
ACAD
 70
     0
  0
ENDTAB
  0
TABLE
  2
DIMSTYLE
  5
A
330
0
100
AcDbSymbolTable
 70
     1
100
AcDbDimStyleTable
  0
DIMSTYLE
105
27
330
A
100
AcDbSymbolTableRecord
100
AcDbDimStyleTableRecord
  2
ISO-25
 70
     0
 41
2.5
 42
0.625
 43
3.75
 44
1.25
 73
     0
 74
     0
 77
     1
 78
     8
140
2.5
141
2.5
143
0.0393700787
147
0.625
171
     3
172
     1
178
     0
271
     2
272
     2
274
     3
278
    44
283
     0
284
     8
340
11
  0
ENDTAB
  0
TABLE
  2
BLOCK_RECORD
  5
1
330
0
100
AcDbSymbolTable
 70
     1
  0
BLOCK_RECORD
  5
1F
330
1
100
AcDbSymbolTableRecord
100
AcDbBlockTableRecord
  2
*Model_Space
340
22
  0
BLOCK_RECORD
  5
1B
330
1
100
AcDbSymbolTableRecord
100
AcDbBlockTableRecord
  2
*Paper_Space
340
1E
  0
BLOCK_RECORD
  5
23
330
1
100
AcDbSymbolTableRecord
100
AcDbBlockTableRecord
  2
*Paper_Space0
340
26
  0
ENDTAB
  0
ENDSEC
  0
SECTION
  2
BLOCKS
  0
BLOCK
  5
20
330
1F
100
AcDbEntity
  8
0
100
AcDbBlockBegin
  2
*Model_Space
 70
     0
 10
0.0
 20
0.0
 30
0.0
  3
*Model_Space
  1

  0
ENDBLK
  5
21
330
1F
100
AcDbEntity
  8
0
100
AcDbBlockEnd
  0
BLOCK
  5
1C
330
1B
100
AcDbEntity
 67
     1
  8
0
100
AcDbBlockBegin
  2
*Paper_Space
 70
     0
 10
0.0
 20
0.0
 30
0.0
  3
*Paper_Space
  1

  0
ENDBLK
  5
1D
330
1B
100
AcDbEntity
 67
     1
  8
0
100
AcDbBlockEnd
  0
BLOCK
  5
24
330
23
100
AcDbEntity
  8
0
100
AcDbBlockBegin
  2
*Paper_Space0
 70
     0
 10
0.0
 20
0.0
 30
0.0
  3
*Paper_Space0
  1

  0
ENDBLK
  5
25
330
23
100
AcDbEntity
  8
0
100
AcDbBlockEnd
  0
ENDSEC
  0
SECTION
  2
ENTITIES
  0
LINE
  5
7F
330
1F
100
AcDbEntity
  8
0
  6
Continuous
 62
     7
370
    25
100
AcDbLine
 10
6390.2527419145
 20
4101.5818817915
 30
0.0
 11
6390.2527419145
 21
4071.731467517
 31
0.0
  0
LINE
  5
80
330
1F
100
AcDbEntity
  8
0
  6
Continuous
 62
     7
370
    25
100
AcDbLine
 10
6390.2527419145
 20
4057.731467517
 30
0.0
 11
6390.2527419145
 21
4055.231467517
 31
0.0
  0
LINE
  5
81
330
1F
100
AcDbEntity
  8
0
  6
Continuous
 62
     7
370
    25
100
AcDbLine
 10
6422.2527419145
 20
4055.231467517
 30
0.0
 11
6422.2527419145
 21
4057.731467517
 31
0.0
  0
LINE
  5
82
330
1F
100
AcDbEntity
  8
0
  6
Continuous
 62
     7
370
    25
100
AcDbLine
 10
6422.2527419145
 20
4071.731467517
 30
0.0
 11
6422.2527419145
 21
4101.5818817915
 31
0.0
  0
LINE
  5
83
330
1F
100
AcDbEntity
  8
0
  6
Continuous
 62
     7
370
    25
100
AcDbLine
 10
6372.2527419145
 20
3995.231467517
 30
0.0
 11
6379.1465276344
 21
3927.9257916556
 31
0.0
  0
LINE
  5
84
330
1F
100
AcDbEntity
  8
0
  6
Continuous
 62
     7
370
    25
100
AcDbLine
 10
6433.3589561947
 20
3927.9257916556
 30
0.0
 11
6440.2527419145
 21
3995.231467517
 31
0.0
  0
LINE
  5
85
330
1F
100
AcDbEntity
  8
0
  6
Continuous
 62
     7
370
    25
100
AcDbLine
 10
6440.2527419145
 20
3995.231467517
 30
0.0
 11
6433.5621836697
 21
4052.5791096157
 31
0.0
  0
LINE
  5
86
330
1F
100
AcDbEntity
  8
0
  6
Continuous
 62
     7
370
    25
100
AcDbLine
 10
6378.9433001594
 20
4052.5791096157
 30
0.0
 11
6372.2527419145
 21
3995.231467517
 31
0.0
  0
ARC
  5
87
330
1F
100
AcDbEntity
  8
0
  6
Continuous
 62
     7
370
    25
100
AcDbCircle
 10
6381.9230895766
 20
4052.231467517
 30
0.0
 40
3.000000000000807
100
AcDbArc
 50
90.0
 51
173.345574954
  0
ARC
  5
88
330
1F
100
AcDbEntity
  8
0
  6
Continuous
 62
     7
370
    25
100
AcDbCircle
 10
6430.5823942524
 20
4052.231467517
 30
0.0
 40
3.000000000000455
100
AcDbArc
 50
6.654425046
 51
90.0
  0
ARC
  5
89
330
1F
100
AcDbEntity
  8
0
  6
Continuous
 62
     7
370
    25
100
AcDbCircle
 10
6382.1309140483
 20
3928.231467517
 30
0.0
 40
2.999999999999545
100
AcDbArc
 50
185.8481280261
 51
270.0
  0
ARC
  5
8A
330
1F
100
AcDbEntity
  8
0
  6
Continuous
 62
     7
370
    25
100
AcDbCircle
 10
6430.3745697807
 20
3928.231467517
 30
0.0
 40
3.000000000000378
100
AcDbArc
 50
270.0
 51
354.1518719739
  0
LINE
  5
8B
330
1F
100
AcDbEntity
  8
0
  6
Continuous
 62
     7
370
    25
100
AcDbLine
 10
6431.2527419145
 20
4057.731467517
 30
0.0
 11
6429.2527419145
 21
4061.731467517
 31
0.0
  0
LINE
  5
8C
330
1F
100
AcDbEntity
  8
0
  6
Continuous
 62
     7
370
    25
100
AcDbLine
 10
6383.2527419145
 20
4061.731467517
 30
0.0
 11
6381.2527419145
 21
4057.731467517
 31
0.0
  0
ARC
  5
8D
330
1F
100
AcDbEntity
  8
0
  6
Continuous
 62
     7
370
    25
100
AcDbCircle
 10
6386.2527419145
 20
4068.731467517
 30
0.0
 40
3.0
100
AcDbArc
 50
90.0
 51
180.0
  0
ARC
  5
8E
330
1F
100
AcDbEntity
  8
0
  6
Continuous
 62
     7
370
    25
100
AcDbCircle
 10
6426.2527419145
 20
4068.731467517
 30
0.0
 40
3.0
100
AcDbArc
 50
0.0
 51
90.0
  0
LINE
  5
8F
330
1F
100
AcDbEntity
  8
0
  6
Continuous
 62
     7
370
    25
100
AcDbLine
 10
6383.2527419145
 20
4068.731467517
 30
0.0
 11
6383.2527419145
 21
4061.731467517
 31
0.0
  0
LINE
  5
90
330
1F
100
AcDbEntity
  8
0
  6
Continuous
 62
     7
370
    25
100
AcDbLine
 10
6429.2527419145
 20
4061.731467517
 30
0.0
 11
6429.2527419145
 21
4068.731467517
 31
0.0
  0
LINE
  5
91
330
1F
100
AcDbEntity
  8
0
  6
Continuous
 62
     7
370
    25
100
AcDbLine
 10
8753.7527419145
 20
4771.0651080471
 30
0.0
 11
8751.7527419145
 21
4771.0651080471
 31
0.0
  0
LINE
  5
92
330
1F
100
AcDbEntity
  8
0
  6
Continuous
 62
     7
370
    25
100
AcDbLine
 10
6255.7527419145
 20
4771.0651080471
 30
0.0
 11
6253.7527419145
 21
4771.0651080471
 31
0.0
  0
LINE
  5
93
330
1F
100
AcDbEntity
  8
0
  6
Continuous
 62
     7
370
    25
100
AcDbLine
 10
8751.7527419145
 20
4771.0651080471
 30
0.0
 11
6255.7527419145
 21
4771.0651080471
 31
0.0
  0
ARC
  5
94
330
1F
100
AcDbEntity
  8
0
  6
Continuous
 62
     7
370
    25
100
AcDbCircle
 10
6375.7527419145
 20
4732.0475811848
 30
0.0
 40
37.00000000000027
100
AcDbArc
 50
75.2574286589
 51
104.7425713411
  0
LINE
  5
95
330
1F
100
AcDbEntity
  8
0
  6
Continuous
 62
     7
370
    25
100
AcDbLine
 10
7202.1620843132
 20
4647.6725392957
 30
0.0
 11
7202.2527418893
 21
4647.5818817195
 31
0.0
  0
LINE
  5
96
330
1F
100
AcDbEntity
  8
0
  6
Continuous
 62
     7
370
    25
100
AcDbLine
 10
7205.2527418893
 20
4647.5818817195
 30
0.0
 11
7205.3433994596
 21
4647.6725392898
 31
0.0
  0
LINE
  5
97
330
1F
100
AcDbEntity
  8
0
  6
Continuous
 62
     7
370
    25
100
AcDbLine
 10
6602.1620844063
 20
4647.6725392942
 30
0.0
 11
6602.2527419131
 21
4647.5818817874
 31
0.0
  0
LINE
  5
98
330
1F
100
AcDbEntity
  8
0
  6
Continuous
 62
     7
370
    25
100
AcDbLine
 10
6605.2527419131
 20
4647.5818817874
 30
0.0
 11
6605.3433994196
 21
4647.6725392939
 31
0.0
  0
LINE
  5
99
330
1F
100
AcDbEntity
  8
0
  6
Continuous
 62
     7
370
    25
100
AcDbLine
 10
8402.1620843132
 20
4647.6725392957
 30
0.0
 11
8402.2527418893
 21
4647.5818817195
 31
0.0
  0
LINE
  5
9A
330
1F
100
AcDbEntity
  8
0
  6
Continuous
 62
     7
370
    25
100
AcDbLine
 10
8405.2527418893
 20
4647.5818817195
 30
0.0
 11
8405.3433994596
 21
4647.6725392898
 31
0.0
  0
LINE
  5
9B
330
1F
100
AcDbEntity
  8
0
  6
Continuous
 62
     7
370
    25
100
AcDbLine
 10
7802.1620843132
 20
4647.6725392957
 30
0.0
 11
7802.2527418893
 21
4647.5818817195
 31
0.0
  0
LINE
  5
9C
330
1F
100
AcDbEntity
  8
0
  6
Continuous
 62
     7
370
    25
100
AcDbLine
 10
7805.2527418893
 20
4647.5818817195
 30
0.0
 11
7805.3433994596
 21
4647.6725392898
 31
0.0
  0
LINE
  5
9D
330
1F
100
AcDbEntity
  8
0
  6
Continuous
 62
     7
370
    25
100
AcDbLine
 10
8394.502741911
 20
4653.4227024371
 30
0.0
 11
8394.502741911
 21
4652.818998797
 31
0.0
  0
LINE
  5
9E
330
1F
100
AcDbEntity
  8
0
  6
Continuous
 62
     7
370
    25
100
AcDbLine
 10
8413.002741911
 20
4652.818998797
 30
0.0
 11
8413.002741911
 21
4653.4227024392
 31
0.0
  0
LINE
  5
9F
330
1F
100
AcDbEntity
  8
0
  6
Continuous
 62
     7
370
    25
100
AcDbLine
 10
8411.252741911
 20
4653.7849246233
 30
0.0
 11
8411.252741911
 21
4653.9854804697
 31
0.0
  0
LINE
  5
A0
330
1F
100
AcDbEntity
  8
0
  6
Continuous
 62
     7
370
    25
100
AcDbLine
 10
8396.252741911
 20
4654.4816090091
 30
0.0
 11
8396.252741911
 21
4653.7849246233
 31
0.0
  0
LINE
  5
A1
330
1F
100
AcDbEntity
  8
0
  6
Continuous
 62
     7
370
    25
100
AcDbLine
 10
7194.502741911
 20
4653.4227024371
 30
0.0
 11
7194.502741911
 21
4652.818998797
 31
0.0
  0
LINE
  5
A2
330
1F
100
AcDbEntity
  8
0
  6
Continuous
 62
     7
370
    25
100
AcDbLine
 10
7213.002741911
 20
4652.818998797
 30
0.0
 11
7213.002741911
 21
4653.4227024392
 31
0.0
  0
LINE
  5
A3
330
1F
100
AcDbEntity
  8
0
  6
Continuous
 62
     7
370
    25
100
AcDbLine
 10
7211.252741911
 20
4653.7849246233
 30
0.0
 11
7211.252741911
 21
4653.9854804697
 31
0.0
  0
LINE
  5
A4
330
1F
100
AcDbEntity
  8
0
  6
Continuous
 62
     7
370
    25
100
AcDbLine
 10
7196.252741911
 20
4654.4816090091
 30
0.0
 11
7196.252741911
 21
4653.7849246233
 31
0.0
  0
LINE
  5
A5
330
1F
100
AcDbEntity
  8
0
  6
Continuous
 62
     7
370
    25
100
AcDbLine
 10
6594.5027419143
 20
4653.4227024459
 30
0.0
 11
6594.5027419143
 21
4652.8189988045
 31
0.0
  0
LINE
  5
A6
330
1F
100
AcDbEntity
  8
0
  6
Continuous
 62
     7
370
    25
100
AcDbLine
 10
6613.0027419143
 20
4652.8189988045
 30
0.0
 11
6613.0027419143
 21
4653.422702446
 31
0.0
  0
LINE
  5
A7
330
1F
100
AcDbEntity
  8
0
  6
Continuous
 62
     7
370
    25
100
AcDbLine
 10
6611.2527419143
 20
4653.7849246308
 30
0.0
 11
6611.2527419143
 21
4653.9854804772
 31
0.0
  0
LINE
  5
A8
330
1F
100
AcDbEntity
  8
0
  6
Continuous
 62
     7
370
    25
100
AcDbLine
 10
6596.2527419143
 20
4654.4816090183
 30
0.0
 11
6596.2527419143
 21
4653.7849246308
 31
0.0
  0
LINE
  5
A9
330
1F
100
AcDbEntity
  8
0
  6
Continuous
 62
     7
370
    25
100
AcDbLine
 10
7794.502741911
 20
4653.4227024371
 30
0.0
 11
7794.502741911
 21
4652.818998797
 31
0.0
  0
LINE
  5
AA
330
1F
100
AcDbEntity
  8
0
  6
Continuous
 62
     7
370
    25
100
AcDbLine
 10
7813.002741911
 20
4652.818998797
 30
0.0
 11
7813.002741911
 21
4653.4227024392
 31
0.0
  0
LINE
  5
AB
330
1F
100
AcDbEntity
  8
0
  6
Continuous
 62
     7
370
    25
100
AcDbLine
 10
7811.252741911
 20
4653.7849246233
 30
0.0
 11
7811.252741911
 21
4653.9854804697
 31
0.0
  0
LINE
  5
AC
330
1F
100
AcDbEntity
  8
0
  6
Continuous
 62
     7
370
    25
100
AcDbLine
 10
7796.252741911
 20
4654.4816090091
 30
0.0
 11
7796.252741911
 21
4653.7849246233
 31
0.0
  0
LINE
  5
AD
330
1F
100
AcDbEntity
  8
0
  6
Continuous
 62
     7
370
    25
100
AcDbLine
 10
7205.4027419121
 20
4647.6770139952
 30
0.0
 11
7205.4027419121
 21
4647.6794539365
 31
0.0
  0
LINE
  5
AE
330
1F
100
AcDbEntity
  8
0
  6
Continuous
 62
     7
370
    25
100
AcDbLine
 10
8405.4027419121
 20
4647.6770139952
 30
0.0
 11
8405.4027419121
 21
4647.6794539365
 31
0.0
  0
LINE
  5
AF
330
1F
100
AcDbEntity
  8
0
  6
Continuous
 62
     7
370
    25
100
AcDbLine
 10
7805.4027419121
 20
4647.6770139952
 30
0.0
 11
7805.4027419121
 21
4647.6794539365
 31
0.0
  0
LINE
  5
B0
330
1F
100
AcDbEntity
  8
0
  6
Continuous
 62
     7
370
    25
100
AcDbLine
 10
6605.4027419144
 20
4647.6770140041
 30
0.0
 11
6605.4027419144
 21
4647.6794539455
 31
0.0
  0
ARC
  5
B1
330
1F
100
AcDbEntity
  8
0
  6
Continuous
 62
     7
370
    25
100
AcDbCircle
 10
6406.2527419145
 20
4033.231467517
 30
0.0
 40
39.99999999999998
100
AcDbArc
 50
187.9055480254
 51
216.1070114058
  0
ARC
  5
B2
330
1F
100
AcDbEntity
  8
0
  6
Continuous
 62
     7
370
    25
100
AcDbCircle
 10
6406.2527419145
 20
4033.231467517
 30
0.0
 40
40.00000000000041
100
AcDbArc
 50
323.8929885942
 51
54.9003678046
  0
ARC
  5
B3
330
1F
100
AcDbEntity
  8
0
  6
Continuous
 62
     7
370
    25
100
AcDbCircle
 10
6406.2527419145
 20
4033.231467517
 30
0.0
 40
40.00000000000011
100
AcDbArc
 50
125.0996321954
 51
187.9055480254
  0
LINE
  5
B4
330
1F
100
AcDbEntity
  8
0
  6
Continuous
 62
     7
370
    25
100
AcDbLine
 10
6372.2527419145
 20
3995.231467517
 30
0.0
 11
6440.2527419145
 21
3995.231467517
 31
0.0
  0
LINE
  5
B5
330
1F
100
AcDbEntity
  8
0
  6
Continuous
 62
     7
370
    25
100
AcDbLine
 10
6381.9230895766
 20
4055.231467517
 30
0.0
 11
6430.5823942524
 21
4055.231467517
 31
0.0
  0
LINE
  5
B6
330
1F
100
AcDbEntity
  8
0
  6
Continuous
 62
     7
370
    25
100
AcDbLine
 10
6382.1309140483
 20
3925.231467517
 30
0.0
 11
6430.3745697807
 21
3925.231467517
 31
0.0
  0
LINE
  5
B7
330
1F
100
AcDbEntity
  8
0
  6
Continuous
 62
     7
370
    25
100
AcDbLine
 10
6383.2527419145
 20
4061.731467517
 30
0.0
 11
6429.2527419145
 21
4061.731467517
 31
0.0
  0
LINE
  5
B8
330
1F
100
AcDbEntity
  8
0
  6
Continuous
 62
     7
370
    25
100
AcDbLine
 10
6381.2527419145
 20
4057.731467517
 30
0.0
 11
6431.2527419145
 21
4057.731467517
 31
0.0
  0
LINE
  5
B9
330
1F
100
AcDbEntity
  8
0
  6
Continuous
 62
     7
370
    25
100
AcDbLine
 10
6386.2527419145
 20
4071.731467517
 30
0.0
 11
6426.2527419145
 21
4071.731467517
 31
0.0
  0
LINE
  5
BA
330
1F
100
AcDbEntity
  8
0
  6
Continuous
 62
     7
370
    25
100
AcDbLine
 10
6422.7527419145
 20
4055.231467517
 30
0.0
 11
6422.2527419145
 21
4055.5977367633
 31
0.0
  0
LINE
  5
BB
330
1F
100
AcDbEntity
  8
0
  6
Continuous
 62
     7
370
    25
100
AcDbLine
 10
6390.2527419145
 20
4055.5977367633
 30
0.0
 11
6389.7527419145
 21
4055.231467517
 31
0.0
  0
LINE
  5
BC
330
1F
100
AcDbEntity
  8
0
  6
Continuous
 62
     7
370
    25
100
AcDbLine
 10
6300.4027419145
 20
4103.2318817915
 30
0.0
 11
6298.7527419145
 21
4103.2318817915
 31
0.0
  0
LINE
  5
BD
330
1F
100
AcDbEntity
  8
0
  6
Continuous
 62
     7
370
    25
100
AcDbLine
 10
6298.7527419145
 20
4103.2318817915
 30
0.0
 11
6298.7527419145
 21
4324.9218817915
 31
0.0
  0
LINE
  5
BE
330
1F
100
AcDbEntity
  8
0
  6
Continuous
 62
     7
370
    25
100
AcDbLine
 10
6298.7527419145
 20
4324.9218817915
 30
0.0
 11
6300.4027419145
 21
4324.9218817915
 31
0.0
  0
LINE
  5
BF
330
1F
100
AcDbEntity
  8
0
  6
Continuous
 62
     7
370
    25
100
AcDbLine
 10
6300.4027419145
 20
4103.2318817915
 30
0.0
 11
6300.4027419145
 21
4324.9218817915
 31
0.0
  0
LINE
  5
C0
330
1F
100
AcDbEntity
  8
0
  6
Continuous
 62
     7
370
    25
100
AcDbLine
 10
8707.1027419145
 20
4101.5818817915
 30
0.0
 11
6300.4027419145
 21
4101.5818817915
 31
0.0
  0
LINE
  5
C1
330
1F
100
AcDbEntity
  8
0
  6
Continuous
 62
     7
370
    25
100
AcDbLine
 10
6300.4027419145
 20
4101.5818817915
 30
0.0
 11
6300.4027419145
 21
4103.2318817915
 31
0.0
  0
LINE
  5
C2
330
1F
100
AcDbEntity
  8
0
  6
Continuous
 62
     7
370
    25
100
AcDbLine
 10
8707.1027419145
 20
4103.2318817915
 30
0.0
 11
6300.4027419145
 21
4103.2318817915
 31
0.0
  0
LINE
  5
C3
330
1F
100
AcDbEntity
  8
0
  6
Continuous
 62
     7
370
    25
100
AcDbLine
 10
8707.1027419145
 20
4101.5818817915
 30
0.0
 11
8707.1027419145
 21
4103.2318817915
 31
0.0
  0
LINE
  5
C4
330
1F
100
AcDbEntity
  8
0
  6
Continuous
 62
     7
370
    25
100
AcDbLine
 10
8707.1027419145
 20
4324.9218817915
 30
0.0
 11
8708.7527419145
 21
4324.9218817915
 31
0.0
  0
LINE
  5
C5
330
1F
100
AcDbEntity
  8
0
  6
Continuous
 62
     7
370
    25
100
AcDbLine
 10
8708.7527419145
 20
4103.2318817915
 30
0.0
 11
8708.7527419145
 21
4324.9218817915
 31
0.0
  0
LINE
  5
C6
330
1F
100
AcDbEntity
  8
0
  6
Continuous
 62
     7
370
    25
100
AcDbLine
 10
8708.7527419145
 20
4103.2318817915
 30
0.0
 11
8707.1027419145
 21
4103.2318817915
 31
0.0
  0
LINE
  5
C7
330
1F
100
AcDbEntity
  8
0
  6
Continuous
 62
     7
370
    25
100
AcDbLine
 10
8707.1027419145
 20
4103.2318817915
 30
0.0
 11
8707.1027419145
 21
4324.9218817915
 31
0.0
  0
LINE
  5
C8
330
1F
100
AcDbEntity
  8
0
  6
Continuous
 62
     7
370
    25
100
AcDbLine
 10
8707.1027419145
 20
4324.9218817915
 30
0.0
 11
6300.4027419145
 21
4324.9218817915
 31
0.0
  0
LINE
  5
C9
330
1F
100
AcDbEntity
  8
0
  6
Continuous
 62
     7
370
    25
100
AcDbLine
 10
8707.1027419145
 20
4326.5718817915
 30
0.0
 11
6300.4027419145
 21
4326.5718817915
 31
0.0
  0
LINE
  5
CA
330
1F
100
AcDbEntity
  8
0
  6
Continuous
 62
     7
370
    25
100
AcDbLine
 10
8707.1027419145
 20
4324.9218817915
 30
0.0
 11
8707.1027419145
 21
4326.5718817915
 31
0.0
  0
LINE
  5
CB
330
1F
100
AcDbEntity
  8
0
  6
Continuous
 62
     7
370
    25
100
AcDbLine
 10
6300.4027419145
 20
4324.9218817915
 30
0.0
 11
6300.4027419145
 21
4326.5718817915
 31
0.0
  0
LINE
  5
CC
330
1F
100
AcDbEntity
  8
0
  6
Continuous
 62
     7
370
    25
100
AcDbLine
 10
8753.7527419145
 20
4101.5818817915
 30
0.0
 11
8753.7527419145
 21
4326.5718817915
 31
0.0
  0
LINE
  5
CD
330
1F
100
AcDbEntity
  8
0
  6
Continuous
 62
     7
370
    25
100
AcDbLine
 10
8750.6527419145
 20
4101.5818817915
 30
0.0
 11
8753.7527419145
 21
4101.5818817915
 31
0.0
  0
LINE
  5
CE
330
1F
100
AcDbEntity
  8
0
  6
Continuous
 62
     7
370
    25
100
AcDbLine
 10
8750.6527419145
 20
4101.5818817915
 30
0.0
 11
8750.6527419145
 21
4326.5718817915
 31
0.0
  0
LINE
  5
CF
330
1F
100
AcDbEntity
  8
0
  6
Continuous
 62
     7
370
    25
100
AcDbLine
 10
8753.7527419145
 20
4326.5718817915
 30
0.0
 11
8750.6527419145
 21
4326.5718817915
 31
0.0
  0
LINE
  5
D0
330
1F
100
AcDbEntity
  8
0
  6
Continuous
 62
     7
370
    25
100
AcDbLine
 10
8711.8527419145
 20
4101.5818817915
 30
0.0
 11
8750.6527419145
 21
4101.5818817915
 31
0.0
  0
LINE
  5
D1
330
1F
100
AcDbEntity
  8
0
  6
Continuous
 62
     7
370
    25
100
AcDbLine
 10
8711.8527419145
 20
4101.5818817915
 30
0.0
 11
8711.8527419145
 21
4326.5718817915
 31
0.0
  0
LINE
  5
D2
330
1F
100
AcDbEntity
  8
0
  6
Continuous
 62
     7
370
    25
100
AcDbLine
 10
8750.6527419145
 20
4326.5718817915
 30
0.0
 11
8711.8527419145
 21
4326.5718817915
 31
0.0
  0
LINE
  5
D3
330
1F
100
AcDbEntity
  8
0
  6
Continuous
 62
     7
370
    25
100
AcDbLine
 10
8708.7527419145
 20
4326.5718817915
 30
0.0
 11
8711.8527419145
 21
4326.5718817915
 31
0.0
  0
LINE
  5
D4
330
1F
100
AcDbEntity
  8
0
  6
Continuous
 62
     7
370
    25
100
AcDbLine
 10
8711.8527419145
 20
4101.5818817915
 30
0.0
 11
8708.7527419145
 21
4101.5818817915
 31
0.0
  0
LINE
  5
D5
330
1F
100
AcDbEntity
  8
0
  6
Continuous
 62
     7
370
    25
100
AcDbLine
 10
8708.7527419145
 20
4101.5818817915
 30
0.0
 11
8708.7527419145
 21
4103.2318817915
 31
0.0
  0
LINE
  5
D6
330
1F
100
AcDbEntity
  8
0
  6
Continuous
 62
     7
370
    25
100
AcDbLine
 10
8708.7527419145
 20
4324.9218817915
 30
0.0
 11
8708.7527419145
 21
4326.5718817915
 31
0.0
  0
LINE
  5
D7
330
1F
100
AcDbEntity
  8
0
  6
Continuous
 62
     7
370
    25
100
AcDbLine
 10
8753.7527419145
 20
4349.3818817915
 30
0.0
 11
8751.7527419145
 21
4349.3818817915
 31
0.0
  0
LINE
  5
D8
330
1F
100
AcDbEntity
  8
0
  6
Continuous
 62
     7
370
    25
100
AcDbLine
 10
8753.7527419145
 20
4349.3818817915
 30
0.0
 11
8753.7527419145
 21
4326.5818817915
 31
0.0
  0
LINE
  5
D9
330
1F
100
AcDbEntity
  8
0
  6
Continuous
 62
     7
370
    25
100
AcDbLine
 10
8751.7527419145
 20
4349.3818817915
 30
0.0
 11
8751.7527419145
 21
4326.5818817915
 31
0.0
  0
LINE
  5
DA
330
1F
100
AcDbEntity
  8
0
  6
Continuous
 62
     7
370
    25
100
AcDbLine
 10
8753.7527419145
 20
4326.5818817915
 30
0.0
 11
8751.7527419145
 21
4326.5818817915
 31
0.0
  0
LINE
  5
DB
330
1F
100
AcDbEntity
  8
0
  6
Continuous
 62
     7
370
    25
100
AcDbLine
 10
8753.7527419145
 20
4351.5818817915
 30
0.0
 11
8751.7527419145
 21
4351.5818817915
 31
0.0
  0
LINE
  5
DC
330
1F
100
AcDbEntity
  8
0
  6
Continuous
 62
     7
370
    25
100
AcDbLine
 10
8753.7527419145
 20
4351.5818817915
 30
0.0
 11
8753.7527419145
 21
4349.3818817915
 31
0.0
  0
LINE
  5
DD
330
1F
100
AcDbEntity
  8
0
  6
Continuous
 62
     7
370
    25
100
AcDbLine
 10
8751.7527419145
 20
4351.5818817915
 30
0.0
 11
8751.7527419145
 21
4349.3818817915
 31
0.0
  0
LINE
  5
DE
330
1F
100
AcDbEntity
  8
0
  6
Continuous
 62
     7
370
    25
100
AcDbLine
 10
8753.7527419145
 20
4326.5818817915
 30
0.0
 11
8753.7527419145
 21
4326.5718817915
 31
0.0
  0
LINE
  5
DF
330
1F
100
AcDbEntity
  8
0
  6
Continuous
 62
     7
370
    25
100
AcDbLine
 10
8751.7527419145
 20
4326.5818817915
 30
0.0
 11
8751.7527419145
 21
4326.5718817915
 31
0.0
  0
LINE
  5
E0
330
1F
100
AcDbEntity
  8
0
  6
Continuous
 62
     7
370
    25
100
AcDbLine
 10
8753.7527419145
 20
4761.3244535566
 30
0.0
 11
8751.7527419145
 21
4761.3244535566
 31
0.0
  0
LINE
  5
E1
330
1F
100
AcDbEntity
  8
0
  6
Continuous
 62
     7
370
    25
100
AcDbLine
 10
8753.7527419145
 20
4759.172528835
 30
0.0
 11
8751.7527419145
 21
4759.172528835
 31
0.0
  0
LINE
  5
E2
330
1F
100
AcDbEntity
  8
0
  6
Continuous
 62
     7
370
    25
100
AcDbLine
 10
8753.7527419145
 20
4761.3244535566
 30
0.0
 11
8753.7527419145
 21
4759.172528835
 31
0.0
  0
LINE
  5
E3
330
1F
100
AcDbEntity
  8
0
  6
Continuous
 62
     7
370
    25
100
AcDbLine
 10
8751.7527419145
 20
4761.3244535566
 30
0.0
 11
8751.7527419145
 21
4759.172528835
 31
0.0
  0
LINE
  5
E4
330
1F
100
AcDbEntity
  8
0
  6
Continuous
 62
     7
370
    25
100
AcDbLine
 10
8753.7527419145
 20
4759.172528835
 30
0.0
 11
8753.7527419145
 21
4351.5818817915
 31
0.0
  0
LINE
  5
E5
330
1F
100
AcDbEntity
  8
0
  6
Continuous
 62
     7
370
    25
100
AcDbLine
 10
8751.7527419145
 20
4759.172528835
 30
0.0
 11
8751.7527419145
 21
4351.5818817915
 31
0.0
  0
LINE
  5
E6
330
1F
100
AcDbEntity
  8
0
  6
Continuous
 62
     7
370
    25
100
AcDbLine
 10
8753.7527419145
 20
4771.0170327688
 30
0.0
 11
8751.7527419145
 21
4771.0170327688
 31
0.0
  0
LINE
  5
E7
330
1F
100
AcDbEntity
  8
0
  6
Continuous
 62
     7
370
    25
100
AcDbLine
 10
8753.7527419145
 20
4771.0170327688
 30
0.0
 11
8753.7527419145
 21
4761.3244535566
 31
0.0
  0
LINE
  5
E8
330
1F
100
AcDbEntity
  8
0
  6
Continuous
 62
     7
370
    25
100
AcDbLine
 10
8751.7527419145
 20
4771.0170327688
 30
0.0
 11
8751.7527419145
 21
4761.3244535566
 31
0.0
  0
LINE
  5
E9
330
1F
100
AcDbEntity
  8
0
  6
Continuous
 62
     7
370
    25
100
AcDbLine
 10
8753.7527419145
 20
4771.0651080471
 30
0.0
 11
8753.7527419145
 21
4771.0170327688
 31
0.0
  0
LINE
  5
EA
330
1F
100
AcDbEntity
  8
0
  6
Continuous
 62
     7
370
    25
100
AcDbLine
 10
8751.7527419145
 20
4771.0651080471
 30
0.0
 11
8751.7527419145
 21
4771.0170327688
 31
0.0
  0
LINE
  5
EB
330
1F
100
AcDbEntity
  8
0
  6
Continuous
 62
     7
370
    25
100
AcDbLine
 10
6256.8527419145
 20
4101.5818817915
 30
0.0
 11
6256.8527419145
 21
4326.5718817915
 31
0.0
  0
LINE
  5
EC
330
1F
100
AcDbEntity
  8
0
  6
Continuous
 62
     7
370
    25
100
AcDbLine
 10
6256.8527419145
 20
4101.5818817915
 30
0.0
 11
6253.7527419145
 21
4101.5818817915
 31
0.0
  0
LINE
  5
ED
330
1F
100
AcDbEntity
  8
0
  6
Continuous
 62
     7
370
    25
100
AcDbLine
 10
6253.7527419145
 20
4101.5818817915
 30
0.0
 11
6253.7527419145
 21
4326.5718817915
 31
0.0
  0
LINE
  5
EE
330
1F
100
AcDbEntity
  8
0
  6
Continuous
 62
     7
370
    25
100
AcDbLine
 10
6253.7527419145
 20
4326.5718817915
 30
0.0
 11
6256.8527419145
 21
4326.5718817915
 31
0.0
  0
LINE
  5
EF
330
1F
100
AcDbEntity
  8
0
  6
Continuous
 62
     7
370
    25
100
AcDbLine
 10
6295.6527419145
 20
4101.5818817915
 30
0.0
 11
6295.6527419145
 21
4326.5718817915
 31
0.0
  0
LINE
  5
F0
330
1F
100
AcDbEntity
  8
0
  6
Continuous
 62
     7
370
    25
100
AcDbLine
 10
6295.6527419145
 20
4101.5818817915
 30
0.0
 11
6256.8527419145
 21
4101.5818817915
 31
0.0
  0
LINE
  5
F1
330
1F
100
AcDbEntity
  8
0
  6
Continuous
 62
     7
370
    25
100
AcDbLine
 10
6256.8527419145
 20
4326.5718817915
 30
0.0
 11
6295.6527419145
 21
4326.5718817915
 31
0.0
  0
LINE
  5
F2
330
1F
100
AcDbEntity
  8
0
  6
Continuous
 62
     7
370
    25
100
AcDbLine
 10
6295.6527419145
 20
4101.5818817915
 30
0.0
 11
6298.7527419145
 21
4101.5818817915
 31
0.0
  0
LINE
  5
F3
330
1F
100
AcDbEntity
  8
0
  6
Continuous
 62
     7
370
    25
100
AcDbLine
 10
6298.7527419145
 20
4326.5718817915
 30
0.0
 11
6295.6527419145
 21
4326.5718817915
 31
0.0
  0
LINE
  5
F4
330
1F
100
AcDbEntity
  8
0
  6
Continuous
 62
     7
370
    25
100
AcDbLine
 10
6298.7527419145
 20
4101.5818817915
 30
0.0
 11
6298.7527419145
 21
4103.2318817915
 31
0.0
  0
LINE
  5
F5
330
1F
100
AcDbEntity
  8
0
  6
Continuous
 62
     7
370
    25
100
AcDbLine
 10
6298.7527419145
 20
4324.9218817915
 30
0.0
 11
6298.7527419145
 21
4326.5718817915
 31
0.0
  0
LINE
  5
F6
330
1F
100
AcDbEntity
  8
0
  6
Continuous
 62
     7
370
    25
100
AcDbLine
 10
6253.7527419145
 20
4349.3818817915
 30
0.0
 11
6253.7527419145
 21
4326.5818817915
 31
0.0
  0
LINE
  5
F7
330
1F
100
AcDbEntity
  8
0
  6
Continuous
 62
     7
370
    25
100
AcDbLine
 10
6253.7527419145
 20
4349.3818817915
 30
0.0
 11
6255.7527419145
 21
4349.3818817915
 31
0.0
  0
LINE
  5
F8
330
1F
100
AcDbEntity
  8
0
  6
Continuous
 62
     7
370
    25
100
AcDbLine
 10
6255.7527419145
 20
4349.3818817915
 30
0.0
 11
6255.7527419145
 21
4326.5818817915
 31
0.0
  0
LINE
  5
F9
330
1F
100
AcDbEntity
  8
0
  6
Continuous
 62
     7
370
    25
100
AcDbLine
 10
6253.7527419145
 20
4326.5818817915
 30
0.0
 11
6255.7527419145
 21
4326.5818817915
 31
0.0
  0
LINE
  5
FA
330
1F
100
AcDbEntity
  8
0
  6
Continuous
 62
     7
370
    25
100
AcDbLine
 10
6253.7527419145
 20
4351.5818817915
 30
0.0
 11
6253.7527419145
 21
4349.3818817915
 31
0.0
  0
LINE
  5
FB
330
1F
100
AcDbEntity
  8
0
  6
Continuous
 62
     7
370
    25
100
AcDbLine
 10
6253.7527419145
 20
4351.5818817915
 30
0.0
 11
6255.7527419145
 21
4351.5818817915
 31
0.0
  0
LINE
  5
FC
330
1F
100
AcDbEntity
  8
0
  6
Continuous
 62
     7
370
    25
100
AcDbLine
 10
6255.7527419145
 20
4351.5818817915
 30
0.0
 11
6255.7527419145
 21
4349.3818817915
 31
0.0
  0
LINE
  5
FD
330
1F
100
AcDbEntity
  8
0
  6
Continuous
 62
     7
370
    25
100
AcDbLine
 10
6253.7527419145
 20
4326.5818817915
 30
0.0
 11
6253.7527419145
 21
4326.5718817915
 31
0.0
  0
LINE
  5
FE
330
1F
100
AcDbEntity
  8
0
  6
Continuous
 62
     7
370
    25
100
AcDbLine
 10
6255.7527419145
 20
4326.5818817915
 30
0.0
 11
6255.7527419145
 21
4326.5718817915
 31
0.0
  0
LINE
  5
FF
330
1F
100
AcDbEntity
  8
0
  6
Continuous
 62
     7
370
    25
100
AcDbLine
 10
6253.7527419145
 20
4759.172528835
 30
0.0
 11
6255.7527419145
 21
4759.172528835
 31
0.0
  0
LINE
  5
100
330
1F
100
AcDbEntity
  8
0
  6
Continuous
 62
     7
370
    25
100
AcDbLine
 10
6253.7527419145
 20
4761.3244535566
 30
0.0
 11
6255.7527419145
 21
4761.3244535566
 31
0.0
  0
LINE
  5
101
330
1F
100
AcDbEntity
  8
0
  6
Continuous
 62
     7
370
    25
100
AcDbLine
 10
6253.7527419145
 20
4761.3244535566
 30
0.0
 11
6253.7527419145
 21
4759.172528835
 31
0.0
  0
LINE
  5
102
330
1F
100
AcDbEntity
  8
0
  6
Continuous
 62
     7
370
    25
100
AcDbLine
 10
6255.7527419145
 20
4761.3244535566
 30
0.0
 11
6255.7527419145
 21
4759.172528835
 31
0.0
  0
LINE
  5
103
330
1F
100
AcDbEntity
  8
0
  6
Continuous
 62
     7
370
    25
100
AcDbLine
 10
6253.7527419145
 20
4759.172528835
 30
0.0
 11
6253.7527419145
 21
4351.5818817915
 31
0.0
  0
LINE
  5
104
330
1F
100
AcDbEntity
  8
0
  6
Continuous
 62
     7
370
    25
100
AcDbLine
 10
6255.7527419145
 20
4759.172528835
 30
0.0
 11
6255.7527419145
 21
4351.5818817915
 31
0.0
  0
LINE
  5
105
330
1F
100
AcDbEntity
  8
0
  6
Continuous
 62
     7
370
    25
100
AcDbLine
 10
6253.7527419145
 20
4771.0170327688
 30
0.0
 11
6255.7527419145
 21
4771.0170327688
 31
0.0
  0
LINE
  5
106
330
1F
100
AcDbEntity
  8
0
  6
Continuous
 62
     7
370
    25
100
AcDbLine
 10
6253.7527419145
 20
4771.0170327688
 30
0.0
 11
6253.7527419145
 21
4761.3244535566
 31
0.0
  0
LINE
  5
107
330
1F
100
AcDbEntity
  8
0
  6
Continuous
 62
     7
370
    25
100
AcDbLine
 10
6255.7527419145
 20
4771.0170327688
 30
0.0
 11
6255.7527419145
 21
4761.3244535566
 31
0.0
  0
LINE
  5
108
330
1F
100
AcDbEntity
  8
0
  6
Continuous
 62
     7
370
    25
100
AcDbLine
 10
6253.7527419145
 20
4771.0651080471
 30
0.0
 11
6253.7527419145
 21
4771.0170327688
 31
0.0
  0
LINE
  5
109
330
1F
100
AcDbEntity
  8
0
  6
Continuous
 62
     7
370
    25
100
AcDbLine
 10
6255.7527419145
 20
4771.0651080471
 30
0.0
 11
6255.7527419145
 21
4771.0170327688
 31
0.0
  0
LINE
  5
10A
330
1F
100
AcDbEntity
  8
0
  6
Continuous
 62
     7
370
    25
100
AcDbLine
 10
6255.7527419145
 20
4349.3818817915
 30
0.0
 11
8751.7527419145
 21
4349.3818817915
 31
0.0
  0
LINE
  5
10B
330
1F
100
AcDbEntity
  8
0
  6
Continuous
 62
     7
370
    25
100
AcDbLine
 10
6255.7527419145
 20
4326.5818817915
 30
0.0
 11
8751.7527419145
 21
4326.5818817915
 31
0.0
  0
LINE
  5
10C
330
1F
100
AcDbEntity
  8
0
  6
Continuous
 62
     7
370
    25
100
AcDbLine
 10
8751.7527419145
 20
4351.5818817915
 30
0.0
 11
6255.7527419145
 21
4351.5818817915
 31
0.0
  0
LINE
  5
10D
330
1F
100
AcDbEntity
  8
0
  6
Continuous
 62
     7
370
    25
100
AcDbLine
 10
6255.7527419145
 20
4759.172528835
 30
0.0
 11
8751.7527419145
 21
4759.172528835
 31
0.0
  0
LINE
  5
10E
330
1F
100
AcDbEntity
  8
0
  6
Continuous
 62
     7
370
    25
100
AcDbLine
 10
8751.7527419145
 20
4761.3244535566
 30
0.0
 11
6255.7527419145
 21
4761.3244535566
 31
0.0
  0
LINE
  5
10F
330
1F
100
AcDbEntity
  8
0
  6
Continuous
 62
     7
370
    25
100
AcDbLine
 10
6255.7527419145
 20
4771.0170327688
 30
0.0
 11
8751.7527419145
 21
4771.0170327688
 31
0.0
  0
LWPOLYLINE
  5
110
330
1F
100
AcDbEntity
  8
0
  6
Continuous
 62
     7
370
    25
100
AcDbPolyline
 90
       14
 70
   128
 43
0.0
 10
6375.7527419145
 20
4763.7878069207
 10
6377.8365200465
 20
4763.8257106698
 10
6379.8569836344
 20
4763.9382702308
 10
6381.7527419145
 20
4764.1220655386
 10
6383.4661932308
 20
4764.3715120656
 10
6384.945275232
 20
4764.6790305053
 10
6386.1450467599
 20
4765.0352770656
 10
6387.029053364
 20
4765.429427375
 10
6387.5704349507
 20
4765.8495053758
 10
6387.7527419145
 20
4766.2827472105
 10
6387.5704349507
 20
4766.7159890452
 10
6387.029053364
 20
4767.136067046
 10
6386.1450467599
 20
4767.5302173554
 10
6385.1683747882
 20
4767.8295020051
  0
LWPOLYLINE
  5
111
330
1F
100
AcDbEntity
  8
0
  6
Continuous
 62
     7
370
    25
100
AcDbPolyline
 90
       14
 70
   128
 43
0.0
 10
6366.3371090409
 20
4767.8295020051
 10
6365.3604370691
 20
4767.5302173554
 10
6364.4764304651
 20
4767.136067046
 10
6363.9350488784
 20
4766.7159890452
 10
6363.7527419145
 20
4766.2827472105
 10
6363.9350488784
 20
4765.8495053758
 10
6364.4764304651
 20
4765.429427375
 10
6365.3604370691
 20
4765.0352770656
 10
6366.5602085971
 20
4764.6790305053
 10
6368.0392905983
 20
4764.3715120656
 10
6369.7527419145
 20
4764.1220655386
 10
6371.6485001946
 20
4763.9382702308
 10
6373.6689637825
 20
4763.8257106698
 10
6375.7527419145
 20
4763.7878069207
  0
CIRCLE
  5
112
330
1F
100
AcDbEntity
  8
0
  6
Continuous
 62
     7
370
    25
100
AcDbCircle
 10
6723.7527419145
 20
4661.5818817915
 30
0.0
 40
12.5
  0
LINE
  5
113
330
1F
100
AcDbEntity
  8
0
  6
Continuous
 62
     7
370
    25
100
AcDbLine
 10
6723.3628156791
 20
4666.7782756045
 30
0.0
 11
6723.3628156791
 21
4670.323995249
 31
0.0
  0
ARC
  5
114
330
1F
100
AcDbEntity
  8
0
  6
Continuous
 62
     7
370
    25
100
AcDbCircle
 10
6721.7457727839
 20
4670.323995249
 30
0.0
 40
1.617042895245504
100
AcDbArc
 50
0.0
 51
180.0
  0
LINE
  5
115
330
1F
100
AcDbEntity
  8
0
  6
Continuous
 62
     7
370
    25
100
AcDbLine
 10
6720.1287298887
 20
4670.323995249
 30
0.0
 11
6720.1287298887
 21
4662.7855436634
 31
0.0
  0
ARC
  5
116
330
1F
100
AcDbEntity
  8
0
  6
Continuous
 62
     7
370
    25
100
AcDbCircle
 10
6718.2836796255
 20
4660.9979148613
 30
0.0
 40
2.569012885871177
100
AcDbArc
 50
44.0944057146
 51
105.4941474424
  0
LINE
  5
117
330
1F
100
AcDbEntity
  8
0
  6
Continuous
 62
     7
370
    25
100
AcDbLine
 10
6717.5973936688
 20
4663.4735640273
 30
0.0
 11
6717.5973936688
 21
4658.0524494619
 31
0.0
  0
ARC
  5
118
330
1F
100
AcDbEntity
  8
0
  6
Continuous
 62
     7
370
    25
100
AcDbCircle
 10
6723.9199239965
 20
4658.0524494619
 30
0.0
 40
6.322530327734057
100
AcDbArc
 50
180.0
 51
270.0
  0
LINE
  5
119
330
1F
100
AcDbEntity
  8
0
  6
Continuous
 62
     7
370
    25
100
AcDbLine
 10
6723.9199239965
 20
4651.7299191342
 30
0.0
 11
6726.2871484035
 21
4651.7299191342
 31
0.0
  0
ARC
  5
11A
330
1F
100
AcDbEntity
  8
0
  6
Continuous
 62
     7
370
    25
100
AcDbCircle
 10
6726.2871484035
 20
4656.2855196848
 30
0.0
 40
4.555600550638701
100
AcDbArc
 50
270.0
 51
0.0
  0
LINE
  5
11B
330
1F
100
AcDbEntity
  8
0
  6
Continuous
 62
     7
370
    25
100
AcDbLine
 10
6730.8427489541
 20
4656.2855196848
 30
0.0
 11
6730.8427489541
 21
4664.1222902131
 31
0.0
  0
ARC
  5
11C
330
1F
100
AcDbEntity
  8
0
  6
Continuous
 62
     7
370
    25
100
AcDbCircle
 10
6729.4891377079
 20
4664.1222902131
 30
0.0
 40
1.353611246208857
100
AcDbArc
 50
0.0
 51
90.0
  0
LINE
  5
11D
330
1F
100
AcDbEntity
  8
0
  6
Continuous
 62
     7
370
    25
100
AcDbLine
 10
6729.4891377079
 20
4665.4759014593
 30
0.0
 11
6728.9949122432
 21
4665.4759014593
 31
0.0
  0
ARC
  5
11E
330
1F
100
AcDbEntity
  8
0
  6
Continuous
 62
     7
370
    25
100
AcDbCircle
 10
6728.9949122432
 20
4664.1222902131
 30
0.0
 40
1.353611246208857
100
AcDbArc
 50
90.0
 51
118.7365577358
  0
ARC
  5
11F
330
1F
100
AcDbEntity
  8
0
  6
Continuous
 62
     7
370
    25
100
AcDbCircle
 10
6727.0116523735
 20
4665.0708701365
 30
0.0
 40
1.353611246208857
100
AcDbArc
 50
10.1404867648
 51
90.0
  0
LINE
  5
120
330
1F
100
AcDbEntity
  8
0
  6
Continuous
 62
     7
370
    25
100
AcDbLine
 10
6727.0116523735
 20
4666.4244813828
 30
0.0
 11
6726.4323350915
 21
4666.4244813828
 31
0.0
  0
ARC
  5
121
330
1F
100
AcDbEntity
  8
0
  6
Continuous
 62
     7
370
    25
100
AcDbCircle
 10
6726.4323350915
 20
4665.0708701365
 30
0.0
 40
1.353611246209766
100
AcDbArc
 50
90.0
 51
124.744002227
  0
ARC
  5
122
330
1F
100
AcDbEntity
  8
0
  6
Continuous
 62
     7
370
    25
100
AcDbCircle
 10
6724.4490752217
 20
4665.5800243717
 30
0.0
 40
1.353611246208857
100
AcDbArc
 50
26.4592691593
 51
90.0
  0
LINE
  5
123
330
1F
100
AcDbEntity
  8
0
  6
Continuous
 62
     7
370
    25
100
AcDbLine
 10
6724.4490752217
 20
4666.9336356179
 30
0.0
 11
6723.9924643027
 21
4666.9336356179
 31
0.0
  0
ARC
  5
124
330
1F
100
AcDbEntity
  8
0
  6
Continuous
 62
     7
370
    25
100
AcDbCircle
 10
6723.9924643027
 20
4665.5800243717
 30
0.0
 40
1.35361124620922
100
AcDbArc
 50
90.0
 51
117.7207121261
  0
ARC
  5
125
330
1F
100
AcDbEntity
  8
0
  6
Continuous
 62
     7
370
    25
100
AcDbCircle
 10
6723.0008343678
 20
4662.6531549749
 30
0.0
 40
0.6676186886570576
100
AcDbArc
 50
180.0
 51
0.0
  0
LINE
  5
126
330
1F
100
AcDbEntity
  8
0
  6
Continuous
 62
     7
370
    25
100
AcDbLine
 10
6723.6684530565
 20
4665.5941865095
 30
0.0
 11
6723.6684530565
 21
4662.6531549749
 31
0.0
  0
ARC
  5
127
330
1F
100
AcDbEntity
  8
0
  6
Continuous
 62
     7
370
    25
100
AcDbCircle
 10
6723.9085631727
 20
4665.5941865095
 30
0.0
 40
0.2401101162877239
100
AcDbArc
 50
90.0
 51
180.0
  0
LINE
  5
128
330
1F
100
AcDbEntity
  8
0
  6
Continuous
 62
     7
370
    25
100
AcDbLine
 10
6724.5329763516
 20
4665.8342966258
 30
0.0
 11
6723.9085631727
 21
4665.8342966258
 31
0.0
  0
ARC
  5
129
330
1F
100
AcDbEntity
  8
0
  6
Continuous
 62
     7
370
    25
100
AcDbCircle
 10
6724.5329763516
 20
4665.5941865095
 30
0.0
 40
0.2401101162886334
100
AcDbArc
 50
0.0
 51
89.9999999998
  0
LINE
  5
12A
330
1F
100
AcDbEntity
  8
0
  6
Continuous
 62
     7
370
    25
100
AcDbLine
 10
6724.7730864679
 20
4662.6531549749
 30
0.0
 11
6724.7730864679
 21
4665.5941865095
 31
0.0
  0
ARC
  5
12B
330
1F
100
AcDbEntity
  8
0
  6
Continuous
 62
     7
370
    25
100
AcDbCircle
 10
6725.4407051566
 20
4662.6531549749
 30
0.0
 40
0.6676186886561482
100
AcDbArc
 50
180.0
 51
0.0
  0
LINE
  5
12C
330
1F
100
AcDbEntity
  8
0
  6
Continuous
 62
     7
370
    25
100
AcDbLine
 10
6726.1083238452
 20
4665.0850322743
 30
0.0
 11
6726.1083238452
 21
4662.6531549749
 31
0.0
  0
ARC
  5
12D
330
1F
100
AcDbEntity
  8
0
  6
Continuous
 62
     7
370
    25
100
AcDbCircle
 10
6726.3484339615
 20
4665.0850322743
 30
0.0
 40
0.2401101162877239
100
AcDbArc
 50
90.0
 51
180.0
  0
LINE
  5
12E
330
1F
100
AcDbEntity
  8
0
  6
Continuous
 62
     7
370
    25
100
AcDbLine
 10
6727.0955535034
 20
4665.3251423906
 30
0.0
 11
6726.3484339615
 21
4665.3251423906
 31
0.0
  0
ARC
  5
12F
330
1F
100
AcDbEntity
  8
0
  6
Continuous
 62
     7
370
    25
100
AcDbCircle
 10
6727.0955535034
 20
4665.0850322743
 30
0.0
 40
0.2401101162886334
100
AcDbArc
 50
0.0
 51
90.0
  0
LINE
  5
130
330
1F
100
AcDbEntity
  8
0
  6
Continuous
 62
     7
370
    25
100
AcDbLine
 10
6727.3356636197
 20
4662.6531549749
 30
0.0
 11
6727.3356636197
 21
4665.0850322743
 31
0.0
  0
ARC
  5
131
330
1F
100
AcDbEntity
  8
0
  6
Continuous
 62
     7
370
    25
100
AcDbCircle
 10
6728.0032823084
 20
4662.6531549749
 30
0.0
 40
0.6676186886570576
100
AcDbArc
 50
180.0
 51
0.0
  0
LINE
  5
132
330
1F
100
AcDbEntity
  8
0
  6
Continuous
 62
     7
370
    25
100
AcDbLine
 10
6728.670900997
 20
4664.1686819656
 30
0.0
 11
6728.670900997
 21
4662.6531549749
 31
0.0
  0
ARC
  5
133
330
1F
100
AcDbEntity
  8
0
  6
Continuous
 62
     7
370
    25
100
AcDbCircle
 10
6728.9110111133
 20
4664.1686819656
 30
0.0
 40
0.2401101162877239
100
AcDbArc
 50
90.0
 51
180.0
  0
LINE
  5
134
330
1F
100
AcDbEntity
  8
0
  6
Continuous
 62
     7
370
    25
100
AcDbLine
 10
6729.5730388379
 20
4664.4087920819
 30
0.0
 11
6728.9110111133
 21
4664.4087920819
 31
0.0
  0
ARC
  5
135
330
1F
100
AcDbEntity
  8
0
  6
Continuous
 62
     7
370
    25
100
AcDbCircle
 10
6729.5730388379
 20
4664.1686819656
 30
0.0
 40
0.2401101162877239
100
AcDbArc
 50
0.0
 51
90.0
  0
LINE
  5
136
330
1F
100
AcDbEntity
  8
0
  6
Continuous
 62
     7
370
    25
100
AcDbLine
 10
6729.8131489541
 20
4656.2855196848
 30
0.0
 11
6729.8131489541
 21
4664.1686819656
 31
0.0
  0
ARC
  5
137
330
1F
100
AcDbEntity
  8
0
  6
Continuous
 62
     7
370
    25
100
AcDbCircle
 10
6726.2871484035
 20
4656.2855196848
 30
0.0
 40
3.526000550638855
100
AcDbArc
 50
270.0
 51
0.0
  0
LINE
  5
138
330
1F
100
AcDbEntity
  8
0
  6
Continuous
 62
     7
370
    25
100
AcDbLine
 10
6723.9199239965
 20
4652.7595191342
 30
0.0
 11
6726.2871484035
 21
4652.7595191342
 31
0.0
  0
ARC
  5
139
330
1F
100
AcDbEntity
  8
0
  6
Continuous
 62
     7
370
    25
100
AcDbCircle
 10
6723.9199239965
 20
4658.0524494619
 30
0.0
 40
5.292930327734211
100
AcDbArc
 50
180.0
 51
270.0
  0
LINE
  5
13A
330
1F
100
AcDbEntity
  8
0
  6
Continuous
 62
     7
370
    25
100
AcDbLine
 10
6718.6269936688
 20
4662.498557224
 30
0.0
 11
6718.6269936688
 21
4658.0524494619
 31
0.0
  0
ARC
  5
13B
330
1F
100
AcDbEntity
  8
0
  6
Continuous
 62
     7
370
    25
100
AcDbCircle
 10
6718.2836796255
 20
4660.9979148613
 30
0.0
 40
1.539412885871518
100
AcDbArc
 50
0.0
 51
77.1137478469
  0
LINE
  5
13C
330
1F
100
AcDbEntity
  8
0
  6
Continuous
 62
     7
370
    25
100
AcDbLine
 10
6719.8230925113
 20
4659.0434939792
 30
0.0
 11
6719.8230925113
 21
4660.9979148613
 31
0.0
  0
ARC
  5
13D
330
1F
100
AcDbEntity
  8
0
  6
Continuous
 62
     7
370
    25
100
AcDbCircle
 10
6720.4907112
 20
4659.0434939792
 30
0.0
 40
0.6676186886570576
100
AcDbArc
 50
180.0
 51
0.0
  0
LINE
  5
13E
330
1F
100
AcDbEntity
  8
0
  6
Continuous
 62
     7
370
    25
100
AcDbLine
 10
6721.1583298887
 20
4670.323995249
 30
0.0
 11
6721.1583298887
 21
4659.0434939792
 31
0.0
  0
ARC
  5
13F
330
1F
100
AcDbEntity
  8
0
  6
Continuous
 62
     7
370
    25
100
AcDbCircle
 10
6721.7457727839
 20
4670.323995249
 30
0.0
 40
0.5874428952447488
100
AcDbArc
 50
0.0000000001
 51
179.9999999999
  0
LINE
  5
140
330
1F
100
AcDbEntity
  8
0
  6
Continuous
 62
     7
370
    25
100
AcDbLine
 10
6722.3332156791
 20
4662.6531549749
 30
0.0
 11
6722.3332156791
 21
4670.323995249
 31
0.0
  0
CIRCLE
  5
141
330
1F
100
AcDbEntity
  8
0
  6
Continuous
 62
     7
370
    25
100
AcDbCircle
 10
6723.7527419145
 20
4661.5818817915
 30
0.0
 40
14.0
  0
CIRCLE
  5
142
330
1F
100
AcDbEntity
  8
0
  6
Continuous
 62
     7
370
    25
100
AcDbCircle
 10
7323.7527419145
 20
4661.5818817915
 30
0.0
 40
12.5
  0
LINE
  5
143
330
1F
100
AcDbEntity
  8
0
  6
Continuous
 62
     7
370
    25
100
AcDbLine
 10
7323.3628156791
 20
4666.7782756045
 30
0.0
 11
7323.3628156791
 21
4670.323995249
 31
0.0
  0
ARC
  5
144
330
1F
100
AcDbEntity
  8
0
  6
Continuous
 62
     7
370
    25
100
AcDbCircle
 10
7321.7457727839
 20
4670.323995249
 30
0.0
 40
1.617042895244595
100
AcDbArc
 50
0.0
 51
180.0
  0
LINE
  5
145
330
1F
100
AcDbEntity
  8
0
  6
Continuous
 62
     7
370
    25
100
AcDbLine
 10
7320.1287298887
 20
4670.323995249
 30
0.0
 11
7320.1287298887
 21
4662.7855436634
 31
0.0
  0
ARC
  5
146
330
1F
100
AcDbEntity
  8
0
  6
Continuous
 62
     7
370
    25
100
AcDbCircle
 10
7318.2836796255
 20
4660.9979148613
 30
0.0
 40
2.569012885871402
100
AcDbArc
 50
44.0944057146
 51
105.4941474424
  0
LINE
  5
147
330
1F
100
AcDbEntity
  8
0
  6
Continuous
 62
     7
370
    25
100
AcDbLine
 10
7317.5973936688
 20
4663.4735640273
 30
0.0
 11
7317.5973936688
 21
4658.0524494619
 31
0.0
  0
ARC
  5
148
330
1F
100
AcDbEntity
  8
0
  6
Continuous
 62
     7
370
    25
100
AcDbCircle
 10
7323.9199239965
 20
4658.0524494619
 30
0.0
 40
6.322530327734057
100
AcDbArc
 50
180.0
 51
270.0
  0
LINE
  5
149
330
1F
100
AcDbEntity
  8
0
  6
Continuous
 62
     7
370
    25
100
AcDbLine
 10
7323.9199239965
 20
4651.7299191342
 30
0.0
 11
7326.2871484035
 21
4651.7299191342
 31
0.0
  0
ARC
  5
14A
330
1F
100
AcDbEntity
  8
0
  6
Continuous
 62
     7
370
    25
100
AcDbCircle
 10
7326.2871484035
 20
4656.2855196848
 30
0.0
 40
4.555600550638701
100
AcDbArc
 50
270.0
 51
0.0
  0
LINE
  5
14B
330
1F
100
AcDbEntity
  8
0
  6
Continuous
 62
     7
370
    25
100
AcDbLine
 10
7330.8427489541
 20
4656.2855196848
 30
0.0
 11
7330.8427489541
 21
4664.1222902131
 31
0.0
  0
ARC
  5
14C
330
1F
100
AcDbEntity
  8
0
  6
Continuous
 62
     7
370
    25
100
AcDbCircle
 10
7329.4891377079
 20
4664.1222902131
 30
0.0
 40
1.353611246208857
100
AcDbArc
 50
0.0
 51
90.0
  0
LINE
  5
14D
330
1F
100
AcDbEntity
  8
0
  6
Continuous
 62
     7
370
    25
100
AcDbLine
 10
7329.4891377079
 20
4665.4759014593
 30
0.0
 11
7328.9949122432
 21
4665.4759014593
 31
0.0
  0
ARC
  5
14E
330
1F
100
AcDbEntity
  8
0
  6
Continuous
 62
     7
370
    25
100
AcDbCircle
 10
7328.9949122432
 20
4664.1222902131
 30
0.0
 40
1.353611246208857
100
AcDbArc
 50
90.0
 51
118.7365577358
  0
ARC
  5
14F
330
1F
100
AcDbEntity
  8
0
  6
Continuous
 62
     7
370
    25
100
AcDbCircle
 10
7327.0116523735
 20
4665.0708701365
 30
0.0
 40
1.353611246208857
100
AcDbArc
 50
10.1404867648
 51
90.0
  0
LINE
  5
150
330
1F
100
AcDbEntity
  8
0
  6
Continuous
 62
     7
370
    25
100
AcDbLine
 10
7327.0116523735
 20
4666.4244813828
 30
0.0
 11
7326.4323350915
 21
4666.4244813828
 31
0.0
  0
ARC
  5
151
330
1F
100
AcDbEntity
  8
0
  6
Continuous
 62
     7
370
    25
100
AcDbCircle
 10
7326.4323350915
 20
4665.0708701365
 30
0.0
 40
1.353611246209766
100
AcDbArc
 50
90.0
 51
124.744002227
  0
ARC
  5
152
330
1F
100
AcDbEntity
  8
0
  6
Continuous
 62
     7
370
    25
100
AcDbCircle
 10
7324.4490752217
 20
4665.5800243717
 30
0.0
 40
1.353611246208857
100
AcDbArc
 50
26.4592691592
 51
90.0
  0
LINE
  5
153
330
1F
100
AcDbEntity
  8
0
  6
Continuous
 62
     7
370
    25
100
AcDbLine
 10
7324.4490752217
 20
4666.9336356179
 30
0.0
 11
7323.9924643027
 21
4666.9336356179
 31
0.0
  0
ARC
  5
154
330
1F
100
AcDbEntity
  8
0
  6
Continuous
 62
     7
370
    25
100
AcDbCircle
 10
7323.9924643027
 20
4665.5800243717
 30
0.0
 40
1.35361124620922
100
AcDbArc
 50
90.0
 51
117.7207121261
  0
ARC
  5
155
330
1F
100
AcDbEntity
  8
0
  6
Continuous
 62
     7
370
    25
100
AcDbCircle
 10
7323.0008343678
 20
4662.6531549749
 30
0.0
 40
0.6676186886570576
100
AcDbArc
 50
180.0
 51
0.0
  0
LINE
  5
156
330
1F
100
AcDbEntity
  8
0
  6
Continuous
 62
     7
370
    25
100
AcDbLine
 10
7323.6684530565
 20
4665.5941865095
 30
0.0
 11
7323.6684530565
 21
4662.6531549749
 31
0.0
  0
ARC
  5
157
330
1F
100
AcDbEntity
  8
0
  6
Continuous
 62
     7
370
    25
100
AcDbCircle
 10
7323.9085631727
 20
4665.5941865095
 30
0.0
 40
0.2401101162877239
100
AcDbArc
 50
90.0
 51
180.0
  0
LINE
  5
158
330
1F
100
AcDbEntity
  8
0
  6
Continuous
 62
     7
370
    25
100
AcDbLine
 10
7324.5329763516
 20
4665.8342966258
 30
0.0
 11
7323.9085631727
 21
4665.8342966258
 31
0.0
  0
ARC
  5
159
330
1F
100
AcDbEntity
  8
0
  6
Continuous
 62
     7
370
    25
100
AcDbCircle
 10
7324.5329763516
 20
4665.5941865095
 30
0.0
 40
0.2401101162877239
100
AcDbArc
 50
0.0
 51
90.0
  0
LINE
  5
15A
330
1F
100
AcDbEntity
  8
0
  6
Continuous
 62
     7
370
    25
100
AcDbLine
 10
7324.7730864679
 20
4662.6531549749
 30
0.0
 11
7324.7730864679
 21
4665.5941865095
 31
0.0
  0
ARC
  5
15B
330
1F
100
AcDbEntity
  8
0
  6
Continuous
 62
     7
370
    25
100
AcDbCircle
 10
7325.4407051566
 20
4662.6531549749
 30
0.0
 40
0.6676186886570576
100
AcDbArc
 50
180.0
 51
0.0
  0
LINE
  5
15C
330
1F
100
AcDbEntity
  8
0
  6
Continuous
 62
     7
370
    25
100
AcDbLine
 10
7326.1083238452
 20
4665.0850322743
 30
0.0
 11
7326.1083238452
 21
4662.6531549749
 31
0.0
  0
ARC
  5
15D
330
1F
100
AcDbEntity
  8
0
  6
Continuous
 62
     7
370
    25
100
AcDbCircle
 10
7326.3484339615
 20
4665.0850322743
 30
0.0
 40
0.2401101162868144
100
AcDbArc
 50
90.0
 51
180.0
  0
LINE
  5
15E
330
1F
100
AcDbEntity
  8
0
  6
Continuous
 62
     7
370
    25
100
AcDbLine
 10
7327.0955535034
 20
4665.3251423906
 30
0.0
 11
7326.3484339615
 21
4665.3251423906
 31
0.0
  0
ARC
  5
15F
330
1F
100
AcDbEntity
  8
0
  6
Continuous
 62
     7
370
    25
100
AcDbCircle
 10
7327.0955535034
 20
4665.0850322743
 30
0.0
 40
0.2401101162868144
100
AcDbArc
 50
0.0
 51
90.0
  0
LINE
  5
160
330
1F
100
AcDbEntity
  8
0
  6
Continuous
 62
     7
370
    25
100
AcDbLine
 10
7327.3356636197
 20
4662.6531549749
 30
0.0
 11
7327.3356636197
 21
4665.0850322743
 31
0.0
  0
ARC
  5
161
330
1F
100
AcDbEntity
  8
0
  6
Continuous
 62
     7
370
    25
100
AcDbCircle
 10
7328.0032823084
 20
4662.6531549749
 30
0.0
 40
0.6676186886570576
100
AcDbArc
 50
180.0
 51
0.0
  0
LINE
  5
162
330
1F
100
AcDbEntity
  8
0
  6
Continuous
 62
     7
370
    25
100
AcDbLine
 10
7328.670900997
 20
4664.1686819656
 30
0.0
 11
7328.670900997
 21
4662.6531549749
 31
0.0
  0
ARC
  5
163
330
1F
100
AcDbEntity
  8
0
  6
Continuous
 62
     7
370
    25
100
AcDbCircle
 10
7328.9110111133
 20
4664.1686819656
 30
0.0
 40
0.2401101162868144
100
AcDbArc
 50
90.0
 51
180.0
  0
LINE
  5
164
330
1F
100
AcDbEntity
  8
0
  6
Continuous
 62
     7
370
    25
100
AcDbLine
 10
7329.5730388379
 20
4664.4087920819
 30
0.0
 11
7328.9110111133
 21
4664.4087920819
 31
0.0
  0
ARC
  5
165
330
1F
100
AcDbEntity
  8
0
  6
Continuous
 62
     7
370
    25
100
AcDbCircle
 10
7329.5730388379
 20
4664.1686819656
 30
0.0
 40
0.2401101162877239
100
AcDbArc
 50
0.0
 51
90.0
  0
LINE
  5
166
330
1F
100
AcDbEntity
  8
0
  6
Continuous
 62
     7
370
    25
100
AcDbLine
 10
7329.8131489541
 20
4656.2855196848
 30
0.0
 11
7329.8131489541
 21
4664.1686819656
 31
0.0
  0
ARC
  5
167
330
1F
100
AcDbEntity
  8
0
  6
Continuous
 62
     7
370
    25
100
AcDbCircle
 10
7326.2871484035
 20
4656.2855196848
 30
0.0
 40
3.526000550638855
100
AcDbArc
 50
270.0
 51
0.0
  0
LINE
  5
168
330
1F
100
AcDbEntity
  8
0
  6
Continuous
 62
     7
370
    25
100
AcDbLine
 10
7323.9199239965
 20
4652.7595191342
 30
0.0
 11
7326.2871484035
 21
4652.7595191342
 31
0.0
  0
ARC
  5
169
330
1F
100
AcDbEntity
  8
0
  6
Continuous
 62
     7
370
    25
100
AcDbCircle
 10
7323.9199239965
 20
4658.0524494619
 30
0.0
 40
5.292930327734211
100
AcDbArc
 50
180.0
 51
270.0
  0
LINE
  5
16A
330
1F
100
AcDbEntity
  8
0
  6
Continuous
 62
     7
370
    25
100
AcDbLine
 10
7318.6269936688
 20
4662.498557224
 30
0.0
 11
7318.6269936688
 21
4658.0524494619
 31
0.0
  0
ARC
  5
16B
330
1F
100
AcDbEntity
  8
0
  6
Continuous
 62
     7
370
    25
100
AcDbCircle
 10
7318.2836796255
 20
4660.9979148613
 30
0.0
 40
1.539412885871721
100
AcDbArc
 50
0.0
 51
77.1137478469
  0
LINE
  5
16C
330
1F
100
AcDbEntity
  8
0
  6
Continuous
 62
     7
370
    25
100
AcDbLine
 10
7319.8230925113
 20
4659.0434939792
 30
0.0
 11
7319.8230925113
 21
4660.9979148613
 31
0.0
  0
ARC
  5
16D
330
1F
100
AcDbEntity
  8
0
  6
Continuous
 62
     7
370
    25
100
AcDbCircle
 10
7320.4907112
 20
4659.0434939792
 30
0.0
 40
0.6676186886570576
100
AcDbArc
 50
180.0
 51
0.0
  0
LINE
  5
16E
330
1F
100
AcDbEntity
  8
0
  6
Continuous
 62
     7
370
    25
100
AcDbLine
 10
7321.1583298887
 20
4670.323995249
 30
0.0
 11
7321.1583298887
 21
4659.0434939792
 31
0.0
  0
ARC
  5
16F
330
1F
100
AcDbEntity
  8
0
  6
Continuous
 62
     7
370
    25
100
AcDbCircle
 10
7321.7457727839
 20
4670.323995249
 30
0.0
 40
0.5874428952456583
100
AcDbArc
 50
0.0000000001
 51
179.9999999999
  0
LINE
  5
170
330
1F
100
AcDbEntity
  8
0
  6
Continuous
 62
     7
370
    25
100
AcDbLine
 10
7322.3332156791
 20
4662.6531549749
 30
0.0
 11
7322.3332156791
 21
4670.323995249
 31
0.0
  0
CIRCLE
  5
171
330
1F
100
AcDbEntity
  8
0
  6
Continuous
 62
     7
370
    25
100
AcDbCircle
 10
7323.7527419145
 20
4661.5818817915
 30
0.0
 40
13.99999999999909
  0
ARC
  5
172
330
1F
100
AcDbEntity
  8
0
  6
Continuous
 62
     7
370
    25
100
AcDbCircle
 10
8523.0008343678
 20
4662.6531549749
 30
0.0
 40
0.6676186886579671
100
AcDbArc
 50
180.0
 51
0.0
  0
LINE
  5
173
330
1F
100
AcDbEntity
  8
0
  6
Continuous
 62
     7
370
    25
100
AcDbLine
 10
8523.6684530565
 20
4665.5941865095
 30
0.0
 11
8523.6684530565
 21
4662.6531549749
 31
0.0
  0
ARC
  5
174
330
1F
100
AcDbEntity
  8
0
  6
Continuous
 62
     7
370
    25
100
AcDbCircle
 10
8523.9085631727
 20
4665.5941865095
 30
0.0
 40
0.2401101162886334
100
AcDbArc
 50
90.0
 51
180.0
  0
LINE
  5
175
330
1F
100
AcDbEntity
  8
0
  6
Continuous
 62
     7
370
    25
100
AcDbLine
 10
8524.5329763516
 20
4665.8342966258
 30
0.0
 11
8523.9085631727
 21
4665.8342966258
 31
0.0
  0
ARC
  5
176
330
1F
100
AcDbEntity
  8
0
  6
Continuous
 62
     7
370
    25
100
AcDbCircle
 10
8524.5329763516
 20
4665.5941865095
 30
0.0
 40
0.2401101162877239
100
AcDbArc
 50
0.0
 51
90.0
  0
LINE
  5
177
330
1F
100
AcDbEntity
  8
0
  6
Continuous
 62
     7
370
    25
100
AcDbLine
 10
8524.7730864679
 20
4662.6531549749
 30
0.0
 11
8524.7730864679
 21
4665.5941865095
 31
0.0
  0
ARC
  5
178
330
1F
100
AcDbEntity
  8
0
  6
Continuous
 62
     7
370
    25
100
AcDbCircle
 10
8525.4407051566
 20
4662.6531549749
 30
0.0
 40
0.6676186886579671
100
AcDbArc
 50
180.0
 51
0.0
  0
LINE
  5
179
330
1F
100
AcDbEntity
  8
0
  6
Continuous
 62
     7
370
    25
100
AcDbLine
 10
8526.1083238452
 20
4665.0850322743
 30
0.0
 11
8526.1083238452
 21
4662.6531549749
 31
0.0
  0
ARC
  5
17A
330
1F
100
AcDbEntity
  8
0
  6
Continuous
 62
     7
370
    25
100
AcDbCircle
 10
8526.3484339615
 20
4665.0850322743
 30
0.0
 40
0.2401101162868144
100
AcDbArc
 50
90.0
 51
180.0
  0
LINE
  5
17B
330
1F
100
AcDbEntity
  8
0
  6
Continuous
 62
     7
370
    25
100
AcDbLine
 10
8527.0955535034
 20
4665.3251423906
 30
0.0
 11
8526.3484339615
 21
4665.3251423906
 31
0.0
  0
ARC
  5
17C
330
1F
100
AcDbEntity
  8
0
  6
Continuous
 62
     7
370
    25
100
AcDbCircle
 10
8527.0955535034
 20
4665.0850322743
 30
0.0
 40
0.2401101162886334
100
AcDbArc
 50
0.0
 51
90.0
  0
LINE
  5
17D
330
1F
100
AcDbEntity
  8
0
  6
Continuous
 62
     7
370
    25
100
AcDbLine
 10
8527.3356636197
 20
4662.6531549749
 30
0.0
 11
8527.3356636197
 21
4665.0850322743
 31
0.0
  0
ARC
  5
17E
330
1F
100
AcDbEntity
  8
0
  6
Continuous
 62
     7
370
    25
100
AcDbCircle
 10
8528.0032823084
 20
4662.6531549749
 30
0.0
 40
0.6676186886579671
100
AcDbArc
 50
180.0
 51
0.0
  0
LINE
  5
17F
330
1F
100
AcDbEntity
  8
0
  6
Continuous
 62
     7
370
    25
100
AcDbLine
 10
8528.670900997
 20
4664.1686819656
 30
0.0
 11
8528.670900997
 21
4662.6531549749
 31
0.0
  0
ARC
  5
180
330
1F
100
AcDbEntity
  8
0
  6
Continuous
 62
     7
370
    25
100
AcDbCircle
 10
8528.9110111133
 20
4664.1686819656
 30
0.0
 40
0.2401101162886334
100
AcDbArc
 50
90.0
 51
180.0
  0
LINE
  5
181
330
1F
100
AcDbEntity
  8
0
  6
Continuous
 62
     7
370
    25
100
AcDbLine
 10
8529.5730388379
 20
4664.4087920819
 30
0.0
 11
8528.9110111133
 21
4664.4087920819
 31
0.0
  0
ARC
  5
182
330
1F
100
AcDbEntity
  8
0
  6
Continuous
 62
     7
370
    25
100
AcDbCircle
 10
8529.5730388379
 20
4664.1686819656
 30
0.0
 40
0.2401101162886334
100
AcDbArc
 50
0.0
 51
90.0
  0
LINE
  5
183
330
1F
100
AcDbEntity
  8
0
  6
Continuous
 62
     7
370
    25
100
AcDbLine
 10
8529.8131489541
 20
4656.2855196848
 30
0.0
 11
8529.8131489541
 21
4664.1686819656
 31
0.0
  0
ARC
  5
184
330
1F
100
AcDbEntity
  8
0
  6
Continuous
 62
     7
370
    25
100
AcDbCircle
 10
8526.2871484035
 20
4656.2855196848
 30
0.0
 40
3.526000550638855
100
AcDbArc
 50
270.0
 51
0.0
  0
LINE
  5
185
330
1F
100
AcDbEntity
  8
0
  6
Continuous
 62
     7
370
    25
100
AcDbLine
 10
8523.9199239965
 20
4652.7595191342
 30
0.0
 11
8526.2871484035
 21
4652.7595191342
 31
0.0
  0
ARC
  5
186
330
1F
100
AcDbEntity
  8
0
  6
Continuous
 62
     7
370
    25
100
AcDbCircle
 10
8523.9199239965
 20
4658.0524494619
 30
0.0
 40
5.292930327734211
100
AcDbArc
 50
180.0
 51
270.0
  0
LINE
  5
187
330
1F
100
AcDbEntity
  8
0
  6
Continuous
 62
     7
370
    25
100
AcDbLine
 10
8518.6269936688
 20
4662.498557224
 30
0.0
 11
8518.6269936688
 21
4658.0524494619
 31
0.0
  0
ARC
  5
188
330
1F
100
AcDbEntity
  8
0
  6
Continuous
 62
     7
370
    25
100
AcDbCircle
 10
8518.2836796255
 20
4660.9979148613
 30
0.0
 40
1.539412885871924
100
AcDbArc
 50
0.0
 51
77.1137478469
  0
LINE
  5
189
330
1F
100
AcDbEntity
  8
0
  6
Continuous
 62
     7
370
    25
100
AcDbLine
 10
8519.8230925113
 20
4659.0434939792
 30
0.0
 11
8519.8230925113
 21
4660.9979148613
 31
0.0
  0
ARC
  5
18A
330
1F
100
AcDbEntity
  8
0
  6
Continuous
 62
     7
370
    25
100
AcDbCircle
 10
8520.4907112
 20
4659.0434939792
 30
0.0
 40
0.6676186886561482
100
AcDbArc
 50
180.0
 51
0.0
  0
LINE
  5
18B
330
1F
100
AcDbEntity
  8
0
  6
Continuous
 62
     7
370
    25
100
AcDbLine
 10
8521.1583298887
 20
4670.323995249
 30
0.0
 11
8521.1583298887
 21
4659.0434939792
 31
0.0
  0
ARC
  5
18C
330
1F
100
AcDbEntity
  8
0
  6
Continuous
 62
     7
370
    25
100
AcDbCircle
 10
8521.7457727839
 20
4670.323995249
 30
0.0
 40
0.5874428952465678
100
AcDbArc
 50
0.0000000001
 51
179.9999999999
  0
LINE
  5
18D
330
1F
100
AcDbEntity
  8
0
  6
Continuous
 62
     7
370
    25
100
AcDbLine
 10
8522.3332156791
 20
4662.6531549749
 30
0.0
 11
8522.3332156791
 21
4670.323995249
 31
0.0
  0
CIRCLE
  5
18E
330
1F
100
AcDbEntity
  8
0
  6
Continuous
 62
     7
370
    25
100
AcDbCircle
 10
8523.7527419145
 20
4661.5818817915
 30
0.0
 40
12.50000000000182
  0
LINE
  5
18F
330
1F
100
AcDbEntity
  8
0
  6
Continuous
 62
     7
370
    25
100
AcDbLine
 10
8523.3628156791
 20
4666.7782756045
 30
0.0
 11
8523.3628156791
 21
4670.323995249
 31
0.0
  0
ARC
  5
190
330
1F
100
AcDbEntity
  8
0
  6
Continuous
 62
     7
370
    25
100
AcDbCircle
 10
8521.7457727839
 20
4670.323995249
 30
0.0
 40
1.617042895244595
100
AcDbArc
 50
0.0
 51
180.0
  0
LINE
  5
191
330
1F
100
AcDbEntity
  8
0
  6
Continuous
 62
     7
370
    25
100
AcDbLine
 10
8520.1287298887
 20
4670.323995249
 30
0.0
 11
8520.1287298887
 21
4662.7855436634
 31
0.0
  0
ARC
  5
192
330
1F
100
AcDbEntity
  8
0
  6
Continuous
 62
     7
370
    25
100
AcDbCircle
 10
8518.2836796255
 20
4660.9979148613
 30
0.0
 40
2.569012885872483
100
AcDbArc
 50
44.0944057145
 51
105.4941474424
  0
LINE
  5
193
330
1F
100
AcDbEntity
  8
0
  6
Continuous
 62
     7
370
    25
100
AcDbLine
 10
8517.5973936688
 20
4663.4735640273
 30
0.0
 11
8517.5973936688
 21
4658.0524494619
 31
0.0
  0
ARC
  5
194
330
1F
100
AcDbEntity
  8
0
  6
Continuous
 62
     7
370
    25
100
AcDbCircle
 10
8523.9199239965
 20
4658.0524494619
 30
0.0
 40
6.322530327735876
100
AcDbArc
 50
180.0
 51
270.0
  0
LINE
  5
195
330
1F
100
AcDbEntity
  8
0
  6
Continuous
 62
     7
370
    25
100
AcDbLine
 10
8523.9199239965
 20
4651.7299191342
 30
0.0
 11
8526.2871484035
 21
4651.7299191342
 31
0.0
  0
ARC
  5
196
330
1F
100
AcDbEntity
  8
0
  6
Continuous
 62
     7
370
    25
100
AcDbCircle
 10
8526.2871484035
 20
4656.2855196848
 30
0.0
 40
4.555600550638701
100
AcDbArc
 50
270.0
 51
0.0
  0
LINE
  5
197
330
1F
100
AcDbEntity
  8
0
  6
Continuous
 62
     7
370
    25
100
AcDbLine
 10
8530.8427489541
 20
4656.2855196848
 30
0.0
 11
8530.8427489541
 21
4664.1222902131
 31
0.0
  0
ARC
  5
198
330
1F
100
AcDbEntity
  8
0
  6
Continuous
 62
     7
370
    25
100
AcDbCircle
 10
8529.4891377079
 20
4664.1222902131
 30
0.0
 40
1.353611246208857
100
AcDbArc
 50
0.0
 51
90.0000000001
  0
LINE
  5
199
330
1F
100
AcDbEntity
  8
0
  6
Continuous
 62
     7
370
    25
100
AcDbLine
 10
8529.4891377079
 20
4665.4759014593
 30
0.0
 11
8528.9949122432
 21
4665.4759014593
 31
0.0
  0
ARC
  5
19A
330
1F
100
AcDbEntity
  8
0
  6
Continuous
 62
     7
370
    25
100
AcDbCircle
 10
8528.9949122432
 20
4664.1222902131
 30
0.0
 40
1.353611246208907
100
AcDbArc
 50
90.0
 51
118.7365577358
  0
ARC
  5
19B
330
1F
100
AcDbEntity
  8
0
  6
Continuous
 62
     7
370
    25
100
AcDbCircle
 10
8527.0116523735
 20
4665.0708701365
 30
0.0
 40
1.353611246208857
100
AcDbArc
 50
10.1404867648
 51
90.0000000001
  0
LINE
  5
19C
330
1F
100
AcDbEntity
  8
0
  6
Continuous
 62
     7
370
    25
100
AcDbLine
 10
8527.0116523735
 20
4666.4244813828
 30
0.0
 11
8526.4323350915
 21
4666.4244813828
 31
0.0
  0
ARC
  5
19D
330
1F
100
AcDbEntity
  8
0
  6
Continuous
 62
     7
370
    25
100
AcDbCircle
 10
8526.4323350915
 20
4665.0708701365
 30
0.0
 40
1.353611246209766
100
AcDbArc
 50
90.0
 51
124.7440022271
  0
ARC
  5
19E
330
1F
100
AcDbEntity
  8
0
  6
Continuous
 62
     7
370
    25
100
AcDbCircle
 10
8524.4490752217
 20
4665.5800243717
 30
0.0
 40
1.353611246208857
100
AcDbArc
 50
26.4592691593
 51
90.0
  0
LINE
  5
19F
330
1F
100
AcDbEntity
  8
0
  6
Continuous
 62
     7
370
    25
100
AcDbLine
 10
8524.4490752217
 20
4666.9336356179
 30
0.0
 11
8523.9924643027
 21
4666.9336356179
 31
0.0
  0
ARC
  5
1A0
330
1F
100
AcDbEntity
  8
0
  6
Continuous
 62
     7
370
    25
100
AcDbCircle
 10
8523.9924643027
 20
4665.5800243717
 30
0.0
 40
1.353611246209643
100
AcDbArc
 50
90.0
 51
117.7207121261
  0
CIRCLE
  5
1A1
330
1F
100
AcDbEntity
  8
0
  6
Continuous
 62
     7
370
    25
100
AcDbCircle
 10
8523.7527419145
 20
4661.5818817915
 30
0.0
 40
14.00000000000182
  0
CIRCLE
  5
1A2
330
1F
100
AcDbEntity
  8
0
  6
Continuous
 62
     7
370
    25
100
AcDbCircle
 10
7923.7527419145
 20
4661.5818817915
 30
0.0
 40
12.50000000000091
  0
LINE
  5
1A3
330
1F
100
AcDbEntity
  8
0
  6
Continuous
 62
     7
370
    25
100
AcDbLine
 10
7923.3628156791
 20
4666.7782756045
 30
0.0
 11
7923.3628156791
 21
4670.323995249
 31
0.0
  0
LINE
  5
1A4
330
1F
100
AcDbEntity
  8
0
  6
Continuous
 62
     7
370
    25
100
AcDbLine
 10
7920.1287298887
 20
4670.323995249
 30
0.0
 11
7920.1287298887
 21
4662.7855436634
 31
0.0
  0
ARC
  5
1A5
330
1F
100
AcDbEntity
  8
0
  6
Continuous
 62
     7
370
    25
100
AcDbCircle
 10
7918.2836796255
 20
4660.9979148613
 30
0.0
 40
2.569012885871402
100
AcDbArc
 50
44.0944057146
 51
105.4941474424
  0
LINE
  5
1A6
330
1F
100
AcDbEntity
  8
0
  6
Continuous
 62
     7
370
    25
100
AcDbLine
 10
7917.5973936688
 20
4663.4735640273
 30
0.0
 11
7917.5973936688
 21
4658.0524494619
 31
0.0
  0
ARC
  5
1A7
330
1F
100
AcDbEntity
  8
0
  6
Continuous
 62
     7
370
    25
100
AcDbCircle
 10
7923.9199239965
 20
4658.0524494619
 30
0.0
 40
6.322530327734057
100
AcDbArc
 50
180.0
 51
270.0
  0
LINE
  5
1A8
330
1F
100
AcDbEntity
  8
0
  6
Continuous
 62
     7
370
    25
100
AcDbLine
 10
7923.9199239965
 20
4651.7299191342
 30
0.0
 11
7926.2871484035
 21
4651.7299191342
 31
0.0
  0
ARC
  5
1A9
330
1F
100
AcDbEntity
  8
0
  6
Continuous
 62
     7
370
    25
100
AcDbCircle
 10
7926.2871484035
 20
4656.2855196848
 30
0.0
 40
4.555600550638701
100
AcDbArc
 50
270.0
 51
0.0
  0
LINE
  5
1AA
330
1F
100
AcDbEntity
  8
0
  6
Continuous
 62
     7
370
    25
100
AcDbLine
 10
7930.8427489541
 20
4656.2855196848
 30
0.0
 11
7930.8427489541
 21
4664.1222902131
 31
0.0
  0
ARC
  5
1AB
330
1F
100
AcDbEntity
  8
0
  6
Continuous
 62
     7
370
    25
100
AcDbCircle
 10
7929.4891377079
 20
4664.1222902131
 30
0.0
 40
1.353611246209766
100
AcDbArc
 50
0.0
 51
90.0
  0
LINE
  5
1AC
330
1F
100
AcDbEntity
  8
0
  6
Continuous
 62
     7
370
    25
100
AcDbLine
 10
7929.4891377079
 20
4665.4759014593
 30
0.0
 11
7928.9949122432
 21
4665.4759014593
 31
0.0
  0
ARC
  5
1AD
330
1F
100
AcDbEntity
  8
0
  6
Continuous
 62
     7
370
    25
100
AcDbCircle
 10
7928.9949122432
 20
4664.1222902131
 30
0.0
 40
1.353611246208857
100
AcDbArc
 50
90.0
 51
118.7365577358
  0
ARC
  5
1AE
330
1F
100
AcDbEntity
  8
0
  6
Continuous
 62
     7
370
    25
100
AcDbCircle
 10
7927.0116523735
 20
4665.0708701365
 30
0.0
 40
1.353611246208857
100
AcDbArc
 50
10.1404867648
 51
90.0000000001
  0
LINE
  5
1AF
330
1F
100
AcDbEntity
  8
0
  6
Continuous
 62
     7
370
    25
100
AcDbLine
 10
7927.0116523735
 20
4666.4244813828
 30
0.0
 11
7926.4323350915
 21
4666.4244813828
 31
0.0
  0
ARC
  5
1B0
330
1F
100
AcDbEntity
  8
0
  6
Continuous
 62
     7
370
    25
100
AcDbCircle
 10
7926.4323350915
 20
4665.0708701365
 30
0.0
 40
1.353611246209766
100
AcDbArc
 50
90.0
 51
124.7440022271
  0
ARC
  5
1B1
330
1F
100
AcDbEntity
  8
0
  6
Continuous
 62
     7
370
    25
100
AcDbCircle
 10
7924.4490752217
 20
4665.5800243717
 30
0.0
 40
1.353611246208857
100
AcDbArc
 50
26.4592691593
 51
90.0
  0
LINE
  5
1B2
330
1F
100
AcDbEntity
  8
0
  6
Continuous
 62
     7
370
    25
100
AcDbLine
 10
7924.4490752217
 20
4666.9336356179
 30
0.0
 11
7923.9924643027
 21
4666.9336356179
 31
0.0
  0
ARC
  5
1B3
330
1F
100
AcDbEntity
  8
0
  6
Continuous
 62
     7
370
    25
100
AcDbCircle
 10
7923.9924643027
 20
4665.5800243717
 30
0.0
 40
1.35361124620922
100
AcDbArc
 50
90.0
 51
117.7207121261
  0
ARC
  5
1B4
330
1F
100
AcDbEntity
  8
0
  6
Continuous
 62
     7
370
    25
100
AcDbCircle
 10
7921.7457727839
 20
4670.323995249
 30
0.0
 40
1.617042895244595
100
AcDbArc
 50
0.0
 51
180.0
  0
ARC
  5
1B5
330
1F
100
AcDbEntity
  8
0
  6
Continuous
 62
     7
370
    25
100
AcDbCircle
 10
7923.0008343678
 20
4662.6531549749
 30
0.0
 40
0.6676186886570576
100
AcDbArc
 50
180.0
 51
0.0
  0
LINE
  5
1B6
330
1F
100
AcDbEntity
  8
0
  6
Continuous
 62
     7
370
    25
100
AcDbLine
 10
7923.6684530565
 20
4665.5941865095
 30
0.0
 11
7923.6684530565
 21
4662.6531549749
 31
0.0
  0
ARC
  5
1B7
330
1F
100
AcDbEntity
  8
0
  6
Continuous
 62
     7
370
    25
100
AcDbCircle
 10
7923.9085631727
 20
4665.5941865095
 30
0.0
 40
0.2401101162877239
100
AcDbArc
 50
90.0
 51
180.0
  0
LINE
  5
1B8
330
1F
100
AcDbEntity
  8
0
  6
Continuous
 62
     7
370
    25
100
AcDbLine
 10
7924.5329763516
 20
4665.8342966258
 30
0.0
 11
7923.9085631727
 21
4665.8342966258
 31
0.0
  0
ARC
  5
1B9
330
1F
100
AcDbEntity
  8
0
  6
Continuous
 62
     7
370
    25
100
AcDbCircle
 10
7924.5329763516
 20
4665.5941865095
 30
0.0
 40
0.2401101162877239
100
AcDbArc
 50
0.0
 51
90.0
  0
LINE
  5
1BA
330
1F
100
AcDbEntity
  8
0
  6
Continuous
 62
     7
370
    25
100
AcDbLine
 10
7924.7730864679
 20
4662.6531549749
 30
0.0
 11
7924.7730864679
 21
4665.5941865095
 31
0.0
  0
ARC
  5
1BB
330
1F
100
AcDbEntity
  8
0
  6
Continuous
 62
     7
370
    25
100
AcDbCircle
 10
7925.4407051566
 20
4662.6531549749
 30
0.0
 40
0.6676186886570576
100
AcDbArc
 50
180.0
 51
0.0
  0
LINE
  5
1BC
330
1F
100
AcDbEntity
  8
0
  6
Continuous
 62
     7
370
    25
100
AcDbLine
 10
7926.1083238452
 20
4665.0850322743
 30
0.0
 11
7926.1083238452
 21
4662.6531549749
 31
0.0
  0
ARC
  5
1BD
330
1F
100
AcDbEntity
  8
0
  6
Continuous
 62
     7
370
    25
100
AcDbCircle
 10
7926.3484339615
 20
4665.0850322743
 30
0.0
 40
0.2401101162877239
100
AcDbArc
 50
90.0
 51
180.0
  0
LINE
  5
1BE
330
1F
100
AcDbEntity
  8
0
  6
Continuous
 62
     7
370
    25
100
AcDbLine
 10
7927.0955535034
 20
4665.3251423906
 30
0.0
 11
7926.3484339615
 21
4665.3251423906
 31
0.0
  0
ARC
  5
1BF
330
1F
100
AcDbEntity
  8
0
  6
Continuous
 62
     7
370
    25
100
AcDbCircle
 10
7927.0955535034
 20
4665.0850322743
 30
0.0
 40
0.2401101162877239
100
AcDbArc
 50
0.0
 51
90.0
  0
LINE
  5
1C0
330
1F
100
AcDbEntity
  8
0
  6
Continuous
 62
     7
370
    25
100
AcDbLine
 10
7927.3356636197
 20
4662.6531549749
 30
0.0
 11
7927.3356636197
 21
4665.0850322743
 31
0.0
  0
ARC
  5
1C1
330
1F
100
AcDbEntity
  8
0
  6
Continuous
 62
     7
370
    25
100
AcDbCircle
 10
7928.0032823084
 20
4662.6531549749
 30
0.0
 40
0.6676186886570576
100
AcDbArc
 50
180.0
 51
0.0
  0
LINE
  5
1C2
330
1F
100
AcDbEntity
  8
0
  6
Continuous
 62
     7
370
    25
100
AcDbLine
 10
7928.670900997
 20
4664.1686819656
 30
0.0
 11
7928.670900997
 21
4662.6531549749
 31
0.0
  0
ARC
  5
1C3
330
1F
100
AcDbEntity
  8
0
  6
Continuous
 62
     7
370
    25
100
AcDbCircle
 10
7928.9110111133
 20
4664.1686819656
 30
0.0
 40
0.2401101162877239
100
AcDbArc
 50
90.0
 51
180.0
  0
LINE
  5
1C4
330
1F
100
AcDbEntity
  8
0
  6
Continuous
 62
     7
370
    25
100
AcDbLine
 10
7929.5730388379
 20
4664.4087920819
 30
0.0
 11
7928.9110111133
 21
4664.4087920819
 31
0.0
  0
ARC
  5
1C5
330
1F
100
AcDbEntity
  8
0
  6
Continuous
 62
     7
370
    25
100
AcDbCircle
 10
7929.5730388379
 20
4664.1686819656
 30
0.0
 40
0.2401101162877239
100
AcDbArc
 50
0.0
 51
90.0
  0
LINE
  5
1C6
330
1F
100
AcDbEntity
  8
0
  6
Continuous
 62
     7
370
    25
100
AcDbLine
 10
7929.8131489541
 20
4656.2855196848
 30
0.0
 11
7929.8131489541
 21
4664.1686819656
 31
0.0
  0
ARC
  5
1C7
330
1F
100
AcDbEntity
  8
0
  6
Continuous
 62
     7
370
    25
100
AcDbCircle
 10
7926.2871484035
 20
4656.2855196848
 30
0.0
 40
3.526000550638855
100
AcDbArc
 50
270.0
 51
0.0
  0
LINE
  5
1C8
330
1F
100
AcDbEntity
  8
0
  6
Continuous
 62
     7
370
    25
100
AcDbLine
 10
7923.9199239965
 20
4652.7595191342
 30
0.0
 11
7926.2871484035
 21
4652.7595191342
 31
0.0
  0
ARC
  5
1C9
330
1F
100
AcDbEntity
  8
0
  6
Continuous
 62
     7
370
    25
100
AcDbCircle
 10
7923.9199239965
 20
4658.0524494619
 30
0.0
 40
5.292930327734211
100
AcDbArc
 50
180.0
 51
270.0
  0
LINE
  5
1CA
330
1F
100
AcDbEntity
  8
0
  6
Continuous
 62
     7
370
    25
100
AcDbLine
 10
7918.6269936688
 20
4662.498557224
 30
0.0
 11
7918.6269936688
 21
4658.0524494619
 31
0.0
  0
ARC
  5
1CB
330
1F
100
AcDbEntity
  8
0
  6
Continuous
 62
     7
370
    25
100
AcDbCircle
 10
7918.2836796255
 20
4660.9979148613
 30
0.0
 40
1.539412885871721
100
AcDbArc
 50
0.0
 51
77.1137478469
  0
LINE
  5
1CC
330
1F
100
AcDbEntity
  8
0
  6
Continuous
 62
     7
370
    25
100
AcDbLine
 10
7919.8230925113
 20
4659.0434939792
 30
0.0
 11
7919.8230925113
 21
4660.9979148613
 31
0.0
  0
ARC
  5
1CD
330
1F
100
AcDbEntity
  8
0
  6
Continuous
 62
     7
370
    25
100
AcDbCircle
 10
7920.4907112
 20
4659.0434939792
 30
0.0
 40
0.6676186886570576
100
AcDbArc
 50
180.0
 51
0.0
  0
LINE
  5
1CE
330
1F
100
AcDbEntity
  8
0
  6
Continuous
 62
     7
370
    25
100
AcDbLine
 10
7921.1583298887
 20
4670.323995249
 30
0.0
 11
7921.1583298887
 21
4659.0434939792
 31
0.0
  0
ARC
  5
1CF
330
1F
100
AcDbEntity
  8
0
  6
Continuous
 62
     7
370
    25
100
AcDbCircle
 10
7921.7457727839
 20
4670.323995249
 30
0.0
 40
0.5874428952447488
100
AcDbArc
 50
0.0000000001
 51
179.9999999999
  0
LINE
  5
1D0
330
1F
100
AcDbEntity
  8
0
  6
Continuous
 62
     7
370
    25
100
AcDbLine
 10
7922.3332156791
 20
4662.6531549749
 30
0.0
 11
7922.3332156791
 21
4670.323995249
 31
0.0
  0
CIRCLE
  5
1D1
330
1F
100
AcDbEntity
  8
0
  6
Continuous
 62
     7
370
    25
100
AcDbCircle
 10
7923.7527419145
 20
4661.5818817915
 30
0.0
 40
14.00000000000091
  0
LINE
  5
1D2
330
1F
100
AcDbEntity
  8
0
  6
Continuous
 62
     7
370
    25
100
AcDbLine
 10
7205.2527418893
 20
4647.5818817195
 30
0.0
 11
7202.2527418893
 21
4647.5818817195
 31
0.0
  0
LINE
  5
1D3
330
1F
100
AcDbEntity
  8
0
  6
Continuous
 62
     7
370
    25
100
AcDbLine
 10
6605.2527419131
 20
4647.5818817874
 30
0.0
 11
6602.2527419131
 21
4647.5818817874
 31
0.0
  0
LINE
  5
1D4
330
1F
100
AcDbEntity
  8
0
  6
Continuous
 62
     7
370
    25
100
AcDbLine
 10
8405.2527418893
 20
4647.5818817195
 30
0.0
 11
8402.2527418893
 21
4647.5818817195
 31
0.0
  0
LINE
  5
1D5
330
1F
100
AcDbEntity
  8
0
  6
Continuous
 62
     7
370
    25
100
AcDbLine
 10
7805.2527418893
 20
4647.5818817195
 30
0.0
 11
7802.2527418893
 21
4647.5818817195
 31
0.0
  0
ARC
  5
1D6
330
1F
100
AcDbEntity
  8
0
  6
Continuous
 62
     7
370
    25
100
AcDbCircle
 10
8403.8623547837
 20
4683.7238704016
 30
0.0
 40
32.33234845708034
100
AcDbArc
 50
270.3195445578
 51
277.00524986
  0
ARC
  5
1D7
330
1F
100
AcDbEntity
  8
0
  6
Continuous
 62
     7
370
    25
100
AcDbCircle
 10
8405.6617183817
 20
4669.3112011898
 30
0.0
 40
18.76440461080039
100
AcDbArc
 50
277.5095473836
 51
284.9272291806
  0
LINE
  5
1D8
330
1F
100
AcDbEntity
  8
0
  6
Continuous
 62
     7
370
    25
100
AcDbLine
 10
8410.4952793363
 20
4652.1459503059
 30
0.0
 11
8410.4952793363
 21
4651.1800244796
 31
0.0
  0
ARC
  5
1D9
330
1F
100
AcDbEntity
  8
0
  6
Continuous
 62
     7
370
    25
100
AcDbCircle
 10
8408.6201825491
 20
4659.5227260198
 30
0.0
 40
7.611360449673973
100
AcDbArc
 50
284.2619248089
 51
297.2228497747
  0
ARC
  5
1DA
330
1F
100
AcDbEntity
  8
0
  6
Continuous
 62
     7
370
    25
100
AcDbCircle
 10
8412.0956416784
 20
4652.8699483051
 30
0.0
 40
0.9028767270885116
100
AcDbArc
 50
304.32312055
 51
1.5289520688
  0
LINE
  5
1DB
330
1F
100
AcDbEntity
  8
0
  6
Continuous
 62
     7
370
    25
100
AcDbLine
 10
8412.9981969542
 20
4653.4977425769
 30
0.0
 11
8412.9981969542
 21
4652.8940389348
 31
0.0
  0
LINE
  5
1DC
330
1F
100
AcDbEntity
  8
0
  6
Continuous
 62
     7
370
    25
100
AcDbLine
 10
8411.9100309167
 20
4654.259443887
 30
0.0
 11
8411.9100309167
 21
4653.947792185
 31
0.0
  0
ARC
  5
1DD
330
1F
100
AcDbEntity
  8
0
  6
Continuous
 62
     7
370
    25
100
AcDbCircle
 10
8408.021237986
 20
4645.4432800979
 30
0.0
 40
9.35144033282887
100
AcDbArc
 50
65.4271673511
 51
77.2488974281
  0
LINE
  5
1DE
330
1F
100
AcDbEntity
  8
0
  6
Continuous
 62
     7
370
    25
100
AcDbLine
 10
8410.0852523981
 20
4654.7801391347
 30
0.0
 11
8410.0852523981
 21
4654.564095895
 31
0.0
  0
LINE
  5
1DF
330
1F
100
AcDbEntity
  8
0
  6
Continuous
 62
     7
370
    25
100
AcDbLine
 10
8406.4368953958
 20
4655.278609781
 30
0.0
 11
8406.4368953958
 21
4655.1100637573
 31
0.0
  0
ARC
  5
1E0
330
1F
100
AcDbEntity
  8
0
  6
Continuous
 62
     7
370
    25
100
AcDbCircle
 10
8403.7659286141
 20
4620.5845093917
 30
0.0
 40
34.62871594209357
100
AcDbArc
 50
85.5762935841
 51
90.5015401573
  0
LINE
  5
1E1
330
1F
100
AcDbEntity
  8
0
  6
Continuous
 62
     7
370
    25
100
AcDbLine
 10
8403.4628090825
 20
4655.3737350284
 30
0.0
 11
8403.4628090825
 21
4655.2118986428
 31
0.0
  0
LINE
  5
1E2
330
1F
100
AcDbEntity
  8
0
  6
Continuous
 62
     7
370
    25
100
AcDbLine
 10
8399.391419167
 20
4655.1120608811
 30
0.0
 11
8399.391419167
 21
4654.9302605481
 31
0.0
  0
ARC
  5
1E3
330
1F
100
AcDbEntity
  8
0
  6
Continuous
 62
     7
370
    25
100
AcDbCircle
 10
8401.8437654404
 20
4636.3267964041
 30
0.0
 40
18.76440461089227
100
AcDbArc
 50
97.5095473836
 51
104.9272291805
  0
LINE
  5
1E4
330
1F
100
AcDbEntity
  8
0
  6
Continuous
 62
     7
370
    25
100
AcDbLine
 10
8397.0102044857
 20
4654.6863349622
 30
0.0
 11
8397.0102044857
 21
4654.4579731144
 31
0.0
  0
LINE
  5
1E5
330
1F
100
AcDbEntity
  8
0
  6
Continuous
 62
     7
370
    25
100
AcDbLine
 10
8394.9007466517
 20
4653.9518401739
 30
0.0
 11
8394.9007466517
 21
4653.5137088388
 31
0.0
  0
ARC
  5
1E6
330
1F
100
AcDbEntity
  8
0
  6
Continuous
 62
     7
370
    25
100
AcDbCircle
 10
8395.4098421437
 20
4652.7680492889
 30
0.0
 40
0.9028767270892815
100
AcDbArc
 50
124.3231205499
 51
181.5289520687
  0
ARC
  5
1E7
330
1F
100
AcDbEntity
  8
0
  6
Continuous
 62
     7
370
    25
100
AcDbCircle
 10
8397.1203844399
 20
4655.9000689081
 30
0.0
 40
3.584487105562324
100
AcDbArc
 50
234.2803049247
 51
244.8224129465
  0
LINE
  5
1E8
330
1F
100
AcDbEntity
  8
0
  6
Continuous
 62
     7
370
    25
100
AcDbLine
 10
8395.5954529053
 20
4652.6561312353
 30
0.0
 11
8395.5954529053
 21
4651.690205409
 31
0.0
  0
ARC
  5
1E9
330
1F
100
AcDbEntity
  8
0
  6
Continuous
 62
     7
370
    25
100
AcDbCircle
 10
8399.4842458361
 20
4660.1947174963
 30
0.0
 40
9.35144033302082
100
AcDbArc
 50
245.4271673512
 51
257.2488974279
  0
ARC
  5
1EA
330
1F
100
AcDbEntity
  8
0
  6
Continuous
 62
     7
370
    25
100
AcDbCircle
 10
8402.8129413492
 20
4675.8120449069
 30
0.0
 40
24.38066653465952
100
AcDbArc
 50
258.189300535
 51
265.8971784142
  0
LINE
  5
1EB
330
1F
100
AcDbEntity
  8
0
  6
Continuous
 62
     7
370
    25
100
AcDbLine
 10
8401.0685884263
 20
4651.493859663
 30
0.0
 11
8401.0685884263
 21
4650.5279338368
 31
0.0
  0
ARC
  5
1EC
330
1F
100
AcDbEntity
  8
0
  6
Continuous
 62
     7
370
    25
100
AcDbCircle
 10
8403.739555208
 20
4685.0534882026
 30
0.0
 40
34.62871594237025
100
AcDbArc
 50
265.5762935841
 51
270.5015401573
  0
LWPOLYLINE
  5
1ED
330
1F
100
AcDbEntity
  8
0
  6
Continuous
 62
     7
370
    25
100
AcDbPolyline
 90
        6
 70
   128
 43
0.0
 10
8397.2044015377
 20
4652.4861341806
 10
8396.3041683213
 20
4652.8668919205
 10
8395.7294735131
 20
4653.2877720947
 10
8395.5054340337
 20
4653.7303802201
 10
8395.6418414836
 20
4654.1753721976
 10
8395.7692387077
 20
4654.323254338
  0
LWPOLYLINE
  5
1EE
330
1F
100
AcDbEntity
  8
0
  6
Continuous
 62
     7
370
    25
100
AcDbPolyline
 90
        6
 70
   128
 43
0.0
 10
8411.9273829733
 20
4654.0728709603
 10
8412.0000497883
 20
4653.8394690265
 10
8411.8636423385
 20
4653.394477049
 10
8411.3727496195
 20
4652.9665495041
 10
8410.5488259989
 20
4652.5743888789
 10
8410.1955137463
 20
4652.4512355567
  0
LINE
  5
1EF
330
1F
100
AcDbEntity
  8
0
  6
Continuous
 62
     7
370
    25
100
AcDbLine
 10
8397.5266684711
 20
4652.3839863694
 30
0.0
 11
8397.2044015377
 21
4652.4861341806
 31
0.0
  0
LINE
  5
1F0
330
1F
100
AcDbEntity
  8
0
  6
Continuous
 62
     7
370
    25
100
AcDbLine
 10
8412.4954789094
 20
4653.8771781938
 30
0.0
 11
8412.7572900603
 21
4653.8682135889
 31
0.0
  0
ARC
  5
1F1
330
1F
100
AcDbEntity
  8
0
  6
Continuous
 62
     7
370
    25
100
AcDbCircle
 10
8411.5121329615
 20
4653.9288927028
 30
0.0
 40
1.011320879488004
100
AcDbArc
 50
305.6817763794
 51
346.4922228008
  0
LINE
  5
1F2
330
1F
100
AcDbEntity
  8
0
  6
Continuous
 62
     7
370
    25
100
AcDbLine
 10
8410.4952793363
 20
4652.1459503059
 30
0.0
 11
8410.1868319705
 21
4652.2501258286
 31
0.0
  0
ARC
  5
1F3
330
1F
100
AcDbEntity
  8
0
  6
Continuous
 62
     7
370
    25
100
AcDbCircle
 10
8405.5548076623
 20
4669.3651797565
 30
0.0
 40
17.73078453279494
100
AcDbArc
 50
277.2930101398
 51
285.1437664243
  0
ARC
  5
1F4
330
1F
100
AcDbEntity
  8
0
  6
Continuous
 62
     7
370
    25
100
AcDbCircle
 10
8403.7409716824
 20
4684.2485417757
 30
0.0
 40
32.72847533052273
100
AcDbArc
 50
265.4332158269
 51
270.6446179146
  0
LINE
  5
1F5
330
1F
100
AcDbEntity
  8
0
  6
Continuous
 62
     7
370
    25
100
AcDbLine
 10
8401.135096023
 20
4651.6239726673
 30
0.0
 11
8401.0685884263
 21
4651.493859663
 31
0.0
  0
ARC
  5
1F6
330
1F
100
AcDbEntity
  8
0
  6
Continuous
 62
     7
370
    25
100
AcDbCircle
 10
8399.7202751549
 20
4660.7475720223
 30
0.0
 40
8.834111884739054
100
AcDbArc
 50
245.0796807338
 51
257.5963840453
  0
LINE
  5
1F7
330
1F
100
AcDbEntity
  8
0
  6
Continuous
 62
     7
370
    25
100
AcDbLine
 10
8395.5954529053
 20
4652.6561312353
 30
0.0
 11
8395.9979562165
 21
4652.735963288
 31
0.0
  0
LWPOLYLINE
  5
1F8
330
1F
100
AcDbEntity
  8
0
  6
Continuous
 62
     7
370
    25
100
AcDbPolyline
 90
        3
 70
   128
 43
0.0
 10
8396.252741911
 20
4653.8613070505
 10
8395.7294735131
 20
4654.253697921
 10
8395.69245729
 20
4654.2955707676
  0
LINE
  5
1F9
330
1F
100
AcDbEntity
  8
0
  6
Continuous
 62
     7
370
    25
100
AcDbLine
 10
8411.3724589533
 20
4653.9322940572
 30
0.0
 11
8411.252741911
 21
4653.8613070505
 31
0.0
  0
LINE
  5
1FA
330
1F
100
AcDbEntity
  8
0
  6
Continuous
 62
     7
370
    25
100
AcDbLine
 10
8406.370387799
 20
4654.979950753
 30
0.0
 11
8406.4368953958
 21
4655.1100637573
 31
0.0
  0
ARC
  5
1FB
330
1F
100
AcDbEntity
  8
0
  6
Continuous
 62
     7
370
    25
100
AcDbCircle
 10
8403.7645121397
 20
4622.355381644
 30
0.0
 40
32.72847533110451
100
AcDbArc
 50
85.4332158269
 51
90.6446179145
  0
LINE
  5
1FC
330
1F
100
AcDbEntity
  8
0
  6
Continuous
 62
     7
370
    25
100
AcDbLine
 10
8403.3963014858
 20
4655.0817856385
 30
0.0
 11
8403.4628090825
 21
4655.2118986428
 31
0.0
  0
LWPOLYLINE
  5
1FD
330
1F
100
AcDbEntity
  8
0
  6
Continuous
 62
     7
370
    25
100
AcDbPolyline
 90
        7
 70
   128
 43
0.0
 10
8397.799705208
 20
4652.604206039
 10
8396.9582002944
 20
4652.963028283
 10
8396.4344005951
 20
4653.3602814863
 10
8396.2527984021
 20
4653.7773905308
 10
8396.4218852319
 20
4654.1948518611
 10
8396.9337547724
 20
4654.5931454493
 10
8397.0102044858
 20
4654.6350255804
  0
LWPOLYLINE
  5
1FE
330
1F
100
AcDbEntity
  8
0
  6
Continuous
 62
     7
370
    25
100
AcDbPolyline
 90
       14
 70
   128
 43
0.0
 10
8411.2038091695
 20
4654.0063014218
 10
8411.2055731394
 20
4654.0022874281
 10
8411.2118677201
 20
4653.5825416731
 10
8410.8693818682
 20
4653.17225912
 10
8410.1941298415
 20
4652.7906241248
 10
8409.2176856742
 20
4652.4554815159
 10
8407.9857068104
 20
4652.1825021891
 10
8406.5557992125
 20
4651.9844503543
 10
8404.9948237706
 20
4651.8705866953
 10
8403.3757699614
 20
4651.8462353502
 10
8401.7743429416
 20
4651.9125349608
 10
8400.2654236588
 20
4652.066385431
 10
8398.9195675015
 20
4652.3005928838
 10
8397.799705208
 20
4652.604206039
  0
LINE
  5
1FF
330
1F
100
AcDbEntity
  8
0
  6
Continuous
 62
     7
370
    25
100
AcDbLine
 10
8403.3963014858
 20
4655.3731713662
 30
0.0
 11
8403.3963014858
 21
4655.0817856385
 31
0.0
  0
LINE
  5
200
330
1F
100
AcDbEntity
  8
0
  6
Continuous
 62
     7
370
    25
100
AcDbLine
 10
8399.391419167
 20
4654.9302605481
 30
0.0
 11
8399.6998665328
 21
4654.8260850254
 31
0.0
  0
ARC
  5
201
330
1F
100
AcDbEntity
  8
0
  6
Continuous
 62
     7
370
    25
100
AcDbCircle
 10
8401.9506761598
 20
4637.2387436634
 30
0.0
 40
17.7307845331842
100
AcDbArc
 50
97.2930101399
 51
105.1437664242
  0
LINE
  5
202
330
1F
100
AcDbEntity
  8
0
  6
Continuous
 62
     7
370
    25
100
AcDbLine
 10
8397.0102044857
 20
4654.4579731144
 30
0.0
 11
8397.3186518516
 21
4654.3537975917
 31
0.0
  0
LINE
  5
203
330
1F
100
AcDbEntity
  8
0
  6
Continuous
 62
     7
370
    25
100
AcDbLine
 10
8399.6998665328
 20
4655.1496614391
 30
0.0
 11
8399.6998665328
 21
4654.8260850254
 31
0.0
  0
LINE
  5
204
330
1F
100
AcDbEntity
  8
0
  6
Continuous
 62
     7
370
    25
100
AcDbLine
 10
8410.0852523981
 20
4654.564095895
 30
0.0
 11
8409.682749087
 21
4654.4842638423
 31
0.0
  0
LINE
  5
205
330
1F
100
AcDbEntity
  8
0
  6
Continuous
 62
     7
370
    25
100
AcDbLine
 10
8411.9100309167
 20
4653.947792185
 30
0.0
 11
8411.5075276056
 21
4653.8679601323
 31
0.0
  0
ARC
  5
206
330
1F
100
AcDbEntity
  8
0
  6
Continuous
 62
     7
370
    25
100
AcDbCircle
 10
8407.7852086671
 20
4645.8563513981
 30
0.0
 40
8.834111884648678
100
AcDbArc
 50
65.0796807338
 51
77.5963840454
  0
LINE
  5
207
330
1F
100
AcDbEntity
  8
0
  6
Continuous
 62
     7
370
    25
100
AcDbLine
 10
8409.682749087
 20
4654.8626966456
 30
0.0
 11
8409.682749087
 21
4654.4842638423
 31
0.0
  0
LINE
  5
208
330
1F
100
AcDbEntity
  8
0
  6
Continuous
 62
     7
370
    25
100
AcDbLine
 10
8395.4034646965
 20
4654.1837679646
 30
0.0
 11
8395.4034646965
 21
4653.4964954062
 31
0.0
  0
LINE
  5
209
330
1F
100
AcDbEntity
  8
0
  6
Continuous
 62
     7
370
    25
100
AcDbLine
 10
8395.4034646965
 20
4653.4964954062
 30
0.0
 11
8394.9007466517
 21
4653.5137088388
 31
0.0
  0
ARC
  5
20A
330
1F
100
AcDbEntity
  8
0
  6
Continuous
 62
     7
370
    25
100
AcDbCircle
 10
8395.8681776091
 20
4652.7735221258
 30
0.0
 40
0.8594465983189844
100
AcDbArc
 50
122.7321069517
 51
183.119965667
  0
LINE
  5
20B
330
1F
100
AcDbEntity
  8
0
  6
Continuous
 62
     7
370
    25
100
AcDbLine
 10
8395.0100049126
 20
4652.7267452265
 30
0.0
 11
8394.5072868679
 21
4652.7439586592
 31
0.0
  0
LINE
  5
20C
330
1F
100
AcDbEntity
  8
0
  6
Continuous
 62
     7
370
    25
100
AcDbLine
 10
8395.0100049126
 20
4652.9112523675
 30
0.0
 11
8395.0100049126
 21
4652.7267452265
 31
0.0
  0
LINE
  5
20D
330
1F
100
AcDbEntity
  8
0
  6
Continuous
 62
     7
370
    25
100
AcDbLine
 10
8412.4954789094
 20
4653.8771781938
 30
0.0
 11
8412.4954789094
 21
4652.9112523675
 31
0.0
  0
LINE
  5
20E
330
1F
100
AcDbEntity
  8
0
  6
Continuous
 62
     7
370
    25
100
AcDbLine
 10
8412.4954789094
 20
4652.9112523675
 30
0.0
 11
8412.9981969542
 21
4652.8940389348
 31
0.0
  0
ARC
  5
20F
330
1F
100
AcDbEntity
  8
0
  6
Continuous
 62
     7
370
    25
100
AcDbCircle
 10
8411.6373062129
 20
4652.8644754683
 30
0.0
 40
0.8594465983329445
100
AcDbArc
 50
302.7321069521
 51
3.1199656665
  0
LINE
  5
210
330
1F
100
AcDbEntity
  8
0
  6
Continuous
 62
     7
370
    25
100
AcDbLine
 10
8412.1020191255
 20
4652.1415021879
 30
0.0
 11
8412.6047371703
 21
4652.1242887552
 31
0.0
  0
LINE
  5
211
330
1F
100
AcDbEntity
  8
0
  6
Continuous
 62
     7
370
    25
100
AcDbLine
 10
8412.1020191255
 20
4653.1074280142
 30
0.0
 11
8412.1020191255
 21
4652.1415021879
 31
0.0
  0
LINE
  5
212
330
1F
100
AcDbEntity
  8
0
  6
Continuous
 62
     7
370
    25
100
AcDbLine
 10
8395.9979562165
 20
4652.735963288
 30
0.0
 11
8395.9979562165
 21
4651.7700374617
 31
0.0
  0
LINE
  5
213
330
1F
100
AcDbEntity
  8
0
  6
Continuous
 62
     7
370
    25
100
AcDbLine
 10
8395.5954529053
 20
4651.690205409
 30
0.0
 11
8395.9979562165
 21
4651.7700374617
 31
0.0
  0
ARC
  5
214
330
1F
100
AcDbEntity
  8
0
  6
Continuous
 62
     7
370
    25
100
AcDbCircle
 10
8399.7202751549
 20
4659.781646196
 30
0.0
 40
8.83411188464525
100
AcDbArc
 50
245.0796807338
 51
257.5963840454
  0
LINE
  5
215
330
1F
100
AcDbEntity
  8
0
  6
Continuous
 62
     7
370
    25
100
AcDbLine
 10
8397.8227347351
 20
4652.119659578
 30
0.0
 11
8397.8227347351
 21
4651.1537337517
 31
0.0
  0
LINE
  5
216
330
1F
100
AcDbEntity
  8
0
  6
Continuous
 62
     7
370
    25
100
AcDbLine
 10
8397.420231424
 20
4651.073901699
 30
0.0
 11
8397.8227347351
 21
4651.1537337517
 31
0.0
  0
LINE
  5
217
330
1F
100
AcDbEntity
  8
0
  6
Continuous
 62
     7
370
    25
100
AcDbLine
 10
8410.1868319705
 20
4652.2501258286
 30
0.0
 11
8410.1868319705
 21
4651.2842000023
 31
0.0
  0
LINE
  5
218
330
1F
100
AcDbEntity
  8
0
  6
Continuous
 62
     7
370
    25
100
AcDbLine
 10
8410.4952793363
 20
4651.1800244796
 30
0.0
 11
8410.1868319705
 21
4651.2842000023
 31
0.0
  0
ARC
  5
219
330
1F
100
AcDbEntity
  8
0
  6
Continuous
 62
     7
370
    25
100
AcDbCircle
 10
8405.5548076622
 20
4668.3992539307
 30
0.0
 40
17.73078453324817
100
AcDbArc
 50
277.29301014
 51
285.1437664242
  0
LINE
  5
21A
330
1F
100
AcDbEntity
  8
0
  6
Continuous
 62
     7
370
    25
100
AcDbLine
 10
8407.8056172893
 20
4651.7778383949
 30
0.0
 11
8407.8056172893
 21
4650.8119125686
 31
0.0
  0
LINE
  5
21B
330
1F
100
AcDbEntity
  8
0
  6
Continuous
 62
     7
370
    25
100
AcDbLine
 10
8408.1140646551
 20
4650.7077370459
 30
0.0
 11
8407.8056172893
 21
4650.8119125686
 31
0.0
  0
LINE
  5
21C
330
1F
100
AcDbEntity
  8
0
  6
Continuous
 62
     7
370
    25
100
AcDbLine
 10
8401.135096023
 20
4651.6239726673
 30
0.0
 11
8401.135096023
 21
4650.6580468411
 31
0.0
  0
LINE
  5
21D
330
1F
100
AcDbEntity
  8
0
  6
Continuous
 62
     7
370
    25
100
AcDbLine
 10
8404.1091823363
 20
4651.5221377818
 30
0.0
 11
8404.1091823363
 21
4650.5562119555
 31
0.0
  0
ARC
  5
21E
330
1F
100
AcDbEntity
  8
0
  6
Continuous
 62
     7
370
    25
100
AcDbCircle
 10
8403.7409716824
 20
4683.28261595
 30
0.0
 40
32.7284753311027
100
AcDbArc
 50
265.4332158269
 51
270.6446179145
  0
LINE
  5
21F
330
1F
100
AcDbEntity
  8
0
  6
Continuous
 62
     7
370
    25
100
AcDbLine
 10
8401.135096023
 20
4650.6580468411
 30
0.0
 11
8401.0685884263
 21
4650.5279338368
 31
0.0
  0
LINE
  5
220
330
1F
100
AcDbEntity
  8
0
  6
Continuous
 62
     7
370
    25
100
AcDbLine
 10
8404.1091823363
 20
4650.5562119555
 30
0.0
 11
8404.0426747395
 21
4650.4260989512
 31
0.0
  0
ARC
  5
221
330
1F
100
AcDbEntity
  8
0
  6
Continuous
 62
     7
370
    25
100
AcDbCircle
 10
7203.8623547837
 20
4683.7238704017
 30
0.0
 40
32.33234845713311
100
AcDbArc
 50
270.3195445578
 51
277.00524986
  0
ARC
  5
222
330
1F
100
AcDbEntity
  8
0
  6
Continuous
 62
     7
370
    25
100
AcDbCircle
 10
7205.6617183817
 20
4669.3112011899
 30
0.0
 40
18.76440461087411
100
AcDbArc
 50
277.5095473836
 51
284.9272291806
  0
LINE
  5
223
330
1F
100
AcDbEntity
  8
0
  6
Continuous
 62
     7
370
    25
100
AcDbLine
 10
7210.4952793363
 20
4652.1459503059
 30
0.0
 11
7210.4952793363
 21
4651.1800244796
 31
0.0
  0
ARC
  5
224
330
1F
100
AcDbEntity
  8
0
  6
Continuous
 62
     7
370
    25
100
AcDbCircle
 10
7208.6201825491
 20
4659.5227260198
 30
0.0
 40
7.611360449643886
100
AcDbArc
 50
284.2619248088
 51
297.2228497747
  0
ARC
  5
225
330
1F
100
AcDbEntity
  8
0
  6
Continuous
 62
     7
370
    25
100
AcDbCircle
 10
7212.0956416784
 20
4652.8699483051
 30
0.0
 40
0.9028767270902522
100
AcDbArc
 50
304.3231205499
 51
1.5289520686
  0
LINE
  5
226
330
1F
100
AcDbEntity
  8
0
  6
Continuous
 62
     7
370
    25
100
AcDbLine
 10
7212.9981969542
 20
4653.4977425769
 30
0.0
 11
7212.9981969542
 21
4652.8940389348
 31
0.0
  0
LINE
  5
227
330
1F
100
AcDbEntity
  8
0
  6
Continuous
 62
     7
370
    25
100
AcDbLine
 10
7211.9100309167
 20
4654.259443887
 30
0.0
 11
7211.9100309167
 21
4653.947792185
 31
0.0
  0
ARC
  5
228
330
1F
100
AcDbEntity
  8
0
  6
Continuous
 62
     7
370
    25
100
AcDbCircle
 10
7208.021237986
 20
4645.4432800979
 30
0.0
 40
9.351440332811103
100
AcDbArc
 50
65.427167351
 51
77.2488974281
  0
LINE
  5
229
330
1F
100
AcDbEntity
  8
0
  6
Continuous
 62
     7
370
    25
100
AcDbLine
 10
7210.0852523981
 20
4654.7801391347
 30
0.0
 11
7210.0852523981
 21
4654.564095895
 31
0.0
  0
LINE
  5
22A
330
1F
100
AcDbEntity
  8
0
  6
Continuous
 62
     7
370
    25
100
AcDbLine
 10
7206.4368953958
 20
4655.278609781
 30
0.0
 11
7206.4368953958
 21
4655.1100637573
 31
0.0
  0
ARC
  5
22B
330
1F
100
AcDbEntity
  8
0
  6
Continuous
 62
     7
370
    25
100
AcDbCircle
 10
7203.7659286141
 20
4620.5845093916
 30
0.0
 40
34.62871594215541
100
AcDbArc
 50
85.5762935841
 51
90.5015401573
  0
LINE
  5
22C
330
1F
100
AcDbEntity
  8
0
  6
Continuous
 62
     7
370
    25
100
AcDbLine
 10
7203.4628090825
 20
4655.3737350284
 30
0.0
 11
7203.4628090825
 21
4655.2118986428
 31
0.0
  0
LINE
  5
22D
330
1F
100
AcDbEntity
  8
0
  6
Continuous
 62
     7
370
    25
100
AcDbLine
 10
7199.391419167
 20
4655.1120608811
 30
0.0
 11
7199.391419167
 21
4654.9302605481
 31
0.0
  0
ARC
  5
22E
330
1F
100
AcDbEntity
  8
0
  6
Continuous
 62
     7
370
    25
100
AcDbCircle
 10
7201.8437654404
 20
4636.3267964041
 30
0.0
 40
18.76440461085308
100
AcDbArc
 50
97.5095473836
 51
104.9272291805
  0
LINE
  5
22F
330
1F
100
AcDbEntity
  8
0
  6
Continuous
 62
     7
370
    25
100
AcDbLine
 10
7197.0102044857
 20
4654.6863349622
 30
0.0
 11
7197.0102044857
 21
4654.4579731144
 31
0.0
  0
LINE
  5
230
330
1F
100
AcDbEntity
  8
0
  6
Continuous
 62
     7
370
    25
100
AcDbLine
 10
7194.9007466517
 20
4653.9518401739
 30
0.0
 11
7194.9007466517
 21
4653.5137088388
 31
0.0
  0
ARC
  5
231
330
1F
100
AcDbEntity
  8
0
  6
Continuous
 62
     7
370
    25
100
AcDbCircle
 10
7195.4098421437
 20
4652.7680492889
 30
0.0
 40
0.9028767270928938
100
AcDbArc
 50
124.3231205502
 51
181.5289520686
  0
ARC
  5
232
330
1F
100
AcDbEntity
  8
0
  6
Continuous
 62
     7
370
    25
100
AcDbCircle
 10
7197.1203844908
 20
4655.9000690026
 30
0.0
 40
3.584487212767108
100
AcDbArc
 50
234.2803062747
 51
244.8224128532
  0
LINE
  5
233
330
1F
100
AcDbEntity
  8
0
  6
Continuous
 62
     7
370
    25
100
AcDbLine
 10
7195.5954529053
 20
4652.6561312353
 30
0.0
 11
7195.5954529053
 21
4651.690205409
 31
0.0
  0
ARC
  5
234
330
1F
100
AcDbEntity
  8
0
  6
Continuous
 62
     7
370
    25
100
AcDbCircle
 10
7199.4842458361
 20
4660.1947174963
 30
0.0
 40
9.35144033295036
100
AcDbArc
 50
245.4271673511
 51
257.248897428
  0
ARC
  5
235
330
1F
100
AcDbEntity
  8
0
  6
Continuous
 62
     7
370
    25
100
AcDbCircle
 10
7202.8129413492
 20
4675.8120449069
 30
0.0
 40
24.38066653465049
100
AcDbArc
 50
258.189300535
 51
265.8971784142
  0
LINE
  5
236
330
1F
100
AcDbEntity
  8
0
  6
Continuous
 62
     7
370
    25
100
AcDbLine
 10
7201.0685884263
 20
4651.493859663
 30
0.0
 11
7201.0685884263
 21
4650.5279338368
 31
0.0
  0
ARC
  5
237
330
1F
100
AcDbEntity
  8
0
  6
Continuous
 62
     7
370
    25
100
AcDbCircle
 10
7203.739555208
 20
4685.0534882025
 30
0.0
 40
34.62871594228007
100
AcDbArc
 50
265.5762935841
 51
270.5015401573
  0
LWPOLYLINE
  5
238
330
1F
100
AcDbEntity
  8
0
  6
Continuous
 62
     7
370
    25
100
AcDbPolyline
 90
        6
 70
   128
 43
0.0
 10
7197.2044015377
 20
4652.4861341806
 10
7196.3041683213
 20
4652.8668919205
 10
7195.7294735131
 20
4653.2877720947
 10
7195.5054340337
 20
4653.7303802201
 10
7195.6418414836
 20
4654.1753721976
 10
7195.7980082028
 20
4654.3510649808
  0
LWPOLYLINE
  5
239
330
1F
100
AcDbEntity
  8
0
  6
Continuous
 62
     7
370
    25
100
AcDbPolyline
 90
       14
 70
   128
 43
0.0
 10
7211.9100309167
 20
4654.1041373986
 10
7212.0000497883
 20
4653.8394690265
 10
7211.8636423385
 20
4653.394477049
 10
7211.3727496195
 20
4652.9665495041
 10
7210.5488259989
 20
4652.5743888789
 10
7209.4278808923
 20
4652.2351344745
 10
7208.05890498
 20
4651.9636133364
 10
7206.5017290782
 20
4651.7716922411
 10
7204.8244092462
 20
4651.6677590614
 10
7203.1002524092
 20
4651.6563561761
 10
7201.4046124944
 20
4651.737981946
 10
7199.8115971027
 20
4651.9090689331
 10
7198.3908286508
 20
4652.1621398153
 10
7197.2044015377
 20
4652.4861341806
  0
LINE
  5
23A
330
1F
100
AcDbEntity
  8
0
  6
Continuous
 62
     7
370
    25
100
AcDbLine
 10
7212.4954789094
 20
4653.8771781938
 30
0.0
 11
7212.7572900603
 21
4653.8682135889
 31
0.0
  0
ARC
  5
23B
330
1F
100
AcDbEntity
  8
0
  6
Continuous
 62
     7
370
    25
100
AcDbCircle
 10
7211.5121329615
 20
4653.9288927028
 30
0.0
 40
1.011320879473498
100
AcDbArc
 50
305.6817763792
 51
346.4922228012
  0
LINE
  5
23C
330
1F
100
AcDbEntity
  8
0
  6
Continuous
 62
     7
370
    25
100
AcDbLine
 10
7210.4952793363
 20
4652.1459503059
 30
0.0
 11
7210.1868319705
 21
4652.2501258286
 31
0.0
  0
ARC
  5
23D
330
1F
100
AcDbEntity
  8
0
  6
Continuous
 62
     7
370
    25
100
AcDbCircle
 10
7205.5548076623
 20
4669.3651797565
 30
0.0
 40
17.73078453272758
100
AcDbArc
 50
277.2930101398
 51
285.1437664244
  0
ARC
  5
23E
330
1F
100
AcDbEntity
  8
0
  6
Continuous
 62
     7
370
    25
100
AcDbCircle
 10
7203.7409716824
 20
4684.2485417758
 30
0.0
 40
32.72847533063468
100
AcDbArc
 50
265.4332158269
 51
270.6446179146
  0
LINE
  5
23F
330
1F
100
AcDbEntity
  8
0
  6
Continuous
 62
     7
370
    25
100
AcDbLine
 10
7201.135096023
 20
4651.6239726673
 30
0.0
 11
7201.0685884263
 21
4651.493859663
 31
0.0
  0
ARC
  5
240
330
1F
100
AcDbEntity
  8
0
  6
Continuous
 62
     7
370
    25
100
AcDbCircle
 10
7199.7202751549
 20
4660.7475720223
 30
0.0
 40
8.834111884700746
100
AcDbArc
 50
245.0796807338
 51
257.5963840454
  0
LINE
  5
241
330
1F
100
AcDbEntity
  8
0
  6
Continuous
 62
     7
370
    25
100
AcDbLine
 10
7195.5954529053
 20
4652.6561312353
 30
0.0
 11
7195.9979562165
 21
4652.735963288
 31
0.0
  0
LWPOLYLINE
  5
242
330
1F
100
AcDbEntity
  8
0
  6
Continuous
 62
     7
370
    25
100
AcDbPolyline
 90
        3
 70
   128
 43
0.0
 10
7196.252741911
 20
4653.8613070505
 10
7195.7294735131
 20
4654.253697921
 10
7195.7165457218
 20
4654.2678875364
  0
LINE
  5
243
330
1F
100
AcDbEntity
  8
0
  6
Continuous
 62
     7
370
    25
100
AcDbLine
 10
7211.3724590641
 20
4653.9322941263
 30
0.0
 11
7211.252741911
 21
4653.8613070505
 31
0.0
  0
LINE
  5
244
330
1F
100
AcDbEntity
  8
0
  6
Continuous
 62
     7
370
    25
100
AcDbLine
 10
7206.370387799
 20
4654.979950753
 30
0.0
 11
7206.4368953958
 21
4655.1100637573
 31
0.0
  0
ARC
  5
245
330
1F
100
AcDbEntity
  8
0
  6
Continuous
 62
     7
370
    25
100
AcDbCircle
 10
7203.7645121396
 20
4622.355381644
 30
0.0
 40
32.72847533113264
100
AcDbArc
 50
85.4332158269
 51
90.6446179145
  0
LINE
  5
246
330
1F
100
AcDbEntity
  8
0
  6
Continuous
 62
     7
370
    25
100
AcDbLine
 10
7203.3963014858
 20
4655.0817856385
 30
0.0
 11
7203.4628090825
 21
4655.2118986428
 31
0.0
  0
LWPOLYLINE
  5
247
330
1F
100
AcDbEntity
  8
0
  6
Continuous
 62
     7
370
    25
100
AcDbPolyline
 90
        7
 70
   128
 43
0.0
 10
7197.799705208
 20
4652.604206039
 10
7196.9582002944
 20
4652.963028283
 10
7196.4344005951
 20
4653.3602814863
 10
7196.2527984021
 20
4653.7773905308
 10
7196.4218852319
 20
4654.1948518611
 10
7196.9337547724
 20
4654.5931454493
 10
7197.0102044858
 20
4654.6350255804
  0
LWPOLYLINE
  5
248
330
1F
100
AcDbEntity
  8
0
  6
Continuous
 62
     7
370
    25
100
AcDbPolyline
 90
       14
 70
   128
 43
0.0
 10
7211.203809246
 20
4654.0063012493
 10
7211.2055731394
 20
4654.0022874281
 10
7211.2118677201
 20
4653.5825416731
 10
7210.8693818682
 20
4653.17225912
 10
7210.1941298415
 20
4652.7906241248
 10
7209.2176856742
 20
4652.4554815159
 10
7207.9857068104
 20
4652.1825021891
 10
7206.5557992125
 20
4651.9844503543
 10
7204.9948237706
 20
4651.8705866953
 10
7203.3757699614
 20
4651.8462353502
 10
7201.7743429416
 20
4651.9125349608
 10
7200.2654236588
 20
4652.066385431
 10
7198.9195675015
 20
4652.3005928838
 10
7197.799705208
 20
4652.604206039
  0
LINE
  5
249
330
1F
100
AcDbEntity
  8
0
  6
Continuous
 62
     7
370
    25
100
AcDbLine
 10
7203.3963014858
 20
4655.3731713662
 30
0.0
 11
7203.3963014858
 21
4655.0817856385
 31
0.0
  0
LINE
  5
24A
330
1F
100
AcDbEntity
  8
0
  6
Continuous
 62
     7
370
    25
100
AcDbLine
 10
7199.391419167
 20
4654.9302605481
 30
0.0
 11
7199.6998665328
 21
4654.8260850254
 31
0.0
  0
ARC
  5
24B
330
1F
100
AcDbEntity
  8
0
  6
Continuous
 62
     7
370
    25
100
AcDbCircle
 10
7201.9506761599
 20
4637.2387436634
 30
0.0
 40
17.73078453322348
100
AcDbArc
 50
97.2930101399
 51
105.1437664242
  0
LINE
  5
24C
330
1F
100
AcDbEntity
  8
0
  6
Continuous
 62
     7
370
    25
100
AcDbLine
 10
7197.0102044857
 20
4654.4579731144
 30
0.0
 11
7197.3186518516
 21
4654.3537975917
 31
0.0
  0
LINE
  5
24D
330
1F
100
AcDbEntity
  8
0
  6
Continuous
 62
     7
370
    25
100
AcDbLine
 10
7199.6998665328
 20
4655.1496614391
 30
0.0
 11
7199.6998665328
 21
4654.8260850254
 31
0.0
  0
LINE
  5
24E
330
1F
100
AcDbEntity
  8
0
  6
Continuous
 62
     7
370
    25
100
AcDbLine
 10
7210.0852523981
 20
4654.564095895
 30
0.0
 11
7209.682749087
 21
4654.4842638423
 31
0.0
  0
LINE
  5
24F
330
1F
100
AcDbEntity
  8
0
  6
Continuous
 62
     7
370
    25
100
AcDbLine
 10
7211.9100309167
 20
4653.947792185
 30
0.0
 11
7211.5075276056
 21
4653.8679601323
 31
0.0
  0
ARC
  5
250
330
1F
100
AcDbEntity
  8
0
  6
Continuous
 62
     7
370
    25
100
AcDbCircle
 10
7207.7852086672
 20
4645.8563513981
 30
0.0
 40
8.834111884613662
100
AcDbArc
 50
65.0796807337
 51
77.5963840454
  0
LINE
  5
251
330
1F
100
AcDbEntity
  8
0
  6
Continuous
 62
     7
370
    25
100
AcDbLine
 10
7209.682749087
 20
4654.8626966456
 30
0.0
 11
7209.682749087
 21
4654.4842638423
 31
0.0
  0
LINE
  5
252
330
1F
100
AcDbEntity
  8
0
  6
Continuous
 62
     7
370
    25
100
AcDbLine
 10
7195.4034646965
 20
4654.1837679646
 30
0.0
 11
7195.4034646965
 21
4653.4964954062
 31
0.0
  0
LINE
  5
253
330
1F
100
AcDbEntity
  8
0
  6
Continuous
 62
     7
370
    25
100
AcDbLine
 10
7195.4034646965
 20
4653.4964954062
 30
0.0
 11
7194.9007466517
 21
4653.5137088388
 31
0.0
  0
ARC
  5
254
330
1F
100
AcDbEntity
  8
0
  6
Continuous
 62
     7
370
    25
100
AcDbCircle
 10
7195.8681776092
 20
4652.7735221257
 30
0.0
 40
0.8594465983354709
100
AcDbArc
 50
122.7321069522
 51
183.1199656663
  0
LINE
  5
255
330
1F
100
AcDbEntity
  8
0
  6
Continuous
 62
     7
370
    25
100
AcDbLine
 10
7195.0100049126
 20
4652.7267452265
 30
0.0
 11
7194.5072868679
 21
4652.7439586592
 31
0.0
  0
LINE
  5
256
330
1F
100
AcDbEntity
  8
0
  6
Continuous
 62
     7
370
    25
100
AcDbLine
 10
7195.0100049126
 20
4652.9112523675
 30
0.0
 11
7195.0100049126
 21
4652.7267452265
 31
0.0
  0
LINE
  5
257
330
1F
100
AcDbEntity
  8
0
  6
Continuous
 62
     7
370
    25
100
AcDbLine
 10
7212.4954789094
 20
4653.8771781938
 30
0.0
 11
7212.4954789094
 21
4652.9112523675
 31
0.0
  0
LINE
  5
258
330
1F
100
AcDbEntity
  8
0
  6
Continuous
 62
     7
370
    25
100
AcDbLine
 10
7212.4954789094
 20
4652.9112523675
 30
0.0
 11
7212.9981969542
 21
4652.8940389348
 31
0.0
  0
ARC
  5
259
330
1F
100
AcDbEntity
  8
0
  6
Continuous
 62
     7
370
    25
100
AcDbCircle
 10
7211.6373062129
 20
4652.8644754683
 30
0.0
 40
0.8594465983347607
100
AcDbArc
 50
302.7321069523
 51
3.1199656665
  0
LINE
  5
25A
330
1F
100
AcDbEntity
  8
0
  6
Continuous
 62
     7
370
    25
100
AcDbLine
 10
7212.1020191255
 20
4652.1415021879
 30
0.0
 11
7212.6047371703
 21
4652.1242887552
 31
0.0
  0
LINE
  5
25B
330
1F
100
AcDbEntity
  8
0
  6
Continuous
 62
     7
370
    25
100
AcDbLine
 10
7212.1020191255
 20
4653.1074280142
 30
0.0
 11
7212.1020191255
 21
4652.1415021879
 31
0.0
  0
LINE
  5
25C
330
1F
100
AcDbEntity
  8
0
  6
Continuous
 62
     7
370
    25
100
AcDbLine
 10
7195.9979562165
 20
4652.735963288
 30
0.0
 11
7195.9979562165
 21
4651.7700374617
 31
0.0
  0
LINE
  5
25D
330
1F
100
AcDbEntity
  8
0
  6
Continuous
 62
     7
370
    25
100
AcDbLine
 10
7195.5954529053
 20
4651.690205409
 30
0.0
 11
7195.9979562165
 21
4651.7700374617
 31
0.0
  0
ARC
  5
25E
330
1F
100
AcDbEntity
  8
0
  6
Continuous
 62
     7
370
    25
100
AcDbCircle
 10
7199.7202751549
 20
4659.781646196
 30
0.0
 40
8.834111884641509
100
AcDbArc
 50
245.0796807338
 51
257.5963840454
  0
LINE
  5
25F
330
1F
100
AcDbEntity
  8
0
  6
Continuous
 62
     7
370
    25
100
AcDbLine
 10
7197.8227347351
 20
4652.119659578
 30
0.0
 11
7197.8227347351
 21
4651.1537337517
 31
0.0
  0
LINE
  5
260
330
1F
100
AcDbEntity
  8
0
  6
Continuous
 62
     7
370
    25
100
AcDbLine
 10
7197.420231424
 20
4651.073901699
 30
0.0
 11
7197.8227347351
 21
4651.1537337517
 31
0.0
  0
LINE
  5
261
330
1F
100
AcDbEntity
  8
0
  6
Continuous
 62
     7
370
    25
100
AcDbLine
 10
7210.1868319705
 20
4652.2501258286
 30
0.0
 11
7210.1868319705
 21
4651.2842000023
 31
0.0
  0
LINE
  5
262
330
1F
100
AcDbEntity
  8
0
  6
Continuous
 62
     7
370
    25
100
AcDbLine
 10
7210.4952793363
 20
4651.1800244796
 30
0.0
 11
7210.1868319705
 21
4651.2842000023
 31
0.0
  0
ARC
  5
263
330
1F
100
AcDbEntity
  8
0
  6
Continuous
 62
     7
370
    25
100
AcDbCircle
 10
7205.5548076622
 20
4668.3992539306
 30
0.0
 40
17.73078453320365
100
AcDbArc
 50
277.2930101399
 51
285.1437664243
  0
LINE
  5
264
330
1F
100
AcDbEntity
  8
0
  6
Continuous
 62
     7
370
    25
100
AcDbLine
 10
7207.8056172893
 20
4651.7778383949
 30
0.0
 11
7207.8056172893
 21
4650.8119125686
 31
0.0
  0
LINE
  5
265
330
1F
100
AcDbEntity
  8
0
  6
Continuous
 62
     7
370
    25
100
AcDbLine
 10
7208.1140646551
 20
4650.7077370459
 30
0.0
 11
7207.8056172893
 21
4650.8119125686
 31
0.0
  0
LINE
  5
266
330
1F
100
AcDbEntity
  8
0
  6
Continuous
 62
     7
370
    25
100
AcDbLine
 10
7201.135096023
 20
4651.6239726673
 30
0.0
 11
7201.135096023
 21
4650.6580468411
 31
0.0
  0
LINE
  5
267
330
1F
100
AcDbEntity
  8
0
  6
Continuous
 62
     7
370
    25
100
AcDbLine
 10
7204.1091823363
 20
4651.5221377818
 30
0.0
 11
7204.1091823363
 21
4650.5562119555
 31
0.0
  0
ARC
  5
268
330
1F
100
AcDbEntity
  8
0
  6
Continuous
 62
     7
370
    25
100
AcDbCircle
 10
7203.7409716824
 20
4683.2826159501
 30
0.0
 40
32.72847533114629
100
AcDbArc
 50
265.4332158269
 51
270.6446179145
  0
LINE
  5
269
330
1F
100
AcDbEntity
  8
0
  6
Continuous
 62
     7
370
    25
100
AcDbLine
 10
7201.135096023
 20
4650.6580468411
 30
0.0
 11
7201.0685884263
 21
4650.5279338368
 31
0.0
  0
LINE
  5
26A
330
1F
100
AcDbEntity
  8
0
  6
Continuous
 62
     7
370
    25
100
AcDbLine
 10
7204.1091823363
 20
4650.5562119555
 30
0.0
 11
7204.0426747395
 21
4650.4260989512
 31
0.0
  0
ARC
  5
26B
330
1F
100
AcDbEntity
  8
0
  6
Continuous
 62
     7
370
    25
100
AcDbCircle
 10
6603.862354787
 20
4683.7238704091
 30
0.0
 40
32.33234845703942
100
AcDbArc
 50
270.3195445578
 51
277.00524986
  0
ARC
  5
26C
330
1F
100
AcDbEntity
  8
0
  6
Continuous
 62
     7
370
    25
100
AcDbCircle
 10
6605.661718385
 20
4669.3112011972
 30
0.0
 40
18.7644046106989
100
AcDbArc
 50
277.5095473836
 51
284.9272291806
  0
LINE
  5
26D
330
1F
100
AcDbEntity
  8
0
  6
Continuous
 62
     7
370
    25
100
AcDbLine
 10
6610.4952793396
 20
4652.1459503134
 30
0.0
 11
6610.4952793396
 21
4651.1800244872
 31
0.0
  0
ARC
  5
26E
330
1F
100
AcDbEntity
  8
0
  6
Continuous
 62
     7
370
    25
100
AcDbCircle
 10
6608.6201825525
 20
4659.5227260271
 30
0.0
 40
7.611360449444438
100
AcDbArc
 50
284.2619248087
 51
297.2228497749
  0
ARC
  5
26F
330
1F
100
AcDbEntity
  8
0
  6
Continuous
 62
     7
370
    25
100
AcDbCircle
 10
6612.0956416817
 20
4652.8699483126
 30
0.0
 40
0.9028767270946394
100
AcDbArc
 50
304.3231205501
 51
1.5289520685
  0
LINE
  5
270
330
1F
100
AcDbEntity
  8
0
  6
Continuous
 62
     7
370
    25
100
AcDbLine
 10
6612.9981969575
 20
4653.4977425838
 30
0.0
 11
6612.9981969575
 21
4652.8940389423
 31
0.0
  0
LINE
  5
271
330
1F
100
AcDbEntity
  8
0
  6
Continuous
 62
     7
370
    25
100
AcDbLine
 10
6611.91003092
 20
4654.2594438956
 30
0.0
 11
6611.91003092
 21
4653.9477921925
 31
0.0
  0
ARC
  5
272
330
1F
100
AcDbEntity
  8
0
  6
Continuous
 62
     7
370
    25
100
AcDbCircle
 10
6608.0212379893
 20
4645.4432801053
 30
0.0
 40
9.351440332893205
100
AcDbArc
 50
65.4271673511
 51
77.248897428
  0
LINE
  5
273
330
1F
100
AcDbEntity
  8
0
  6
Continuous
 62
     7
370
    25
100
AcDbLine
 10
6610.0852524014
 20
4654.7801391434
 30
0.0
 11
6610.0852524014
 21
4654.5640959025
 31
0.0
  0
LINE
  5
274
330
1F
100
AcDbEntity
  8
0
  6
Continuous
 62
     7
370
    25
100
AcDbLine
 10
6606.4368953991
 20
4655.2786097899
 30
0.0
 11
6606.4368953991
 21
4655.1100637648
 31
0.0
  0
ARC
  5
275
330
1F
100
AcDbEntity
  8
0
  6
Continuous
 62
     7
370
    25
100
AcDbCircle
 10
6603.7659286174
 20
4620.5845093993
 30
0.0
 40
34.62871594199372
100
AcDbArc
 50
85.5762935841
 51
90.5015401573
  0
LINE
  5
276
330
1F
100
AcDbEntity
  8
0
  6
Continuous
 62
     7
370
    25
100
AcDbLine
 10
6603.4628090858
 20
4655.3737350373
 30
0.0
 11
6603.4628090858
 21
4655.2118986503
 31
0.0
  0
LINE
  5
277
330
1F
100
AcDbEntity
  8
0
  6
Continuous
 62
     7
370
    25
100
AcDbLine
 10
6599.3914191703
 20
4655.1120608902
 30
0.0
 11
6599.3914191703
 21
4654.9302605556
 31
0.0
  0
ARC
  5
278
330
1F
100
AcDbEntity
  8
0
  6
Continuous
 62
     7
370
    25
100
AcDbCircle
 10
6601.8437654437
 20
4636.3267964116
 30
0.0
 40
18.76440461089837
100
AcDbArc
 50
97.5095473836
 51
104.9272291805
  0
LINE
  5
279
330
1F
100
AcDbEntity
  8
0
  6
Continuous
 62
     7
370
    25
100
AcDbLine
 10
6597.0102044891
 20
4654.6863349714
 30
0.0
 11
6597.0102044891
 21
4654.4579731219
 31
0.0
  0
LINE
  5
27A
330
1F
100
AcDbEntity
  8
0
  6
Continuous
 62
     7
370
    25
100
AcDbLine
 10
6594.9007466551
 20
4653.9518401834
 30
0.0
 11
6594.9007466551
 21
4653.5137088464
 31
0.0
  0
ARC
  5
27B
330
1F
100
AcDbEntity
  8
0
  6
Continuous
 62
     7
370
    25
100
AcDbCircle
 10
6595.409842147
 20
4652.7680492964
 30
0.0
 40
0.9028767270883965
100
AcDbArc
 50
124.32312055
 51
181.5289520688
  0
ARC
  5
27C
330
1F
100
AcDbEntity
  8
0
  6
Continuous
 62
     7
370
    25
100
AcDbCircle
 10
6597.1203834058
 20
4655.9000669888
 30
0.0
 40
3.584484920473935
100
AcDbArc
 50
234.2802774389
 51
244.8224148509
  0
LINE
  5
27D
330
1F
100
AcDbEntity
  8
0
  6
Continuous
 62
     7
370
    25
100
AcDbLine
 10
6595.5954529087
 20
4652.6561312428
 30
0.0
 11
6595.5954529086
 21
4651.6902054165
 31
0.0
  0
ARC
  5
27E
330
1F
100
AcDbEntity
  8
0
  6
Continuous
 62
     7
370
    25
100
AcDbCircle
 10
6599.4842458394
 20
4660.1947175038
 30
0.0
 40
9.35144033293021
100
AcDbArc
 50
245.4271673511
 51
257.248897428
  0
ARC
  5
27F
330
1F
100
AcDbEntity
  8
0
  6
Continuous
 62
     7
370
    25
100
AcDbCircle
 10
6602.8129413525
 20
4675.8120449144
 30
0.0
 40
24.38066653467442
100
AcDbArc
 50
258.189300535
 51
265.8971784142
  0
LINE
  5
280
330
1F
100
AcDbEntity
  8
0
  6
Continuous
 62
     7
370
    25
100
AcDbLine
 10
6601.0685884296
 20
4651.4938596705
 30
0.0
 11
6601.0685884296
 21
4650.5279338443
 31
0.0
  0
ARC
  5
281
330
1F
100
AcDbEntity
  8
0
  6
Continuous
 62
     7
370
    25
100
AcDbCircle
 10
6603.7395552113
 20
4685.0534882095
 30
0.0
 40
34.62871594182373
100
AcDbArc
 50
265.5762935841
 51
270.5015401573
  0
LWPOLYLINE
  5
282
330
1F
100
AcDbEntity
  8
0
  6
Continuous
 62
     7
370
    25
100
AcDbPolyline
 90
        6
 70
   128
 43
0.0
 10
6597.204401541
 20
4652.4861341881
 10
6596.3041683246
 20
4652.866891928
 10
6595.7294735164
 20
4653.2877721023
 10
6595.505434037
 20
4653.7303802276
 10
6595.6418414869
 20
4654.1753722051
 10
6595.7980082062
 20
4654.3510649884
  0
LWPOLYLINE
  5
283
330
1F
100
AcDbEntity
  8
0
  6
Continuous
 62
     7
370
    25
100
AcDbPolyline
 90
       14
 70
   128
 43
0.0
 10
6611.91003092
 20
4654.1041374061
 10
6612.0000497916
 20
4653.839469034
 10
6611.8636423418
 20
4653.3944770565
 10
6611.3727496228
 20
4652.9665495116
 10
6610.5488260022
 20
4652.5743888864
 10
6609.4278808956
 20
4652.235134482
 10
6608.0589049833
 20
4651.9636133439
 10
6606.5017290815
 20
4651.7716922486
 10
6604.8244092495
 20
4651.6677590689
 10
6603.1002524125
 20
4651.6563561836
 10
6601.4046124977
 20
4651.7379819535
 10
6599.811597106
 20
4651.9090689406
 10
6598.3908286541
 20
4652.1621398228
 10
6597.204401541
 20
4652.4861341881
  0
LINE
  5
284
330
1F
100
AcDbEntity
  8
0
  6
Continuous
 62
     7
370
    25
100
AcDbLine
 10
6612.4954789127
 20
4653.8771782013
 30
0.0
 11
6612.7572900651
 21
4653.8682135964
 31
0.0
  0
ARC
  5
285
330
1F
100
AcDbEntity
  8
0
  6
Continuous
 62
     7
370
    25
100
AcDbCircle
 10
6611.5121329648
 20
4653.9288927103
 30
0.0
 40
1.011320879473852
100
AcDbArc
 50
305.681776379
 51
346.4922228011
  0
LINE
  5
286
330
1F
100
AcDbEntity
  8
0
  6
Continuous
 62
     7
370
    25
100
AcDbLine
 10
6610.4952793396
 20
4652.1459503134
 30
0.0
 11
6610.1868319738
 21
4652.2501258361
 31
0.0
  0
ARC
  5
287
330
1F
100
AcDbEntity
  8
0
  6
Continuous
 62
     7
370
    25
100
AcDbCircle
 10
6605.5548076655
 20
4669.3651797644
 30
0.0
 40
17.7307845332204
100
AcDbArc
 50
277.2930101399
 51
285.1437664243
  0
ARC
  5
288
330
1F
100
AcDbEntity
  8
0
  6
Continuous
 62
     7
370
    25
100
AcDbCircle
 10
6603.7409716857
 20
4684.2485417838
 30
0.0
 40
32.72847533111992
100
AcDbArc
 50
265.4332158269
 51
270.6446179145
  0
LINE
  5
289
330
1F
100
AcDbEntity
  8
0
  6
Continuous
 62
     7
370
    25
100
AcDbLine
 10
6601.1350960263
 20
4651.6239726748
 30
0.0
 11
6601.0685884296
 21
4651.4938596705
 31
0.0
  0
ARC
  5
28A
330
1F
100
AcDbEntity
  8
0
  6
Continuous
 62
     7
370
    25
100
AcDbCircle
 10
6599.7202751582
 20
4660.7475720297
 30
0.0
 40
8.83411188459048
100
AcDbArc
 50
245.0796807337
 51
257.5963840454
  0
LINE
  5
28B
330
1F
100
AcDbEntity
  8
0
  6
Continuous
 62
     7
370
    25
100
AcDbLine
 10
6595.5954529087
 20
4652.6561312428
 30
0.0
 11
6595.9979562198
 21
4652.7359632955
 31
0.0
  0
LWPOLYLINE
  5
28C
330
1F
100
AcDbEntity
  8
0
  6
Continuous
 62
     7
370
    25
100
AcDbPolyline
 90
        3
 70
   128
 43
0.0
 10
6596.2527419143
 20
4653.861307058
 10
6595.7294735164
 20
4654.2536979285
 10
6595.716545725
 20
4654.267887544
  0
LINE
  5
28D
330
1F
100
AcDbEntity
  8
0
  6
Continuous
 62
     7
370
    25
100
AcDbLine
 10
6611.3724591703
 20
4653.932294198
 30
0.0
 11
6611.2527419143
 21
4653.861307058
 31
0.0
  0
LINE
  5
28E
330
1F
100
AcDbEntity
  8
0
  6
Continuous
 62
     7
370
    25
100
AcDbLine
 10
6606.3703878023
 20
4654.9799507605
 30
0.0
 11
6606.4368953991
 21
4655.1100637648
 31
0.0
  0
ARC
  5
28F
330
1F
100
AcDbEntity
  8
0
  6
Continuous
 62
     7
370
    25
100
AcDbCircle
 10
6603.764512143
 20
4622.355381652
 30
0.0
 40
32.7284753306073
100
AcDbArc
 50
85.4332158269
 51
90.6446179146
  0
LINE
  5
290
330
1F
100
AcDbEntity
  8
0
  6
Continuous
 62
     7
370
    25
100
AcDbLine
 10
6603.3963014891
 20
4655.081785646
 30
0.0
 11
6603.4628090858
 21
4655.2118986503
 31
0.0
  0
LWPOLYLINE
  5
291
330
1F
100
AcDbEntity
  8
0
  6
Continuous
 62
     7
370
    25
100
AcDbPolyline
 90
        7
 70
   128
 43
0.0
 10
6597.7997052113
 20
4652.6042060465
 10
6596.9582002977
 20
4652.9630282905
 10
6596.4344005984
 20
4653.3602814938
 10
6596.2527984054
 20
4653.7773905383
 10
6596.4218852352
 20
4654.1948518686
 10
6596.9337547757
 20
4654.5931454568
 10
6597.0102044891
 20
4654.6350255879
  0
LWPOLYLINE
  5
292
330
1F
100
AcDbEntity
  8
0
  6
Continuous
 62
     7
370
    25
100
AcDbPolyline
 90
       14
 70
   128
 43
0.0
 10
6611.2038090091
 20
4654.0063017983
 10
6611.2055731427
 20
4654.0022874356
 10
6611.2118677234
 20
4653.5825416806
 10
6610.8693818715
 20
4653.1722591275
 10
6610.1941298448
 20
4652.7906241323
 10
6609.2176856775
 20
4652.4554815234
 10
6607.9857068137
 20
4652.1825021966
 10
6606.5557992159
 20
4651.9844503618
 10
6604.9948237739
 20
4651.8705867028
 10
6603.3757699647
 20
4651.8462353577
 10
6601.7743429449
 20
4651.9125349683
 10
6600.2654236621
 20
4652.0663854385
 10
6598.9195675048
 20
4652.3005928913
 10
6597.7997052113
 20
4652.6042060465
  0
LINE
  5
293
330
1F
100
AcDbEntity
  8
0
  6
Continuous
 62
     7
370
    25
100
AcDbLine
 10
6603.3963014891
 20
4655.3731713751
 30
0.0
 11
6603.3963014891
 21
4655.081785646
 31
0.0
  0
LINE
  5
294
330
1F
100
AcDbEntity
  8
0
  6
Continuous
 62
     7
370
    25
100
AcDbLine
 10
6599.3914191703
 20
4654.9302605556
 30
0.0
 11
6599.6998665361
 21
4654.826085033
 31
0.0
  0
ARC
  5
295
330
1F
100
AcDbEntity
  8
0
  6
Continuous
 62
     7
370
    25
100
AcDbCircle
 10
6601.9506761632
 20
4637.2387436708
 30
0.0
 40
17.73078453326398
100
AcDbArc
 50
97.2930101399
 51
105.1437664242
  0
LINE
  5
296
330
1F
100
AcDbEntity
  8
0
  6
Continuous
 62
     7
370
    25
100
AcDbLine
 10
6597.0102044891
 20
4654.4579731219
 30
0.0
 11
6597.3186518549
 21
4654.3537975992
 31
0.0
  0
LINE
  5
297
330
1F
100
AcDbEntity
  8
0
  6
Continuous
 62
     7
370
    25
100
AcDbLine
 10
6599.6998665361
 20
4655.1496614482
 30
0.0
 11
6599.6998665361
 21
4654.826085033
 31
0.0
  0
LINE
  5
298
330
1F
100
AcDbEntity
  8
0
  6
Continuous
 62
     7
370
    25
100
AcDbLine
 10
6610.0852524014
 20
4654.5640959025
 30
0.0
 11
6609.6827490903
 21
4654.4842638498
 31
0.0
  0
LINE
  5
299
330
1F
100
AcDbEntity
  8
0
  6
Continuous
 62
     7
370
    25
100
AcDbLine
 10
6611.91003092
 20
4653.9477921925
 30
0.0
 11
6611.5075276089
 21
4653.8679601398
 31
0.0
  0
ARC
  5
29A
330
1F
100
AcDbEntity
  8
0
  6
Continuous
 62
     7
370
    25
100
AcDbCircle
 10
6607.7852086704
 20
4645.8563514055
 30
0.0
 40
8.83411188466761
100
AcDbArc
 50
65.0796807338
 51
77.5963840454
  0
LINE
  5
29B
330
1F
100
AcDbEntity
  8
0
  6
Continuous
 62
     7
370
    25
100
AcDbLine
 10
6609.6827490903
 20
4654.8626966544
 30
0.0
 11
6609.6827490903
 21
4654.4842638498
 31
0.0
  0
LINE
  5
29C
330
1F
100
AcDbEntity
  8
0
  6
Continuous
 62
     7
370
    25
100
AcDbLine
 10
6595.4034646998
 20
4654.1837679739
 30
0.0
 11
6595.4034646998
 21
4653.4964954137
 31
0.0
  0
LINE
  5
29D
330
1F
100
AcDbEntity
  8
0
  6
Continuous
 62
     7
370
    25
100
AcDbLine
 10
6595.4034646998
 20
4653.4964954137
 30
0.0
 11
6594.9007466551
 21
4653.5137088464
 31
0.0
  0
ARC
  5
29E
330
1F
100
AcDbEntity
  8
0
  6
Continuous
 62
     7
370
    25
100
AcDbCircle
 10
6595.8681776125
 20
4652.7735221333
 30
0.0
 40
0.8594465983356194
100
AcDbArc
 50
122.7321069523
 51
183.1199656665
  0
LINE
  5
29F
330
1F
100
AcDbEntity
  8
0
  6
Continuous
 62
     7
370
    25
100
AcDbLine
 10
6595.0100049159
 20
4652.726745234
 30
0.0
 11
6594.5072868712
 21
4652.7439586667
 31
0.0
  0
LINE
  5
2A0
330
1F
100
AcDbEntity
  8
0
  6
Continuous
 62
     7
370
    25
100
AcDbLine
 10
6595.0100049159
 20
4652.911252375
 30
0.0
 11
6595.0100049159
 21
4652.726745234
 31
0.0
  0
LINE
  5
2A1
330
1F
100
AcDbEntity
  8
0
  6
Continuous
 62
     7
370
    25
100
AcDbLine
 10
6612.4954789127
 20
4653.8771782013
 30
0.0
 11
6612.4954789127
 21
4652.911252375
 31
0.0
  0
LINE
  5
2A2
330
1F
100
AcDbEntity
  8
0
  6
Continuous
 62
     7
370
    25
100
AcDbLine
 10
6612.4954789127
 20
4652.911252375
 30
0.0
 11
6612.9981969575
 21
4652.8940389423
 31
0.0
  0
ARC
  5
2A3
330
1F
100
AcDbEntity
  8
0
  6
Continuous
 62
     7
370
    25
100
AcDbCircle
 10
6611.6373062162
 20
4652.8644754758
 30
0.0
 40
0.8594465983349953
100
AcDbArc
 50
302.7321069523
 51
3.1199656665
  0
LINE
  5
2A4
330
1F
100
AcDbEntity
  8
0
  6
Continuous
 62
     7
370
    25
100
AcDbLine
 10
6612.1020191289
 20
4652.1415021954
 30
0.0
 11
6612.6047371736
 21
4652.1242887627
 31
0.0
  0
LINE
  5
2A5
330
1F
100
AcDbEntity
  8
0
  6
Continuous
 62
     7
370
    25
100
AcDbLine
 10
6612.1020191289
 20
4653.1074280217
 30
0.0
 11
6612.1020191289
 21
4652.1415021954
 31
0.0
  0
LINE
  5
2A6
330
1F
100
AcDbEntity
  8
0
  6
Continuous
 62
     7
370
    25
100
AcDbLine
 10
6595.9979562198
 20
4652.7359632955
 30
0.0
 11
6595.9979562198
 21
4651.7700374692
 31
0.0
  0
LINE
  5
2A7
330
1F
100
AcDbEntity
  8
0
  6
Continuous
 62
     7
370
    25
100
AcDbLine
 10
6595.5954529086
 20
4651.6902054165
 30
0.0
 11
6595.9979562198
 21
4651.7700374692
 31
0.0
  0
ARC
  5
2A8
330
1F
100
AcDbEntity
  8
0
  6
Continuous
 62
     7
370
    25
100
AcDbCircle
 10
6599.7202751582
 20
4659.7816462034
 30
0.0
 40
8.834111884596199
100
AcDbArc
 50
245.0796807337
 51
257.5963840454
  0
LINE
  5
2A9
330
1F
100
AcDbEntity
  8
0
  6
Continuous
 62
     7
370
    25
100
AcDbLine
 10
6597.8227347384
 20
4652.1196595855
 30
0.0
 11
6597.8227347384
 21
4651.1537337592
 31
0.0
  0
LINE
  5
2AA
330
1F
100
AcDbEntity
  8
0
  6
Continuous
 62
     7
370
    25
100
AcDbLine
 10
6597.4202314273
 20
4651.0739017065
 30
0.0
 11
6597.8227347384
 21
4651.1537337592
 31
0.0
  0
LINE
  5
2AB
330
1F
100
AcDbEntity
  8
0
  6
Continuous
 62
     7
370
    25
100
AcDbLine
 10
6610.1868319738
 20
4652.2501258361
 30
0.0
 11
6610.1868319738
 21
4651.2842000098
 31
0.0
  0
LINE
  5
2AC
330
1F
100
AcDbEntity
  8
0
  6
Continuous
 62
     7
370
    25
100
AcDbLine
 10
6610.4952793396
 20
4651.1800244872
 30
0.0
 11
6610.1868319738
 21
4651.2842000098
 31
0.0
  0
ARC
  5
2AD
330
1F
100
AcDbEntity
  8
0
  6
Continuous
 62
     7
370
    25
100
AcDbCircle
 10
6605.5548076656
 20
4668.3992539376
 30
0.0
 40
17.73078453262909
100
AcDbArc
 50
277.2930101398
 51
285.1437664244
  0
LINE
  5
2AE
330
1F
100
AcDbEntity
  8
0
  6
Continuous
 62
     7
370
    25
100
AcDbLine
 10
6607.8056172926
 20
4651.7778384024
 30
0.0
 11
6607.8056172926
 21
4650.8119125761
 31
0.0
  0
LINE
  5
2AF
330
1F
100
AcDbEntity
  8
0
  6
Continuous
 62
     7
370
    25
100
AcDbLine
 10
6608.1140646584
 20
4650.7077370534
 30
0.0
 11
6607.8056172926
 21
4650.8119125761
 31
0.0
  0
LINE
  5
2B0
330
1F
100
AcDbEntity
  8
0
  6
Continuous
 62
     7
370
    25
100
AcDbLine
 10
6601.1350960263
 20
4651.6239726748
 30
0.0
 11
6601.1350960263
 21
4650.6580468486
 31
0.0
  0
LINE
  5
2B1
330
1F
100
AcDbEntity
  8
0
  6
Continuous
 62
     7
370
    25
100
AcDbLine
 10
6604.1091823396
 20
4651.5221377893
 30
0.0
 11
6604.1091823396
 21
4650.556211963
 31
0.0
  0
ARC
  5
2B2
330
1F
100
AcDbEntity
  8
0
  6
Continuous
 62
     7
370
    25
100
AcDbCircle
 10
6603.7409716857
 20
4683.2826159577
 30
0.0
 40
32.72847533127166
100
AcDbArc
 50
265.4332158269
 51
270.6446179145
  0
LINE
  5
2B3
330
1F
100
AcDbEntity
  8
0
  6
Continuous
 62
     7
370
    25
100
AcDbLine
 10
6601.1350960263
 20
4650.6580468486
 30
0.0
 11
6601.0685884296
 21
4650.5279338443
 31
0.0
  0
LINE
  5
2B4
330
1F
100
AcDbEntity
  8
0
  6
Continuous
 62
     7
370
    25
100
AcDbLine
 10
6604.1091823396
 20
4650.556211963
 30
0.0
 11
6604.0426747428
 21
4650.4260989587
 31
0.0
  0
ARC
  5
2B5
330
1F
100
AcDbEntity
  8
0
  6
Continuous
 62
     7
370
    25
100
AcDbCircle
 10
7803.8623547837
 20
4683.7238704017
 30
0.0
 40
32.33234845716223
100
AcDbArc
 50
270.3195445578
 51
277.00524986
  0
ARC
  5
2B6
330
1F
100
AcDbEntity
  8
0
  6
Continuous
 62
     7
370
    25
100
AcDbCircle
 10
7805.6617183817
 20
4669.3112011899
 30
0.0
 40
18.76440461090692
100
AcDbArc
 50
277.5095473836
 51
284.9272291805
  0
LINE
  5
2B7
330
1F
100
AcDbEntity
  8
0
  6
Continuous
 62
     7
370
    25
100
AcDbLine
 10
7810.4952793363
 20
4652.1459503059
 30
0.0
 11
7810.4952793363
 21
4651.1800244796
 31
0.0
  0
ARC
  5
2B8
330
1F
100
AcDbEntity
  8
0
  6
Continuous
 62
     7
370
    25
100
AcDbCircle
 10
7808.6201825491
 20
4659.5227260198
 30
0.0
 40
7.611360449575121
100
AcDbArc
 50
284.2619248088
 51
297.2228497748
  0
ARC
  5
2B9
330
1F
100
AcDbEntity
  8
0
  6
Continuous
 62
     7
370
    25
100
AcDbCircle
 10
7812.0956416784
 20
4652.8699483051
 30
0.0
 40
0.9028767270910998
100
AcDbArc
 50
304.3231205501
 51
1.5289520687
  0
LINE
  5
2BA
330
1F
100
AcDbEntity
  8
0
  6
Continuous
 62
     7
370
    25
100
AcDbLine
 10
7812.9981969542
 20
4653.4977425769
 30
0.0
 11
7812.9981969542
 21
4652.8940389348
 31
0.0
  0
LINE
  5
2BB
330
1F
100
AcDbEntity
  8
0
  6
Continuous
 62
     7
370
    25
100
AcDbLine
 10
7811.9100309167
 20
4654.259443887
 30
0.0
 11
7811.9100309167
 21
4653.947792185
 31
0.0
  0
ARC
  5
2BC
330
1F
100
AcDbEntity
  8
0
  6
Continuous
 62
     7
370
    25
100
AcDbCircle
 10
7808.021237986
 20
4645.4432800979
 30
0.0
 40
9.351440332829089
100
AcDbArc
 50
65.4271673511
 51
77.2488974281
  0
LINE
  5
2BD
330
1F
100
AcDbEntity
  8
0
  6
Continuous
 62
     7
370
    25
100
AcDbLine
 10
7810.0852523981
 20
4654.7801391347
 30
0.0
 11
7810.0852523981
 21
4654.564095895
 31
0.0
  0
LINE
  5
2BE
330
1F
100
AcDbEntity
  8
0
  6
Continuous
 62
     7
370
    25
100
AcDbLine
 10
7806.4368953958
 20
4655.278609781
 30
0.0
 11
7806.4368953958
 21
4655.1100637573
 31
0.0
  0
ARC
  5
2BF
330
1F
100
AcDbEntity
  8
0
  6
Continuous
 62
     7
370
    25
100
AcDbCircle
 10
7803.7659286141
 20
4620.5845093917
 30
0.0
 40
34.62871594210631
100
AcDbArc
 50
85.5762935841
 51
90.5015401573
  0
LINE
  5
2C0
330
1F
100
AcDbEntity
  8
0
  6
Continuous
 62
     7
370
    25
100
AcDbLine
 10
7803.4628090825
 20
4655.3737350284
 30
0.0
 11
7803.4628090825
 21
4655.2118986428
 31
0.0
  0
LINE
  5
2C1
330
1F
100
AcDbEntity
  8
0
  6
Continuous
 62
     7
370
    25
100
AcDbLine
 10
7799.391419167
 20
4655.1120608811
 30
0.0
 11
7799.391419167
 21
4654.9302605481
 31
0.0
  0
ARC
  5
2C2
330
1F
100
AcDbEntity
  8
0
  6
Continuous
 62
     7
370
    25
100
AcDbCircle
 10
7801.8437654404
 20
4636.3267964041
 30
0.0
 40
18.76440461085308
100
AcDbArc
 50
97.5095473836
 51
104.9272291805
  0
LINE
  5
2C3
330
1F
100
AcDbEntity
  8
0
  6
Continuous
 62
     7
370
    25
100
AcDbLine
 10
7797.0102044858
 20
4654.6863349622
 30
0.0
 11
7797.0102044857
 21
4654.4579731144
 31
0.0
  0
LINE
  5
2C4
330
1F
100
AcDbEntity
  8
0
  6
Continuous
 62
     7
370
    25
100
AcDbLine
 10
7794.9007466517
 20
4653.9518401739
 30
0.0
 11
7794.9007466517
 21
4653.5137088388
 31
0.0
  0
ARC
  5
2C5
330
1F
100
AcDbEntity
  8
0
  6
Continuous
 62
     7
370
    25
100
AcDbCircle
 10
7795.4098421437
 20
4652.7680492889
 30
0.0
 40
0.9028767270937788
100
AcDbArc
 50
124.3231205501
 51
181.5289520686
  0
ARC
  5
2C6
330
1F
100
AcDbEntity
  8
0
  6
Continuous
 62
     7
370
    25
100
AcDbCircle
 10
7797.1203844863
 20
4655.9000689943
 30
0.0
 40
3.584487203312788
100
AcDbArc
 50
234.2803061572
 51
244.8224128615
  0
LINE
  5
2C7
330
1F
100
AcDbEntity
  8
0
  6
Continuous
 62
     7
370
    25
100
AcDbLine
 10
7795.5954529053
 20
4652.6561312353
 30
0.0
 11
7795.5954529053
 21
4651.690205409
 31
0.0
  0
ARC
  5
2C8
330
1F
100
AcDbEntity
  8
0
  6
Continuous
 62
     7
370
    25
100
AcDbCircle
 10
7799.4842458361
 20
4660.1947174963
 30
0.0
 40
9.351440332928352
100
AcDbArc
 50
245.4271673511
 51
257.248897428
  0
ARC
  5
2C9
330
1F
100
AcDbEntity
  8
0
  6
Continuous
 62
     7
370
    25
100
AcDbCircle
 10
7802.8129413492
 20
4675.8120449069
 30
0.0
 40
24.38066653469879
100
AcDbArc
 50
258.1893005351
 51
265.8971784142
  0
LINE
  5
2CA
330
1F
100
AcDbEntity
  8
0
  6
Continuous
 62
     7
370
    25
100
AcDbLine
 10
7801.0685884263
 20
4651.493859663
 30
0.0
 11
7801.0685884263
 21
4650.5279338368
 31
0.0
  0
ARC
  5
2CB
330
1F
100
AcDbEntity
  8
0
  6
Continuous
 62
     7
370
    25
100
AcDbCircle
 10
7803.739555208
 20
4685.0534882025
 30
0.0
 40
34.6287159422719
100
AcDbArc
 50
265.5762935841
 51
270.5015401573
  0
LWPOLYLINE
  5
2CC
330
1F
100
AcDbEntity
  8
0
  6
Continuous
 62
     7
370
    25
100
AcDbPolyline
 90
        6
 70
   128
 43
0.0
 10
7797.2044015377
 20
4652.4861341806
 10
7796.3041683213
 20
4652.8668919205
 10
7795.7294735131
 20
4653.2877720947
 10
7795.5054340337
 20
4653.7303802201
 10
7795.6418414836
 20
4654.1753721976
 10
7795.7980082028
 20
4654.3510649808
  0
LWPOLYLINE
  5
2CD
330
1F
100
AcDbEntity
  8
0
  6
Continuous
 62
     7
370
    25
100
AcDbPolyline
 90
        6
 70
   128
 43
0.0
 10
7811.9273829733
 20
4654.0728709603
 10
7812.0000497883
 20
4653.8394690265
 10
7811.8636423385
 20
4653.394477049
 10
7811.3727496195
 20
4652.9665495041
 10
7810.5488259989
 20
4652.5743888789
 10
7810.1955137463
 20
4652.4512355567
  0
LINE
  5
2CE
330
1F
100
AcDbEntity
  8
0
  6
Continuous
 62
     7
370
    25
100
AcDbLine
 10
7797.5266684711
 20
4652.3839863694
 30
0.0
 11
7797.2044015377
 21
4652.4861341806
 31
0.0
  0
LINE
  5
2CF
330
1F
100
AcDbEntity
  8
0
  6
Continuous
 62
     7
370
    25
100
AcDbLine
 10
7812.4954789094
 20
4653.8771781938
 30
0.0
 11
7812.7572900603
 21
4653.8682135889
 31
0.0
  0
ARC
  5
2D0
330
1F
100
AcDbEntity
  8
0
  6
Continuous
 62
     7
370
    25
100
AcDbCircle
 10
7811.5121329615
 20
4653.9288927028
 30
0.0
 40
1.011320879469961
100
AcDbArc
 50
305.6817763789
 51
346.4922228011
  0
LINE
  5
2D1
330
1F
100
AcDbEntity
  8
0
  6
Continuous
 62
     7
370
    25
100
AcDbLine
 10
7810.4952793363
 20
4652.1459503059
 30
0.0
 11
7810.1868319705
 21
4652.2501258286
 31
0.0
  0
ARC
  5
2D2
330
1F
100
AcDbEntity
  8
0
  6
Continuous
 62
     7
370
    25
100
AcDbCircle
 10
7805.5548076623
 20
4669.3651797565
 30
0.0
 40
17.73078453278434
100
AcDbArc
 50
277.2930101398
 51
285.1437664243
  0
ARC
  5
2D3
330
1F
100
AcDbEntity
  8
0
  6
Continuous
 62
     7
370
    25
100
AcDbCircle
 10
7803.7409716824
 20
4684.2485417758
 30
0.0
 40
32.72847533059185
100
AcDbArc
 50
265.4332158269
 51
270.6446179146
  0
LINE
  5
2D4
330
1F
100
AcDbEntity
  8
0
  6
Continuous
 62
     7
370
    25
100
AcDbLine
 10
7801.135096023
 20
4651.6239726673
 30
0.0
 11
7801.0685884263
 21
4651.493859663
 31
0.0
  0
ARC
  5
2D5
330
1F
100
AcDbEntity
  8
0
  6
Continuous
 62
     7
370
    25
100
AcDbCircle
 10
7799.7202751549
 20
4660.7475720223
 30
0.0
 40
8.834111884723498
100
AcDbArc
 50
245.0796807338
 51
257.5963840453
  0
LINE
  5
2D6
330
1F
100
AcDbEntity
  8
0
  6
Continuous
 62
     7
370
    25
100
AcDbLine
 10
7795.5954529053
 20
4652.6561312353
 30
0.0
 11
7795.9979562165
 21
4652.735963288
 31
0.0
  0
LWPOLYLINE
  5
2D7
330
1F
100
AcDbEntity
  8
0
  6
Continuous
 62
     7
370
    25
100
AcDbPolyline
 90
        3
 70
   128
 43
0.0
 10
7796.252741911
 20
4653.8613070505
 10
7795.7294735131
 20
4654.253697921
 10
7795.7165457218
 20
4654.2678875364
  0
LINE
  5
2D8
330
1F
100
AcDbEntity
  8
0
  6
Continuous
 62
     7
370
    25
100
AcDbLine
 10
7811.3724590635
 20
4653.9322941259
 30
0.0
 11
7811.252741911
 21
4653.8613070505
 31
0.0
  0
LINE
  5
2D9
330
1F
100
AcDbEntity
  8
0
  6
Continuous
 62
     7
370
    25
100
AcDbLine
 10
7806.370387799
 20
4654.979950753
 30
0.0
 11
7806.4368953958
 21
4655.1100637573
 31
0.0
  0
ARC
  5
2DA
330
1F
100
AcDbEntity
  8
0
  6
Continuous
 62
     7
370
    25
100
AcDbCircle
 10
7803.7645121396
 20
4622.3553816439
 30
0.0
 40
32.72847533115355
100
AcDbArc
 50
85.4332158269
 51
90.6446179145
  0
LINE
  5
2DB
330
1F
100
AcDbEntity
  8
0
  6
Continuous
 62
     7
370
    25
100
AcDbLine
 10
7803.3963014858
 20
4655.0817856385
 30
0.0
 11
7803.4628090825
 21
4655.2118986428
 31
0.0
  0
LWPOLYLINE
  5
2DC
330
1F
100
AcDbEntity
  8
0
  6
Continuous
 62
     7
370
    25
100
AcDbPolyline
 90
        7
 70
   128
 43
0.0
 10
7797.799705208
 20
4652.604206039
 10
7796.9582002944
 20
4652.963028283
 10
7796.4344005951
 20
4653.3602814863
 10
7796.2527984021
 20
4653.7773905308
 10
7796.4218852319
 20
4654.1948518611
 10
7796.9337547724
 20
4654.5931454493
 10
7797.0102044858
 20
4654.6350255804
  0
LWPOLYLINE
  5
2DD
330
1F
100
AcDbEntity
  8
0
  6
Continuous
 62
     7
370
    25
100
AcDbPolyline
 90
       14
 70
   128
 43
0.0
 10
7811.2038092478
 20
4654.0063012451
 10
7811.2055731394
 20
4654.0022874281
 10
7811.2118677201
 20
4653.5825416731
 10
7810.8693818682
 20
4653.17225912
 10
7810.1941298415
 20
4652.7906241248
 10
7809.2176856742
 20
4652.4554815159
 10
7807.9857068104
 20
4652.1825021891
 10
7806.5557992125
 20
4651.9844503543
 10
7804.9948237706
 20
4651.8705866953
 10
7803.3757699614
 20
4651.8462353502
 10
7801.7743429416
 20
4651.9125349608
 10
7800.2654236588
 20
4652.066385431
 10
7798.9195675015
 20
4652.3005928838
 10
7797.799705208
 20
4652.604206039
  0
LINE
  5
2DE
330
1F
100
AcDbEntity
  8
0
  6
Continuous
 62
     7
370
    25
100
AcDbLine
 10
7803.3963014858
 20
4655.3731713662
 30
0.0
 11
7803.3963014858
 21
4655.0817856385
 31
0.0
  0
LINE
  5
2DF
330
1F
100
AcDbEntity
  8
0
  6
Continuous
 62
     7
370
    25
100
AcDbLine
 10
7799.391419167
 20
4654.9302605481
 30
0.0
 11
7799.6998665328
 21
4654.8260850254
 31
0.0
  0
ARC
  5
2E0
330
1F
100
AcDbEntity
  8
0
  6
Continuous
 62
     7
370
    25
100
AcDbCircle
 10
7801.9506761599
 20
4637.2387436634
 30
0.0
 40
17.7307845331929
100
AcDbArc
 50
97.2930101399
 51
105.1437664243
  0
LINE
  5
2E1
330
1F
100
AcDbEntity
  8
0
  6
Continuous
 62
     7
370
    25
100
AcDbLine
 10
7797.0102044857
 20
4654.4579731144
 30
0.0
 11
7797.3186518516
 21
4654.3537975917
 31
0.0
  0
LINE
  5
2E2
330
1F
100
AcDbEntity
  8
0
  6
Continuous
 62
     7
370
    25
100
AcDbLine
 10
7799.6998665328
 20
4655.1496614391
 30
0.0
 11
7799.6998665328
 21
4654.8260850254
 31
0.0
  0
LINE
  5
2E3
330
1F
100
AcDbEntity
  8
0
  6
Continuous
 62
     7
370
    25
100
AcDbLine
 10
7810.0852523981
 20
4654.564095895
 30
0.0
 11
7809.682749087
 21
4654.4842638423
 31
0.0
  0
LINE
  5
2E4
330
1F
100
AcDbEntity
  8
0
  6
Continuous
 62
     7
370
    25
100
AcDbLine
 10
7811.9100309167
 20
4653.947792185
 30
0.0
 11
7811.5075276056
 21
4653.8679601323
 31
0.0
  0
ARC
  5
2E5
330
1F
100
AcDbEntity
  8
0
  6
Continuous
 62
     7
370
    25
100
AcDbCircle
 10
7807.7852086672
 20
4645.8563513981
 30
0.0
 40
8.834111884589246
100
AcDbArc
 50
65.0796807337
 51
77.5963840454
  0
LINE
  5
2E6
330
1F
100
AcDbEntity
  8
0
  6
Continuous
 62
     7
370
    25
100
AcDbLine
 10
7809.682749087
 20
4654.8626966456
 30
0.0
 11
7809.682749087
 21
4654.4842638423
 31
0.0
  0
LINE
  5
2E7
330
1F
100
AcDbEntity
  8
0
  6
Continuous
 62
     7
370
    25
100
AcDbLine
 10
7795.4034646965
 20
4654.1837679646
 30
0.0
 11
7795.4034646965
 21
4653.4964954062
 31
0.0
  0
LINE
  5
2E8
330
1F
100
AcDbEntity
  8
0
  6
Continuous
 62
     7
370
    25
100
AcDbLine
 10
7795.4034646965
 20
4653.4964954062
 30
0.0
 11
7794.9007466517
 21
4653.5137088388
 31
0.0
  0
ARC
  5
2E9
330
1F
100
AcDbEntity
  8
0
  6
Continuous
 62
     7
370
    25
100
AcDbCircle
 10
7795.8681776092
 20
4652.7735221257
 30
0.0
 40
0.8594465983311281
100
AcDbArc
 50
122.7321069522
 51
183.1199656665
  0
LINE
  5
2EA
330
1F
100
AcDbEntity
  8
0
  6
Continuous
 62
     7
370
    25
100
AcDbLine
 10
7795.0100049126
 20
4652.7267452265
 30
0.0
 11
7794.5072868679
 21
4652.7439586592
 31
0.0
  0
LINE
  5
2EB
330
1F
100
AcDbEntity
  8
0
  6
Continuous
 62
     7
370
    25
100
AcDbLine
 10
7795.0100049126
 20
4652.9112523675
 30
0.0
 11
7795.0100049126
 21
4652.7267452265
 31
0.0
  0
LINE
  5
2EC
330
1F
100
AcDbEntity
  8
0
  6
Continuous
 62
     7
370
    25
100
AcDbLine
 10
7812.4954789094
 20
4653.8771781938
 30
0.0
 11
7812.4954789094
 21
4652.9112523675
 31
0.0
  0
LINE
  5
2ED
330
1F
100
AcDbEntity
  8
0
  6
Continuous
 62
     7
370
    25
100
AcDbLine
 10
7812.4954789094
 20
4652.9112523675
 30
0.0
 11
7812.9981969542
 21
4652.8940389348
 31
0.0
  0
ARC
  5
2EE
330
1F
100
AcDbEntity
  8
0
  6
Continuous
 62
     7
370
    25
100
AcDbCircle
 10
7811.6373062129
 20
4652.8644754683
 30
0.0
 40
0.8594465983347112
100
AcDbArc
 50
302.7321069522
 51
3.1199656665
  0
LINE
  5
2EF
330
1F
100
AcDbEntity
  8
0
  6
Continuous
 62
     7
370
    25
100
AcDbLine
 10
7812.1020191255
 20
4652.1415021879
 30
0.0
 11
7812.6047371703
 21
4652.1242887552
 31
0.0
  0
LINE
  5
2F0
330
1F
100
AcDbEntity
  8
0
  6
Continuous
 62
     7
370
    25
100
AcDbLine
 10
7812.1020191255
 20
4653.1074280142
 30
0.0
 11
7812.1020191255
 21
4652.1415021879
 31
0.0
  0
LINE
  5
2F1
330
1F
100
AcDbEntity
  8
0
  6
Continuous
 62
     7
370
    25
100
AcDbLine
 10
7795.9979562165
 20
4652.735963288
 30
0.0
 11
7795.9979562165
 21
4651.7700374617
 31
0.0
  0
LINE
  5
2F2
330
1F
100
AcDbEntity
  8
0
  6
Continuous
 62
     7
370
    25
100
AcDbLine
 10
7795.5954529053
 20
4651.690205409
 30
0.0
 11
7795.9979562165
 21
4651.7700374617
 31
0.0
  0
ARC
  5
2F3
330
1F
100
AcDbEntity
  8
0
  6
Continuous
 62
     7
370
    25
100
AcDbCircle
 10
7799.7202751549
 20
4659.781646196
 30
0.0
 40
8.834111884686408
100
AcDbArc
 50
245.0796807338
 51
257.5963840454
  0
LINE
  5
2F4
330
1F
100
AcDbEntity
  8
0
  6
Continuous
 62
     7
370
    25
100
AcDbLine
 10
7797.8227347351
 20
4652.119659578
 30
0.0
 11
7797.8227347351
 21
4651.1537337517
 31
0.0
  0
LINE
  5
2F5
330
1F
100
AcDbEntity
  8
0
  6
Continuous
 62
     7
370
    25
100
AcDbLine
 10
7797.420231424
 20
4651.073901699
 30
0.0
 11
7797.8227347351
 21
4651.1537337517
 31
0.0
  0
LINE
  5
2F6
330
1F
100
AcDbEntity
  8
0
  6
Continuous
 62
     7
370
    25
100
AcDbLine
 10
7810.1868319705
 20
4652.2501258286
 30
0.0
 11
7810.1868319705
 21
4651.2842000023
 31
0.0
  0
LINE
  5
2F7
330
1F
100
AcDbEntity
  8
0
  6
Continuous
 62
     7
370
    25
100
AcDbLine
 10
7810.4952793363
 20
4651.1800244796
 30
0.0
 11
7810.1868319705
 21
4651.2842000023
 31
0.0
  0
ARC
  5
2F8
330
1F
100
AcDbEntity
  8
0
  6
Continuous
 62
     7
370
    25
100
AcDbCircle
 10
7805.5548076622
 20
4668.3992539307
 30
0.0
 40
17.73078453322344
100
AcDbArc
 50
277.2930101399
 51
285.1437664242
  0
LINE
  5
2F9
330
1F
100
AcDbEntity
  8
0
  6
Continuous
 62
     7
370
    25
100
AcDbLine
 10
7807.8056172893
 20
4651.7778383949
 30
0.0
 11
7807.8056172893
 21
4650.8119125686
 31
0.0
  0
LINE
  5
2FA
330
1F
100
AcDbEntity
  8
0
  6
Continuous
 62
     7
370
    25
100
AcDbLine
 10
7808.1140646551
 20
4650.7077370459
 30
0.0
 11
7807.8056172893
 21
4650.8119125686
 31
0.0
  0
LINE
  5
2FB
330
1F
100
AcDbEntity
  8
0
  6
Continuous
 62
     7
370
    25
100
AcDbLine
 10
7801.135096023
 20
4651.6239726673
 30
0.0
 11
7801.135096023
 21
4650.6580468411
 31
0.0
  0
LINE
  5
2FC
330
1F
100
AcDbEntity
  8
0
  6
Continuous
 62
     7
370
    25
100
AcDbLine
 10
7804.1091823363
 20
4651.5221377818
 30
0.0
 11
7804.1091823363
 21
4650.5562119555
 31
0.0
  0
ARC
  5
2FD
330
1F
100
AcDbEntity
  8
0
  6
Continuous
 62
     7
370
    25
100
AcDbCircle
 10
7803.7409716824
 20
4683.2826159501
 30
0.0
 40
32.7284753311281
100
AcDbArc
 50
265.4332158269
 51
270.6446179145
  0
LINE
  5
2FE
330
1F
100
AcDbEntity
  8
0
  6
Continuous
 62
     7
370
    25
100
AcDbLine
 10
7801.135096023
 20
4650.6580468411
 30
0.0
 11
7801.0685884263
 21
4650.5279338368
 31
0.0
  0
LINE
  5
2FF
330
1F
100
AcDbEntity
  8
0
  6
Continuous
 62
     7
370
    25
100
AcDbLine
 10
7804.1091823363
 20
4650.5562119555
 30
0.0
 11
7804.0426747395
 21
4650.4260989512
 31
0.0
  0
CIRCLE
  5
300
330
1F
100
AcDbEntity
  8
0
  6
Continuous
 62
     7
370
    25
100
AcDbCircle
 10
6603.7527419147
 20
4661.5818817916
 30
0.0
 40
29.49999999999986
  0
CIRCLE
  5
301
330
1F
100
AcDbEntity
  8
0
  6
Continuous
 62
     7
370
    25
100
AcDbCircle
 10
6603.7527419147
 20
4661.5818817916
 30
0.0
 40
30.00000000000066
  0
CIRCLE
  5
302
330
1F
100
AcDbEntity
  8
0
  6
Continuous
 62
     7
370
    25
100
AcDbCircle
 10
7803.7527419167
 20
4661.5818817923
 30
0.0
 40
29.50000000000112
  0
CIRCLE
  5
303
330
1F
100
AcDbEntity
  8
0
  6
Continuous
 62
     7
370
    25
100
AcDbCircle
 10
7803.7527419167
 20
4661.5818817923
 30
0.0
 40
30.00000000000043
  0
CIRCLE
  5
304
330
1F
100
AcDbEntity
  8
0
  6
Continuous
 62
     7
370
    25
100
AcDbCircle
 10
8403.7527419167
 20
4661.5818817923
 30
0.0
 40
29.5000000000006
  0
CIRCLE
  5
305
330
1F
100
AcDbEntity
  8
0
  6
Continuous
 62
     7
370
    25
100
AcDbCircle
 10
8403.7527419167
 20
4661.5818817923
 30
0.0
 40
30.00000000000043
  0
CIRCLE
  5
306
330
1F
100
AcDbEntity
  8
0
  6
Continuous
 62
     7
370
    25
100
AcDbCircle
 10
7203.7527419167
 20
4661.5818817923
 30
0.0
 40
29.5000000000006
  0
CIRCLE
  5
307
330
1F
100
AcDbEntity
  8
0
  6
Continuous
 62
     7
370
    25
100
AcDbCircle
 10
7203.7527419167
 20
4661.5818817923
 30
0.0
 40
30.00000000000043
  0
LINE
  5
308
330
1F
100
AcDbEntity
  8
0
  6
Continuous
 62
     7
370
    25
100
AcDbLine
 10
7191.6020561014
 20
4656.9601035171
 30
0.0
 11
7215.9034277228
 21
4656.9601035171
 31
0.0
  0
LINE
  5
309
330
1F
100
AcDbEntity
  8
0
  6
Continuous
 62
     7
370
    25
100
AcDbLine
 10
7216.8710712796
 20
4656.6921543247
 30
0.0
 11
7215.9034277228
 21
4656.9601035171
 31
0.0
  0
ARC
  5
30A
330
1F
100
AcDbEntity
  8
0
  6
Continuous
 62
     7
370
    25
100
AcDbCircle
 10
7203.7527419121
 20
4661.581881782
 30
0.0
 40
13.99999999999974
100
AcDbArc
 50
200.4424420745
 51
339.5575579255
  0
LINE
  5
30B
330
1F
100
AcDbEntity
  8
0
  6
Continuous
 62
     7
370
    25
100
AcDbLine
 10
7191.6020561014
 20
4656.9601035171
 30
0.0
 11
7190.6344125447
 21
4656.6921543247
 31
0.0
  0
LWPOLYLINE
  5
30C
330
1F
100
AcDbEntity
  8
0
  6
Continuous
 62
     7
370
    25
100
AcDbPolyline
 90
       34
 70
   128
 43
0.0
 10
7203.7527419121
 20
4655.3748368659
 10
7205.6215979502
 20
4655.3286495424
 10
7207.4229086618
 20
4655.191756902
 10
7209.0915699845
 20
4654.9691066015
 10
7210.5672721505
 20
4654.6687458029
 10
7211.7966794386
 20
4654.301530328
 10
7212.7353578662
 20
4653.8807323007
 10
7213.3493811493
 20
4653.4215604583
 10
7213.6165568865
 20
4652.9406104674
 10
7213.5272286507
 20
4652.4552651139
 10
7213.0846249969
 20
4651.9830660432
 10
7212.3047427745
 20
4651.5410797603
 10
7211.2157689589
 20
4651.1452808009
 10
7209.857061901
 20
4650.8099743706
 10
7208.2777288142
 20
4650.5472793175
 10
7206.5348509109
 20
4650.3666901253
 10
7204.6914203397
 20
4650.2747337578
 10
7202.8140634845
 20
4650.2747337578
 10
7200.9706329133
 20
4650.3666901253
 10
7199.2277550101
 20
4650.5472793175
 10
7197.6484219232
 20
4650.8099743706
 10
7196.2897148654
 20
4651.1452808009
 10
7195.2007410497
 20
4651.5410797603
 10
7194.4208588273
 20
4651.9830660432
 10
7193.9782551735
 20
4652.4552651139
 10
7193.8889269377
 20
4652.9406104674
 10
7194.1561026749
 20
4653.4215604583
 10
7194.770125958
 20
4653.8807323007
 10
7195.7088043856
 20
4654.301530328
 10
7196.9382116737
 20
4654.6687458029
 10
7198.4139138397
 20
4654.9691066015
 10
7200.0825751625
 20
4655.191756902
 10
7201.8838858741
 20
4655.3286495424
 10
7203.7527419121
 20
4655.3748368659
  0
ARC
  5
30D
330
1F
100
AcDbEntity
  8
0
  6
Continuous
 62
     7
370
    25
100
AcDbCircle
 10
7203.7527419121
 20
4661.581881782
 30
0.0
 40
13.99999999999974
100
AcDbArc
 50
339.5575579255
 51
200.4424420745
  0
ARC
  5
30E
330
1F
100
AcDbEntity
  8
0
  6
Continuous
 62
     7
370
    25
100
AcDbCircle
 10
7203.7527419121
 20
4661.581881782
 30
0.0
 40
13.00000000000112
100
AcDbArc
 50
339.1745965348
 51
200.8254034652
  0
LWPOLYLINE
  5
30F
330
1F
100
AcDbEntity
  8
0
  6
Continuous
 62
     7
370
    25
100
AcDbPolyline
 90
        3
 70
   128
 43
0.0
 10
7213.002741911
 20
4653.6968728439
 10
7213.1277419121
 20
4653.3019617086
 10
7213.002741911
 20
4652.9070505734
  0
LWPOLYLINE
  5
310
330
1F
100
AcDbEntity
  8
0
  6
Continuous
 62
     7
370
    25
100
AcDbPolyline
 90
        3
 70
   128
 43
0.0
 10
7212.1020191255
 20
4652.1984028552
 10
7211.5477695275
 20
4651.9539102349
 10
7210.4952793363
 20
4651.6160816366
  0
ARC
  5
311
330
1F
100
AcDbEntity
  8
0
  6
Continuous
 62
     7
370
    25
100
AcDbCircle
 10
7203.8830760949
 20
4683.3895426108
 30
0.0
 40
32.51304127858706
100
AcDbArc
 50
270.3984566582
 51
276.9293382724
  0
ARC
  5
312
330
1F
100
AcDbEntity
  8
0
  6
Continuous
 62
     7
370
    25
100
AcDbCircle
 10
7202.8818943022
 20
4676.2356010304
 30
0.0
 40
25.32349552237719
100
AcDbArc
 50
258.4758326289
 51
265.8937831638
  0
LWPOLYLINE
  5
313
330
1F
100
AcDbEntity
  8
0
  6
Continuous
 62
     7
370
    25
100
AcDbPolyline
 90
        3
 70
   128
 43
0.0
 10
7195.5954529053
 20
4652.1060815662
 10
7195.0913712948
 20
4652.3734077036
 10
7194.6329554477
 20
4652.7396556753
  0
LWPOLYLINE
  5
314
330
1F
100
AcDbEntity
  8
0
  6
Continuous
 62
     7
370
    25
100
AcDbPolyline
 90
        3
 70
   128
 43
0.0
 10
7194.502741911
 20
4652.9070505768
 10
7194.3777419121
 20
4653.3019617086
 10
7194.502741911
 20
4653.6968728405
  0
ARC
  5
315
330
1F
100
AcDbEntity
  8
0
  6
Continuous
 62
     7
370
    25
100
AcDbCircle
 10
8403.7527419121
 20
4661.581881782
 30
0.0
 40
14.00000000000059
100
AcDbArc
 50
339.5575579255
 51
200.4424420745
  0
LINE
  5
316
330
1F
100
AcDbEntity
  8
0
  6
Continuous
 62
     7
370
    25
100
AcDbLine
 10
8416.8710712796
 20
4656.6921543247
 30
0.0
 11
8415.9034277228
 21
4656.9601035171
 31
0.0
  0
ARC
  5
317
330
1F
100
AcDbEntity
  8
0
  6
Continuous
 62
     7
370
    25
100
AcDbCircle
 10
8403.7527419121
 20
4661.581881782
 30
0.0
 40
13.00000000000198
100
AcDbArc
 50
339.1745965348
 51
200.8254034652
  0
LINE
  5
318
330
1F
100
AcDbEntity
  8
0
  6
Continuous
 62
     7
370
    25
100
AcDbLine
 10
8391.6020561014
 20
4656.9601035171
 30
0.0
 11
8390.6344125447
 21
4656.6921543247
 31
0.0
  0
LINE
  5
319
330
1F
100
AcDbEntity
  8
0
  6
Continuous
 62
     7
370
    25
100
AcDbLine
 10
8391.6020561014
 20
4656.9601035171
 30
0.0
 11
8415.9034277228
 21
4656.9601035171
 31
0.0
  0
ARC
  5
31A
330
1F
100
AcDbEntity
  8
0
  6
Continuous
 62
     7
370
    25
100
AcDbCircle
 10
8403.7527419121
 20
4661.581881782
 30
0.0
 40
14.00000000000059
100
AcDbArc
 50
200.4424420745
 51
339.5575579255
  0
LWPOLYLINE
  5
31B
330
1F
100
AcDbEntity
  8
0
  6
Continuous
 62
     7
370
    25
100
AcDbPolyline
 90
       34
 70
   128
 43
0.0
 10
8403.7527419121
 20
4655.3748368659
 10
8405.6215979502
 20
4655.3286495424
 10
8407.4229086618
 20
4655.191756902
 10
8409.0915699845
 20
4654.9691066015
 10
8410.5672721505
 20
4654.6687458029
 10
8411.7966794386
 20
4654.301530328
 10
8412.7353578662
 20
4653.8807323007
 10
8413.3493811493
 20
4653.4215604583
 10
8413.6165568865
 20
4652.9406104674
 10
8413.5272286507
 20
4652.4552651139
 10
8413.0846249969
 20
4651.9830660432
 10
8412.3047427745
 20
4651.5410797603
 10
8411.2157689589
 20
4651.1452808009
 10
8409.857061901
 20
4650.8099743706
 10
8408.2777288142
 20
4650.5472793175
 10
8406.5348509109
 20
4650.3666901253
 10
8404.6914203397
 20
4650.2747337578
 10
8402.8140634845
 20
4650.2747337578
 10
8400.9706329133
 20
4650.3666901253
 10
8399.2277550101
 20
4650.5472793175
 10
8397.6484219232
 20
4650.8099743706
 10
8396.2897148654
 20
4651.1452808009
 10
8395.2007410497
 20
4651.5410797603
 10
8394.4208588273
 20
4651.9830660432
 10
8393.9782551735
 20
4652.4552651139
 10
8393.8889269377
 20
4652.9406104674
 10
8394.1561026749
 20
4653.4215604583
 10
8394.770125958
 20
4653.8807323007
 10
8395.7088043856
 20
4654.301530328
 10
8396.9382116737
 20
4654.6687458029
 10
8398.4139138397
 20
4654.9691066015
 10
8400.0825751625
 20
4655.191756902
 10
8401.8838858741
 20
4655.3286495424
 10
8403.7527419121
 20
4655.3748368659
  0
LWPOLYLINE
  5
31C
330
1F
100
AcDbEntity
  8
0
  6
Continuous
 62
     7
370
    25
100
AcDbPolyline
 90
        3
 70
   128
 43
0.0
 10
8412.9821159682
 20
4653.7279749898
 10
8413.1277419121
 20
4653.3019617086
 10
8413.002741911
 20
4652.9070505734
  0
LWPOLYLINE
  5
31D
330
1F
100
AcDbEntity
  8
0
  6
Continuous
 62
     7
370
    25
100
AcDbPolyline
 90
        3
 70
   128
 43
0.0
 10
8412.1020191255
 20
4652.1984028552
 10
8411.5477695275
 20
4651.9539102349
 10
8410.4952793363
 20
4651.6160816366
  0
ARC
  5
31E
330
1F
100
AcDbEntity
  8
0
  6
Continuous
 62
     7
370
    25
100
AcDbCircle
 10
8403.8830760949
 20
4683.3895426109
 30
0.0
 40
32.51304127865164
100
AcDbArc
 50
270.3984566582
 51
276.9293382724
  0
ARC
  5
31F
330
1F
100
AcDbEntity
  8
0
  6
Continuous
 62
     7
370
    25
100
AcDbCircle
 10
8402.8818943022
 20
4676.2356010304
 30
0.0
 40
25.32349552238638
100
AcDbArc
 50
258.4758326289
 51
265.8937831638
  0
LWPOLYLINE
  5
320
330
1F
100
AcDbEntity
  8
0
  6
Continuous
 62
     7
370
    25
100
AcDbPolyline
 90
        3
 70
   128
 43
0.0
 10
8395.5954529053
 20
4652.1060815662
 10
8395.0913712948
 20
4652.3734077036
 10
8394.6329554477
 20
4652.7396556753
  0
LWPOLYLINE
  5
321
330
1F
100
AcDbEntity
  8
0
  6
Continuous
 62
     7
370
    25
100
AcDbPolyline
 90
        3
 70
   128
 43
0.0
 10
8394.502741911
 20
4652.9070505768
 10
8394.3777419121
 20
4653.3019617086
 10
8394.5233679231
 20
4653.7279750871
  0
ARC
  5
322
330
1F
100
AcDbEntity
  8
0
  6
Continuous
 62
     7
370
    25
100
AcDbCircle
 10
7803.7527419121
 20
4661.581881782
 30
0.0
 40
13.99999999999974
100
AcDbArc
 50
339.5575579255
 51
200.4424420745
  0
LINE
  5
323
330
1F
100
AcDbEntity
  8
0
  6
Continuous
 62
     7
370
    25
100
AcDbLine
 10
7816.8710712796
 20
4656.6921543247
 30
0.0
 11
7815.9034277228
 21
4656.9601035171
 31
0.0
  0
ARC
  5
324
330
1F
100
AcDbEntity
  8
0
  6
Continuous
 62
     7
370
    25
100
AcDbCircle
 10
7803.7527419121
 20
4661.581881782
 30
0.0
 40
13.00000000000028
100
AcDbArc
 50
339.1745965348
 51
200.8254034652
  0
LINE
  5
325
330
1F
100
AcDbEntity
  8
0
  6
Continuous
 62
     7
370
    25
100
AcDbLine
 10
7791.6020561014
 20
4656.9601035171
 30
0.0
 11
7790.6344125447
 21
4656.6921543247
 31
0.0
  0
LINE
  5
326
330
1F
100
AcDbEntity
  8
0
  6
Continuous
 62
     7
370
    25
100
AcDbLine
 10
7791.6020561014
 20
4656.9601035171
 30
0.0
 11
7815.9034277228
 21
4656.9601035171
 31
0.0
  0
ARC
  5
327
330
1F
100
AcDbEntity
  8
0
  6
Continuous
 62
     7
370
    25
100
AcDbCircle
 10
7803.7527419121
 20
4661.581881782
 30
0.0
 40
13.99999999999974
100
AcDbArc
 50
200.4424420745
 51
339.5575579255
  0
LWPOLYLINE
  5
328
330
1F
100
AcDbEntity
  8
0
  6
Continuous
 62
     7
370
    25
100
AcDbPolyline
 90
       34
 70
   128
 43
0.0
 10
7803.7527419121
 20
4655.3748368659
 10
7805.6215979502
 20
4655.3286495424
 10
7807.4229086618
 20
4655.191756902
 10
7809.0915699845
 20
4654.9691066015
 10
7810.5672721505
 20
4654.6687458029
 10
7811.7966794386
 20
4654.301530328
 10
7812.7353578662
 20
4653.8807323007
 10
7813.3493811493
 20
4653.4215604583
 10
7813.6165568865
 20
4652.9406104674
 10
7813.5272286507
 20
4652.4552651139
 10
7813.0846249969
 20
4651.9830660432
 10
7812.3047427745
 20
4651.5410797603
 10
7811.2157689589
 20
4651.1452808009
 10
7809.857061901
 20
4650.8099743706
 10
7808.2777288142
 20
4650.5472793175
 10
7806.5348509109
 20
4650.3666901253
 10
7804.6914203397
 20
4650.2747337578
 10
7802.8140634845
 20
4650.2747337578
 10
7800.9706329133
 20
4650.3666901253
 10
7799.2277550101
 20
4650.5472793175
 10
7797.6484219232
 20
4650.8099743706
 10
7796.2897148654
 20
4651.1452808009
 10
7795.2007410497
 20
4651.5410797603
 10
7794.4208588273
 20
4651.9830660432
 10
7793.9782551735
 20
4652.4552651139
 10
7793.8889269377
 20
4652.9406104674
 10
7794.1561026749
 20
4653.4215604583
 10
7794.770125958
 20
4653.8807323007
 10
7795.7088043856
 20
4654.301530328
 10
7796.9382116737
 20
4654.6687458029
 10
7798.4139138397
 20
4654.9691066015
 10
7800.0825751625
 20
4655.191756902
 10
7801.8838858741
 20
4655.3286495424
 10
7803.7527419121
 20
4655.3748368659
  0
LWPOLYLINE
  5
329
330
1F
100
AcDbEntity
  8
0
  6
Continuous
 62
     7
370
    25
100
AcDbPolyline
 90
        3
 70
   128
 43
0.0
 10
7813.002741911
 20
4653.6968728439
 10
7813.1277419121
 20
4653.3019617086
 10
7813.002741911
 20
4652.9070505734
  0
LWPOLYLINE
  5
32A
330
1F
100
AcDbEntity
  8
0
  6
Continuous
 62
     7
370
    25
100
AcDbPolyline
 90
        3
 70
   128
 43
0.0
 10
7812.1020191255
 20
4652.1984028552
 10
7811.5477695275
 20
4651.9539102349
 10
7810.4952793363
 20
4651.6160816366
  0
ARC
  5
32B
330
1F
100
AcDbEntity
  8
0
  6
Continuous
 62
     7
370
    25
100
AcDbCircle
 10
7803.8830760949
 20
4683.3895426109
 30
0.0
 40
32.51304127874899
100
AcDbArc
 50
270.3984566583
 51
276.9293382724
  0
ARC
  5
32C
330
1F
100
AcDbEntity
  8
0
  6
Continuous
 62
     7
370
    25
100
AcDbCircle
 10
7802.8818943022
 20
4676.2356010304
 30
0.0
 40
25.32349552237148
100
AcDbArc
 50
258.4758326289
 51
265.8937831638
  0
LWPOLYLINE
  5
32D
330
1F
100
AcDbEntity
  8
0
  6
Continuous
 62
     7
370
    25
100
AcDbPolyline
 90
        3
 70
   128
 43
0.0
 10
7795.5954529053
 20
4652.1060815662
 10
7795.0913712948
 20
4652.3734077036
 10
7794.6329554477
 20
4652.7396556753
  0
LWPOLYLINE
  5
32E
330
1F
100
AcDbEntity
  8
0
  6
Continuous
 62
     7
370
    25
100
AcDbPolyline
 90
        3
 70
   128
 43
0.0
 10
7794.502741911
 20
4652.9070505768
 10
7794.3777419121
 20
4653.3019617086
 10
7794.502741911
 20
4653.6968728405
  0
ARC
  5
32F
330
1F
100
AcDbEntity
  8
0
  6
Continuous
 62
     7
370
    25
100
AcDbCircle
 10
6603.7527419144
 20
4661.581881791
 30
0.0
 40
12.99999999999995
100
AcDbArc
 50
339.1745965348
 51
200.8254034652
  0
LINE
  5
330
330
1F
100
AcDbEntity
  8
0
  6
Continuous
 62
     7
370
    25
100
AcDbLine
 10
6591.6020561037
 20
4656.9601035261
 30
0.0
 11
6615.9034277251
 21
4656.9601035261
 31
0.0
  0
LINE
  5
331
330
1F
100
AcDbEntity
  8
0
  6
Continuous
 62
     7
370
    25
100
AcDbLine
 10
6616.8710712818
 20
4656.6921543336
 30
0.0
 11
6615.9034277251
 21
4656.9601035261
 31
0.0
  0
ARC
  5
332
330
1F
100
AcDbEntity
  8
0
  6
Continuous
 62
     7
370
    25
100
AcDbCircle
 10
6603.7527419144
 20
4661.581881791
 30
0.0
 40
14.00000000000006
100
AcDbArc
 50
200.4424420745
 51
339.5575579255
  0
LINE
  5
333
330
1F
100
AcDbEntity
  8
0
  6
Continuous
 62
     7
370
    25
100
AcDbLine
 10
6591.6020561037
 20
4656.9601035261
 30
0.0
 11
6590.6344125469
 21
4656.6921543336
 31
0.0
  0
LWPOLYLINE
  5
334
330
1F
100
AcDbEntity
  8
0
  6
Continuous
 62
     7
370
    25
100
AcDbPolyline
 90
       34
 70
   128
 43
0.0
 10
6603.7527419144
 20
4655.3748368748
 10
6605.6215979524
 20
4655.3286495513
 10
6607.422908664
 20
4655.191756911
 10
6609.0915699868
 20
4654.9691066105
 10
6610.5672721528
 20
4654.6687458119
 10
6611.7966794409
 20
4654.3015303369
 10
6612.7353578685
 20
4653.8807323097
 10
6613.3493811516
 20
4653.4215604672
 10
6613.6165568888
 20
4652.9406104764
 10
6613.527228653
 20
4652.4552651228
 10
6613.0846249992
 20
4651.9830660522
 10
6612.3047427768
 20
4651.5410797692
 10
6611.2157689611
 20
4651.1452808098
 10
6609.8570619033
 20
4650.8099743795
 10
6608.2777288164
 20
4650.5472793265
 10
6606.5348509132
 20
4650.3666901342
 10
6604.691420342
 20
4650.2747337667
 10
6602.8140634868
 20
4650.2747337667
 10
6600.9706329156
 20
4650.3666901342
 10
6599.2277550123
 20
4650.5472793265
 10
6597.6484219255
 20
4650.8099743795
 10
6596.2897148676
 20
4651.1452808098
 10
6595.200741052
 20
4651.5410797692
 10
6594.4208588296
 20
4651.9830660522
 10
6593.9782551758
 20
4652.4552651228
 10
6593.88892694
 20
4652.9406104764
 10
6594.1561026772
 20
4653.4215604672
 10
6594.7701259603
 20
4653.8807323097
 10
6595.7088043879
 20
4654.3015303369
 10
6596.938211676
 20
4654.6687458119
 10
6598.413913842
 20
4654.9691066105
 10
6600.0825751647
 20
4655.191756911
 10
6601.8838858763
 20
4655.3286495513
 10
6603.7527419144
 20
4655.3748368748
  0
ARC
  5
335
330
1F
100
AcDbEntity
  8
0
  6
Continuous
 62
     7
370
    25
100
AcDbCircle
 10
6603.7527419144
 20
4661.581881791
 30
0.0
 40
13.99999999999974
100
AcDbArc
 50
339.5575579255
 51
200.4424420745
  0
LWPOLYLINE
  5
336
330
1F
100
AcDbEntity
  8
0
  6
Continuous
 62
     7
370
    25
100
AcDbPolyline
 90
        3
 70
   128
 43
0.0
 10
6613.0027419143
 20
4653.6968728512
 10
6613.1277419144
 20
4653.3019617176
 10
6613.0027419143
 20
4652.9070505839
  0
LWPOLYLINE
  5
337
330
1F
100
AcDbEntity
  8
0
  6
Continuous
 62
     7
370
    25
100
AcDbPolyline
 90
        3
 70
   128
 43
0.0
 10
6612.1020191289
 20
4652.1984028647
 10
6611.5477695297
 20
4651.9539102439
 10
6610.4952793396
 20
4651.6160816458
  0
ARC
  5
338
330
1F
100
AcDbEntity
  8
0
  6
Continuous
 62
     7
370
    25
100
AcDbCircle
 10
6603.8830760972
 20
4683.3895426189
 30
0.0
 40
32.51304127780542
100
AcDbArc
 50
270.39845666
 51
276.9293382743
  0
ARC
  5
339
330
1F
100
AcDbEntity
  8
0
  6
Continuous
 62
     7
370
    25
100
AcDbCircle
 10
6602.881894305
 20
4676.2356010431
 30
0.0
 40
25.32349552615457
100
AcDbArc
 50
258.4758326319
 51
265.8937831656
  0
LWPOLYLINE
  5
33A
330
1F
100
AcDbEntity
  8
0
  6
Continuous
 62
     7
370
    25
100
AcDbPolyline
 90
        3
 70
   128
 43
0.0
 10
6595.5954529087
 20
4652.1060815747
 10
6595.0913712971
 20
4652.3734077125
 10
6594.6329554513
 20
4652.7396556828
  0
LWPOLYLINE
  5
33B
330
1F
100
AcDbEntity
  8
0
  6
Continuous
 62
     7
370
    25
100
AcDbPolyline
 90
        3
 70
   128
 43
0.0
 10
6594.5027419143
 20
4652.9070505841
 10
6594.3777419144
 20
4653.3019617176
 10
6594.5027419143
 20
4653.696872851
  0
LINE
  5
33C
330
1F
100
AcDbEntity
  8
0
  6
Continuous
 62
     8
370
    25
100
AcDbLine
 10
6379.1465276344
 20
3927.9257916556
 30
0.0
 11
6433.3589561947
 21
3927.9257916556
 31
0.0
  0
LINE
  5
33D
330
1F
100
AcDbEntity
  8
0
  6
Continuous
 62
     8
370
    25
100
AcDbLine
 10
6433.5621836697
 20
4052.5791096157
 30
0.0
 11
6378.9433001594
 21
4052.5791096157
 31
0.0
  0
LINE
  5
33E
330
1F
100
AcDbEntity
  8
0
  6
Continuous
 62
     8
370
    25
100
AcDbLine
 10
6383.2527419145
 20
4068.731467517
 30
0.0
 11
6429.2527419145
 21
4068.731467517
 31
0.0
  0
LINE
  5
33F
330
1F
100
AcDbEntity
  8
0
  6
Continuous
 62
     7
370
    25
100
AcDbLine
 10
9125.148112105
 20
4073.231467517
 30
0.0
 11
9110.148112105
 21
4073.231467517
 31
0.0
  0
LINE
  5
340
330
1F
100
AcDbEntity
  8
0
  6
Continuous
 62
     7
370
    25
100
AcDbLine
 10
9110.148112105
 20
3993.231467517
 30
0.0
 11
9125.148112105
 21
3993.231467517
 31
0.0
  0
ARC
  5
341
330
1F
100
AcDbEntity
  8
0
  6
Continuous
 62
     7
370
    25
100
AcDbCircle
 10
9125.148112105
 20
4053.231467517
 30
0.0
 40
19.99999999999955
100
AcDbArc
 50
0.0
 51
90.0
  0
ARC
  5
342
330
1F
100
AcDbEntity
  8
0
  6
Continuous
 62
     7
370
    25
100
AcDbCircle
 10
9125.148112105
 20
4013.231467517
 30
0.0
 40
20.0
100
AcDbArc
 50
270.0
 51
0.0
  0
LINE
  5
343
330
1F
100
AcDbEntity
  8
0
  6
Continuous
 62
     7
370
    25
100
AcDbLine
 10
9110.148112105
 20
4053.231467517
 30
0.0
 11
9100.148112105
 21
4053.231467517
 31
0.0
  0
LINE
  5
344
330
1F
100
AcDbEntity
  8
0
  6
Continuous
 62
     7
370
    25
100
AcDbLine
 10
9100.148112105
 20
4013.231467517
 30
0.0
 11
9110.148112105
 21
4013.231467517
 31
0.0
  0
LINE
  5
345
330
1F
100
AcDbEntity
  8
0
  6
Continuous
 62
     7
370
    25
100
AcDbLine
 10
9292.648112105
 20
4053.231467517
 30
0.0
 11
9145.148112105
 21
4053.231467517
 31
0.0
  0
LINE
  5
346
330
1F
100
AcDbEntity
  8
0
  6
Continuous
 62
     7
370
    25
100
AcDbLine
 10
9145.148112105
 20
4013.231467517
 30
0.0
 11
9292.648112105
 21
4013.231467517
 31
0.0
  0
LINE
  5
347
330
1F
100
AcDbEntity
  8
0
  6
Continuous
 62
     7
370
    25
100
AcDbLine
 10
9336.648112105
 20
4101.5818817915
 30
0.0
 11
9336.648112105
 21
4071.731467517
 31
0.0
  0
LINE
  5
348
330
1F
100
AcDbEntity
  8
0
  6
Continuous
 62
     7
370
    25
100
AcDbLine
 10
9336.648112105
 20
4057.731467517
 30
0.0
 11
9336.648112105
 21
4055.231467517
 31
0.0
  0
LINE
  5
349
330
1F
100
AcDbEntity
  8
0
  6
Continuous
 62
     7
370
    25
100
AcDbLine
 10
9368.648112105
 20
4055.231467517
 30
0.0
 11
9368.648112105
 21
4057.731467517
 31
0.0
  0
LINE
  5
34A
330
1F
100
AcDbEntity
  8
0
  6
Continuous
 62
     7
370
    25
100
AcDbLine
 10
9368.648112105
 20
4071.731467517
 30
0.0
 11
9368.648112105
 21
4101.5818817915
 31
0.0
  0
LINE
  5
34B
330
1F
100
AcDbEntity
  8
0
  6
Continuous
 62
     7
370
    25
100
AcDbLine
 10
9318.648112105
 20
3995.231467517
 30
0.0
 11
9325.5418978248
 21
3927.9257916556
 31
0.0
  0
LINE
  5
34C
330
1F
100
AcDbEntity
  8
0
  6
Continuous
 62
     7
370
    25
100
AcDbLine
 10
9379.7543263851
 20
3927.9257916556
 30
0.0
 11
9386.648112105
 21
3995.231467517
 31
0.0
  0
LINE
  5
34D
330
1F
100
AcDbEntity
  8
0
  6
Continuous
 62
     7
370
    25
100
AcDbLine
 10
9386.648112105
 20
3995.231467517
 30
0.0
 11
9379.9575538601
 21
4052.5791096157
 31
0.0
  0
LINE
  5
34E
330
1F
100
AcDbEntity
  8
0
  6
Continuous
 62
     7
370
    25
100
AcDbLine
 10
9320.51921374
 20
4011.269481532
 30
0.0
 11
9318.648112105
 21
3995.231467517
 31
0.0
  0
LINE
  5
34F
330
1F
100
AcDbEntity
  8
0
  6
Continuous
 62
     7
370
    25
100
AcDbLine
 10
9308.648112105
 20
4060.731467517
 30
0.0
 11
9304.648112105
 21
4059.231467517
 31
0.0
  0
LINE
  5
350
330
1F
100
AcDbEntity
  8
0
  6
Continuous
 62
     7
370
    25
100
AcDbLine
 10
9304.648112105
 20
4007.231467517
 30
0.0
 11
9308.648112105
 21
4005.731467517
 31
0.0
  0
ARC
  5
351
330
1F
100
AcDbEntity
  8
0
  6
Continuous
 62
     7
370
    25
100
AcDbCircle
 10
9376.9777644428
 20
4052.231467517
 30
0.0
 40
3.000000000000807
100
AcDbArc
 50
6.654425046
 51
90.0
  0
ARC
  5
352
330
1F
100
AcDbEntity
  8
0
  6
Continuous
 62
     7
370
    25
100
AcDbCircle
 10
9328.5262842388
 20
3928.231467517
 30
0.0
 40
3.000000000000378
100
AcDbArc
 50
185.8481280261
 51
270.0
  0
ARC
  5
353
330
1F
100
AcDbEntity
  8
0
  6
Continuous
 62
     7
370
    25
100
AcDbCircle
 10
9376.7699399711
 20
3928.231467517
 30
0.0
 40
2.999999999999545
100
AcDbArc
 50
270.0
 51
354.1518719739
  0
ARC
  5
354
330
1F
100
AcDbEntity
  8
0
  6
Continuous
 62
     7
370
    25
100
AcDbCircle
 10
9295.648112105
 20
4056.231467517
 30
0.0
 40
3.000000000000455
100
AcDbArc
 50
90.0
 51
180.0
  0
ARC
  5
355
330
1F
100
AcDbEntity
  8
0
  6
Continuous
 62
     7
370
    25
100
AcDbCircle
 10
9295.648112105
 20
4010.231467517
 30
0.0
 40
3.0
100
AcDbArc
 50
180.0
 51
270.0
  0
LINE
  5
356
330
1F
100
AcDbEntity
  8
0
  6
Continuous
 62
     7
370
    25
100
AcDbLine
 10
9304.648112105
 20
4059.231467517
 30
0.0
 11
9295.648112105
 21
4059.231467517
 31
0.0
  0
LINE
  5
357
330
1F
100
AcDbEntity
  8
0
  6
Continuous
 62
     7
370
    25
100
AcDbLine
 10
9295.648112105
 20
4007.231467517
 30
0.0
 11
9304.648112105
 21
4007.231467517
 31
0.0
  0
LINE
  5
358
330
1F
100
AcDbEntity
  8
0
  6
Continuous
 62
     7
370
    25
100
AcDbLine
 10
9377.648112105
 20
4057.731467517
 30
0.0
 11
9375.648112105
 21
4061.731467517
 31
0.0
  0
LINE
  5
359
330
1F
100
AcDbEntity
  8
0
  6
Continuous
 62
     7
370
    25
100
AcDbLine
 10
9329.648112105
 20
4061.731467517
 30
0.0
 11
9327.648112105
 21
4057.731467517
 31
0.0
  0
ARC
  5
35A
330
1F
100
AcDbEntity
  8
0
  6
Continuous
 62
     7
370
    25
100
AcDbCircle
 10
9332.648112105
 20
4068.731467517
 30
0.0
 40
3.0
100
AcDbArc
 50
90.0
 51
180.0
  0
ARC
  5
35B
330
1F
100
AcDbEntity
  8
0
  6
Continuous
 62
     7
370
    25
100
AcDbCircle
 10
9372.648112105
 20
4068.731467517
 30
0.0
 40
3.0
100
AcDbArc
 50
0.0
 51
90.0
  0
LINE
  5
35C
330
1F
100
AcDbEntity
  8
0
  6
Continuous
 62
     7
370
    25
100
AcDbLine
 10
9329.648112105
 20
4068.731467517
 30
0.0
 11
9329.648112105
 21
4061.731467517
 31
0.0
  0
LINE
  5
35D
330
1F
100
AcDbEntity
  8
0
  6
Continuous
 62
     7
370
    25
100
AcDbLine
 10
9375.648112105
 20
4061.731467517
 30
0.0
 11
9375.648112105
 21
4068.731467517
 31
0.0
  0
LINE
  5
35E
330
1F
100
AcDbEntity
  8
0
  6
Continuous
 62
     7
370
    25
100
AcDbLine
 10
9308.648112105
 20
4011.231467517
 30
0.0
 11
9320.5429572668
 21
4011.231467517
 31
0.0
  0
LINE
  5
35F
330
1F
100
AcDbEntity
  8
0
  6
Continuous
 62
     7
370
    25
100
AcDbLine
 10
9325.648112105
 20
4055.231467517
 30
0.0
 11
9308.648112105
 21
4055.231467517
 31
0.0
  0
ARC
  5
360
330
1F
100
AcDbEntity
  8
0
  6
Continuous
 62
     7
370
    25
100
AcDbCircle
 10
9127.8016710305
 20
4732.0475811848
 30
0.0
 40
37.00000000000131
100
AcDbArc
 50
59.0753555839
 51
96.9246444161
  0
LINE
  5
361
330
1F
100
AcDbEntity
  8
0
  6
Continuous
 62
     7
370
    25
100
AcDbLine
 10
9162.6481121047
 20
4691.5818817916
 30
0.0
 11
9160.1481121047
 21
4691.5818817916
 31
0.0
  0
LINE
  5
362
330
1F
100
AcDbEntity
  8
0
  6
Continuous
 62
     7
370
    25
100
AcDbLine
 10
9160.1481121047
 20
4631.5818817916
 30
0.0
 11
9162.6481121047
 21
4631.5818817916
 31
0.0
  0
LINE
  5
363
330
1F
100
AcDbEntity
  8
0
  6
Continuous
 62
     7
370
    25
100
AcDbLine
 10
9162.6481121047
 20
4631.5818817916
 30
0.0
 11
9163.1481121047
 21
4632.0818817916
 31
0.0
  0
LINE
  5
364
330
1F
100
AcDbEntity
  8
0
  6
Continuous
 62
     7
370
    25
100
AcDbLine
 10
9163.1481121047
 20
4691.0818817916
 30
0.0
 11
9162.6481121047
 21
4691.5818817916
 31
0.0
  0
LINE
  5
365
330
1F
100
AcDbEntity
  8
0
  6
Continuous
 62
     7
370
    25
100
AcDbLine
 10
9171.7981121049
 20
4647.581881791
 30
0.0
 11
9294.1481121049
 21
4647.581881791
 31
0.0
  0
LINE
  5
366
330
1F
100
AcDbEntity
  8
0
  6
Continuous
 62
     7
370
    25
100
AcDbLine
 10
9163.1481121049
 20
4647.581881791
 30
0.0
 11
9168.5188015396
 21
4647.581881791
 31
0.0
  0
LINE
  5
367
330
1F
100
AcDbEntity
  8
0
  6
Continuous
 62
     7
370
    25
100
AcDbLine
 10
9328.1481121049
 20
4675.581881791
 30
0.0
 11
9163.1481121049
 21
4675.581881791
 31
0.0
  0
LINE
  5
368
330
1F
100
AcDbEntity
  8
0
  6
Continuous
 62
     7
370
    25
100
AcDbLine
 10
9329.1481121049
 20
4674.581881791
 30
0.0
 11
9328.1481121049
 21
4675.581881791
 31
0.0
  0
LINE
  5
369
330
1F
100
AcDbEntity
  8
0
  6
Continuous
 62
     7
370
    25
100
AcDbLine
 10
9110.148112105
 20
4027.7298492081
 30
0.0
 11
9110.148112105
 21
3993.231467517
 31
0.0
  0
LINE
  5
36A
330
1F
100
AcDbEntity
  8
0
  6
Continuous
 62
     7
370
    25
100
AcDbLine
 10
9110.148112105
 20
4073.231467517
 30
0.0
 11
9110.148112105
 21
4027.7298492081
 31
0.0
  0
LINE
  5
36B
330
1F
100
AcDbEntity
  8
0
  6
Continuous
 62
     7
370
    25
100
AcDbLine
 10
9145.148112105
 20
4030.4806583625
 30
0.0
 11
9145.148112105
 21
4013.231467517
 31
0.0
  0
LINE
  5
36C
330
1F
100
AcDbEntity
  8
0
  6
Continuous
 62
     7
370
    25
100
AcDbLine
 10
9145.148112105
 20
4053.231467517
 30
0.0
 11
9145.148112105
 21
4030.4806583625
 31
0.0
  0
LINE
  5
36D
330
1F
100
AcDbEntity
  8
0
  6
Continuous
 62
     7
370
    25
100
AcDbLine
 10
9100.148112105
 20
4030.4806583625
 30
0.0
 11
9100.148112105
 21
4013.231467517
 31
0.0
  0
LINE
  5
36E
330
1F
100
AcDbEntity
  8
0
  6
Continuous
 62
     7
370
    25
100
AcDbLine
 10
9100.148112105
 20
4053.231467517
 30
0.0
 11
9100.148112105
 21
4030.4806583625
 31
0.0
  0
LINE
  5
36F
330
1F
100
AcDbEntity
  8
0
  6
Continuous
 62
     7
370
    25
100
AcDbLine
 10
9318.648112105
 20
3995.231467517
 30
0.0
 11
9386.648112105
 21
3995.231467517
 31
0.0
  0
LWPOLYLINE
  5
370
330
1F
100
AcDbEntity
  8
0
  6
Continuous
 62
     7
370
    25
100
AcDbPolyline
 90
       20
 70
   128
 43
0.0
 10
9327.4263583246
 20
4052.5791096157
 10
9328.4317563524
 20
4050.9590508186
 10
9329.7061049046
 20
4048.7135374134
 10
9331.0166969518
 20
4046.0296865761
 10
9332.029348765
 20
4043.4211678394
 10
9332.8134845171
 20
4040.4768079092
 10
9333.1408982419
 20
4038.067957646
 10
9333.1611409013
 20
4035.5050821909
 10
9332.8528621772
 20
4032.9982405768
 10
9332.2313279478
 20
4030.479870845
 10
9331.0332033326
 20
4027.277051713
 10
9329.5283239079
 20
4024.2257287422
 10
9327.4127067571
 20
4020.6687774803
 10
9325.2418579853
 20
4017.4603966808
 10
9323.6310000698
 20
4015.2495670579
 10
9322.2226360317
 20
4013.3985872005
 10
9321.3558758422
 20
4012.2894069673
 10
9320.7630698902
 20
4011.5420236733
 10
9320.52106101
 20
4011.2393078818
 10
9320.5429903521
 20
4011.2667075939
  0
LINE
  5
371
330
1F
100
AcDbEntity
  8
0
  6
Continuous
 62
     7
370
    25
100
AcDbLine
 10
9304.648112105
 20
4059.231467517
 30
0.0
 11
9304.648112105
 21
4007.231467517
 31
0.0
  0
LINE
  5
372
330
1F
100
AcDbEntity
  8
0
  6
Continuous
 62
     7
370
    25
100
AcDbLine
 10
9308.648112105
 20
4060.731467517
 30
0.0
 11
9308.648112105
 21
4005.731467517
 31
0.0
  0
ARC
  5
373
330
1F
100
AcDbEntity
  8
0
  6
Continuous
 62
     7
370
    25
100
AcDbCircle
 10
9330.2793669886
 20
4052.3727926738
 30
0.0
 40
2.860458899833568
100
AcDbArc
 50
92.0237024967
 51
175.8638232391
  0
LINE
  5
374
330
1F
100
AcDbEntity
  8
0
  6
Continuous
 62
     7
370
    25
100
AcDbLine
 10
9330.1783558086
 20
4055.231467517
 30
0.0
 11
9376.9777644428
 21
4055.231467517
 31
0.0
  0
LINE
  5
375
330
1F
100
AcDbEntity
  8
0
  6
Continuous
 62
     7
370
    25
100
AcDbLine
 10
9328.5262842388
 20
3925.231467517
 30
0.0
 11
9376.7699399569
 21
3925.231467517
 31
0.0
  0
LINE
  5
376
330
1F
100
AcDbEntity
  8
0
  6
Continuous
 62
     7
370
    25
100
AcDbLine
 10
9292.648112105
 20
4056.231467517
 30
0.0
 11
9292.648112105
 21
4010.231467517
 31
0.0
  0
LINE
  5
377
330
1F
100
AcDbEntity
  8
0
  6
Continuous
 62
     7
370
    25
100
AcDbLine
 10
9329.648112105
 20
4061.731467517
 30
0.0
 11
9375.648112105
 21
4061.731467517
 31
0.0
  0
LINE
  5
378
330
1F
100
AcDbEntity
  8
0
  6
Continuous
 62
     7
370
    25
100
AcDbLine
 10
9327.648112105
 20
4057.731467517
 30
0.0
 11
9377.648112105
 21
4057.731467517
 31
0.0
  0
LINE
  5
379
330
1F
100
AcDbEntity
  8
0
  6
Continuous
 62
     7
370
    25
100
AcDbLine
 10
9332.648112105
 20
4071.731467517
 30
0.0
 11
9372.6481119311
 21
4071.731467517
 31
0.0
  0
ARC
  5
37A
330
1F
100
AcDbEntity
  8
0
  6
Continuous
 62
     7
370
    25
100
AcDbCircle
 10
9257.8587621509
 20
4007.8605089247
 30
0.0
 40
82.70068733170582
100
AcDbArc
 50
32.7332300191
 51
34.9457141133
  0
LINE
  5
37B
330
1F
100
AcDbEntity
  8
0
  6
Continuous
 62
     7
370
    25
100
AcDbLine
 10
9325.648112105
 20
4055.231467517
 30
0.0
 11
9330.1783558086
 21
4055.231467517
 31
0.0
  0
LINE
  5
37C
330
1F
100
AcDbEntity
  8
0
  6
Continuous
 62
     7
370
    25
100
AcDbLine
 10
9113.248112105
 20
4101.5818817915
 30
0.0
 11
9110.148112105
 21
4101.5818817915
 31
0.0
  0
LINE
  5
37D
330
1F
100
AcDbEntity
  8
0
  6
Continuous
 62
     7
370
    25
100
AcDbLine
 10
9110.148112105
 20
4101.5818817915
 30
0.0
 11
9110.148112105
 21
4746.1818817915
 31
0.0
  0
LINE
  5
37E
330
1F
100
AcDbEntity
  8
0
  6
Continuous
 62
     7
370
    25
100
AcDbLine
 10
9113.248112105
 20
4746.1818817915
 30
0.0
 11
9113.248112105
 21
4101.5818817915
 31
0.0
  0
LINE
  5
37F
330
1F
100
AcDbEntity
  8
0
  6
Continuous
 62
     7
370
    25
100
AcDbLine
 10
9110.148112105
 20
4746.1818817915
 30
0.0
 11
9113.248112105
 21
4746.1818817915
 31
0.0
  0
ARC
  5
380
330
1F
100
AcDbEntity
  8
0
  6
Continuous
 62
     7
370
    25
100
AcDbCircle
 10
9112.348112105
 20
4768.8651080471
 30
0.0
 40
2.200000000000728
100
AcDbArc
 50
78.0
 51
180.0
  0
LINE
  5
381
330
1F
100
AcDbEntity
  8
0
  6
Continuous
 62
     7
370
    25
100
AcDbLine
 10
9112.8055178248
 20
4771.0170327688
 30
0.0
 11
9158.4055178248
 21
4761.3244535566
 31
0.0
  0
ARC
  5
382
330
1F
100
AcDbEntity
  8
0
  6
Continuous
 62
     7
370
    25
100
AcDbCircle
 10
9157.948112105
 20
4759.172528835
 30
0.0
 40
2.200000000000728
100
AcDbArc
 50
0.0
 51
78.0
  0
LINE
  5
383
330
1F
100
AcDbEntity
  8
0
  6
Continuous
 62
     7
370
    25
100
AcDbLine
 10
9160.148112105
 20
4759.172528835
 30
0.0
 11
9160.148112105
 21
4351.5818817915
 31
0.0
  0
LINE
  5
384
330
1F
100
AcDbEntity
  8
0
  6
Continuous
 62
     7
370
    25
100
AcDbLine
 10
9160.148112105
 20
4351.5818817915
 30
0.0
 11
9587.948112105
 21
4351.5818817915
 31
0.0
  0
ARC
  5
385
330
1F
100
AcDbEntity
  8
0
  6
Continuous
 62
     7
370
    25
100
AcDbCircle
 10
9587.948112105
 20
4349.3818817915
 30
0.0
 40
2.200000000000728
100
AcDbArc
 50
0.0
 51
90.0
  0
LINE
  5
386
330
1F
100
AcDbEntity
  8
0
  6
Continuous
 62
     7
370
    25
100
AcDbLine
 10
9590.148112105
 20
4349.3818817915
 30
0.0
 11
9590.148112105
 21
4326.5818817915
 31
0.0
  0
LINE
  5
387
330
1F
100
AcDbEntity
  8
0
  6
Continuous
 62
     7
370
    25
100
AcDbLine
 10
9590.148112105
 20
4326.5818817915
 30
0.0
 11
9587.148112105
 21
4326.5818817915
 31
0.0
  0
LINE
  5
388
330
1F
100
AcDbEntity
  8
0
  6
Continuous
 62
     7
370
    25
100
AcDbLine
 10
9587.148112105
 20
4326.5818817915
 30
0.0
 11
9587.148112105
 21
4326.5718817915
 31
0.0
  0
LINE
  5
389
330
1F
100
AcDbEntity
  8
0
  6
Continuous
 62
     7
370
    25
100
AcDbLine
 10
9587.148112105
 20
4101.5818817915
 30
0.0
 11
9587.148112105
 21
4326.5718817915
 31
0.0
  0
LINE
  5
38A
330
1F
100
AcDbEntity
  8
0
  6
Continuous
 62
     7
370
    25
100
AcDbLine
 10
9587.148112105
 20
4101.5818817915
 30
0.0
 11
9113.248112105
 21
4101.5818817915
 31
0.0
  0
LINE
  5
38B
330
1F
100
AcDbEntity
  8
0
  6
Continuous
 62
     7
370
    25
100
AcDbLine
 10
9113.248112105
 20
4746.1818817915
 30
0.0
 11
9114.248112105
 21
4746.1818817915
 31
0.0
  0
LINE
  5
38C
330
1F
100
AcDbEntity
  8
0
  6
Continuous
 62
     7
370
    25
100
AcDbLine
 10
9114.248112105
 20
4746.1818817915
 30
0.0
 11
9114.248112105
 21
4748.1818817915
 31
0.0
  0
LINE
  5
38D
330
1F
100
AcDbEntity
  8
0
  6
Continuous
 62
     7
370
    25
100
AcDbLine
 10
9114.248112105
 20
4748.1818817915
 30
0.0
 11
9110.148112105
 21
4748.1818817915
 31
0.0
  0
LINE
  5
38E
330
1F
100
AcDbEntity
  8
0
  6
Continuous
 62
     7
370
    25
100
AcDbLine
 10
9110.148112105
 20
4748.1818817915
 30
0.0
 11
9110.148112105
 21
4768.8651080471
 31
0.0
  0
LINE
  5
38F
330
1F
100
AcDbEntity
  8
0
  6
Continuous
 62
     7
370
    25
100
AcDbLine
 10
9590.248112105
 20
4101.5818817915
 30
0.0
 11
9590.248112105
 21
4326.5718817915
 31
0.0
  0
LINE
  5
390
330
1F
100
AcDbEntity
  8
0
  6
Continuous
 62
     7
370
    25
100
AcDbLine
 10
9590.248112105
 20
4101.5818817915
 30
0.0
 11
9587.148112105
 21
4101.5818817915
 31
0.0
  0
LINE
  5
391
330
1F
100
AcDbEntity
  8
0
  6
Continuous
 62
     7
370
    25
100
AcDbLine
 10
9587.148112105
 20
4326.5718817915
 30
0.0
 11
9590.248112105
 21
4326.5718817915
 31
0.0
  0
LINE
  5
392
330
1F
100
AcDbEntity
  8
0
  6
Continuous
 62
     7
370
    25
100
AcDbLine
 10
9111.348112105
 20
4748.1818817915
 30
0.0
 11
9111.348112105
 21
4746.5818817915
 31
0.0
  0
LINE
  5
393
330
1F
100
AcDbEntity
  8
0
  6
Continuous
 62
     7
370
    25
100
AcDbLine
 10
9110.148112105
 20
4746.5818817915
 30
0.0
 11
9111.348112105
 21
4746.5818817915
 31
0.0
  0
LINE
  5
394
330
1F
100
AcDbEntity
  8
0
  6
Continuous
 62
     7
370
    25
100
AcDbLine
 10
9110.148112105
 20
4748.1818817915
 30
0.0
 11
9110.148112105
 21
4746.5818817915
 31
0.0
  0
LINE
  5
395
330
1F
100
AcDbEntity
  8
0
  6
Continuous
 62
     7
370
    25
100
AcDbLine
 10
9169.0939440342
 20
4647.5818817874
 30
0.0
 11
9168.6481121051
 21
4647.5818817874
 31
0.0
  0
LINE
  5
396
330
1F
100
AcDbEntity
  8
0
  6
Continuous
 62
     7
370
    25
100
AcDbLine
 10
9171.6481121051
 20
4647.5818817874
 30
0.0
 11
9169.0939440342
 21
4647.5818817874
 31
0.0
  0
LINE
  5
397
330
1F
100
AcDbEntity
  8
0
  6
Continuous
 62
     7
370
    25
100
AcDbLine
 10
9162.6481121047
 20
4631.5818817916
 30
0.0
 11
9162.6481121047
 21
4691.5818817916
 31
0.0
  0
LINE
  5
398
330
1F
100
AcDbEntity
  8
0
  6
Continuous
 62
     7
370
    25
100
AcDbLine
 10
9163.1481121047
 20
4691.0818817916
 30
0.0
 11
9163.1481121047
 21
4632.0818817916
 31
0.0
  0
LINE
  5
399
330
1F
100
AcDbEntity
  8
0
  6
Continuous
 62
     7
370
    25
100
AcDbLine
 10
9162.6481121049
 20
4673.1538381477
 30
0.0
 11
9162.6481121049
 21
4691.581881791
 31
0.0
  0
LINE
  5
39A
330
1F
100
AcDbEntity
  8
0
  6
Continuous
 62
     7
370
    25
100
AcDbLine
 10
9162.6481121049
 20
4631.581881791
 30
0.0
 11
9162.6481121049
 21
4673.1538381477
 31
0.0
  0
LINE
  5
39B
330
1F
100
AcDbEntity
  8
0
  6
Continuous
 62
     7
370
    25
100
AcDbLine
 10
9163.1481121049
 20
4672.9609722084
 30
0.0
 11
9163.1481121049
 21
4632.081881791
 31
0.0
  0
LINE
  5
39C
330
1F
100
AcDbEntity
  8
0
  6
Continuous
 62
     7
370
    25
100
AcDbLine
 10
9163.1481121049
 20
4691.081881791
 30
0.0
 11
9163.1481121049
 21
4672.9609722084
 31
0.0
  0
LINE
  5
39D
330
1F
100
AcDbEntity
  8
0
  6
Continuous
 62
     7
370
    25
100
AcDbLine
 10
9328.1481121049
 20
4656.6921543336
 30
0.0
 11
9328.1481121049
 21
4675.581881791
 31
0.0
  0
LINE
  5
39E
330
1F
100
AcDbEntity
  8
0
  6
Continuous
 62
     7
370
    25
100
AcDbLine
 10
9294.1481121049
 20
4647.581881791
 30
0.0
 11
9328.1481121049
 21
4656.6921543336
 31
0.0
  0
ARC
  5
39F
330
1F
100
AcDbEntity
  8
0
  6
Continuous
 62
     7
370
    25
100
AcDbCircle
 10
9170.1481806543
 20
4633.6339205639
 30
0.0
 40
14.04520901178848
100
AcDbArc
 50
83.2537211424
 51
96.6618607906
  0
LINE
  5
3A0
330
1F
100
AcDbEntity
  8
0
  6
Continuous
 62
     7
370
    25
100
AcDbLine
 10
9329.1481121049
 20
4674.581881791
 30
0.0
 11
9329.1481121049
 21
4656.9601035261
 31
0.0
  0
LINE
  5
3A1
330
1F
100
AcDbEntity
  8
0
  6
Continuous
 62
     7
370
    25
100
AcDbLine
 10
9329.1481121049
 20
4656.9601035261
 30
0.0
 11
9328.1481121049
 21
4656.6921543336
 31
0.0
  0
LINE
  5
3A2
330
1F
100
AcDbEntity
  8
0
  6
Continuous
 62
     8
370
    25
100
AcDbLine
 10
9125.148112105
 20
4027.7298492081
 30
0.0
 11
9125.148112105
 21
3993.231467517
 31
0.0
  0
LINE
  5
3A3
330
1F
100
AcDbEntity
  8
0
  6
Continuous
 62
     8
370
    25
100
AcDbLine
 10
9125.148112105
 20
4073.231467517
 30
0.0
 11
9125.148112105
 21
4027.7298492081
 31
0.0
  0
LINE
  5
3A4
330
1F
100
AcDbEntity
  8
0
  6
Continuous
 62
     8
370
    25
100
AcDbLine
 10
9325.5418978248
 20
3927.9257916556
 30
0.0
 11
9379.7543263851
 21
3927.9257916556
 31
0.0
  0
LINE
  5
3A5
330
1F
100
AcDbEntity
  8
0
  6
Continuous
 62
     8
370
    25
100
AcDbLine
 10
9379.9575538601
 20
4052.5791096157
 30
0.0
 11
9327.4263583246
 21
4052.5791096157
 31
0.0
  0
LINE
  5
3A6
330
1F
100
AcDbEntity
  8
0
  6
Continuous
 62
     8
370
    25
100
AcDbLine
 10
9295.648112105
 20
4059.231467517
 30
0.0
 11
9295.648112105
 21
4007.231467517
 31
0.0
  0
LINE
  5
3A7
330
1F
100
AcDbEntity
  8
0
  6
Continuous
 62
     8
370
    25
100
AcDbLine
 10
9329.648112105
 20
4068.731467517
 30
0.0
 11
9375.648112105
 21
4068.731467517
 31
0.0
  0
LINE
  5
3A8
330
1F
100
AcDbEntity
  8
0
  6
Continuous
 62
     7
370
    25
100
AcDbLine
 10
6426.2527419145
 20
3713.009766833
 30
0.0
 11
6426.2527419145
 21
3723.009766833
 31
0.0
  0
LINE
  5
3A9
330
1F
100
AcDbEntity
  8
0
  6
Continuous
 62
     7
370
    25
100
AcDbLine
 10
6386.2527419145
 20
3723.009766833
 30
0.0
 11
6386.2527419145
 21
3713.009766833
 31
0.0
  0
LINE
  5
3AA
330
1F
100
AcDbEntity
  8
0
  6
Continuous
 62
     7
370
    25
100
AcDbLine
 10
6709.7527419145
 20
3663.009766833
 30
0.0
 11
6709.7527419145
 21
3662.509766833
 31
0.0
  0
LINE
  5
3AB
330
1F
100
AcDbEntity
  8
0
  6
Continuous
 62
     7
370
    25
100
AcDbLine
 10
6737.7527419145
 20
3662.509766833
 30
0.0
 11
6737.7527419145
 21
3663.009766833
 31
0.0
  0
LINE
  5
3AC
330
1F
100
AcDbEntity
  8
0
  6
Continuous
 62
     7
370
    25
100
AcDbLine
 10
6709.7527419145
 20
3662.509766833
 30
0.0
 11
6711.2527419145
 21
3661.009766833
 31
0.0
  0
LINE
  5
3AD
330
1F
100
AcDbEntity
  8
0
  6
Continuous
 62
     7
370
    25
100
AcDbLine
 10
6736.2527419145
 20
3661.009766833
 30
0.0
 11
6737.7527419145
 21
3662.509766833
 31
0.0
  0
LINE
  5
3AE
330
1F
100
AcDbEntity
  8
0
  6
Continuous
 62
     7
370
    25
100
AcDbLine
 10
7309.7527419145
 20
3663.009766833
 30
0.0
 11
7309.7527419145
 21
3662.509766833
 31
0.0
  0
LINE
  5
3AF
330
1F
100
AcDbEntity
  8
0
  6
Continuous
 62
     7
370
    25
100
AcDbLine
 10
7337.7527419145
 20
3662.509766833
 30
0.0
 11
7337.7527419145
 21
3663.009766833
 31
0.0
  0
LINE
  5
3B0
330
1F
100
AcDbEntity
  8
0
  6
Continuous
 62
     7
370
    25
100
AcDbLine
 10
7309.7527419145
 20
3662.509766833
 30
0.0
 11
7311.2527419145
 21
3661.009766833
 31
0.0
  0
LINE
  5
3B1
330
1F
100
AcDbEntity
  8
0
  6
Continuous
 62
     7
370
    25
100
AcDbLine
 10
7336.2527419145
 20
3661.009766833
 30
0.0
 11
7337.7527419145
 21
3662.509766833
 31
0.0
  0
LINE
  5
3B2
330
1F
100
AcDbEntity
  8
0
  6
Continuous
 62
     7
370
    25
100
AcDbLine
 10
8509.7527419145
 20
3662.509766833
 30
0.0
 11
8511.2527419145
 21
3661.009766833
 31
0.0
  0
LINE
  5
3B3
330
1F
100
AcDbEntity
  8
0
  6
Continuous
 62
     7
370
    25
100
AcDbLine
 10
8536.2527419145
 20
3661.009766833
 30
0.0
 11
8537.7527419145
 21
3662.509766833
 31
0.0
  0
LINE
  5
3B4
330
1F
100
AcDbEntity
  8
0
  6
Continuous
 62
     7
370
    25
100
AcDbLine
 10
8509.7527419145
 20
3663.009766833
 30
0.0
 11
8509.7527419145
 21
3662.509766833
 31
0.0
  0
LINE
  5
3B5
330
1F
100
AcDbEntity
  8
0
  6
Continuous
 62
     7
370
    25
100
AcDbLine
 10
8537.7527419145
 20
3662.509766833
 30
0.0
 11
8537.7527419145
 21
3663.009766833
 31
0.0
  0
LINE
  5
3B6
330
1F
100
AcDbEntity
  8
0
  6
Continuous
 62
     7
370
    25
100
AcDbLine
 10
7909.7527419145
 20
3662.509766833
 30
0.0
 11
7911.2527419145
 21
3661.009766833
 31
0.0
  0
LINE
  5
3B7
330
1F
100
AcDbEntity
  8
0
  6
Continuous
 62
     7
370
    25
100
AcDbLine
 10
7936.2527419145
 20
3661.009766833
 30
0.0
 11
7937.7527419145
 21
3662.509766833
 31
0.0
  0
LINE
  5
3B8
330
1F
100
AcDbEntity
  8
0
  6
Continuous
 62
     7
370
    25
100
AcDbLine
 10
7909.7527419145
 20
3663.009766833
 30
0.0
 11
7909.7527419145
 21
3662.509766833
 31
0.0
  0
LINE
  5
3B9
330
1F
100
AcDbEntity
  8
0
  6
Continuous
 62
     7
370
    25
100
AcDbLine
 10
7937.7527419145
 20
3662.509766833
 30
0.0
 11
7937.7527419145
 21
3663.009766833
 31
0.0
  0
LINE
  5
3BA
330
1F
100
AcDbEntity
  8
0
  6
Continuous
 62
     7
370
    25
100
AcDbLine
 10
6633.7527419147
 20
3660.5097668332
 30
0.0
 11
6633.7527419147
 21
3663.0097668332
 31
0.0
  0
LINE
  5
3BB
330
1F
100
AcDbEntity
  8
0
  6
Continuous
 62
     7
370
    25
100
AcDbLine
 10
6573.7527419147
 20
3663.0097668332
 30
0.0
 11
6573.7527419147
 21
3660.5097668332
 31
0.0
  0
LINE
  5
3BC
330
1F
100
AcDbEntity
  8
0
  6
Continuous
 62
     7
370
    25
100
AcDbLine
 10
6573.7527419147
 20
3660.5097668332
 30
0.0
 11
6574.2527419147
 21
3660.0097668332
 31
0.0
  0
LINE
  5
3BD
330
1F
100
AcDbEntity
  8
0
  6
Continuous
 62
     7
370
    25
100
AcDbLine
 10
6633.2527419147
 20
3660.0097668332
 30
0.0
 11
6633.7527419146
 21
3660.5097668332
 31
0.0
  0
LINE
  5
3BE
330
1F
100
AcDbEntity
  8
0
  6
Continuous
 62
     7
370
    25
100
AcDbLine
 10
7833.7527419167
 20
3660.5097668367
 30
0.0
 11
7833.7527419167
 21
3663.0097668367
 31
0.0
  0
LINE
  5
3BF
330
1F
100
AcDbEntity
  8
0
  6
Continuous
 62
     7
370
    25
100
AcDbLine
 10
7773.7527419167
 20
3663.0097668367
 30
0.0
 11
7773.7527419167
 21
3660.5097668367
 31
0.0
  0
LINE
  5
3C0
330
1F
100
AcDbEntity
  8
0
  6
Continuous
 62
     7
370
    25
100
AcDbLine
 10
7773.7527419167
 20
3660.5097668367
 30
0.0
 11
7774.2527419167
 21
3660.0097668367
 31
0.0
  0
LINE
  5
3C1
330
1F
100
AcDbEntity
  8
0
  6
Continuous
 62
     7
370
    25
100
AcDbLine
 10
7833.2527419167
 20
3660.0097668367
 30
0.0
 11
7833.7527419167
 21
3660.5097668367
 31
0.0
  0
LINE
  5
3C2
330
1F
100
AcDbEntity
  8
0
  6
Continuous
 62
     7
370
    25
100
AcDbLine
 10
8433.7527419167
 20
3660.5097668367
 30
0.0
 11
8433.7527419167
 21
3663.0097668367
 31
0.0
  0
LINE
  5
3C3
330
1F
100
AcDbEntity
  8
0
  6
Continuous
 62
     7
370
    25
100
AcDbLine
 10
8373.7527419167
 20
3663.0097668367
 30
0.0
 11
8373.7527419167
 21
3660.5097668367
 31
0.0
  0
LINE
  5
3C4
330
1F
100
AcDbEntity
  8
0
  6
Continuous
 62
     7
370
    25
100
AcDbLine
 10
8373.7527419167
 20
3660.5097668367
 30
0.0
 11
8374.2527419167
 21
3660.0097668367
 31
0.0
  0
LINE
  5
3C5
330
1F
100
AcDbEntity
  8
0
  6
Continuous
 62
     7
370
    25
100
AcDbLine
 10
8433.2527419167
 20
3660.0097668367
 30
0.0
 11
8433.7527419167
 21
3660.5097668367
 31
0.0
  0
LINE
  5
3C6
330
1F
100
AcDbEntity
  8
0
  6
Continuous
 62
     7
370
    25
100
AcDbLine
 10
7233.7527419167
 20
3660.5097668367
 30
0.0
 11
7233.7527419167
 21
3663.0097668367
 31
0.0
  0
LINE
  5
3C7
330
1F
100
AcDbEntity
  8
0
  6
Continuous
 62
     7
370
    25
100
AcDbLine
 10
7173.7527419167
 20
3663.0097668367
 30
0.0
 11
7173.7527419167
 21
3660.5097668367
 31
0.0
  0
LINE
  5
3C8
330
1F
100
AcDbEntity
  8
0
  6
Continuous
 62
     7
370
    25
100
AcDbLine
 10
7173.7527419167
 20
3660.5097668367
 30
0.0
 11
7174.2527419167
 21
3660.0097668367
 31
0.0
  0
LINE
  5
3C9
330
1F
100
AcDbEntity
  8
0
  6
Continuous
 62
     7
370
    25
100
AcDbLine
 10
7233.2527419167
 20
3660.0097668367
 30
0.0
 11
7233.7527419167
 21
3660.5097668367
 31
0.0
  0
LINE
  5
3CA
330
1F
100
AcDbEntity
  8
0
  6
Continuous
 62
     7
370
    25
100
AcDbLine
 10
7189.7527419121
 20
3660.0097668348
 30
0.0
 11
7189.7527419121
 21
3495.0097668348
 31
0.0
  0
LINE
  5
3CB
330
1F
100
AcDbEntity
  8
0
  6
Continuous
 62
     7
370
    25
100
AcDbLine
 10
7217.7527419121
 20
3495.0097668348
 30
0.0
 11
7217.7527419121
 21
3660.0097668348
 31
0.0
  0
LINE
  5
3CC
330
1F
100
AcDbEntity
  8
0
  6
Continuous
 62
     7
370
    25
100
AcDbLine
 10
7189.7527419121
 20
3495.0097668348
 30
0.0
 11
7190.7527419121
 21
3494.0097668348
 31
0.0
  0
LINE
  5
3CD
330
1F
100
AcDbEntity
  8
0
  6
Continuous
 62
     7
370
    25
100
AcDbLine
 10
7216.7527419121
 20
3494.0097668348
 30
0.0
 11
7217.7527419121
 21
3495.0097668348
 31
0.0
  0
LINE
  5
3CE
330
1F
100
AcDbEntity
  8
0
  6
Continuous
 62
     7
370
    25
100
AcDbLine
 10
8389.7527419121
 20
3660.0097668348
 30
0.0
 11
8389.7527419121
 21
3495.0097668348
 31
0.0
  0
LINE
  5
3CF
330
1F
100
AcDbEntity
  8
0
  6
Continuous
 62
     7
370
    25
100
AcDbLine
 10
8417.7527419121
 20
3495.0097668348
 30
0.0
 11
8417.7527419121
 21
3660.0097668348
 31
0.0
  0
LINE
  5
3D0
330
1F
100
AcDbEntity
  8
0
  6
Continuous
 62
     7
370
    25
100
AcDbLine
 10
8389.7527419121
 20
3495.0097668348
 30
0.0
 11
8390.7527419121
 21
3494.0097668348
 31
0.0
  0
LINE
  5
3D1
330
1F
100
AcDbEntity
  8
0
  6
Continuous
 62
     7
370
    25
100
AcDbLine
 10
8416.7527419121
 20
3494.0097668348
 30
0.0
 11
8417.7527419121
 21
3495.0097668348
 31
0.0
  0
LINE
  5
3D2
330
1F
100
AcDbEntity
  8
0
  6
Continuous
 62
     7
370
    25
100
AcDbLine
 10
7789.7527419121
 20
3660.0097668348
 30
0.0
 11
7789.7527419121
 21
3495.0097668348
 31
0.0
  0
LINE
  5
3D3
330
1F
100
AcDbEntity
  8
0
  6
Continuous
 62
     7
370
    25
100
AcDbLine
 10
7817.7527419121
 20
3495.0097668348
 30
0.0
 11
7817.7527419121
 21
3660.0097668348
 31
0.0
  0
LINE
  5
3D4
330
1F
100
AcDbEntity
  8
0
  6
Continuous
 62
     7
370
    25
100
AcDbLine
 10
7789.7527419121
 20
3495.0097668348
 30
0.0
 11
7790.7527419121
 21
3494.0097668348
 31
0.0
  0
LINE
  5
3D5
330
1F
100
AcDbEntity
  8
0
  6
Continuous
 62
     7
370
    25
100
AcDbLine
 10
7816.7527419121
 20
3494.0097668348
 30
0.0
 11
7817.7527419121
 21
3495.0097668348
 31
0.0
  0
LINE
  5
3D6
330
1F
100
AcDbEntity
  8
0
  6
Continuous
 62
     7
370
    25
100
AcDbLine
 10
6589.7527419144
 20
3660.0097668331
 30
0.0
 11
6589.7527419144
 21
3495.0097668331
 31
0.0
  0
LINE
  5
3D7
330
1F
100
AcDbEntity
  8
0
  6
Continuous
 62
     7
370
    25
100
AcDbLine
 10
6617.7527419144
 20
3495.0097668331
 30
0.0
 11
6617.7527419144
 21
3660.0097668331
 31
0.0
  0
LINE
  5
3D8
330
1F
100
AcDbEntity
  8
0
  6
Continuous
 62
     7
370
    25
100
AcDbLine
 10
6589.7527419144
 20
3495.0097668331
 30
0.0
 11
6590.7527419144
 21
3494.0097668331
 31
0.0
  0
LINE
  5
3D9
330
1F
100
AcDbEntity
  8
0
  6
Continuous
 62
     7
370
    25
100
AcDbLine
 10
6616.7527419144
 20
3494.0097668331
 30
0.0
 11
6617.7527419144
 21
3495.0097668331
 31
0.0
  0
ARC
  5
3DA
330
1F
100
AcDbEntity
  8
0
  6
Continuous
 62
     7
370
    25
100
AcDbCircle
 10
6406.2527419145
 20
3470.509766833
 30
0.0
 40
5.250000000000581
100
AcDbArc
 50
12.0173291624
 51
175.590907759
  0
LINE
  5
3DB
330
1F
100
AcDbEntity
  8
0
  6
Continuous
 62
     7
370
    25
100
AcDbLine
 10
6411.3876864473
 20
3471.6028563286
 30
0.0
 11
6401.0182789474
 21
3470.9133723903
 31
0.0
  0
ARC
  5
3DC
330
1F
100
AcDbEntity
  8
0
  6
Continuous
 62
     7
370
    25
100
AcDbCircle
 10
6406.2527419145
 20
3470.509766833
 30
0.0
 40
5.250000000000369
100
AcDbArc
 50
192.0173291624
 51
355.590907759
  0
LINE
  5
3DD
330
1F
100
AcDbEntity
  8
0
  6
Continuous
 62
     7
370
    25
100
AcDbLine
 10
6401.1177973818
 20
3469.4166773375
 30
0.0
 11
6411.4872048816
 21
3470.1061612758
 31
0.0
  0
ARC
  5
3DE
330
1F
100
AcDbEntity
  8
0
  6
Continuous
 62
     7
370
    25
100
AcDbCircle
 10
6406.2527419145
 20
3470.509766833
 30
0.0
 40
5.249999999998897
100
AcDbArc
 50
175.590907759
 51
192.0173291624
  0
ARC
  5
3DF
330
1F
100
AcDbEntity
  8
0
  6
Continuous
 62
     7
370
    25
100
AcDbCircle
 10
6406.2527419145
 20
3470.509766833
 30
0.0
 40
5.250000000000581
100
AcDbArc
 50
355.590907759
 51
12.0173291624
  0
CIRCLE
  5
3E0
330
1F
100
AcDbEntity
  8
0
  6
Continuous
 62
     7
370
    25
100
AcDbCircle
 10
6406.2527419145
 20
3470.509766833
 30
0.0
 40
24.49999999999909
  0
CIRCLE
  5
3E1
330
1F
100
AcDbEntity
  8
0
  6
Continuous
 62
     7
370
    25
100
AcDbCircle
 10
6406.2527419145
 20
3470.509766833
 30
0.0
 40
34.99999999999909
  0
CIRCLE
  5
3E2
330
1F
100
AcDbEntity
  8
0
  6
Continuous
 62
     7
370
    25
100
AcDbCircle
 10
6406.2527419145
 20
3470.509766833
 30
0.0
 40
22.49999999999909
  0
CIRCLE
  5
3E3
330
1F
100
AcDbEntity
  8
0
  6
Continuous
 62
     7
370
    25
100
AcDbCircle
 10
6406.2527419145
 20
3470.509766833
 30
0.0
 40
21.49999999999909
  0
CIRCLE
  5
3E4
330
1F
100
AcDbEntity
  8
0
  6
Continuous
 62
     7
370
    25
100
AcDbCircle
 10
6406.2527419145
 20
3470.509766833
 30
0.0
 40
19.5529899245621
  0
CIRCLE
  5
3E5
330
1F
100
AcDbEntity
  8
0
  6
Continuous
 62
     7
370
    25
100
AcDbCircle
 10
6406.2527419145
 20
3470.509766833
 30
0.0
 40
6.182050807568885
  0
ARC
  5
3E6
330
1F
100
AcDbEntity
  8
0
  6
Continuous
 62
     7
370
    25
100
AcDbCircle
 10
6406.2527419145
 20
3470.509766833
 30
0.0
 40
19.49999999999958
100
AcDbArc
 50
166.9496950603
 51
193.0503049397
  0
ARC
  5
3E7
330
1F
100
AcDbEntity
  8
0
  6
Continuous
 62
     7
370
    25
100
AcDbCircle
 10
6391.153073044
 20
3467.009766833
 30
0.0
 40
4.000000000000179
100
AcDbArc
 50
193.0503049397
 51
13.0503049397
  0
ARC
  5
3E8
330
1F
100
AcDbEntity
  8
0
  6
Continuous
 62
     7
370
    25
100
AcDbCircle
 10
6406.2527419145
 20
3470.509766833
 30
0.0
 40
11.49999999999932
100
AcDbArc
 50
166.9496950603
 51
193.0503049397
  0
ARC
  5
3E9
330
1F
100
AcDbEntity
  8
0
  6
Continuous
 62
     7
370
    25
100
AcDbCircle
 10
6391.153073044
 20
3474.009766833
 30
0.0
 40
4.000000000000179
100
AcDbArc
 50
346.9496950603
 51
166.9496950603
  0
ARC
  5
3EA
330
1F
100
AcDbEntity
  8
0
  6
Continuous
 62
     7
370
    25
100
AcDbCircle
 10
6406.2527419145
 20
3470.509766833
 30
0.0
 40
19.50000000000023
100
AcDbArc
 50
256.9496950603
 51
283.0503049397
  0
ARC
  5
3EB
330
1F
100
AcDbEntity
  8
0
  6
Continuous
 62
     7
370
    25
100
AcDbCircle
 10
6409.7527419145
 20
3455.4100979625
 30
0.0
 40
4.000000000000179
100
AcDbArc
 50
283.0503049397
 51
103.0503049397
  0
ARC
  5
3EC
330
1F
100
AcDbEntity
  8
0
  6
Continuous
 62
     7
370
    25
100
AcDbCircle
 10
6406.2527419145
 20
3470.509766833
 30
0.0
 40
11.50000000000031
100
AcDbArc
 50
256.9496950603
 51
283.0503049397
  0
ARC
  5
3ED
330
1F
100
AcDbEntity
  8
0
  6
Continuous
 62
     7
370
    25
100
AcDbCircle
 10
6402.7527419145
 20
3455.4100979625
 30
0.0
 40
4.000000000000384
100
AcDbArc
 50
76.9496950603
 51
256.9496950603
  0
ARC
  5
3EE
330
1F
100
AcDbEntity
  8
0
  6
Continuous
 62
     7
370
    25
100
AcDbCircle
 10
6406.2527419145
 20
3470.509766833
 30
0.0
 40
19.50000000000046
100
AcDbArc
 50
346.9496950603
 51
13.0503049397
  0
ARC
  5
3EF
330
1F
100
AcDbEntity
  8
0
  6
Continuous
 62
     7
370
    25
100
AcDbCircle
 10
6421.3524107851
 20
3474.009766833
 30
0.0
 40
4.000000000001065
100
AcDbArc
 50
13.0503049397
 51
193.0503049397
  0
ARC
  5
3F0
330
1F
100
AcDbEntity
  8
0
  6
Continuous
 62
     7
370
    25
100
AcDbCircle
 10
6406.2527419145
 20
3470.509766833
 30
0.0
 40
11.5000000000001
100
AcDbArc
 50
346.9496950603
 51
13.0503049397
  0
ARC
  5
3F1
330
1F
100
AcDbEntity
  8
0
  6
Continuous
 62
     7
370
    25
100
AcDbCircle
 10
6421.3524107851
 20
3467.009766833
 30
0.0
 40
4.000000000001065
100
AcDbArc
 50
166.9496950603
 51
346.9496950603
  0
ARC
  5
3F2
330
1F
100
AcDbEntity
  8
0
  6
Continuous
 62
     7
370
    25
100
AcDbCircle
 10
6406.2527419145
 20
3470.509766833
 30
0.0
 40
11.49999999999987
100
AcDbArc
 50
76.9496950603
 51
103.0503049397
  0
ARC
  5
3F3
330
1F
100
AcDbEntity
  8
0
  6
Continuous
 62
     7
370
    25
100
AcDbCircle
 10
6409.7527419145
 20
3485.6094357036
 30
0.0
 40
4.000000000000179
100
AcDbArc
 50
256.9496950603
 51
76.9496950603
  0
ARC
  5
3F4
330
1F
100
AcDbEntity
  8
0
  6
Continuous
 62
     7
370
    25
100
AcDbCircle
 10
6402.7527419145
 20
3485.6094357036
 30
0.0
 40
4.000000000000384
100
AcDbArc
 50
103.0503049397
 51
283.0503049397
  0
ARC
  5
3F5
330
1F
100
AcDbEntity
  8
0
  6
Continuous
 62
     7
370
    25
100
AcDbCircle
 10
6406.2527419145
 20
3470.509766833
 30
0.0
 40
19.50000000000023
100
AcDbArc
 50
76.9496950603
 51
103.0503049397
  0
CIRCLE
  5
3F6
330
1F
100
AcDbEntity
  8
0
  6
Continuous
 62
     7
370
    25
100
AcDbCircle
 10
6406.2527419145
 20
3470.509766833
 30
0.0
 40
5.682050807567975
  0
LINE
  5
3F7
330
1F
100
AcDbEntity
  8
0
  6
Continuous
 62
     7
370
    25
100
AcDbLine
 10
6426.2527419145
 20
3723.009766833
 30
0.0
 11
6386.2527419145
 21
3723.009766833
 31
0.0
  0
LINE
  5
3F8
330
1F
100
AcDbEntity
  8
0
  6
Continuous
 62
     7
370
    25
100
AcDbLine
 10
6421.1655599024
 20
3463.0141333729
 30
0.0
 11
6417.9855161457
 21
3464.8501324918
 31
0.0
  0
LINE
  5
3F9
330
1F
100
AcDbEntity
  8
0
  6
Continuous
 62
     7
370
    25
100
AcDbLine
 10
6394.5199676833
 20
3464.8501324918
 30
0.0
 11
6391.3399239267
 21
3463.0141333729
 31
0.0
  0
LINE
  5
3FA
330
1F
100
AcDbEntity
  8
0
  6
Continuous
 62
     7
370
    25
100
AcDbLine
 10
6405.2877419145
 20
3487.4429316948
 30
0.0
 11
6405.2877419145
 21
3481.9692072644
 31
0.0
  0
LINE
  5
3FB
330
1F
100
AcDbEntity
  8
0
  6
Continuous
 62
     7
370
    25
100
AcDbLine
 10
6407.2177419145
 20
3487.4429316948
 30
0.0
 11
6405.2877419145
 21
3487.4429316948
 31
0.0
  0
LINE
  5
3FC
330
1F
100
AcDbEntity
  8
0
  6
Continuous
 62
     7
370
    25
100
AcDbLine
 10
6407.2177419145
 20
3481.9692072644
 30
0.0
 11
6407.2177419145
 21
3487.4429316948
 31
0.0
  0
ARC
  5
3FD
330
1F
100
AcDbEntity
  8
0
  6
Continuous
 62
     7
370
    25
100
AcDbCircle
 10
6406.2527419145
 20
3470.509766833
 30
0.0
 40
14.50000000000048
100
AcDbArc
 50
242.1062884377
 51
297.8937115677
  0
ARC
  5
3FE
330
1F
100
AcDbEntity
  8
0
  6
Continuous
 62
     7
370
    25
100
AcDbCircle
 10
6406.2527419145
 20
3470.509766833
 30
0.0
 40
14.49999999999986
100
AcDbArc
 50
93.815953349
 51
117.8937115438
  0
ARC
  5
3FF
330
1F
100
AcDbEntity
  8
0
  6
Continuous
 62
     7
370
    25
100
AcDbCircle
 10
6406.2527419145
 20
3470.509766833
 30
0.0
 40
14.4999999999996
100
AcDbArc
 50
152.1062884441
 51
206.184046651
  0
ARC
  5
400
330
1F
100
AcDbEntity
  8
0
  6
Continuous
 62
     7
370
    25
100
AcDbCircle
 10
6406.2527419145
 20
3470.509766833
 30
0.0
 40
14.50000000000073
100
AcDbArc
 50
333.815953349
 51
27.8937115566
  0
ARC
  5
401
330
1F
100
AcDbEntity
  8
0
  6
Continuous
 62
     7
370
    25
100
AcDbCircle
 10
6406.2527419145
 20
3470.509766833
 30
0.0
 40
14.50000000000015
100
AcDbArc
 50
62.1062884536
 51
86.184046651
  0
LINE
  5
402
330
1F
100
AcDbEntity
  8
0
  6
Continuous
 62
     7
370
    25
100
AcDbLine
 10
8707.1027419145
 20
3232.9097668331
 30
0.0
 11
6300.4027419145
 21
3232.9097668331
 31
0.0
  0
LINE
  5
403
330
1F
100
AcDbEntity
  8
0
  6
Continuous
 62
     7
370
    25
100
AcDbLine
 10
6300.4027419145
 20
3232.9097668331
 30
0.0
 11
6300.4027419145
 21
3233.009766833
 31
0.0
  0
LINE
  5
404
330
1F
100
AcDbEntity
  8
0
  6
Continuous
 62
     7
370
    25
100
AcDbLine
 10
8707.1027419145
 20
3232.9097668331
 30
0.0
 11
8707.1027419145
 21
3233.009766833
 31
0.0
  0
LWPOLYLINE
  5
405
330
1F
100
AcDbEntity
  8
0
  6
Continuous
 62
     7
370
    25
100
AcDbPolyline
 90
        3
 70
   128
 43
0.0
 10
6299.8370564896
 20
3233.009766833
 10
6300.0808428832
 20
3232.9414711204
 10
6300.4027419145
 20
3232.9097668331
  0
LWPOLYLINE
  5
406
330
1F
100
AcDbEntity
  8
0
  6
Continuous
 62
     7
370
    25
100
AcDbPolyline
 90
        3
 70
   128
 43
0.0
 10
8707.1027419145
 20
3232.9097668331
 10
8707.4246409459
 20
3232.9414711204
 10
8707.6684273394
 20
3233.009766833
  0
LINE
  5
407
330
1F
100
AcDbEntity
  8
0
  6
Continuous
 62
     7
370
    25
100
AcDbLine
 10
8753.7527419145
 20
3713.009766833
 30
0.0
 11
8751.7527419145
 21
3713.009766833
 31
0.0
  0
LINE
  5
408
330
1F
100
AcDbEntity
  8
0
  6
Continuous
 62
     7
370
    25
100
AcDbLine
 10
8753.7527419145
 20
3713.009766833
 30
0.0
 11
8753.7527419145
 21
3710.3523611132
 31
0.0
  0
LINE
  5
409
330
1F
100
AcDbEntity
  8
0
  6
Continuous
 62
     7
370
    25
100
AcDbLine
 10
8753.7527419145
 20
3710.3523611132
 30
0.0
 11
8751.7527419145
 21
3710.3523611132
 31
0.0
  0
LINE
  5
40A
330
1F
100
AcDbEntity
  8
0
  6
Continuous
 62
     7
370
    25
100
AcDbLine
 10
8751.7527419145
 20
3713.009766833
 30
0.0
 11
8751.7527419145
 21
3710.3523611132
 31
0.0
  0
LINE
  5
40B
330
1F
100
AcDbEntity
  8
0
  6
Continuous
 62
     7
370
    25
100
AcDbLine
 10
8753.7527419145
 20
3664.7523611132
 30
0.0
 11
8751.7527419145
 21
3664.7523611132
 31
0.0
  0
LINE
  5
40C
330
1F
100
AcDbEntity
  8
0
  6
Continuous
 62
     7
370
    25
100
AcDbLine
 10
8751.7527419145
 20
3710.3523611132
 30
0.0
 11
8751.7527419145
 21
3664.7523611132
 31
0.0
  0
LINE
  5
40D
330
1F
100
AcDbEntity
  8
0
  6
Continuous
 62
     7
370
    25
100
AcDbLine
 10
8753.7527419145
 20
3710.3523611132
 30
0.0
 11
8753.7527419145
 21
3664.7523611132
 31
0.0
  0
LINE
  5
40E
330
1F
100
AcDbEntity
  8
0
  6
Continuous
 62
     7
370
    25
100
AcDbLine
 10
8753.7527419145
 20
3663.009766833
 30
0.0
 11
8751.7527419145
 21
3663.009766833
 31
0.0
  0
LINE
  5
40F
330
1F
100
AcDbEntity
  8
0
  6
Continuous
 62
     7
370
    25
100
AcDbLine
 10
8751.7527419145
 20
3664.7523611132
 30
0.0
 11
8751.7527419145
 21
3663.009766833
 31
0.0
  0
LINE
  5
410
330
1F
100
AcDbEntity
  8
0
  6
Continuous
 62
     7
370
    25
100
AcDbLine
 10
8753.7527419145
 20
3664.7523611132
 30
0.0
 11
8753.7527419145
 21
3663.009766833
 31
0.0
  0
LINE
  5
411
330
1F
100
AcDbEntity
  8
0
  6
Continuous
 62
     7
370
    25
100
AcDbLine
 10
8753.7527419145
 20
3235.209766833
 30
0.0
 11
8751.7527419145
 21
3235.209766833
 31
0.0
  0
LINE
  5
412
330
1F
100
AcDbEntity
  8
0
  6
Continuous
 62
     7
370
    25
100
AcDbLine
 10
8751.7527419145
 20
3663.009766833
 30
0.0
 11
8751.7527419145
 21
3235.209766833
 31
0.0
  0
LINE
  5
413
330
1F
100
AcDbEntity
  8
0
  6
Continuous
 62
     7
370
    25
100
AcDbLine
 10
8753.7527419145
 20
3663.009766833
 30
0.0
 11
8753.7527419145
 21
3235.209766833
 31
0.0
  0
LINE
  5
414
330
1F
100
AcDbEntity
  8
0
  6
Continuous
 62
     7
370
    25
100
AcDbLine
 10
8753.7527419145
 20
3233.009766833
 30
0.0
 11
8751.7527419145
 21
3233.009766833
 31
0.0
  0
LINE
  5
415
330
1F
100
AcDbEntity
  8
0
  6
Continuous
 62
     7
370
    25
100
AcDbLine
 10
8751.7527419145
 20
3235.209766833
 30
0.0
 11
8751.7527419145
 21
3233.009766833
 31
0.0
  0
LINE
  5
416
330
1F
100
AcDbEntity
  8
0
  6
Continuous
 62
     7
370
    25
100
AcDbLine
 10
8753.7527419145
 20
3235.209766833
 30
0.0
 11
8753.7527419145
 21
3233.009766833
 31
0.0
  0
LWPOLYLINE
  5
417
330
1F
100
AcDbEntity
  8
0
  6
Continuous
 62
     7
370
    25
100
AcDbPolyline
 90
        3
 70
   128
 43
0.0
 10
8751.4337668821
 20
3233.009766833
 10
8751.2575219128
 20
3232.9693324638
 10
8750.6527419145
 20
3232.909766833
  0
LINE
  5
418
330
1F
100
AcDbEntity
  8
0
  6
Continuous
 62
     7
370
    25
100
AcDbLine
 10
8750.6527419145
 20
3232.909766833
 30
0.0
 11
8711.8527419145
 21
3232.9097668331
 31
0.0
  0
LWPOLYLINE
  5
419
330
1F
100
AcDbEntity
  8
0
  6
Continuous
 62
     7
370
    25
100
AcDbPolyline
 90
        3
 70
   128
 43
0.0
 10
8711.071716947
 20
3233.009766833
 10
8711.2479619163
 20
3232.9693324638
 10
8711.8527419145
 20
3232.9097668331
  0
LINE
  5
41A
330
1F
100
AcDbEntity
  8
0
  6
Continuous
 62
     7
370
    25
100
AcDbLine
 10
6253.7527419145
 20
3710.3523611132
 30
0.0
 11
6255.7527419145
 21
3710.3523611132
 31
0.0
  0
LINE
  5
41B
330
1F
100
AcDbEntity
  8
0
  6
Continuous
 62
     7
370
    25
100
AcDbLine
 10
6253.7527419145
 20
3713.009766833
 30
0.0
 11
6253.7527419145
 21
3710.3523611132
 31
0.0
  0
LINE
  5
41C
330
1F
100
AcDbEntity
  8
0
  6
Continuous
 62
     7
370
    25
100
AcDbLine
 10
6253.7527419145
 20
3713.009766833
 30
0.0
 11
6255.7527419145
 21
3713.009766833
 31
0.0
  0
LINE
  5
41D
330
1F
100
AcDbEntity
  8
0
  6
Continuous
 62
     7
370
    25
100
AcDbLine
 10
6255.7527419145
 20
3713.009766833
 30
0.0
 11
6255.7527419145
 21
3710.3523611132
 31
0.0
  0
LINE
  5
41E
330
1F
100
AcDbEntity
  8
0
  6
Continuous
 62
     7
370
    25
100
AcDbLine
 10
6253.7527419145
 20
3664.7523611132
 30
0.0
 11
6255.7527419145
 21
3664.7523611132
 31
0.0
  0
LINE
  5
41F
330
1F
100
AcDbEntity
  8
0
  6
Continuous
 62
     7
370
    25
100
AcDbLine
 10
6255.7527419145
 20
3710.3523611132
 30
0.0
 11
6255.7527419145
 21
3664.7523611132
 31
0.0
  0
LINE
  5
420
330
1F
100
AcDbEntity
  8
0
  6
Continuous
 62
     7
370
    25
100
AcDbLine
 10
6253.7527419145
 20
3710.3523611132
 30
0.0
 11
6253.7527419145
 21
3664.7523611132
 31
0.0
  0
LINE
  5
421
330
1F
100
AcDbEntity
  8
0
  6
Continuous
 62
     7
370
    25
100
AcDbLine
 10
6253.7527419145
 20
3663.009766833
 30
0.0
 11
6255.7527419145
 21
3663.009766833
 31
0.0
  0
LINE
  5
422
330
1F
100
AcDbEntity
  8
0
  6
Continuous
 62
     7
370
    25
100
AcDbLine
 10
6255.7527419145
 20
3664.7523611132
 30
0.0
 11
6255.7527419145
 21
3663.009766833
 31
0.0
  0
LINE
  5
423
330
1F
100
AcDbEntity
  8
0
  6
Continuous
 62
     7
370
    25
100
AcDbLine
 10
6253.7527419145
 20
3664.7523611132
 30
0.0
 11
6253.7527419145
 21
3663.009766833
 31
0.0
  0
LINE
  5
424
330
1F
100
AcDbEntity
  8
0
  6
Continuous
 62
     7
370
    25
100
AcDbLine
 10
6253.7527419145
 20
3235.209766833
 30
0.0
 11
6255.7527419145
 21
3235.209766833
 31
0.0
  0
LINE
  5
425
330
1F
100
AcDbEntity
  8
0
  6
Continuous
 62
     7
370
    25
100
AcDbLine
 10
6255.7527419145
 20
3663.009766833
 30
0.0
 11
6255.7527419145
 21
3235.209766833
 31
0.0
  0
LINE
  5
426
330
1F
100
AcDbEntity
  8
0
  6
Continuous
 62
     7
370
    25
100
AcDbLine
 10
6253.7527419145
 20
3663.009766833
 30
0.0
 11
6253.7527419145
 21
3235.209766833
 31
0.0
  0
LINE
  5
427
330
1F
100
AcDbEntity
  8
0
  6
Continuous
 62
     7
370
    25
100
AcDbLine
 10
6253.7527419145
 20
3233.009766833
 30
0.0
 11
6255.7527419145
 21
3233.009766833
 31
0.0
  0
LINE
  5
428
330
1F
100
AcDbEntity
  8
0
  6
Continuous
 62
     7
370
    25
100
AcDbLine
 10
6255.7527419145
 20
3235.209766833
 30
0.0
 11
6255.7527419145
 21
3233.009766833
 31
0.0
  0
LINE
  5
429
330
1F
100
AcDbEntity
  8
0
  6
Continuous
 62
     7
370
    25
100
AcDbLine
 10
6253.7527419145
 20
3235.209766833
 30
0.0
 11
6253.7527419145
 21
3233.009766833
 31
0.0
  0
LWPOLYLINE
  5
42A
330
1F
100
AcDbEntity
  8
0
  6
Continuous
 62
     7
370
    25
100
AcDbPolyline
 90
        3
 70
   128
 43
0.0
 10
6256.0717169469
 20
3233.009766833
 10
6256.2479619163
 20
3232.9693324638
 10
6256.8527419145
 20
3232.909766833
  0
LINE
  5
42B
330
1F
100
AcDbEntity
  8
0
  6
Continuous
 62
     7
370
    25
100
AcDbLine
 10
6256.8527419145
 20
3232.909766833
 30
0.0
 11
6295.6527419145
 21
3232.9097668331
 31
0.0
  0
LWPOLYLINE
  5
42C
330
1F
100
AcDbEntity
  8
0
  6
Continuous
 62
     7
370
    25
100
AcDbPolyline
 90
        3
 70
   128
 43
0.0
 10
6296.4337668821
 20
3233.009766833
 10
6296.2575219128
 20
3232.9693324638
 10
6295.6527419145
 20
3232.9097668331
  0
LINE
  5
42D
330
1F
100
AcDbEntity
  8
0
  6
Continuous
 62
     7
370
    25
100
AcDbLine
 10
8751.7527419145
 20
3713.009766833
 30
0.0
 11
6255.7527419145
 21
3713.009766833
 31
0.0
  0
LINE
  5
42E
330
1F
100
AcDbEntity
  8
0
  6
Continuous
 62
     7
370
    25
100
AcDbLine
 10
6255.7527419145
 20
3710.3523611132
 30
0.0
 11
8751.7527419145
 21
3710.3523611132
 31
0.0
  0
LINE
  5
42F
330
1F
100
AcDbEntity
  8
0
  6
Continuous
 62
     7
370
    25
100
AcDbLine
 10
8751.7527419145
 20
3664.7523611132
 30
0.0
 11
6255.7527419145
 21
3664.7523611132
 31
0.0
  0
LINE
  5
430
330
1F
100
AcDbEntity
  8
0
  6
Continuous
 62
     7
370
    25
100
AcDbLine
 10
6255.7527419145
 20
3663.009766833
 30
0.0
 11
8751.7527419145
 21
3663.009766833
 31
0.0
  0
LINE
  5
431
330
1F
100
AcDbEntity
  8
0
  6
Continuous
 62
     7
370
    25
100
AcDbLine
 10
8751.7527419145
 20
3278.009766833
 30
0.0
 11
6255.7527419145
 21
3278.009766833
 31
0.0
  0
LINE
  5
432
330
1F
100
AcDbEntity
  8
0
  6
Continuous
 62
     7
370
    25
100
AcDbLine
 10
6255.7527419145
 20
3275.809766833
 30
0.0
 11
8751.7527419145
 21
3275.809766833
 31
0.0
  0
LINE
  5
433
330
1F
100
AcDbEntity
  8
0
  6
Continuous
 62
     7
370
    25
100
AcDbLine
 10
8751.7527419145
 20
3235.209766833
 30
0.0
 11
6255.7527419145
 21
3235.209766833
 31
0.0
  0
LINE
  5
434
330
1F
100
AcDbEntity
  8
0
  6
Continuous
 62
     7
370
    25
100
AcDbLine
 10
8751.7527419145
 20
3235.209766833
 30
0.0
 11
8751.7527419145
 21
3275.809766833
 31
0.0
  0
LINE
  5
435
330
1F
100
AcDbEntity
  8
0
  6
Continuous
 62
     7
370
    25
100
AcDbLine
 10
6255.7527419145
 20
3235.209766833
 30
0.0
 11
6255.7527419145
 21
3275.809766833
 31
0.0
  0
LINE
  5
436
330
1F
100
AcDbEntity
  8
0
  6
Continuous
 62
     7
370
    25
100
AcDbLine
 10
6255.7527419145
 20
3233.009766833
 30
0.0
 11
8751.7527419145
 21
3233.009766833
 31
0.0
  0
LINE
  5
437
330
1F
100
AcDbEntity
  8
0
  6
Continuous
 62
     7
370
    25
100
AcDbLine
 10
8751.7527419145
 20
3278.35213614
 30
0.0
 11
6255.7527419145
 21
3278.35213614
 31
0.0
  0
LINE
  5
438
330
1F
100
AcDbEntity
  8
0
  6
Continuous
 62
     7
370
    25
100
AcDbLine
 10
6255.7527419145
 20
3403.727209152
 30
0.0
 11
8751.7527419145
 21
3403.727209152
 31
0.0
  0
LINE
  5
439
330
1F
100
AcDbEntity
  8
0
  6
Continuous
 62
     7
370
    25
100
AcDbLine
 10
8751.7527419145
 20
3404.384839845
 30
0.0
 11
6255.7527419145
 21
3404.384839845
 31
0.0
  0
LWPOLYLINE
  5
43A
330
1F
100
AcDbEntity
  8
0
  6
Continuous
 62
     7
370
    25
100
AcDbPolyline
 90
       37
 70
   128
 43
0.0
 10
6375.7527419145
 20
3676.3415275201
 10
6377.8365200465
 20
3676.5198506394
 10
6379.8569836344
 20
3677.0494017395
 10
6381.7527419145
 20
3677.9140906783
 10
6383.4661932308
 20
3679.0876443198
 10
6384.945275232
 20
3680.5344048306
 10
6386.1450467599
 20
3682.2104131245
 10
6387.029053364
 20
3684.0647445378
 10
6387.5704349507
 20
3686.0410561486
 10
6387.7527419145
 20
3688.0792987289
 10
6387.5704349507
 20
3690.1175413092
 10
6387.029053364
 20
3692.0938529201
 10
6386.1450467599
 20
3693.9481843333
 10
6384.945275232
 20
3695.6241926273
 10
6383.4661932308
 20
3697.070953138
 10
6381.7527419145
 20
3698.2445067795
 10
6379.8569836344
 20
3699.1091957183
 10
6377.8365200465
 20
3699.6387468184
 10
6375.7527419145
 20
3699.8170699377
 10
6373.6689637825
 20
3699.6387468184
 10
6371.6485001946
 20
3699.1091957183
 10
6369.7527419145
 20
3698.2445067795
 10
6368.0392905983
 20
3697.070953138
 10
6366.5602085971
 20
3695.6241926273
 10
6365.3604370691
 20
3693.9481843333
 10
6364.4764304651
 20
3692.0938529201
 10
6363.9350488784
 20
3690.1175413092
 10
6363.7527419145
 20
3688.0792987289
 10
6363.9350488784
 20
3686.0410561486
 10
6364.4764304651
 20
3684.0647445378
 10
6365.3604370691
 20
3682.2104131245
 10
6366.5602085971
 20
3680.5344048306
 10
6368.0392905983
 20
3679.0876443198
 10
6369.7527419145
 20
3677.9140906783
 10
6371.6485001946
 20
3677.0494017395
 10
6373.6689637825
 20
3676.5198506394
 10
6375.7527419145
 20
3676.3415275201
  0
LINE
  5
43B
330
1F
100
AcDbEntity
  8
0
  6
Continuous
 62
     7
370
    25
100
AcDbLine
 10
6709.7527419145
 20
3662.509766833
 30
0.0
 11
6737.7527419145
 21
3662.509766833
 31
0.0
  0
LINE
  5
43C
330
1F
100
AcDbEntity
  8
0
  6
Continuous
 62
     7
370
    25
100
AcDbLine
 10
6736.2527419145
 20
3661.009766833
 30
0.0
 11
6711.2527419145
 21
3661.009766833
 31
0.0
  0
LINE
  5
43D
330
1F
100
AcDbEntity
  8
0
  6
Continuous
 62
     7
370
    25
100
AcDbLine
 10
7309.7527419145
 20
3662.509766833
 30
0.0
 11
7337.7527419145
 21
3662.509766833
 31
0.0
  0
LINE
  5
43E
330
1F
100
AcDbEntity
  8
0
  6
Continuous
 62
     7
370
    25
100
AcDbLine
 10
7336.2527419145
 20
3661.009766833
 30
0.0
 11
7311.2527419145
 21
3661.009766833
 31
0.0
  0
LINE
  5
43F
330
1F
100
AcDbEntity
  8
0
  6
Continuous
 62
     7
370
    25
100
AcDbLine
 10
8536.2527419145
 20
3661.009766833
 30
0.0
 11
8511.2527419145
 21
3661.009766833
 31
0.0
  0
LINE
  5
440
330
1F
100
AcDbEntity
  8
0
  6
Continuous
 62
     7
370
    25
100
AcDbLine
 10
8509.7527419145
 20
3662.509766833
 30
0.0
 11
8537.7527419145
 21
3662.509766833
 31
0.0
  0
LINE
  5
441
330
1F
100
AcDbEntity
  8
0
  6
Continuous
 62
     7
370
    25
100
AcDbLine
 10
7936.2527419145
 20
3661.009766833
 30
0.0
 11
7911.2527419145
 21
3661.009766833
 31
0.0
  0
LINE
  5
442
330
1F
100
AcDbEntity
  8
0
  6
Continuous
 62
     7
370
    25
100
AcDbLine
 10
7909.7527419145
 20
3662.509766833
 30
0.0
 11
7937.7527419145
 21
3662.509766833
 31
0.0
  0
LINE
  5
443
330
1F
100
AcDbEntity
  8
0
  6
Continuous
 62
     7
370
    25
100
AcDbLine
 10
6573.7527419147
 20
3660.5097668332
 30
0.0
 11
6633.7527419147
 21
3660.5097668332
 31
0.0
  0
LINE
  5
444
330
1F
100
AcDbEntity
  8
0
  6
Continuous
 62
     7
370
    25
100
AcDbLine
 10
6633.2527419147
 20
3660.0097668332
 30
0.0
 11
6574.2527419147
 21
3660.0097668332
 31
0.0
  0
LINE
  5
445
330
1F
100
AcDbEntity
  8
0
  6
Continuous
 62
     7
370
    25
100
AcDbLine
 10
7773.7527419167
 20
3660.5097668367
 30
0.0
 11
7833.7527419167
 21
3660.5097668367
 31
0.0
  0
LINE
  5
446
330
1F
100
AcDbEntity
  8
0
  6
Continuous
 62
     7
370
    25
100
AcDbLine
 10
7833.2527419167
 20
3660.0097668367
 30
0.0
 11
7774.2527419167
 21
3660.0097668367
 31
0.0
  0
LINE
  5
447
330
1F
100
AcDbEntity
  8
0
  6
Continuous
 62
     7
370
    25
100
AcDbLine
 10
8373.7527419167
 20
3660.5097668367
 30
0.0
 11
8433.7527419167
 21
3660.5097668367
 31
0.0
  0
LINE
  5
448
330
1F
100
AcDbEntity
  8
0
  6
Continuous
 62
     7
370
    25
100
AcDbLine
 10
8433.2527419167
 20
3660.0097668367
 30
0.0
 11
8374.2527419167
 21
3660.0097668367
 31
0.0
  0
LINE
  5
449
330
1F
100
AcDbEntity
  8
0
  6
Continuous
 62
     7
370
    25
100
AcDbLine
 10
7173.7527419167
 20
3660.5097668367
 30
0.0
 11
7233.7527419167
 21
3660.5097668367
 31
0.0
  0
LINE
  5
44A
330
1F
100
AcDbEntity
  8
0
  6
Continuous
 62
     7
370
    25
100
AcDbLine
 10
7233.2527419167
 20
3660.0097668367
 30
0.0
 11
7174.2527419167
 21
3660.0097668367
 31
0.0
  0
LINE
  5
44B
330
1F
100
AcDbEntity
  8
0
  6
Continuous
 62
     7
370
    25
100
AcDbLine
 10
7176.0744141794
 20
3660.5097668348
 30
0.0
 11
7233.7527419121
 21
3660.5097668348
 31
0.0
  0
LINE
  5
44C
330
1F
100
AcDbEntity
  8
0
  6
Continuous
 62
     7
370
    25
100
AcDbLine
 10
7173.7527419121
 20
3660.5097668348
 30
0.0
 11
7176.0744141794
 21
3660.5097668348
 31
0.0
  0
LINE
  5
44D
330
1F
100
AcDbEntity
  8
0
  6
Continuous
 62
     7
370
    25
100
AcDbLine
 10
7176.5357196416
 20
3660.0097668348
 30
0.0
 11
7174.2527419121
 21
3660.0097668348
 31
0.0
  0
LINE
  5
44E
330
1F
100
AcDbEntity
  8
0
  6
Continuous
 62
     7
370
    25
100
AcDbLine
 10
7233.2527419121
 20
3660.0097668348
 30
0.0
 11
7176.5357196416
 21
3660.0097668348
 31
0.0
  0
LINE
  5
44F
330
1F
100
AcDbEntity
  8
0
  6
Continuous
 62
     7
370
    25
100
AcDbLine
 10
8376.0744141794
 20
3660.5097668348
 30
0.0
 11
8433.7527419121
 21
3660.5097668348
 31
0.0
  0
LINE
  5
450
330
1F
100
AcDbEntity
  8
0
  6
Continuous
 62
     7
370
    25
100
AcDbLine
 10
8373.7527419121
 20
3660.5097668348
 30
0.0
 11
8376.0744141794
 21
3660.5097668348
 31
0.0
  0
LINE
  5
451
330
1F
100
AcDbEntity
  8
0
  6
Continuous
 62
     7
370
    25
100
AcDbLine
 10
8376.5357196416
 20
3660.0097668348
 30
0.0
 11
8374.2527419121
 21
3660.0097668348
 31
0.0
  0
LINE
  5
452
330
1F
100
AcDbEntity
  8
0
  6
Continuous
 62
     7
370
    25
100
AcDbLine
 10
8433.2527419121
 20
3660.0097668348
 30
0.0
 11
8376.5357196416
 21
3660.0097668348
 31
0.0
  0
LINE
  5
453
330
1F
100
AcDbEntity
  8
0
  6
Continuous
 62
     7
370
    25
100
AcDbLine
 10
7776.5357196416
 20
3660.0097668348
 30
0.0
 11
7774.2527419121
 21
3660.0097668348
 31
0.0
  0
LINE
  5
454
330
1F
100
AcDbEntity
  8
0
  6
Continuous
 62
     7
370
    25
100
AcDbLine
 10
7833.2527419121
 20
3660.0097668348
 30
0.0
 11
7776.5357196416
 21
3660.0097668348
 31
0.0
  0
LINE
  5
455
330
1F
100
AcDbEntity
  8
0
  6
Continuous
 62
     7
370
    25
100
AcDbLine
 10
7776.0744141794
 20
3660.5097668348
 30
0.0
 11
7833.7527419121
 21
3660.5097668348
 31
0.0
  0
LINE
  5
456
330
1F
100
AcDbEntity
  8
0
  6
Continuous
 62
     7
370
    25
100
AcDbLine
 10
7773.7527419121
 20
3660.5097668348
 30
0.0
 11
7776.0744141794
 21
3660.5097668348
 31
0.0
  0
LINE
  5
457
330
1F
100
AcDbEntity
  8
0
  6
Continuous
 62
     7
370
    25
100
AcDbLine
 10
6576.0744141817
 20
3660.5097668331
 30
0.0
 11
6633.7527419144
 21
3660.5097668331
 31
0.0
  0
LINE
  5
458
330
1F
100
AcDbEntity
  8
0
  6
Continuous
 62
     7
370
    25
100
AcDbLine
 10
6573.7527419144
 20
3660.5097668331
 30
0.0
 11
6576.0744141817
 21
3660.5097668331
 31
0.0
  0
LINE
  5
459
330
1F
100
AcDbEntity
  8
0
  6
Continuous
 62
     7
370
    25
100
AcDbLine
 10
6576.5357196439
 20
3660.0097668331
 30
0.0
 11
6574.2527419144
 21
3660.0097668331
 31
0.0
  0
LINE
  5
45A
330
1F
100
AcDbEntity
  8
0
  6
Continuous
 62
     7
370
    25
100
AcDbLine
 10
6633.2527419144
 20
3660.0097668331
 30
0.0
 11
6576.5357196439
 21
3660.0097668331
 31
0.0
  0
LINE
  5
45B
330
1F
100
AcDbEntity
  8
0
  6
Continuous
 62
     7
370
    25
100
AcDbLine
 10
7189.7527419121
 20
3495.0097668348
 30
0.0
 11
7217.7527419121
 21
3495.0097668348
 31
0.0
  0
LINE
  5
45C
330
1F
100
AcDbEntity
  8
0
  6
Continuous
 62
     7
370
    25
100
AcDbLine
 10
7216.7527419121
 20
3494.0097668348
 30
0.0
 11
7190.7527419121
 21
3494.0097668348
 31
0.0
  0
LINE
  5
45D
330
1F
100
AcDbEntity
  8
0
  6
Continuous
 62
     7
370
    25
100
AcDbLine
 10
8389.7527419121
 20
3495.0097668348
 30
0.0
 11
8417.7527419121
 21
3495.0097668348
 31
0.0
  0
LINE
  5
45E
330
1F
100
AcDbEntity
  8
0
  6
Continuous
 62
     7
370
    25
100
AcDbLine
 10
8416.7527419121
 20
3494.0097668348
 30
0.0
 11
8390.7527419121
 21
3494.0097668348
 31
0.0
  0
LINE
  5
45F
330
1F
100
AcDbEntity
  8
0
  6
Continuous
 62
     7
370
    25
100
AcDbLine
 10
7789.7527419121
 20
3495.0097668348
 30
0.0
 11
7817.7527419121
 21
3495.0097668348
 31
0.0
  0
LINE
  5
460
330
1F
100
AcDbEntity
  8
0
  6
Continuous
 62
     7
370
    25
100
AcDbLine
 10
7816.7527419121
 20
3494.0097668348
 30
0.0
 11
7790.7527419121
 21
3494.0097668348
 31
0.0
  0
LINE
  5
461
330
1F
100
AcDbEntity
  8
0
  6
Continuous
 62
     7
370
    25
100
AcDbLine
 10
6589.7527419144
 20
3495.0097668331
 30
0.0
 11
6617.7527419144
 21
3495.0097668331
 31
0.0
  0
LINE
  5
462
330
1F
100
AcDbEntity
  8
0
  6
Continuous
 62
     7
370
    25
100
AcDbLine
 10
6616.7527419144
 20
3494.0097668331
 30
0.0
 11
6590.7527419144
 21
3494.0097668331
 31
0.0
  0
LINE
  5
463
330
1F
100
AcDbEntity
  8
0
  6
Continuous
 62
     8
370
    25
100
AcDbLine
 10
8750.6527419145
 20
3233.009766833
 30
0.0
 11
8750.6527419145
 21
3232.909766833
 31
0.0
  0
LINE
  5
464
330
1F
100
AcDbEntity
  8
0
  6
Continuous
 62
     8
370
    25
100
AcDbLine
 10
8711.8527419145
 20
3233.009766833
 30
0.0
 11
8711.8527419145
 21
3232.9097668331
 31
0.0
  0
LINE
  5
465
330
1F
100
AcDbEntity
  8
0
  6
Continuous
 62
     8
370
    25
100
AcDbLine
 10
6256.8527419145
 20
3233.009766833
 30
0.0
 11
6256.8527419145
 21
3232.909766833
 31
0.0
  0
LINE
  5
466
330
1F
100
AcDbEntity
  8
0
  6
Continuous
 62
     8
370
    25
100
AcDbLine
 10
6295.6527419145
 20
3233.009766833
 30
0.0
 11
6295.6527419145
 21
3232.9097668331
 31
0.0
  0
LINE
  5
467
330
1F
100
AcDbEntity
  8
0
  6
Continuous
 62
     8
370
    25
100
AcDbLine
 10
6255.7527419145
 20
3662.6673975261
 30
0.0
 11
6573.7527419144
 21
3662.6673975261
 31
0.0
  0
LINE
  5
468
330
1F
100
AcDbEntity
  8
0
  6
Continuous
 62
     8
370
    25
100
AcDbLine
 10
6633.7527419144
 20
3662.6673975261
 30
0.0
 11
6709.7527419145
 21
3662.6673975261
 31
0.0
  0
LINE
  5
469
330
1F
100
AcDbEntity
  8
0
  6
Continuous
 62
     8
370
    25
100
AcDbLine
 10
6737.7527419145
 20
3662.6673975261
 30
0.0
 11
7173.7527419121
 21
3662.6673975261
 31
0.0
  0
LINE
  5
46A
330
1F
100
AcDbEntity
  8
0
  6
Continuous
 62
     8
370
    25
100
AcDbLine
 10
7233.7527419121
 20
3662.6673975261
 30
0.0
 11
7309.7527419145
 21
3662.6673975261
 31
0.0
  0
LINE
  5
46B
330
1F
100
AcDbEntity
  8
0
  6
Continuous
 62
     8
370
    25
100
AcDbLine
 10
7337.7527419145
 20
3662.6673975261
 30
0.0
 11
7773.7527419121
 21
3662.6673975261
 31
0.0
  0
LINE
  5
46C
330
1F
100
AcDbEntity
  8
0
  6
Continuous
 62
     8
370
    25
100
AcDbLine
 10
7833.7527419121
 20
3662.6673975261
 30
0.0
 11
7909.7527419145
 21
3662.6673975261
 31
0.0
  0
LINE
  5
46D
330
1F
100
AcDbEntity
  8
0
  6
Continuous
 62
     8
370
    25
100
AcDbLine
 10
7937.7527419145
 20
3662.6673975261
 30
0.0
 11
8373.7527419121
 21
3662.6673975261
 31
0.0
  0
LINE
  5
46E
330
1F
100
AcDbEntity
  8
0
  6
Continuous
 62
     8
370
    25
100
AcDbLine
 10
8433.7527419121
 20
3662.6673975261
 30
0.0
 11
8509.7527419145
 21
3662.6673975261
 31
0.0
  0
LINE
  5
46F
330
1F
100
AcDbEntity
  8
0
  6
Continuous
 62
     8
370
    25
100
AcDbLine
 10
8537.7527419145
 20
3662.6673975261
 30
0.0
 11
8751.7527419145
 21
3662.6673975261
 31
0.0
  0
LINE
  5
470
330
1F
100
AcDbEntity
  8
0
  6
Continuous
 62
     8
370
    25
100
AcDbLine
 10
8751.7527419145
 20
3537.2923245141
 30
0.0
 11
8417.7527419121
 21
3537.2923245141
 31
0.0
  0
LINE
  5
471
330
1F
100
AcDbEntity
  8
0
  6
Continuous
 62
     8
370
    25
100
AcDbLine
 10
8389.7527419121
 20
3537.2923245141
 30
0.0
 11
7817.7527419121
 21
3537.2923245141
 31
0.0
  0
LINE
  5
472
330
1F
100
AcDbEntity
  8
0
  6
Continuous
 62
     8
370
    25
100
AcDbLine
 10
7789.7527419121
 20
3537.2923245141
 30
0.0
 11
7217.7527419121
 21
3537.2923245141
 31
0.0
  0
LINE
  5
473
330
1F
100
AcDbEntity
  8
0
  6
Continuous
 62
     8
370
    25
100
AcDbLine
 10
7189.7527419121
 20
3537.2923245141
 30
0.0
 11
6617.7527419144
 21
3537.2923245141
 31
0.0
  0
LINE
  5
474
330
1F
100
AcDbEntity
  8
0
  6
Continuous
 62
     8
370
    25
100
AcDbLine
 10
6589.7527419144
 20
3537.2923245141
 30
0.0
 11
6255.7527419145
 21
3537.2923245141
 31
0.0
  0
LINE
  5
475
330
1F
100
AcDbEntity
  8
0
  6
Continuous
 62
     8
370
    25
100
AcDbLine
 10
6255.7527419145
 20
3536.6346938211
 30
0.0
 11
6589.7527419144
 21
3536.6346938211
 31
0.0
  0
LINE
  5
476
330
1F
100
AcDbEntity
  8
0
  6
Continuous
 62
     8
370
    25
100
AcDbLine
 10
6617.7527419144
 20
3536.6346938211
 30
0.0
 11
7189.7527419121
 21
3536.6346938211
 31
0.0
  0
LINE
  5
477
330
1F
100
AcDbEntity
  8
0
  6
Continuous
 62
     8
370
    25
100
AcDbLine
 10
7217.7527419121
 20
3536.6346938211
 30
0.0
 11
7789.7527419121
 21
3536.6346938211
 31
0.0
  0
LINE
  5
478
330
1F
100
AcDbEntity
  8
0
  6
Continuous
 62
     8
370
    25
100
AcDbLine
 10
7817.7527419121
 20
3536.6346938211
 30
0.0
 11
8389.7527419121
 21
3536.6346938211
 31
0.0
  0
LINE
  5
479
330
1F
100
AcDbEntity
  8
0
  6
Continuous
 62
     8
370
    25
100
AcDbLine
 10
8417.7527419121
 20
3536.6346938211
 30
0.0
 11
8751.7527419145
 21
3536.6346938211
 31
0.0
  0
ENDSEC
  0
SECTION
  2
OBJECTS
  0
DICTIONARY
  5
C
330
0
100
AcDbDictionary
281
     1
  3
ACAD_GROUP
350
D
  3
ACAD_LAYOUT
350
1A
  3
ACAD_MLINESTYLE
350
17
  3
ACAD_PLOTSETTINGS
350
19
  3
ACAD_PLOTSTYLENAME
350
E
  3
ACAD_SCALELIST
350
47
  3
DWGPROPS
350
47A
  0
DICTIONARY
  5
D
102
{ACAD_REACTORS
330
C
102
}
330
C
100
AcDbDictionary
281
     1
  0
DICTIONARY
  5
1A
102
{ACAD_REACTORS
330
C
102
}
330
C
100
AcDbDictionary
281
     1
  3
Layout1
350
1E
  3
Layout2
350
26
  3
Model
350
22
  0
DICTIONARY
  5
17
102
{ACAD_REACTORS
330
C
102
}
330
C
100
AcDbDictionary
281
     1
  3
Standard
350
18
  0
DICTIONARY
  5
19
102
{ACAD_REACTORS
330
C
102
}
330
C
100
AcDbDictionary
281
     1
  0
ACDBDICTIONARYWDFLT
  5
E
102
{ACAD_REACTORS
330
C
102
}
330
C
100
AcDbDictionary
281
     1
  3
Normal
350
F
100
AcDbDictionaryWithDefault
340
F
  0
DICTIONARY
  5
47
102
{ACAD_REACTORS
330
C
102
}
330
C
100
AcDbDictionary
281
     1
  3
A0
350
48
  3
A1
350
49
  3
A2
350
4A
  3
A3
350
4B
  3
A4
350
4C
  3
A5
350
4D
  3
A6
350
4E
  3
A7
350
4F
  3
A8
350
50
  3
A9
350
51
  3
B0
350
52
  3
B1
350
53
  3
B2
350
54
  3
B3
350
55
  3
B4
350
56
  3
B5
350
57
  3
B6
350
58
  3
B7
350
59
  3
B8
350
5A
  3
B9
350
5B
  3
C0
350
5C
  3
C1
350
5D
  3
C2
350
5E
  3
C3
350
5F
  3
C4
350
60
  3
C5
350
61
  3
C6
350
62
  3
C7
350
63
  3
C8
350
64
  3
C9
350
65
  3
D0
350
66
  3
D1
350
67
  3
D2
350
68
  0
XRECORD
  5
47A
102
{ACAD_REACTORS
330
C
102
}
330
C
100
AcDbXrecord
280
     1
  1
DWGPROPS COOKIE
  2

  3

  4

  6

  7

  8
radek.stransky
  9

300
=
301
=
302
=
303
=
304
=
305
=
306
=
307
=
308
=
309
=
 40
0.0
 41
2459842.202777801
 42
2459842.202778438
  1

 90
        0
  0
LAYOUT
  5
1E
102
{ACAD_REACTORS
330
1A
102
}
330
1A
100
AcDbPlotSettings
  1

  2
none_device
  4

  6

 40
0.0
 41
0.0
 42
0.0
 43
0.0
 44
0.0
 45
0.0
 46
0.0
 47
0.0
 48
0.0
 49
0.0
140
0.0
141
0.0
142
1.0
143
1.0
 70
   688
 72
     1
 73
     0
 74
     5
  7

 75
    16
147
1.0
148
0.0
149
0.0
100
AcDbLayout
  1
Layout1
 70
     1
 71
     1
 10
0.0
 20
0.0
 11
420.0
 21
297.0
 12
0.0
 22
0.0
 32
0.0
 14
1.0000000000E+20
 24
1.0000000000E+20
 34
1.0000000000E+20
 15
-1.0000000000E+20
 25
-1.0000000000E+20
 35
-1.0000000000E+20
146
0.0
 13
0.0
 23
0.0
 33
0.0
 16
1.0
 26
0.0
 36
0.0
 17
0.0
 27
1.0
 37
0.0
 76
     0
330
1B
  0
LAYOUT
  5
26
102
{ACAD_REACTORS
330
1A
102
}
330
1A
100
AcDbPlotSettings
  1

  2
none_device
  4

  6

 40
0.0
 41
0.0
 42
0.0
 43
0.0
 44
0.0
 45
0.0
 46
0.0
 47
0.0
 48
0.0
 49
0.0
140
0.0
141
0.0
142
1.0
143
1.0
 70
   688
 72
     1
 73
     0
 74
     5
  7

 75
    16
147
1.0
148
0.0
149
0.0
100
AcDbLayout
  1
Layout2
 70
     1
 71
     2
 10
0.0
 20
0.0
 11
0.0
 21
0.0
 12
0.0
 22
0.0
 32
0.0
 14
0.0
 24
0.0
 34
0.0
 15
0.0
 25
0.0
 35
0.0
146
0.0
 13
0.0
 23
0.0
 33
0.0
 16
1.0
 26
0.0
 36
0.0
 17
0.0
 27
1.0
 37
0.0
 76
     0
330
23
  0
LAYOUT
  5
22
102
{ACAD_REACTORS
330
1A
102
}
330
1A
100
AcDbPlotSettings
  1

  2
none_device
  4
Letter_(8.50_x_11.00_Inches)
  6

 40
6.35
 41
6.35
 42
6.35000508
 43
6.35000508
 44
215.9
 45
279.4
 46
0.0
 47
0.0
 48
0.0
 49
0.0
140
0.0
141
0.0
142
1.0
143
1.0
 70
  1712
 72
     1
 73
     0
 74
     0
  7

 75
     0
147
1.0
148
0.0
149
0.0
100
AcDbLayout
  1
Model
 70
     1
 71
     0
 10
0.0
 20
0.0
 11
20000.0
 21
10000.0
 12
0.0
 22
0.0
 32
0.0
 14
0.0
 24
0.0
 34
0.0
 15
20000.0
 25
10000.0
 35
0.0
146
0.0
 13
0.0
 23
0.0
 33
0.0
 16
1.0
 26
0.0
 36
0.0
 17
0.0
 27
1.0
 37
0.0
 76
     0
330
1F
331
29
  0
MLINESTYLE
  5
18
102
{ACAD_REACTORS
330
17
102
}
330
17
100
AcDbMlineStyle
  2
Standard
 70
     0
  3

 62
   256
 51
90.0
 52
90.0
 71
     2
 49
0.5
 62
   256
  6
BYLAYER
 49
-0.5
 62
   256
  6
BYLAYER
  0
ACDBPLACEHOLDER
  5
F
102
{ACAD_REACTORS
330
E
102
}
330
E
  0
SCALE
  5
48
102
{ACAD_REACTORS
330
47
102
}
330
47
100
AcDbScale
 70
     0
300
1:1
140
1.0
141
1.0
290
     1
  0
SCALE
  5
49
102
{ACAD_REACTORS
330
47
102
}
330
47
100
AcDbScale
 70
     0
300
1:2
140
1.0
141
2.0
290
     0
  0
SCALE
  5
4A
102
{ACAD_REACTORS
330
47
102
}
330
47
100
AcDbScale
 70
     0
300
1:4
140
1.0
141
4.0
290
     0
  0
SCALE
  5
4B
102
{ACAD_REACTORS
330
47
102
}
330
47
100
AcDbScale
 70
     0
300
1:5
140
1.0
141
5.0
290
     0
  0
SCALE
  5
4C
102
{ACAD_REACTORS
330
47
102
}
330
47
100
AcDbScale
 70
     0
300
1:8
140
1.0
141
8.0
290
     0
  0
SCALE
  5
4D
102
{ACAD_REACTORS
330
47
102
}
330
47
100
AcDbScale
 70
     0
300
1:10
140
1.0
141
10.0
290
     0
  0
SCALE
  5
4E
102
{ACAD_REACTORS
330
47
102
}
330
47
100
AcDbScale
 70
     0
300
1:16
140
1.0
141
16.0
290
     0
  0
SCALE
  5
4F
102
{ACAD_REACTORS
330
47
102
}
330
47
100
AcDbScale
 70
     0
300
1:20
140
1.0
141
20.0
290
     0
  0
SCALE
  5
50
102
{ACAD_REACTORS
330
47
102
}
330
47
100
AcDbScale
 70
     0
300
1:30
140
1.0
141
30.0
290
     0
  0
SCALE
  5
51
102
{ACAD_REACTORS
330
47
102
}
330
47
100
AcDbScale
 70
     0
300
1:40
140
1.0
141
40.0
290
     0
  0
SCALE
  5
52
102
{ACAD_REACTORS
330
47
102
}
330
47
100
AcDbScale
 70
     0
300
1:50
140
1.0
141
50.0
290
     0
  0
SCALE
  5
53
102
{ACAD_REACTORS
330
47
102
}
330
47
100
AcDbScale
 70
     0
300
1:100
140
1.0
141
100.0
290
     0
  0
SCALE
  5
54
102
{ACAD_REACTORS
330
47
102
}
330
47
100
AcDbScale
 70
     0
300
2:1
140
2.0
141
1.0
290
     0
  0
SCALE
  5
55
102
{ACAD_REACTORS
330
47
102
}
330
47
100
AcDbScale
 70
     0
300
4:1
140
4.0
141
1.0
290
     0
  0
SCALE
  5
56
102
{ACAD_REACTORS
330
47
102
}
330
47
100
AcDbScale
 70
     0
300
8:1
140
8.0
141
1.0
290
     0
  0
SCALE
  5
57
102
{ACAD_REACTORS
330
47
102
}
330
47
100
AcDbScale
 70
     0
300
10:1
140
10.0
141
1.0
290
     0
  0
SCALE
  5
58
102
{ACAD_REACTORS
330
47
102
}
330
47
100
AcDbScale
 70
     0
300
100:1
140
100.0
141
1.0
290
     0
  0
SCALE
  5
59
102
{ACAD_REACTORS
330
47
102
}
330
47
100
AcDbScale
 70
     0
300
1/128" = 1'-0"
140
0.0078125
141
12.0
290
     0
  0
SCALE
  5
5A
102
{ACAD_REACTORS
330
47
102
}
330
47
100
AcDbScale
 70
     0
300
1/64" = 1'-0"
140
0.015625
141
12.0
290
     0
  0
SCALE
  5
5B
102
{ACAD_REACTORS
330
47
102
}
330
47
100
AcDbScale
 70
     0
300
1/32" = 1'-0"
140
0.03125
141
12.0
290
     0
  0
SCALE
  5
5C
102
{ACAD_REACTORS
330
47
102
}
330
47
100
AcDbScale
 70
     0
300
1/16" = 1'-0"
140
0.0625
141
12.0
290
     0
  0
SCALE
  5
5D
102
{ACAD_REACTORS
330
47
102
}
330
47
100
AcDbScale
 70
     0
300
3/32" = 1'-0"
140
0.09375
141
12.0
290
     0
  0
SCALE
  5
5E
102
{ACAD_REACTORS
330
47
102
}
330
47
100
AcDbScale
 70
     0
300
1/8" = 1'-0"
140
0.125
141
12.0
290
     0
  0
SCALE
  5
5F
102
{ACAD_REACTORS
330
47
102
}
330
47
100
AcDbScale
 70
     0
300
3/16" = 1'-0"
140
0.1875
141
12.0
290
     0
  0
SCALE
  5
60
102
{ACAD_REACTORS
330
47
102
}
330
47
100
AcDbScale
 70
     0
300
1/4" = 1'-0"
140
0.25
141
12.0
290
     0
  0
SCALE
  5
61
102
{ACAD_REACTORS
330
47
102
}
330
47
100
AcDbScale
 70
     0
300
3/8" = 1'-0"
140
0.375
141
12.0
290
     0
  0
SCALE
  5
62
102
{ACAD_REACTORS
330
47
102
}
330
47
100
AcDbScale
 70
     0
300
1/2" = 1'-0"
140
0.5
141
12.0
290
     0
  0
SCALE
  5
63
102
{ACAD_REACTORS
330
47
102
}
330
47
100
AcDbScale
 70
     0
300
3/4" = 1'-0"
140
0.75
141
12.0
290
     0
  0
SCALE
  5
64
102
{ACAD_REACTORS
330
47
102
}
330
47
100
AcDbScale
 70
     0
300
1" = 1'-0"
140
1.0
141
12.0
290
     0
  0
SCALE
  5
65
102
{ACAD_REACTORS
330
47
102
}
330
47
100
AcDbScale
 70
     0
300
1-1/2" = 1'-0"
140
1.5
141
12.0
290
     0
  0
SCALE
  5
66
102
{ACAD_REACTORS
330
47
102
}
330
47
100
AcDbScale
 70
     0
300
3" = 1'-0"
140
3.0
141
12.0
290
     0
  0
SCALE
  5
67
102
{ACAD_REACTORS
330
47
102
}
330
47
100
AcDbScale
 70
     0
300
6" = 1'-0"
140
6.0
141
12.0
290
     0
  0
SCALE
  5
68
102
{ACAD_REACTORS
330
47
102
}
330
47
100
AcDbScale
 70
     0
300
1'-0" = 1'-0"
140
12.0
141
12.0
290
     0
  0
ENDSEC
  0
EOF
