  0
SECTION
  2
HEADER
  9
$ACADVER
  1
AC1015
  9
$ACADMAINTVER
 70
     6
  9
$DWGCODEPAGE
  3
ANSI_1250
  9
$INSBASE
 10
0.0
 20
0.0
 30
0.0
  9
$EXTMIN
 10
0.0
 20
0.0
 30
0.0
  9
$EXTMAX
 10
20000.0
 20
10000.0
 30
0.0
  9
$LIMMIN
 10
0.0
 20
0.0
  9
$LIMMAX
 10
20000.0
 20
10000.0
  9
$ORTHOMODE
 70
     0
  9
$REGENMODE
 70
     1
  9
$FILLMODE
 70
     1
  9
$QTEXTMODE
 70
     0
  9
$MIRRTEXT
 70
     1
  9
$LTSCALE
 40
1.0
  9
$ATTMODE
 70
     1
  9
$TEXTSIZE
 40
2.0
  9
$TRACEWID
 40
1.0
  9
$TEXTSTYLE
  7
Standard
  9
$CLAYER
  8
0
  9
$CELTYPE
  6
ByLayer
  9
$CECOLOR
 62
   256
  9
$CELTSCALE
 40
1.0
  9
$DISPSILH
 70
     0
  9
$DIMSCALE
 40
1.0
  9
$DIMASZ
 40
2.0
  9
$DIMEXO
 40
1.0
  9
$DIMDLI
 40
3.75
  9
$DIMRND
 40
0.0
  9
$DIMDLE
 40
0.0
  9
$DIMEXE
 40
1.0
  9
$DIMTP
 40
0.0
  9
$DIMTM
 40
0.0
  9
$DIMTXT
 40
2.0
  9
$DIMCEN
 40
2.5
  9
$DIMTSZ
 40
0.0
  9
$DIMTOL
 70
     0
  9
$DIMLIM
 70
     0
  9
$DIMTIH
 70
     1
  9
$DIMTOH
 70
     1
  9
$DIMSE1
 70
     0
  9
$DIMSE2
 70
     0
  9
$DIMTAD
 70
     1
  9
$DIMZIN
 70
     0
  9
$DIMBLK
  1

  9
$DIMASO
 70
     1
  9
$DIMSHO
 70
     1
  9
$DIMPOST
  1

  9
$DIMAPOST
  1

  9
$DIMALT
 70
     0
  9
$DIMALTD
 70
     3
  9
$DIMALTF
 40
0.0393700787
  9
$DIMLFAC
 40
1.0
  9
$DIMTOFL
 70
     1
  9
$DIMTVP
 40
0.0
  9
$DIMTIX
 70
     0
  9
$DIMSOXD
 70
     0
  9
$DIMSAH
 70
     0
  9
$DIMBLK1
  1

  9
$DIMBLK2
  1

  9
$DIMSTYLE
  2
ISO-25
  9
$DIMCLRD
 70
     0
  9
$DIMCLRE
 70
     0
  9
$DIMCLRT
 70
     0
  9
$DIMTFAC
 40
1.0
  9
$DIMGAP
 40
1.524
  9
$DIMJUST
 70
     0
  9
$DIMSD1
 70
     0
  9
$DIMSD2
 70
     0
  9
$DIMTOLJ
 70
     0
  9
$DIMTZIN
 70
     0
  9
$DIMALTZ
 70
     0
  9
$DIMALTTZ
 70
     0
  9
$DIMUPT
 70
     0
  9
$DIMDEC
 70
     2
  9
$DIMTDEC
 70
     0
  9
$DIMALTU
 70
     2
  9
$DIMALTTD
 70
     3
  9
$DIMTXSTY
  7
Standard
  9
$DIMAUNIT
 70
     0
  9
$DIMADEC
 70
     2
  9
$DIMALTRND
 40
0.0
  9
$DIMAZIN
 70
     0
  9
$DIMDSEP
 70
    44
  9
$DIMATFIT
 70
     3
  9
$DIMFRAC
 70
     0
  9
$DIMLDRBLK
  1

  9
$DIMLUNIT
 70
     2
  9
$DIMLWD
 70
    -2
  9
$DIMLWE
 70
    -2
  9
$DIMTMOVE
 70
     0
  9
$LUNITS
 70
     2
  9
$LUPREC
 70
     3
  9
$SKETCHINC
 40
1.0
  9
$FILLETRAD
 40
10.0
  9
$AUNITS
 70
     0
  9
$AUPREC
 70
     2
  9
$MENU
  1
.
  9
$ELEVATION
 40
0.0
  9
$PELEVATION
 40
0.0
  9
$THICKNESS
 40
0.0
  9
$LIMCHECK
 70
     0
  9
$CHAMFERA
 40
0.0
  9
$CHAMFERB
 40
0.0
  9
$CHAMFERC
 40
0.0
  9
$CHAMFERD
 40
0.0
  9
$SKPOLY
 70
     0
  9
$TDCREATE
 40
2459744.280000313
  9
$TDUCREATE
 40
2459744.196666979
  9
$TDUPDATE
 40
2459744.280000787
  9
$TDUUPDATE
 40
2459744.196667454
  9
$TDINDWG
 40
0.0000000116
  9
$TDUSRTIMER
 40
0.0000000116
  9
$USRTIMER
 70
     1
  9
$ANGBASE
 50
0.0
  9
$ANGDIR
 70
     0
  9
$PDMODE
 70
     0
  9
$PDSIZE
 40
-1.0
  9
$PLINEWID
 40
0.0
  9
$SPLFRAME
 70
     0
  9
$SPLINETYPE
 70
     6
  9
$SPLINESEGS
 70
     8
  9
$HANDSEED
  5
537
  9
$SURFTAB1
 70
     6
  9
$SURFTAB2
 70
     6
  9
$SURFTYPE
 70
     6
  9
$SURFU
 70
     6
  9
$SURFV
 70
     6
  9
$UCSBASE
  2

  9
$UCSNAME
  2

  9
$UCSORG
 10
0.0
 20
0.0
 30
0.0
  9
$UCSXDIR
 10
1.0
 20
0.0
 30
0.0
  9
$UCSYDIR
 10
0.0
 20
1.0
 30
0.0
  9
$UCSORTHOREF
  2

  9
$UCSORTHOVIEW
 70
     0
  9
$UCSORGTOP
 10
0.0
 20
0.0
 30
0.0
  9
$UCSORGBOTTOM
 10
0.0
 20
0.0
 30
0.0
  9
$UCSORGLEFT
 10
0.0
 20
0.0
 30
0.0
  9
$UCSORGRIGHT
 10
0.0
 20
0.0
 30
0.0
  9
$UCSORGFRONT
 10
0.0
 20
0.0
 30
0.0
  9
$UCSORGBACK
 10
0.0
 20
0.0
 30
0.0
  9
$PUCSBASE
  2

  9
$PUCSNAME
  2

  9
$PUCSORG
 10
0.0
 20
0.0
 30
0.0
  9
$PUCSXDIR
 10
1.0
 20
0.0
 30
0.0
  9
$PUCSYDIR
 10
0.0
 20
1.0
 30
0.0
  9
$PUCSORTHOREF
  2

  9
$PUCSORTHOVIEW
 70
     0
  9
$PUCSORGTOP
 10
0.0
 20
0.0
 30
0.0
  9
$PUCSORGBOTTOM
 10
0.0
 20
0.0
 30
0.0
  9
$PUCSORGLEFT
 10
0.0
 20
0.0
 30
0.0
  9
$PUCSORGRIGHT
 10
0.0
 20
0.0
 30
0.0
  9
$PUCSORGFRONT
 10
0.0
 20
0.0
 30
0.0
  9
$PUCSORGBACK
 10
0.0
 20
0.0
 30
0.0
  9
$USERI1
 70
     0
  9
$USERI2
 70
     0
  9
$USERI3
 70
     0
  9
$USERI4
 70
     0
  9
$USERI5
 70
     0
  9
$USERR1
 40
0.0
  9
$USERR2
 40
0.0
  9
$USERR3
 40
0.0
  9
$USERR4
 40
0.0
  9
$USERR5
 40
0.0
  9
$WORLDVIEW
 70
     1
  9
$SHADEDGE
 70
     3
  9
$SHADEDIF
 70
    70
  9
$TILEMODE
 70
     1
  9
$MAXACTVP
 70
    64
  9
$PINSBASE
 10
0.0
 20
0.0
 30
0.0
  9
$PLIMCHECK
 70
     0
  9
$PEXTMIN
 10
1.0000000000E+20
 20
1.0000000000E+20
 30
1.0000000000E+20
  9
$PEXTMAX
 10
-1.0000000000E+20
 20
-1.0000000000E+20
 30
-1.0000000000E+20
  9
$PLIMMIN
 10
0.0
 20
0.0
  9
$PLIMMAX
 10
420.0
 20
297.0
  9
$UNITMODE
 70
     0
  9
$VISRETAIN
 70
     1
  9
$PLINEGEN
 70
     0
  9
$PSLTSCALE
 70
     1
  9
$TREEDEPTH
 70
  3020
  9
$CMLSTYLE
  2
Standard
  9
$CMLJUST
 70
     0
  9
$CMLSCALE
 40
20.0
  9
$PROXYGRAPHICS
 70
     1
  9
$MEASUREMENT
 70
     1
  9
$CELWEIGHT
370
    -1
  9
$ENDCAPS
280
     0
  9
$JOINSTYLE
280
     0
  9
$LWDISPLAY
290
     1
  9
$INSUNITS
 70
     4
  9
$HYPERLINKBASE
  1

  9
$STYLESHEET
  1

  9
$XEDIT
290
     1
  9
$CEPSNTYPE
380
     0
  9
$PSTYLEMODE
290
     1
  9
$FINGERPRINTGUID
  2
{2ff0bef9-8474-445c-8a53-c9ba72daae9f}
  9
$VERSIONGUID
  2
{FAEB1C32-E019-11D5-929B-00C0DF256EC4}
  9
$EXTNAMES
290
     1
  9
$PSVPSCALE
 40
0.0
  9
$OLESTARTUP
290
     0
  0
ENDSEC
  0
SECTION
  2
CLASSES
  0
CLASS
  1
ACDBDICTIONARYWDFLT
  2
AcDbDictionaryWithDefault
  3
ObjectDBX Classes
 90
        0
280
     0
281
     0
  0
CLASS
  1
VISUALSTYLE
  2
AcDbVisualStyle
  3
ObjectDBX Classes
 90
     4095
280
     0
281
     0
  0
CLASS
  1
MATERIAL
  2
AcDbMaterial
  3
ObjectDBX Classes
 90
     1153
280
     0
281
     0
  0
CLASS
  1
SCALE
  2
AcDbScale
  3
ObjectDBX Classes
 90
     1153
280
     0
281
     0
  0
CLASS
  1
TABLESTYLE
  2
AcDbTableStyle
  3
ObjectDBX Classes
 90
     4095
280
     0
281
     0
  0
CLASS
  1
MLEADERSTYLE
  2
AcDbMLeaderStyle
  3
ACDB_MLEADERSTYLE_CLASS
 90
     4095
280
     0
281
     0
  0
CLASS
  1
SUN
  2
AcDbSun
  3
SCENEOE
 90
     1153
280
     0
281
     0
  0
CLASS
  1
ACDBPLACEHOLDER
  2
AcDbPlaceHolder
  3
ObjectDBX Classes
 90
        0
280
     0
281
     0
  0
CLASS
  1
LAYOUT
  2
AcDbLayout
  3
ObjectDBX Classes
 90
        0
280
     0
281
     0
  0
ENDSEC
  0
SECTION
  2
TABLES
  0
TABLE
  2
VPORT
  5
8
330
0
100
AcDbSymbolTable
 70
     1
  0
VPORT
  5
29
330
8
100
AcDbSymbolTableRecord
100
AcDbViewportTableRecord
  2
*Active
 70
     0
 10
0.0
 20
0.0
 11
1.0
 21
1.0
 12
10000.0
 22
5000.0
 13
0.0
 23
0.0
 14
10.0
 24
10.0
 15
10.0
 25
10.0
 16
0.0
 26
0.0
 36
1.0
 17
0.0
 27
0.0
 37
0.0
 40
10000.0
 41
2.0
 42
50.0
 43
0.0
 44
0.0
 50
0.0
 51
0.0
 71
     0
 72
  2000
 73
     1
 74
     3
 75
     0
 76
     0
 77
     0
 78
     0
281
     0
 65
     1
110
0.0
120
0.0
130
0.0
111
1.0
121
0.0
131
0.0
112
0.0
122
1.0
132
0.0
 79
     0
146
0.0
  0
ENDTAB
  0
TABLE
  2
LTYPE
  5
5
330
0
100
AcDbSymbolTable
 70
     6
  0
LTYPE
  5
14
330
5
100
AcDbSymbolTableRecord
100
AcDbLinetypeTableRecord
  2
ByBlock
 70
     0
  3

 72
    65
 73
     0
 40
0.0
  0
LTYPE
  5
15
330
5
100
AcDbSymbolTableRecord
100
AcDbLinetypeTableRecord
  2
ByLayer
 70
     0
  3

 72
    65
 73
     0
 40
0.0
  0
LTYPE
  5
16
330
5
100
AcDbSymbolTableRecord
100
AcDbLinetypeTableRecord
  2
Continuous
 70
     0
  3
Solid line
 72
    65
 73
     0
 40
0.0
  0
LTYPE
  5
6E
330
5
100
AcDbSymbolTableRecord
100
AcDbLinetypeTableRecord
  2
HIDDEN
 70
     0
  3
Hidden __ __ __ __ __ __ __ __ __ __ __ __ __ __
 72
    65
 73
     2
 40
1.905
 49
1.27
 74
     0
 49
-0.635
 74
     0
  0
LTYPE
  5
6F
330
5
100
AcDbSymbolTableRecord
100
AcDbLinetypeTableRecord
  2
PHANTOM
 70
     0
  3
Phantom ______  __  __  ______  __  __  ______
 72
    65
 73
     6
 40
12.7
 49
6.35
 74
     0
 49
-1.27
 74
     0
 49
1.27
 74
     0
 49
-1.27
 74
     0
 49
1.27
 74
     0
 49
-1.27
 74
     0
  0
LTYPE
  5
70
330
5
100
AcDbSymbolTableRecord
100
AcDbLinetypeTableRecord
  2
CENTER
 70
     0
  3
Center ____ _ ____ _ ____ _ ____ _ ____ _ ____
 72
    65
 73
     4
 40
10.16
 49
6.35
 74
     0
 49
-1.27
 74
     0
 49
1.27
 74
     0
 49
-1.27
 74
     0
  0
LTYPE
  5
71
330
5
100
AcDbSymbolTableRecord
100
AcDbLinetypeTableRecord
  2
CENTERX2
 70
     0
  3
Center (2x) ________  __  ________  __  _____
 72
    65
 73
     4
 40
20.32
 49
12.7
 74
     0
 49
-2.54
 74
     0
 49
2.54
 74
     0
 49
-2.54
 74
     0
  0
LTYPE
  5
72
330
5
100
AcDbSymbolTableRecord
100
AcDbLinetypeTableRecord
  2
DOT2
 70
     0
  3
Dot (.5x) ........................................
 72
    65
 73
     2
 40
0.635
 49
0.0
 74
     0
 49
-0.635
 74
     0
  0
ENDTAB
  0
TABLE
  2
LAYER
  5
2
330
0
100
AcDbSymbolTable
 70
    13
  0
LAYER
  5
10
330
2
100
AcDbSymbolTableRecord
100
AcDbLayerTableRecord
  2
0
 70
     0
 62
     7
  6
Continuous
370
    -3
390
F
  0
LAYER
  5
73
330
2
100
AcDbSymbolTableRecord
100
AcDbLayerTableRecord
  2
FORMAT
 70
     0
 62
     7
  6
Continuous
370
    -3
390
F
  0
LAYER
  5
74
330
2
100
AcDbSymbolTableRecord
100
AcDbLayerTableRecord
  2
OSA
 70
     0
 62
     7
  6
CENTER
370
    -3
390
F
  0
LAYER
  5
75
330
2
100
AcDbSymbolTableRecord
100
AcDbLayerTableRecord
  2
0_35
 70
     0
 62
     7
  6
Continuous
370
    35
390
F
  0
LAYER
  5
76
330
2
100
AcDbSymbolTableRecord
100
AcDbLayerTableRecord
  2
0_5
 70
     0
 62
     7
  6
Continuous
370
    50
390
F
  0
LAYER
  5
77
330
2
100
AcDbSymbolTableRecord
100
AcDbLayerTableRecord
  2
0_25
 70
     0
 62
     7
  6
Continuous
370
    25
390
F
  0
LAYER
  5
78
330
2
100
AcDbSymbolTableRecord
100
AcDbLayerTableRecord
  2
0_18
 70
     0
 62
     7
  6
Continuous
370
    -3
390
F
  0
LAYER
  5
79
330
2
100
AcDbSymbolTableRecord
100
AcDbLayerTableRecord
  2
SLD-0
 70
     0
 62
   179
  6
Continuous
370
    -3
390
F
  0
LAYER
  5
7A
330
2
100
AcDbSymbolTableRecord
100
AcDbLayerTableRecord
  2
KOTY
 70
     0
 62
     7
  6
Continuous
370
    -3
390
F
  0
LAYER
  5
7B
330
2
100
AcDbSymbolTableRecord
100
AcDbLayerTableRecord
  2
SILNA
 70
     0
 62
   179
  6
Continuous
370
    -3
390
F
  0
LAYER
  5
7C
330
2
100
AcDbSymbolTableRecord
100
AcDbLayerTableRecord
  2
0_18_1
 70
     0
 62
   179
  6
Continuous
370
    -3
390
F
  0
LAYER
  5
7D
330
2
100
AcDbSymbolTableRecord
100
AcDbLayerTableRecord
  2
0_35_1
 70
     0
 62
   179
  6
Continuous
370
    35
390
F
  0
LAYER
  5
7E
330
2
100
AcDbSymbolTableRecord
100
AcDbLayerTableRecord
  2
0_5_1
 70
     0
 62
   179
  6
Continuous
370
    50
390
F
  0
ENDTAB
  0
TABLE
  2
STYLE
  5
3
330
0
100
AcDbSymbolTable
 70
     1
  0
STYLE
  5
11
330
3
100
AcDbSymbolTableRecord
100
AcDbTextStyleTableRecord
  2
Standard
 70
     0
 40
0.0
 41
1.0
 50
0.0
 71
     0
 42
2.0
  3
txt
  4

  0
ENDTAB
  0
TABLE
  2
VIEW
  5
6
330
0
100
AcDbSymbolTable
 70
     0
  0
ENDTAB
  0
TABLE
  2
UCS
  5
7
330
0
100
AcDbSymbolTable
 70
     0
  0
ENDTAB
  0
TABLE
  2
APPID
  5
9
330
0
100
AcDbSymbolTable
 70
     1
  0
APPID
  5
12
330
9
100
AcDbSymbolTableRecord
100
AcDbRegAppTableRecord
  2
ACAD
 70
     0
  0
ENDTAB
  0
TABLE
  2
DIMSTYLE
  5
A
330
0
100
AcDbSymbolTable
 70
     1
100
AcDbDimStyleTable
  0
DIMSTYLE
105
27
330
A
100
AcDbSymbolTableRecord
100
AcDbDimStyleTableRecord
  2
ISO-25
 70
     0
 41
2.5
 42
0.625
 43
3.75
 44
1.25
 73
     0
 74
     0
 77
     1
 78
     8
140
2.5
141
2.5
143
0.0393700787
147
0.625
171
     3
172
     1
178
     0
271
     2
272
     2
274
     3
278
    44
283
     0
284
     8
340
11
  0
ENDTAB
  0
TABLE
  2
BLOCK_RECORD
  5
1
330
0
100
AcDbSymbolTable
 70
     1
  0
BLOCK_RECORD
  5
1F
330
1
100
AcDbSymbolTableRecord
100
AcDbBlockTableRecord
  2
*Model_Space
340
22
  0
BLOCK_RECORD
  5
1B
330
1
100
AcDbSymbolTableRecord
100
AcDbBlockTableRecord
  2
*Paper_Space
340
1E
  0
BLOCK_RECORD
  5
23
330
1
100
AcDbSymbolTableRecord
100
AcDbBlockTableRecord
  2
*Paper_Space0
340
26
  0
ENDTAB
  0
ENDSEC
  0
SECTION
  2
BLOCKS
  0
BLOCK
  5
20
330
1F
100
AcDbEntity
  8
0
100
AcDbBlockBegin
  2
*Model_Space
 70
     0
 10
0.0
 20
0.0
 30
0.0
  3
*Model_Space
  1

  0
ENDBLK
  5
21
330
1F
100
AcDbEntity
  8
0
100
AcDbBlockEnd
  0
BLOCK
  5
1C
330
1B
100
AcDbEntity
 67
     1
  8
0
100
AcDbBlockBegin
  2
*Paper_Space
 70
     0
 10
0.0
 20
0.0
 30
0.0
  3
*Paper_Space
  1

  0
ENDBLK
  5
1D
330
1B
100
AcDbEntity
 67
     1
  8
0
100
AcDbBlockEnd
  0
BLOCK
  5
24
330
23
100
AcDbEntity
  8
0
100
AcDbBlockBegin
  2
*Paper_Space0
 70
     0
 10
0.0
 20
0.0
 30
0.0
  3
*Paper_Space0
  1

  0
ENDBLK
  5
25
330
23
100
AcDbEntity
  8
0
100
AcDbBlockEnd
  0
ENDSEC
  0
SECTION
  2
ENTITIES
  0
LINE
  5
7F
330
1F
100
AcDbEntity
  8
0
  6
Continuous
 62
     7
370
    25
100
AcDbLine
 10
6263.5187553361
 20
5204.1546782657
 30
0.0
 11
6263.5187553361
 21
5206.4494545927
 31
0.0
  0
LINE
  5
80
330
1F
100
AcDbEntity
  8
0
  6
Continuous
 62
     7
370
    25
100
AcDbLine
 10
6254.5187553361
 20
5206.4494545927
 30
0.0
 11
6254.5187553361
 21
5205.9273151093
 31
0.0
  0
LINE
  5
81
330
1F
100
AcDbEntity
  8
0
  6
Continuous
 62
     7
370
    25
100
AcDbLine
 10
6273.5187553361
 20
5203.9494545927
 30
0.0
 11
6273.5187553361
 21
5205.0409966875
 31
0.0
  0
LINE
  5
82
330
1F
100
AcDbEntity
  8
0
  6
Continuous
 62
     7
370
    25
100
AcDbLine
 10
6264.5187553361
 20
5206.4494545927
 30
0.0
 11
6264.5187553361
 21
5203.9494545927
 31
0.0
  0
LINE
  5
83
330
1F
100
AcDbEntity
  8
0
  6
Continuous
 62
     7
370
    25
100
AcDbLine
 10
6255.5187553361
 20
5215.6768177491
 30
0.0
 11
6255.5187553361
 21
5211.2452256401
 31
0.0
  0
LINE
  5
84
330
1F
100
AcDbEntity
  8
0
  6
Continuous
 62
     7
370
    25
100
AcDbLine
 10
6255.5187553361
 20
5208.5862703747
 30
0.0
 11
6255.5187553361
 21
5207.4494545927
 31
0.0
  0
LINE
  5
85
330
1F
100
AcDbEntity
  8
0
  6
Continuous
 62
     7
370
    25
100
AcDbLine
 10
6262.5187553361
 20
5207.4494545927
 30
0.0
 11
6262.5187553361
 21
5210.3589072183
 31
0.0
  0
LINE
  5
86
330
1F
100
AcDbEntity
  8
0
  6
Continuous
 62
     7
370
    25
100
AcDbLine
 10
6262.5187553361
 20
5213.0178624837
 30
0.0
 11
6262.5187553361
 21
5217.4494545927
 31
0.0
  0
LINE
  5
87
330
1F
100
AcDbEntity
  8
0
  6
Continuous
 62
     7
370
    25
100
AcDbLine
 10
6265.5187553361
 20
5217.4494545927
 30
0.0
 11
6265.5187553361
 21
5214.7904993273
 31
0.0
  0
LINE
  5
88
330
1F
100
AcDbEntity
  8
0
  6
Continuous
 62
     7
370
    25
100
AcDbLine
 10
6265.5187553361
 20
5212.1315440619
 30
0.0
 11
6265.5187553361
 21
5207.6999519529
 31
0.0
  0
LINE
  5
89
330
1F
100
AcDbEntity
  8
0
  6
Continuous
 62
     7
370
    25
100
AcDbLine
 10
6272.5187553361
 20
5209.4725887965
 30
0.0
 11
6272.5187553361
 21
5213.9041809055
 31
0.0
  0
LINE
  5
8A
330
1F
100
AcDbEntity
  8
0
  6
Continuous
 62
     7
370
    25
100
AcDbLine
 10
6272.5187553361
 20
5216.5631361709
 30
0.0
 11
6272.5187553361
 21
5217.4494545927
 31
0.0
  0
LINE
  5
8B
330
1F
100
AcDbEntity
  8
0
  6
Continuous
 62
     7
370
    25
100
AcDbLine
 10
6289.0187553361
 20
5208.5862703747
 30
0.0
 11
6289.0187553361
 21
5213.0178624837
 31
0.0
  0
LINE
  5
8C
330
1F
100
AcDbEntity
  8
0
  6
Continuous
 62
     7
370
    25
100
AcDbLine
 10
6289.0187553361
 20
5215.6768177491
 30
0.0
 11
6289.0187553361
 21
5217.4494545927
 31
0.0
  0
LINE
  5
8D
330
1F
100
AcDbEntity
  8
0
  6
Continuous
 62
     7
370
    25
100
AcDbLine
 10
6264.5187553361
 20
5217.4494545927
 30
0.0
 11
6264.5187553361
 21
5216.5631361709
 31
0.0
  0
LINE
  5
8E
330
1F
100
AcDbEntity
  8
0
  6
Continuous
 62
     7
370
    25
100
AcDbLine
 10
6264.5187553361
 20
5213.9041809055
 30
0.0
 11
6264.5187553361
 21
5209.4725887965
 31
0.0
  0
LINE
  5
8F
330
1F
100
AcDbEntity
  8
0
  6
Continuous
 62
     7
370
    25
100
AcDbLine
 10
6289.5187553361
 20
5217.4494545927
 30
0.0
 11
6289.5187553361
 21
5214.7904993273
 31
0.0
  0
LINE
  5
90
330
1F
100
AcDbEntity
  8
0
  6
Continuous
 62
     7
370
    25
100
AcDbLine
 10
6289.5187553361
 20
5212.1315440619
 30
0.0
 11
6289.5187553361
 21
5207.6999519529
 31
0.0
  0
LINE
  5
91
330
1F
100
AcDbEntity
  8
0
  6
Continuous
 62
     7
370
    25
100
AcDbLine
 10
6295.5187553361
 20
5207.4494545927
 30
0.0
 11
6295.5187553361
 21
5208.5862703747
 31
0.0
  0
LINE
  5
92
330
1F
100
AcDbEntity
  8
0
  6
Continuous
 62
     7
370
    25
100
AcDbLine
 10
6295.5187553361
 20
5211.2452256401
 30
0.0
 11
6295.5187553361
 21
5215.6768177491
 31
0.0
  0
LINE
  5
93
330
1F
100
AcDbEntity
  8
0
  6
Continuous
 62
     7
370
    25
100
AcDbLine
 10
6283.5495093624
 20
5188.1994545927
 30
0.0
 11
6264.4880013098
 21
5188.1994545927
 31
0.0
  0
LINE
  5
94
330
1F
100
AcDbEntity
  8
0
  6
Continuous
 62
     7
370
    25
100
AcDbLine
 10
6283.5495093624
 20
5184.4494545927
 30
0.0
 11
6283.5495093624
 21
5188.1994545927
 31
0.0
  0
LINE
  5
95
330
1F
100
AcDbEntity
  8
0
  6
Continuous
 62
     7
370
    25
100
AcDbLine
 10
6264.4880013098
 20
5184.4494545927
 30
0.0
 11
6264.4880013098
 21
5188.1994545927
 31
0.0
  0
LINE
  5
96
330
1F
100
AcDbEntity
  8
0
  6
Continuous
 62
     7
370
    25
100
AcDbLine
 10
6264.4880013098
 20
5184.4494545927
 30
0.0
 11
6283.5495093624
 21
5184.4494545927
 31
0.0
  0
LINE
  5
97
330
1F
100
AcDbEntity
  8
0
  6
Continuous
 62
     7
370
    25
100
AcDbLine
 10
6284.2687553361
 20
5184.4494545927
 30
0.0
 11
6284.2687553361
 21
5188.1994545927
 31
0.0
  0
LINE
  5
98
330
1F
100
AcDbEntity
  8
0
  6
Continuous
 62
     7
370
    25
100
AcDbLine
 10
6284.2687553361
 20
5188.1994545927
 30
0.0
 11
6283.5495093624
 21
5188.1994545927
 31
0.0
  0
LINE
  5
99
330
1F
100
AcDbEntity
  8
0
  6
Continuous
 62
     7
370
    25
100
AcDbLine
 10
6283.5495093624
 20
5184.4494545927
 30
0.0
 11
6284.2687553361
 21
5184.4494545927
 31
0.0
  0
LINE
  5
9A
330
1F
100
AcDbEntity
  8
0
  6
Continuous
 62
     7
370
    25
100
AcDbLine
 10
6263.7687553361
 20
5184.4494545927
 30
0.0
 11
6263.7687553361
 21
5188.1994545927
 31
0.0
  0
LINE
  5
9B
330
1F
100
AcDbEntity
  8
0
  6
Continuous
 62
     7
370
    25
100
AcDbLine
 10
6264.4880013098
 20
5188.1994545927
 30
0.0
 11
6263.7687553361
 21
5188.1994545927
 31
0.0
  0
LINE
  5
9C
330
1F
100
AcDbEntity
  8
0
  6
Continuous
 62
     7
370
    25
100
AcDbLine
 10
6263.7687553361
 20
5184.4494545927
 30
0.0
 11
6264.4880013098
 21
5184.4494545927
 31
0.0
  0
LINE
  5
9D
330
1F
100
AcDbEntity
  8
0
  6
Continuous
 62
     7
370
    25
100
AcDbLine
 10
6263.2687553361
 20
5184.4494545927
 30
0.0
 11
6263.2687553361
 21
5188.1994545927
 31
0.0
  0
LINE
  5
9E
330
1F
100
AcDbEntity
  8
0
  6
Continuous
 62
     7
370
    25
100
AcDbLine
 10
6263.2687553361
 20
5184.4494545927
 30
0.0
 11
6248.5187553361
 21
5184.4494545927
 31
0.0
  0
LINE
  5
9F
330
1F
100
AcDbEntity
  8
0
  6
Continuous
 62
     7
370
    25
100
AcDbLine
 10
6248.5187553361
 20
5219.4494545927
 30
0.0
 11
6248.5187553361
 21
5184.4494545927
 31
0.0
  0
LINE
  5
A0
330
1F
100
AcDbEntity
  8
0
  6
Continuous
 62
     7
370
    25
100
AcDbLine
 10
6299.5187553361
 20
5219.4494545927
 30
0.0
 11
6248.5187553361
 21
5219.4494545927
 31
0.0
  0
LINE
  5
A1
330
1F
100
AcDbEntity
  8
0
  6
Continuous
 62
     7
370
    25
100
AcDbLine
 10
6299.5187553361
 20
5219.4494545927
 30
0.0
 11
6299.5187553361
 21
5184.4494545927
 31
0.0
  0
LINE
  5
A2
330
1F
100
AcDbEntity
  8
0
  6
Continuous
 62
     7
370
    25
100
AcDbLine
 10
6299.5187553361
 20
5184.4494545927
 30
0.0
 11
6284.7687553361
 21
5184.4494545927
 31
0.0
  0
LINE
  5
A3
330
1F
100
AcDbEntity
  8
0
  6
Continuous
 62
     7
370
    25
100
AcDbLine
 10
6284.7687553361
 20
5188.1994545927
 30
0.0
 11
6284.7687553361
 21
5184.4494545927
 31
0.0
  0
LINE
  5
A4
330
1F
100
AcDbEntity
  8
0
  6
Continuous
 62
     7
370
    25
100
AcDbLine
 10
6284.2687553361
 20
5188.1994545927
 30
0.0
 11
6284.7687553361
 21
5188.1994545927
 31
0.0
  0
LINE
  5
A5
330
1F
100
AcDbEntity
  8
0
  6
Continuous
 62
     7
370
    25
100
AcDbLine
 10
6263.2687553361
 20
5188.1994545927
 30
0.0
 11
6263.7687553361
 21
5188.1994545927
 31
0.0
  0
LINE
  5
A6
330
1F
100
AcDbEntity
  8
0
  6
Continuous
 62
     7
370
    25
100
AcDbLine
 10
6297.5187553361
 20
5214.7904993273
 30
0.0
 11
6296.0187553361
 21
5217.4494545927
 31
0.0
  0
LINE
  5
A7
330
1F
100
AcDbEntity
  8
0
  6
Continuous
 62
     7
370
    25
100
AcDbLine
 10
6297.5187553361
 20
5217.4494545927
 30
0.0
 11
6297.5187553361
 21
5214.7904993273
 31
0.0
  0
LINE
  5
A8
330
1F
100
AcDbEntity
  8
0
  6
Continuous
 62
     7
370
    25
100
AcDbLine
 10
6296.0187553361
 20
5217.4494545927
 30
0.0
 11
6297.5187553361
 21
5217.4494545927
 31
0.0
  0
LINE
  5
A9
330
1F
100
AcDbEntity
  8
0
  6
Continuous
 62
     7
370
    25
100
AcDbLine
 10
6260.0187553361
 20
5217.4494545927
 30
0.0
 11
6262.5187553361
 21
5217.4494545927
 31
0.0
  0
LINE
  5
AA
330
1F
100
AcDbEntity
  8
0
  6
Continuous
 62
     7
370
    25
100
AcDbLine
 10
6267.634528442
 20
5203.9494545927
 30
0.0
 11
6260.0187553361
 21
5217.4494545927
 31
0.0
  0
LINE
  5
AB
330
1F
100
AcDbEntity
  8
0
  6
Continuous
 62
     7
370
    25
100
AcDbLine
 10
6270.134528442
 20
5203.9494545927
 30
0.0
 11
6267.634528442
 21
5203.9494545927
 31
0.0
  0
LINE
  5
AC
330
1F
100
AcDbEntity
  8
0
  6
Continuous
 62
     7
370
    25
100
AcDbLine
 10
6262.5187553361
 20
5217.4494545927
 30
0.0
 11
6270.134528442
 21
5203.9494545927
 31
0.0
  0
LINE
  5
AD
330
1F
100
AcDbEntity
  8
0
  6
Continuous
 62
     7
370
    25
100
AcDbLine
 10
6256.0187553361
 20
5217.4494545927
 30
0.0
 11
6258.5187553361
 21
5217.4494545927
 31
0.0
  0
LINE
  5
AE
330
1F
100
AcDbEntity
  8
0
  6
Continuous
 62
     7
370
    25
100
AcDbLine
 10
6263.634528442
 20
5203.9494545927
 30
0.0
 11
6256.0187553361
 21
5217.4494545927
 31
0.0
  0
LINE
  5
AF
330
1F
100
AcDbEntity
  8
0
  6
Continuous
 62
     7
370
    25
100
AcDbLine
 10
6266.134528442
 20
5203.9494545927
 30
0.0
 11
6263.634528442
 21
5203.9494545927
 31
0.0
  0
LINE
  5
B0
330
1F
100
AcDbEntity
  8
0
  6
Continuous
 62
     7
370
    25
100
AcDbLine
 10
6258.5187553361
 20
5217.4494545927
 30
0.0
 11
6266.134528442
 21
5203.9494545927
 31
0.0
  0
LINE
  5
B1
330
1F
100
AcDbEntity
  8
0
  6
Continuous
 62
     7
370
    25
100
AcDbLine
 10
6268.0187553361
 20
5217.4494545927
 30
0.0
 11
6270.5187553361
 21
5217.4494545927
 31
0.0
  0
LINE
  5
B2
330
1F
100
AcDbEntity
  8
0
  6
Continuous
 62
     7
370
    25
100
AcDbLine
 10
6275.634528442
 20
5203.9494545927
 30
0.0
 11
6268.0187553361
 21
5217.4494545927
 31
0.0
  0
LINE
  5
B3
330
1F
100
AcDbEntity
  8
0
  6
Continuous
 62
     7
370
    25
100
AcDbLine
 10
6278.134528442
 20
5203.9494545927
 30
0.0
 11
6275.634528442
 21
5203.9494545927
 31
0.0
  0
LINE
  5
B4
330
1F
100
AcDbEntity
  8
0
  6
Continuous
 62
     7
370
    25
100
AcDbLine
 10
6270.5187553361
 20
5217.4494545927
 30
0.0
 11
6278.134528442
 21
5203.9494545927
 31
0.0
  0
LINE
  5
B5
330
1F
100
AcDbEntity
  8
0
  6
Continuous
 62
     7
370
    25
100
AcDbLine
 10
6264.0187553361
 20
5217.4494545927
 30
0.0
 11
6266.5187553361
 21
5217.4494545927
 31
0.0
  0
LINE
  5
B6
330
1F
100
AcDbEntity
  8
0
  6
Continuous
 62
     7
370
    25
100
AcDbLine
 10
6271.634528442
 20
5203.9494545927
 30
0.0
 11
6264.0187553361
 21
5217.4494545927
 31
0.0
  0
LINE
  5
B7
330
1F
100
AcDbEntity
  8
0
  6
Continuous
 62
     7
370
    25
100
AcDbLine
 10
6274.134528442
 20
5203.9494545927
 30
0.0
 11
6271.634528442
 21
5203.9494545927
 31
0.0
  0
LINE
  5
B8
330
1F
100
AcDbEntity
  8
0
  6
Continuous
 62
     7
370
    25
100
AcDbLine
 10
6266.5187553361
 20
5217.4494545927
 30
0.0
 11
6274.134528442
 21
5203.9494545927
 31
0.0
  0
LINE
  5
B9
330
1F
100
AcDbEntity
  8
0
  6
Continuous
 62
     7
370
    25
100
AcDbLine
 10
6252.0187553361
 20
5217.4494545927
 30
0.0
 11
6254.5187553361
 21
5217.4494545927
 31
0.0
  0
LINE
  5
BA
330
1F
100
AcDbEntity
  8
0
  6
Continuous
 62
     7
370
    25
100
AcDbLine
 10
6259.634528442
 20
5203.9494545927
 30
0.0
 11
6252.0187553361
 21
5217.4494545927
 31
0.0
  0
LINE
  5
BB
330
1F
100
AcDbEntity
  8
0
  6
Continuous
 62
     7
370
    25
100
AcDbLine
 10
6262.134528442
 20
5203.9494545927
 30
0.0
 11
6259.634528442
 21
5203.9494545927
 31
0.0
  0
LINE
  5
BC
330
1F
100
AcDbEntity
  8
0
  6
Continuous
 62
     7
370
    25
100
AcDbLine
 10
6254.5187553361
 20
5217.4494545927
 30
0.0
 11
6262.134528442
 21
5203.9494545927
 31
0.0
  0
LINE
  5
BD
330
1F
100
AcDbEntity
  8
0
  6
Continuous
 62
     7
370
    25
100
AcDbLine
 10
6292.0187553361
 20
5217.4494545927
 30
0.0
 11
6294.5187553361
 21
5217.4494545927
 31
0.0
  0
LINE
  5
BE
330
1F
100
AcDbEntity
  8
0
  6
Continuous
 62
     7
370
    25
100
AcDbLine
 10
6297.5187553361
 20
5207.6999519529
 30
0.0
 11
6292.0187553361
 21
5217.4494545927
 31
0.0
  0
LINE
  5
BF
330
1F
100
AcDbEntity
  8
0
  6
Continuous
 62
     7
370
    25
100
AcDbLine
 10
6297.5187553361
 20
5212.1315440619
 30
0.0
 11
6297.5187553361
 21
5207.6999519529
 31
0.0
  0
LINE
  5
C0
330
1F
100
AcDbEntity
  8
0
  6
Continuous
 62
     7
370
    25
100
AcDbLine
 10
6294.5187553361
 20
5217.4494545927
 30
0.0
 11
6297.5187553361
 21
5212.1315440619
 31
0.0
  0
LINE
  5
C1
330
1F
100
AcDbEntity
  8
0
  6
Continuous
 62
     7
370
    25
100
AcDbLine
 10
6288.0187553361
 20
5217.4494545927
 30
0.0
 11
6290.5187553361
 21
5217.4494545927
 31
0.0
  0
LINE
  5
C2
330
1F
100
AcDbEntity
  8
0
  6
Continuous
 62
     7
370
    25
100
AcDbLine
 10
6295.634528442
 20
5203.9494545927
 30
0.0
 11
6288.0187553361
 21
5217.4494545927
 31
0.0
  0
LINE
  5
C3
330
1F
100
AcDbEntity
  8
0
  6
Continuous
 62
     7
370
    25
100
AcDbLine
 10
6297.5187553361
 20
5203.9494545927
 30
0.0
 11
6295.634528442
 21
5203.9494545927
 31
0.0
  0
LINE
  5
C4
330
1F
100
AcDbEntity
  8
0
  6
Continuous
 62
     7
370
    25
100
AcDbLine
 10
6297.5187553361
 20
5205.0409966875
 30
0.0
 11
6297.5187553361
 21
5203.9494545927
 31
0.0
  0
LINE
  5
C5
330
1F
100
AcDbEntity
  8
0
  6
Continuous
 62
     7
370
    25
100
AcDbLine
 10
6290.5187553361
 20
5217.4494545927
 30
0.0
 11
6297.5187553361
 21
5205.0409966875
 31
0.0
  0
LINE
  5
C6
330
1F
100
AcDbEntity
  8
0
  6
Continuous
 62
     7
370
    25
100
AcDbLine
 10
6251.634528442
 20
5203.9494545927
 30
0.0
 11
6250.5187553361
 21
5205.9273151093
 31
0.0
  0
LINE
  5
C7
330
1F
100
AcDbEntity
  8
0
  6
Continuous
 62
     7
370
    25
100
AcDbLine
 10
6254.134528442
 20
5203.9494545927
 30
0.0
 11
6251.634528442
 21
5203.9494545927
 31
0.0
  0
LINE
  5
C8
330
1F
100
AcDbEntity
  8
0
  6
Continuous
 62
     7
370
    25
100
AcDbLine
 10
6250.5187553361
 20
5210.3589072183
 30
0.0
 11
6254.134528442
 21
5203.9494545927
 31
0.0
  0
LINE
  5
C9
330
1F
100
AcDbEntity
  8
0
  6
Continuous
 62
     7
370
    25
100
AcDbLine
 10
6250.5187553361
 20
5205.9273151093
 30
0.0
 11
6250.5187553361
 21
5210.3589072183
 31
0.0
  0
LINE
  5
CA
330
1F
100
AcDbEntity
  8
0
  6
Continuous
 62
     7
370
    25
100
AcDbLine
 10
6258.134528442
 20
5203.9494545927
 30
0.0
 11
6255.634528442
 21
5203.9494545927
 31
0.0
  0
LINE
  5
CB
330
1F
100
AcDbEntity
  8
0
  6
Continuous
 62
     7
370
    25
100
AcDbLine
 10
6250.5187553361
 20
5217.4494545927
 30
0.0
 11
6258.134528442
 21
5203.9494545927
 31
0.0
  0
LINE
  5
CC
330
1F
100
AcDbEntity
  8
0
  6
Continuous
 62
     7
370
    25
100
AcDbLine
 10
6250.5187553361
 20
5213.0178624837
 30
0.0
 11
6250.5187553361
 21
5217.4494545927
 31
0.0
  0
LINE
  5
CD
330
1F
100
AcDbEntity
  8
0
  6
Continuous
 62
     7
370
    25
100
AcDbLine
 10
6255.634528442
 20
5203.9494545927
 30
0.0
 11
6250.5187553361
 21
5213.0178624837
 31
0.0
  0
LINE
  5
CE
330
1F
100
AcDbEntity
  8
0
  6
Continuous
 62
     7
370
    25
100
AcDbLine
 10
6276.0187553361
 20
5217.4494545927
 30
0.0
 11
6278.5187553361
 21
5217.4494545927
 31
0.0
  0
LINE
  5
CF
330
1F
100
AcDbEntity
  8
0
  6
Continuous
 62
     7
370
    25
100
AcDbLine
 10
6283.634528442
 20
5203.9494545927
 30
0.0
 11
6276.0187553361
 21
5217.4494545927
 31
0.0
  0
LINE
  5
D0
330
1F
100
AcDbEntity
  8
0
  6
Continuous
 62
     7
370
    25
100
AcDbLine
 10
6286.134528442
 20
5203.9494545927
 30
0.0
 11
6283.634528442
 21
5203.9494545927
 31
0.0
  0
LINE
  5
D1
330
1F
100
AcDbEntity
  8
0
  6
Continuous
 62
     7
370
    25
100
AcDbLine
 10
6278.5187553361
 20
5217.4494545927
 30
0.0
 11
6286.134528442
 21
5203.9494545927
 31
0.0
  0
LINE
  5
D2
330
1F
100
AcDbEntity
  8
0
  6
Continuous
 62
     7
370
    25
100
AcDbLine
 10
6272.0187553361
 20
5217.4494545927
 30
0.0
 11
6274.5187553361
 21
5217.4494545927
 31
0.0
  0
LINE
  5
D3
330
1F
100
AcDbEntity
  8
0
  6
Continuous
 62
     7
370
    25
100
AcDbLine
 10
6279.634528442
 20
5203.9494545927
 30
0.0
 11
6272.0187553361
 21
5217.4494545927
 31
0.0
  0
LINE
  5
D4
330
1F
100
AcDbEntity
  8
0
  6
Continuous
 62
     7
370
    25
100
AcDbLine
 10
6282.134528442
 20
5203.9494545927
 30
0.0
 11
6279.634528442
 21
5203.9494545927
 31
0.0
  0
LINE
  5
D5
330
1F
100
AcDbEntity
  8
0
  6
Continuous
 62
     7
370
    25
100
AcDbLine
 10
6274.5187553361
 20
5217.4494545927
 30
0.0
 11
6282.134528442
 21
5203.9494545927
 31
0.0
  0
LINE
  5
D6
330
1F
100
AcDbEntity
  8
0
  6
Continuous
 62
     7
370
    25
100
AcDbLine
 10
6284.0187553361
 20
5217.4494545927
 30
0.0
 11
6286.5187553361
 21
5217.4494545927
 31
0.0
  0
LINE
  5
D7
330
1F
100
AcDbEntity
  8
0
  6
Continuous
 62
     7
370
    25
100
AcDbLine
 10
6291.634528442
 20
5203.9494545927
 30
0.0
 11
6284.0187553361
 21
5217.4494545927
 31
0.0
  0
LINE
  5
D8
330
1F
100
AcDbEntity
  8
0
  6
Continuous
 62
     7
370
    25
100
AcDbLine
 10
6294.134528442
 20
5203.9494545927
 30
0.0
 11
6291.634528442
 21
5203.9494545927
 31
0.0
  0
LINE
  5
D9
330
1F
100
AcDbEntity
  8
0
  6
Continuous
 62
     7
370
    25
100
AcDbLine
 10
6286.5187553361
 20
5217.4494545927
 30
0.0
 11
6294.134528442
 21
5203.9494545927
 31
0.0
  0
LINE
  5
DA
330
1F
100
AcDbEntity
  8
0
  6
Continuous
 62
     7
370
    25
100
AcDbLine
 10
6280.0187553361
 20
5217.4494545927
 30
0.0
 11
6282.5187553361
 21
5217.4494545927
 31
0.0
  0
LINE
  5
DB
330
1F
100
AcDbEntity
  8
0
  6
Continuous
 62
     7
370
    25
100
AcDbLine
 10
6287.634528442
 20
5203.9494545927
 30
0.0
 11
6280.0187553361
 21
5217.4494545927
 31
0.0
  0
LINE
  5
DC
330
1F
100
AcDbEntity
  8
0
  6
Continuous
 62
     7
370
    25
100
AcDbLine
 10
6290.134528442
 20
5203.9494545927
 30
0.0
 11
6287.634528442
 21
5203.9494545927
 31
0.0
  0
LINE
  5
DD
330
1F
100
AcDbEntity
  8
0
  6
Continuous
 62
     7
370
    25
100
AcDbLine
 10
6282.5187553361
 20
5217.4494545927
 30
0.0
 11
6290.134528442
 21
5203.9494545927
 31
0.0
  0
LINE
  5
DE
330
1F
100
AcDbEntity
  8
0
  6
Continuous
 62
     7
370
    25
100
AcDbLine
 10
6271.0187553361
 20
5197.7960794016
 30
0.0
 11
6271.0187553361
 21
5192.7960794016
 31
0.0
  0
LINE
  5
DF
330
1F
100
AcDbEntity
  8
0
  6
Continuous
 62
     7
370
    25
100
AcDbLine
 10
6267.0187553361
 20
5197.7960794016
 30
0.0
 11
6271.0187553361
 21
5197.7960794016
 31
0.0
  0
LINE
  5
E0
330
1F
100
AcDbEntity
  8
0
  6
Continuous
 62
     7
370
    25
100
AcDbLine
 10
6267.0187553361
 20
5192.7960794016
 30
0.0
 11
6267.0187553361
 21
5197.7960794016
 31
0.0
  0
LINE
  5
E1
330
1F
100
AcDbEntity
  8
0
  6
Continuous
 62
     7
370
    25
100
AcDbLine
 10
6271.0187553361
 20
5192.7960794016
 30
0.0
 11
6267.0187553361
 21
5192.7960794016
 31
0.0
  0
LINE
  5
E2
330
1F
100
AcDbEntity
  8
0
  6
Continuous
 62
     7
370
    25
100
AcDbLine
 10
6261.0187553361
 20
5197.7960794016
 30
0.0
 11
6261.0187553361
 21
5192.7960794016
 31
0.0
  0
LINE
  5
E3
330
1F
100
AcDbEntity
  8
0
  6
Continuous
 62
     7
370
    25
100
AcDbLine
 10
6257.0187553361
 20
5197.7960794016
 30
0.0
 11
6261.0187553361
 21
5197.7960794016
 31
0.0
  0
LINE
  5
E4
330
1F
100
AcDbEntity
  8
0
  6
Continuous
 62
     7
370
    25
100
AcDbLine
 10
6257.0187553361
 20
5192.7960794016
 30
0.0
 11
6257.0187553361
 21
5197.7960794016
 31
0.0
  0
LINE
  5
E5
330
1F
100
AcDbEntity
  8
0
  6
Continuous
 62
     7
370
    25
100
AcDbLine
 10
6261.0187553361
 20
5192.7960794016
 30
0.0
 11
6257.0187553361
 21
5192.7960794016
 31
0.0
  0
LINE
  5
E6
330
1F
100
AcDbEntity
  8
0
  6
Continuous
 62
     7
370
    25
100
AcDbLine
 10
6259.0187553361
 20
5206.4494545927
 30
0.0
 11
6260.724200089
 21
5206.4494545927
 31
0.0
  0
LINE
  5
E7
330
1F
100
AcDbEntity
  8
0
  6
Continuous
 62
     7
370
    25
100
AcDbLine
 10
6262.224200089
 20
5206.4494545927
 30
0.0
 11
6263.5187553361
 21
5206.4494545927
 31
0.0
  0
LINE
  5
E8
330
1F
100
AcDbEntity
  8
0
  6
Continuous
 62
     7
370
    25
100
AcDbLine
 10
6254.5187553361
 20
5206.4494545927
 30
0.0
 11
6256.724200089
 21
5206.4494545927
 31
0.0
  0
LINE
  5
E9
330
1F
100
AcDbEntity
  8
0
  6
Continuous
 62
     7
370
    25
100
AcDbLine
 10
6258.224200089
 20
5206.4494545927
 30
0.0
 11
6259.0187553361
 21
5206.4494545927
 31
0.0
  0
LINE
  5
EA
330
1F
100
AcDbEntity
  8
0
  6
Continuous
 62
     7
370
    25
100
AcDbLine
 10
6270.224200089
 20
5206.4494545927
 30
0.0
 11
6272.724200089
 21
5206.4494545927
 31
0.0
  0
LINE
  5
EB
330
1F
100
AcDbEntity
  8
0
  6
Continuous
 62
     7
370
    25
100
AcDbLine
 10
6264.5187553361
 20
5206.4494545927
 30
0.0
 11
6264.724200089
 21
5206.4494545927
 31
0.0
  0
LINE
  5
EC
330
1F
100
AcDbEntity
  8
0
  6
Continuous
 62
     7
370
    25
100
AcDbLine
 10
6266.224200089
 20
5206.4494545927
 30
0.0
 11
6268.724200089
 21
5206.4494545927
 31
0.0
  0
LINE
  5
ED
330
1F
100
AcDbEntity
  8
0
  6
Continuous
 62
     7
370
    25
100
AcDbLine
 10
6284.2687553361
 20
5184.4494545927
 30
0.0
 11
6284.7687553361
 21
5184.4494545927
 31
0.0
  0
LINE
  5
EE
330
1F
100
AcDbEntity
  8
0
  6
Continuous
 62
     7
370
    25
100
AcDbLine
 10
6263.2687553361
 20
5184.4494545927
 30
0.0
 11
6263.7687553361
 21
5184.4494545927
 31
0.0
  0
LINE
  5
EF
330
1F
100
AcDbEntity
  8
0
  6
Continuous
 62
     7
370
    25
100
AcDbLine
 10
6259.0187553361
 20
5207.4494545927
 30
0.0
 11
6260.1600687479
 21
5207.4494545927
 31
0.0
  0
LINE
  5
F0
330
1F
100
AcDbEntity
  8
0
  6
Continuous
 62
     7
370
    25
100
AcDbLine
 10
6261.6600687479
 20
5207.4494545927
 30
0.0
 11
6262.5187553361
 21
5207.4494545927
 31
0.0
  0
LINE
  5
F1
330
1F
100
AcDbEntity
  8
0
  6
Continuous
 62
     7
370
    25
100
AcDbLine
 10
6255.5187553361
 20
5207.4494545927
 30
0.0
 11
6256.1600687479
 21
5207.4494545927
 31
0.0
  0
LINE
  5
F2
330
1F
100
AcDbEntity
  8
0
  6
Continuous
 62
     7
370
    25
100
AcDbLine
 10
6257.6600687479
 20
5207.4494545927
 30
0.0
 11
6259.0187553361
 21
5207.4494545927
 31
0.0
  0
LINE
  5
F3
330
1F
100
AcDbEntity
  8
0
  6
Continuous
 62
     7
370
    25
100
AcDbLine
 10
6269.6600687479
 20
5207.4494545927
 30
0.0
 11
6272.1600687479
 21
5207.4494545927
 31
0.0
  0
LINE
  5
F4
330
1F
100
AcDbEntity
  8
0
  6
Continuous
 62
     7
370
    25
100
AcDbLine
 10
6265.6600687479
 20
5207.4494545927
 30
0.0
 11
6268.1600687479
 21
5207.4494545927
 31
0.0
  0
LINE
  5
F5
330
1F
100
AcDbEntity
  8
0
  6
Continuous
 62
     7
370
    25
100
AcDbLine
 10
6272.4932150302
 20
5229.4494545927
 30
0.0
 11
6278.134528442
 21
5219.4494545927
 31
0.0
  0
LINE
  5
F6
330
1F
100
AcDbEntity
  8
0
  6
Continuous
 62
     7
370
    25
100
AcDbLine
 10
6269.9932150302
 20
5229.4494545927
 30
0.0
 11
6272.4932150302
 21
5229.4494545927
 31
0.0
  0
LINE
  5
F7
330
1F
100
AcDbEntity
  8
0
  6
Continuous
 62
     7
370
    25
100
AcDbLine
 10
6275.634528442
 20
5219.4494545927
 30
0.0
 11
6269.9932150302
 21
5229.4494545927
 31
0.0
  0
LINE
  5
F8
330
1F
100
AcDbEntity
  8
0
  6
Continuous
 62
     7
370
    25
100
AcDbLine
 10
6268.4932150302
 20
5229.4494545927
 30
0.0
 11
6274.134528442
 21
5219.4494545927
 31
0.0
  0
LINE
  5
F9
330
1F
100
AcDbEntity
  8
0
  6
Continuous
 62
     7
370
    25
100
AcDbLine
 10
6265.9932150302
 20
5229.4494545927
 30
0.0
 11
6268.4932150302
 21
5229.4494545927
 31
0.0
  0
LINE
  5
FA
330
1F
100
AcDbEntity
  8
0
  6
Continuous
 62
     7
370
    25
100
AcDbLine
 10
6271.634528442
 20
5219.4494545927
 30
0.0
 11
6265.9932150302
 21
5229.4494545927
 31
0.0
  0
LINE
  5
FB
330
1F
100
AcDbEntity
  8
0
  6
Continuous
 62
     7
370
    25
100
AcDbLine
 10
6264.4932150302
 20
5229.4494545927
 30
0.0
 11
6270.134528442
 21
5219.4494545927
 31
0.0
  0
LINE
  5
FC
330
1F
100
AcDbEntity
  8
0
  6
Continuous
 62
     7
370
    25
100
AcDbLine
 10
6261.9932150302
 20
5229.4494545927
 30
0.0
 11
6264.4932150302
 21
5229.4494545927
 31
0.0
  0
LINE
  5
FD
330
1F
100
AcDbEntity
  8
0
  6
Continuous
 62
     7
370
    25
100
AcDbLine
 10
6267.634528442
 20
5219.4494545927
 30
0.0
 11
6261.9932150302
 21
5229.4494545927
 31
0.0
  0
LINE
  5
FE
330
1F
100
AcDbEntity
  8
0
  6
Continuous
 62
     7
370
    25
100
AcDbLine
 10
6260.4932150302
 20
5229.4494545927
 30
0.0
 11
6266.134528442
 21
5219.4494545927
 31
0.0
  0
LINE
  5
FF
330
1F
100
AcDbEntity
  8
0
  6
Continuous
 62
     7
370
    25
100
AcDbLine
 10
6257.9932150302
 20
5229.4494545927
 30
0.0
 11
6260.4932150302
 21
5229.4494545927
 31
0.0
  0
LINE
  5
100
330
1F
100
AcDbEntity
  8
0
  6
Continuous
 62
     7
370
    25
100
AcDbLine
 10
6263.634528442
 20
5219.4494545927
 30
0.0
 11
6257.9932150302
 21
5229.4494545927
 31
0.0
  0
LINE
  5
101
330
1F
100
AcDbEntity
  8
0
  6
Continuous
 62
     7
370
    25
100
AcDbLine
 10
6256.4932150302
 20
5229.4494545927
 30
0.0
 11
6262.134528442
 21
5219.4494545927
 31
0.0
  0
LINE
  5
102
330
1F
100
AcDbEntity
  8
0
  6
Continuous
 62
     7
370
    25
100
AcDbLine
 10
6253.9932150302
 20
5229.4494545927
 30
0.0
 11
6256.4932150302
 21
5229.4494545927
 31
0.0
  0
LINE
  5
103
330
1F
100
AcDbEntity
  8
0
  6
Continuous
 62
     7
370
    25
100
AcDbLine
 10
6259.634528442
 20
5219.4494545927
 30
0.0
 11
6253.9932150302
 21
5229.4494545927
 31
0.0
  0
LINE
  5
104
330
1F
100
AcDbEntity
  8
0
  6
Continuous
 62
     7
370
    25
100
AcDbLine
 10
6252.4932150302
 20
5229.4494545927
 30
0.0
 11
6258.134528442
 21
5219.4494545927
 31
0.0
  0
LINE
  5
105
330
1F
100
AcDbEntity
  8
0
  6
Continuous
 62
     7
370
    25
100
AcDbLine
 10
6250.5187553361
 20
5229.4494545927
 30
0.0
 11
6252.4932150302
 21
5229.4494545927
 31
0.0
  0
LINE
  5
106
330
1F
100
AcDbEntity
  8
0
  6
Continuous
 62
     7
370
    25
100
AcDbLine
 10
6255.634528442
 20
5219.4494545927
 30
0.0
 11
6250.5187553361
 21
5228.5178624837
 31
0.0
  0
LINE
  5
107
330
1F
100
AcDbEntity
  8
0
  6
Continuous
 62
     7
370
    25
100
AcDbLine
 10
6250.5187553361
 20
5225.8589072183
 30
0.0
 11
6254.134528442
 21
5219.4494545927
 31
0.0
  0
LINE
  5
108
330
1F
100
AcDbEntity
  8
0
  6
Continuous
 62
     7
370
    25
100
AcDbLine
 10
6251.634528442
 20
5219.4494545927
 30
0.0
 11
6250.5187553361
 21
5221.4273151093
 31
0.0
  0
LINE
  5
109
330
1F
100
AcDbEntity
  8
0
  6
Continuous
 62
     7
370
    25
100
AcDbLine
 10
6299.5187553361
 20
5231.4494545927
 30
0.0
 11
6248.5187553361
 21
5231.4494545927
 31
0.0
  0
LINE
  5
10A
330
1F
100
AcDbEntity
  8
0
  6
Continuous
 62
     7
370
    25
100
AcDbLine
 10
6292.4932150302
 20
5229.4494545927
 30
0.0
 11
6297.5187553361
 21
5220.5409966875
 31
0.0
  0
LINE
  5
10B
330
1F
100
AcDbEntity
  8
0
  6
Continuous
 62
     7
370
    25
100
AcDbLine
 10
6289.9932150302
 20
5229.4494545927
 30
0.0
 11
6292.4932150302
 21
5229.4494545927
 31
0.0
  0
LINE
  5
10C
330
1F
100
AcDbEntity
  8
0
  6
Continuous
 62
     7
370
    25
100
AcDbLine
 10
6295.634528442
 20
5219.4494545927
 30
0.0
 11
6289.9932150302
 21
5229.4494545927
 31
0.0
  0
LINE
  5
10D
330
1F
100
AcDbEntity
  8
0
  6
Continuous
 62
     7
370
    25
100
AcDbLine
 10
6288.4932150302
 20
5229.4494545927
 30
0.0
 11
6294.134528442
 21
5219.4494545927
 31
0.0
  0
LINE
  5
10E
330
1F
100
AcDbEntity
  8
0
  6
Continuous
 62
     7
370
    25
100
AcDbLine
 10
6285.9932150302
 20
5229.4494545927
 30
0.0
 11
6288.4932150302
 21
5229.4494545927
 31
0.0
  0
LINE
  5
10F
330
1F
100
AcDbEntity
  8
0
  6
Continuous
 62
     7
370
    25
100
AcDbLine
 10
6291.634528442
 20
5219.4494545927
 30
0.0
 11
6285.9932150302
 21
5229.4494545927
 31
0.0
  0
LINE
  5
110
330
1F
100
AcDbEntity
  8
0
  6
Continuous
 62
     7
370
    25
100
AcDbLine
 10
6284.4932150302
 20
5229.4494545927
 30
0.0
 11
6290.134528442
 21
5219.4494545927
 31
0.0
  0
LINE
  5
111
330
1F
100
AcDbEntity
  8
0
  6
Continuous
 62
     7
370
    25
100
AcDbLine
 10
6281.9932150302
 20
5229.4494545927
 30
0.0
 11
6284.4932150302
 21
5229.4494545927
 31
0.0
  0
LINE
  5
112
330
1F
100
AcDbEntity
  8
0
  6
Continuous
 62
     7
370
    25
100
AcDbLine
 10
6287.634528442
 20
5219.4494545927
 30
0.0
 11
6281.9932150302
 21
5229.4494545927
 31
0.0
  0
LINE
  5
113
330
1F
100
AcDbEntity
  8
0
  6
Continuous
 62
     7
370
    25
100
AcDbLine
 10
6280.4932150302
 20
5229.4494545927
 30
0.0
 11
6286.134528442
 21
5219.4494545927
 31
0.0
  0
LINE
  5
114
330
1F
100
AcDbEntity
  8
0
  6
Continuous
 62
     7
370
    25
100
AcDbLine
 10
6277.9932150302
 20
5229.4494545927
 30
0.0
 11
6280.4932150302
 21
5229.4494545927
 31
0.0
  0
LINE
  5
115
330
1F
100
AcDbEntity
  8
0
  6
Continuous
 62
     7
370
    25
100
AcDbLine
 10
6283.634528442
 20
5219.4494545927
 30
0.0
 11
6277.9932150302
 21
5229.4494545927
 31
0.0
  0
LINE
  5
116
330
1F
100
AcDbEntity
  8
0
  6
Continuous
 62
     7
370
    25
100
AcDbLine
 10
6276.4932150302
 20
5229.4494545927
 30
0.0
 11
6282.134528442
 21
5219.4494545927
 31
0.0
  0
LINE
  5
117
330
1F
100
AcDbEntity
  8
0
  6
Continuous
 62
     7
370
    25
100
AcDbLine
 10
6273.9932150302
 20
5229.4494545927
 30
0.0
 11
6276.4932150302
 21
5229.4494545927
 31
0.0
  0
LINE
  5
118
330
1F
100
AcDbEntity
  8
0
  6
Continuous
 62
     7
370
    25
100
AcDbLine
 10
6279.634528442
 20
5219.4494545927
 30
0.0
 11
6273.9932150302
 21
5229.4494545927
 31
0.0
  0
LINE
  5
119
330
1F
100
AcDbEntity
  8
0
  6
Continuous
 62
     7
370
    25
100
AcDbLine
 10
6296.4932150302
 20
5229.4494545927
 30
0.0
 11
6297.5187553361
 21
5227.6315440619
 31
0.0
  0
LINE
  5
11A
330
1F
100
AcDbEntity
  8
0
  6
Continuous
 62
     7
370
    25
100
AcDbLine
 10
6293.9932150302
 20
5229.4494545927
 30
0.0
 11
6296.4932150302
 21
5229.4494545927
 31
0.0
  0
LINE
  5
11B
330
1F
100
AcDbEntity
  8
0
  6
Continuous
 62
     7
370
    25
100
AcDbLine
 10
6297.5187553361
 20
5223.1999519529
 30
0.0
 11
6293.9932150302
 21
5229.4494545927
 31
0.0
  0
LINE
  5
11C
330
1F
100
AcDbEntity
  8
0
  6
Continuous
 62
     7
370
    25
100
AcDbLine
 10
6250.5187553361
 20
5221.4273151093
 30
0.0
 11
6250.5187553361
 21
5225.8589072183
 31
0.0
  0
LINE
  5
11D
330
1F
100
AcDbEntity
  8
0
  6
Continuous
 62
     7
370
    25
100
AcDbLine
 10
6250.5187553361
 20
5228.5178624837
 30
0.0
 11
6250.5187553361
 21
5229.4494545927
 31
0.0
  0
LINE
  5
11E
330
1F
100
AcDbEntity
  8
0
  6
Continuous
 62
     7
370
    25
100
AcDbLine
 10
6297.5187553361
 20
5227.6315440619
 30
0.0
 11
6297.5187553361
 21
5223.1999519529
 31
0.0
  0
LINE
  5
11F
330
1F
100
AcDbEntity
  8
0
  6
Continuous
 62
     7
370
    25
100
AcDbLine
 10
6297.5187553361
 20
5220.5409966875
 30
0.0
 11
6297.5187553361
 21
5219.4494545927
 31
0.0
  0
LINE
  5
120
330
1F
100
AcDbEntity
  8
0
  6
Continuous
 62
     7
370
    25
100
AcDbLine
 10
6299.5187553361
 20
5231.4494545927
 30
0.0
 11
6299.5187553361
 21
5219.4494545927
 31
0.0
  0
LINE
  5
121
330
1F
100
AcDbEntity
  8
0
  6
Continuous
 62
     7
370
    25
100
AcDbLine
 10
6248.5187553361
 20
5231.4494545927
 30
0.0
 11
6248.5187553361
 21
5219.4494545927
 31
0.0
  0
LINE
  5
122
330
1F
100
AcDbEntity
  8
0
  6
Continuous
 62
     7
370
    25
100
AcDbLine
 10
6251.634528442
 20
5231.4494545927
 30
0.0
 11
6250.5187553361
 21
5233.4273151093
 31
0.0
  0
LINE
  5
123
330
1F
100
AcDbEntity
  8
0
  6
Continuous
 62
     7
370
    25
100
AcDbLine
 10
6250.5187553361
 20
5240.9494545927
 30
0.0
 11
6248.5187553361
 21
5240.9494545927
 31
0.0
  0
LINE
  5
124
330
1F
100
AcDbEntity
  8
0
  6
Continuous
 62
     7
370
    25
100
AcDbLine
 10
6255.634528442
 20
5231.4494545927
 30
0.0
 11
6250.5187553361
 21
5240.5178624837
 31
0.0
  0
LINE
  5
125
330
1F
100
AcDbEntity
  8
0
  6
Continuous
 62
     7
370
    25
100
AcDbLine
 10
6250.7497403949
 20
5237.4494545927
 30
0.0
 11
6254.134528442
 21
5231.4494545927
 31
0.0
  0
LINE
  5
126
330
1F
100
AcDbEntity
  8
0
  6
Continuous
 62
     7
370
    25
100
AcDbLine
 10
6250.5187553361
 20
5237.4494545927
 30
0.0
 11
6250.7497403949
 21
5237.4494545927
 31
0.0
  0
LINE
  5
127
330
1F
100
AcDbEntity
  8
0
  6
Continuous
 62
     7
370
    25
100
AcDbLine
 10
6250.5187553361
 20
5233.4273151093
 30
0.0
 11
6250.5187553361
 21
5237.4494545927
 31
0.0
  0
LINE
  5
128
330
1F
100
AcDbEntity
  8
0
  6
Continuous
 62
     7
370
    25
100
AcDbLine
 10
6250.5187553361
 20
5240.5178624837
 30
0.0
 11
6250.5187553361
 21
5240.9494545927
 31
0.0
  0
LINE
  5
129
330
1F
100
AcDbEntity
  8
0
  6
Continuous
 62
     7
370
    25
100
AcDbLine
 10
6248.5187553361
 20
5240.9494545927
 30
0.0
 11
6248.5187553361
 21
5231.4494545927
 31
0.0
  0
LINE
  5
12A
330
1F
100
AcDbEntity
  8
0
  6
Continuous
 62
     7
370
    25
100
AcDbLine
 10
6296.7752807008
 20
5240.9494545927
 30
0.0
 11
6297.5187553361
 21
5239.6315440619
 31
0.0
  0
LINE
  5
12B
330
1F
100
AcDbEntity
  8
0
  6
Continuous
 62
     7
370
    25
100
AcDbLine
 10
6299.5187553361
 20
5240.9494545927
 30
0.0
 11
6296.7752807008
 21
5240.9494545927
 31
0.0
  0
LINE
  5
12C
330
1F
100
AcDbEntity
  8
0
  6
Continuous
 62
     7
370
    25
100
AcDbLine
 10
6292.7752807008
 20
5240.9494545927
 30
0.0
 11
6297.5187553361
 21
5232.5409966875
 31
0.0
  0
LINE
  5
12D
330
1F
100
AcDbEntity
  8
0
  6
Continuous
 62
     7
370
    25
100
AcDbLine
 10
6294.2752807008
 20
5240.9494545927
 30
0.0
 11
6292.7752807008
 21
5240.9494545927
 31
0.0
  0
LINE
  5
12E
330
1F
100
AcDbEntity
  8
0
  6
Continuous
 62
     7
370
    25
100
AcDbLine
 10
6297.5187553361
 20
5235.1999519529
 30
0.0
 11
6294.2752807008
 21
5240.9494545927
 31
0.0
  0
LINE
  5
12F
330
1F
100
AcDbEntity
  8
0
  6
Continuous
 62
     7
370
    25
100
AcDbLine
 10
6297.5187553361
 20
5239.6315440619
 30
0.0
 11
6297.5187553361
 21
5235.1999519529
 31
0.0
  0
LINE
  5
130
330
1F
100
AcDbEntity
  8
0
  6
Continuous
 62
     7
370
    25
100
AcDbLine
 10
6297.5187553361
 20
5232.5409966875
 30
0.0
 11
6297.5187553361
 21
5231.4494545927
 31
0.0
  0
LINE
  5
131
330
1F
100
AcDbEntity
  8
0
  6
Continuous
 62
     7
370
    25
100
AcDbLine
 10
6299.5187553361
 20
5240.9494545927
 30
0.0
 11
6299.5187553361
 21
5231.4494545927
 31
0.0
  0
LINE
  5
132
330
1F
100
AcDbEntity
  8
0
  6
Continuous
 62
     7
370
    25
100
AcDbLine
 10
6291.634528442
 20
5231.4494545927
 30
0.0
 11
6286.2752807008
 21
5240.9494545927
 31
0.0
  0
LINE
  5
133
330
1F
100
AcDbEntity
  8
0
  6
Continuous
 62
     7
370
    25
100
AcDbLine
 10
6284.7752807008
 20
5240.9494545927
 30
0.0
 11
6290.134528442
 21
5231.4494545927
 31
0.0
  0
LINE
  5
134
330
1F
100
AcDbEntity
  8
0
  6
Continuous
 62
     7
370
    25
100
AcDbLine
 10
6286.2752807008
 20
5240.9494545927
 30
0.0
 11
6284.7752807008
 21
5240.9494545927
 31
0.0
  0
LINE
  5
135
330
1F
100
AcDbEntity
  8
0
  6
Continuous
 62
     7
370
    25
100
AcDbLine
 10
6259.634528442
 20
5231.4494545927
 30
0.0
 11
6254.2752807008
 21
5240.9494545927
 31
0.0
  0
LINE
  5
136
330
1F
100
AcDbEntity
  8
0
  6
Continuous
 62
     7
370
    25
100
AcDbLine
 10
6252.7752807008
 20
5240.9494545927
 30
0.0
 11
6258.134528442
 21
5231.4494545927
 31
0.0
  0
LINE
  5
137
330
1F
100
AcDbEntity
  8
0
  6
Continuous
 62
     7
370
    25
100
AcDbLine
 10
6254.2752807008
 20
5240.9494545927
 30
0.0
 11
6252.7752807008
 21
5240.9494545927
 31
0.0
  0
LINE
  5
138
330
1F
100
AcDbEntity
  8
0
  6
Continuous
 62
     7
370
    25
100
AcDbLine
 10
6299.5187553361
 20
5242.9494545927
 30
0.0
 11
6248.5187553361
 21
5242.9494545927
 31
0.0
  0
LINE
  5
139
330
1F
100
AcDbEntity
  8
0
  6
Continuous
 62
     7
370
    25
100
AcDbLine
 10
6294.2752807008
 20
5240.9494545927
 30
0.0
 11
6296.7752807008
 21
5240.9494545927
 31
0.0
  0
LINE
  5
13A
330
1F
100
AcDbEntity
  8
0
  6
Continuous
 62
     7
370
    25
100
AcDbLine
 10
6290.2752807008
 20
5240.9494545927
 30
0.0
 11
6292.7752807008
 21
5240.9494545927
 31
0.0
  0
LINE
  5
13B
330
1F
100
AcDbEntity
  8
0
  6
Continuous
 62
     7
370
    25
100
AcDbLine
 10
6290.2752807008
 20
5240.9494545927
 30
0.0
 11
6288.7752807008
 21
5240.9494545927
 31
0.0
  0
LINE
  5
13C
330
1F
100
AcDbEntity
  8
0
  6
Continuous
 62
     7
370
    25
100
AcDbLine
 10
6286.2752807008
 20
5240.9494545927
 30
0.0
 11
6288.7752807008
 21
5240.9494545927
 31
0.0
  0
LINE
  5
13D
330
1F
100
AcDbEntity
  8
0
  6
Continuous
 62
     7
370
    25
100
AcDbLine
 10
6282.2752807008
 20
5240.9494545927
 30
0.0
 11
6284.7752807008
 21
5240.9494545927
 31
0.0
  0
LINE
  5
13E
330
1F
100
AcDbEntity
  8
0
  6
Continuous
 62
     7
370
    25
100
AcDbLine
 10
6282.2752807008
 20
5240.9494545927
 30
0.0
 11
6280.7752807008
 21
5240.9494545927
 31
0.0
  0
LINE
  5
13F
330
1F
100
AcDbEntity
  8
0
  6
Continuous
 62
     7
370
    25
100
AcDbLine
 10
6278.2752807008
 20
5240.9494545927
 30
0.0
 11
6280.7752807008
 21
5240.9494545927
 31
0.0
  0
LINE
  5
140
330
1F
100
AcDbEntity
  8
0
  6
Continuous
 62
     7
370
    25
100
AcDbLine
 10
6278.2752807008
 20
5240.9494545927
 30
0.0
 11
6276.7752807008
 21
5240.9494545927
 31
0.0
  0
LINE
  5
141
330
1F
100
AcDbEntity
  8
0
  6
Continuous
 62
     7
370
    25
100
AcDbLine
 10
6274.2752807008
 20
5240.9494545927
 30
0.0
 11
6276.7752807008
 21
5240.9494545927
 31
0.0
  0
LINE
  5
142
330
1F
100
AcDbEntity
  8
0
  6
Continuous
 62
     7
370
    25
100
AcDbLine
 10
6274.2752807008
 20
5240.9494545927
 30
0.0
 11
6272.7752807008
 21
5240.9494545927
 31
0.0
  0
LINE
  5
143
330
1F
100
AcDbEntity
  8
0
  6
Continuous
 62
     7
370
    25
100
AcDbLine
 10
6270.2752807008
 20
5240.9494545927
 30
0.0
 11
6272.7752807008
 21
5240.9494545927
 31
0.0
  0
LINE
  5
144
330
1F
100
AcDbEntity
  8
0
  6
Continuous
 62
     7
370
    25
100
AcDbLine
 10
6270.2752807008
 20
5240.9494545927
 30
0.0
 11
6268.7752807008
 21
5240.9494545927
 31
0.0
  0
LINE
  5
145
330
1F
100
AcDbEntity
  8
0
  6
Continuous
 62
     7
370
    25
100
AcDbLine
 10
6266.2752807008
 20
5240.9494545927
 30
0.0
 11
6268.7752807008
 21
5240.9494545927
 31
0.0
  0
LINE
  5
146
330
1F
100
AcDbEntity
  8
0
  6
Continuous
 62
     7
370
    25
100
AcDbLine
 10
6266.2752807008
 20
5240.9494545927
 30
0.0
 11
6264.7752807008
 21
5240.9494545927
 31
0.0
  0
LINE
  5
147
330
1F
100
AcDbEntity
  8
0
  6
Continuous
 62
     7
370
    25
100
AcDbLine
 10
6262.2752807008
 20
5240.9494545927
 30
0.0
 11
6264.7752807008
 21
5240.9494545927
 31
0.0
  0
LINE
  5
148
330
1F
100
AcDbEntity
  8
0
  6
Continuous
 62
     7
370
    25
100
AcDbLine
 10
6262.2752807008
 20
5240.9494545927
 30
0.0
 11
6260.7752807008
 21
5240.9494545927
 31
0.0
  0
LINE
  5
149
330
1F
100
AcDbEntity
  8
0
  6
Continuous
 62
     7
370
    25
100
AcDbLine
 10
6258.2752807008
 20
5240.9494545927
 30
0.0
 11
6260.7752807008
 21
5240.9494545927
 31
0.0
  0
LINE
  5
14A
330
1F
100
AcDbEntity
  8
0
  6
Continuous
 62
     7
370
    25
100
AcDbLine
 10
6258.2752807008
 20
5240.9494545927
 30
0.0
 11
6256.7752807008
 21
5240.9494545927
 31
0.0
  0
LINE
  5
14B
330
1F
100
AcDbEntity
  8
0
  6
Continuous
 62
     7
370
    25
100
AcDbLine
 10
6254.2752807008
 20
5240.9494545927
 30
0.0
 11
6256.7752807008
 21
5240.9494545927
 31
0.0
  0
LINE
  5
14C
330
1F
100
AcDbEntity
  8
0
  6
Continuous
 62
     7
370
    25
100
AcDbLine
 10
6250.5187553361
 20
5240.9494545927
 30
0.0
 11
6252.7752807008
 21
5240.9494545927
 31
0.0
  0
LINE
  5
14D
330
1F
100
AcDbEntity
  8
0
  6
Continuous
 62
     7
370
    25
100
AcDbLine
 10
6299.5187553361
 20
5242.9494545927
 30
0.0
 11
6299.5187553361
 21
5240.9494545927
 31
0.0
  0
LINE
  5
14E
330
1F
100
AcDbEntity
  8
0
  6
Continuous
 62
     7
370
    25
100
AcDbLine
 10
6248.5187553361
 20
5242.9494545927
 30
0.0
 11
6248.5187553361
 21
5240.9494545927
 31
0.0
  0
LINE
  5
14F
330
1F
100
AcDbEntity
  8
0
  6
Continuous
 62
     7
370
    25
100
AcDbLine
 10
6256.7752807008
 20
5240.9494545927
 30
0.0
 11
6262.134528442
 21
5231.4494545927
 31
0.0
  0
LINE
  5
150
330
1F
100
AcDbEntity
  8
0
  6
Continuous
 62
     7
370
    25
100
AcDbLine
 10
6263.634528442
 20
5231.4494545927
 30
0.0
 11
6258.2752807008
 21
5240.9494545927
 31
0.0
  0
LINE
  5
151
330
1F
100
AcDbEntity
  8
0
  6
Continuous
 62
     7
370
    25
100
AcDbLine
 10
6268.7752807008
 20
5240.9494545927
 30
0.0
 11
6274.134528442
 21
5231.4494545927
 31
0.0
  0
LINE
  5
152
330
1F
100
AcDbEntity
  8
0
  6
Continuous
 62
     7
370
    25
100
AcDbLine
 10
6275.634528442
 20
5231.4494545927
 30
0.0
 11
6270.2752807008
 21
5240.9494545927
 31
0.0
  0
LINE
  5
153
330
1F
100
AcDbEntity
  8
0
  6
Continuous
 62
     7
370
    25
100
AcDbLine
 10
6283.634528442
 20
5231.4494545927
 30
0.0
 11
6278.2752807008
 21
5240.9494545927
 31
0.0
  0
LINE
  5
154
330
1F
100
AcDbEntity
  8
0
  6
Continuous
 62
     7
370
    25
100
AcDbLine
 10
6276.7752807008
 20
5240.9494545927
 30
0.0
 11
6282.134528442
 21
5231.4494545927
 31
0.0
  0
LINE
  5
155
330
1F
100
AcDbEntity
  8
0
  6
Continuous
 62
     7
370
    25
100
AcDbLine
 10
6280.7752807008
 20
5240.9494545927
 30
0.0
 11
6286.134528442
 21
5231.4494545927
 31
0.0
  0
LINE
  5
156
330
1F
100
AcDbEntity
  8
0
  6
Continuous
 62
     7
370
    25
100
AcDbLine
 10
6287.634528442
 20
5231.4494545927
 30
0.0
 11
6282.2752807008
 21
5240.9494545927
 31
0.0
  0
LINE
  5
157
330
1F
100
AcDbEntity
  8
0
  6
Continuous
 62
     7
370
    25
100
AcDbLine
 10
6272.7752807008
 20
5240.9494545927
 30
0.0
 11
6278.134528442
 21
5231.4494545927
 31
0.0
  0
LINE
  5
158
330
1F
100
AcDbEntity
  8
0
  6
Continuous
 62
     7
370
    25
100
AcDbLine
 10
6279.634528442
 20
5231.4494545927
 30
0.0
 11
6274.2752807008
 21
5240.9494545927
 31
0.0
  0
LINE
  5
159
330
1F
100
AcDbEntity
  8
0
  6
Continuous
 62
     7
370
    25
100
AcDbLine
 10
6260.7752807008
 20
5240.9494545927
 30
0.0
 11
6266.134528442
 21
5231.4494545927
 31
0.0
  0
LINE
  5
15A
330
1F
100
AcDbEntity
  8
0
  6
Continuous
 62
     7
370
    25
100
AcDbLine
 10
6267.634528442
 20
5231.4494545927
 30
0.0
 11
6262.2752807008
 21
5240.9494545927
 31
0.0
  0
LINE
  5
15B
330
1F
100
AcDbEntity
  8
0
  6
Continuous
 62
     7
370
    25
100
AcDbLine
 10
6264.7752807008
 20
5240.9494545927
 30
0.0
 11
6270.134528442
 21
5231.4494545927
 31
0.0
  0
LINE
  5
15C
330
1F
100
AcDbEntity
  8
0
  6
Continuous
 62
     7
370
    25
100
AcDbLine
 10
6271.634528442
 20
5231.4494545927
 30
0.0
 11
6266.2752807008
 21
5240.9494545927
 31
0.0
  0
LINE
  5
15D
330
1F
100
AcDbEntity
  8
0
  6
Continuous
 62
     7
370
    25
100
AcDbLine
 10
6288.7752807008
 20
5240.9494545927
 30
0.0
 11
6294.134528442
 21
5231.4494545927
 31
0.0
  0
LINE
  5
15E
330
1F
100
AcDbEntity
  8
0
  6
Continuous
 62
     7
370
    25
100
AcDbLine
 10
6295.634528442
 20
5231.4494545927
 30
0.0
 11
6290.2752807008
 21
5240.9494545927
 31
0.0
  0
LINE
  5
15F
330
1F
100
AcDbEntity
  8
0
  6
Continuous
 62
     7
370
    25
100
AcDbLine
 10
6273.6600687479
 20
5207.4494545927
 30
0.0
 11
6276.1600687479
 21
5207.4494545927
 31
0.0
  0
LINE
  5
160
330
1F
100
AcDbEntity
  8
0
  6
Continuous
 62
     7
370
    25
100
AcDbLine
 10
6277.6600687479
 20
5207.4494545927
 30
0.0
 11
6280.1600687479
 21
5207.4494545927
 31
0.0
  0
LINE
  5
161
330
1F
100
AcDbEntity
  8
0
  6
Continuous
 62
     7
370
    25
100
AcDbLine
 10
6281.6600687479
 20
5207.4494545927
 30
0.0
 11
6284.1600687479
 21
5207.4494545927
 31
0.0
  0
LINE
  5
162
330
1F
100
AcDbEntity
  8
0
  6
Continuous
 62
     7
370
    25
100
AcDbLine
 10
6274.224200089
 20
5206.4494545927
 30
0.0
 11
6276.724200089
 21
5206.4494545927
 31
0.0
  0
LINE
  5
163
330
1F
100
AcDbEntity
  8
0
  6
Continuous
 62
     7
370
    25
100
AcDbLine
 10
6278.224200089
 20
5206.4494545927
 30
0.0
 11
6280.724200089
 21
5206.4494545927
 31
0.0
  0
LINE
  5
164
330
1F
100
AcDbEntity
  8
0
  6
Continuous
 62
     7
370
    25
100
AcDbLine
 10
6282.224200089
 20
5206.4494545927
 30
0.0
 11
6284.724200089
 21
5206.4494545927
 31
0.0
  0
LINE
  5
165
330
1F
100
AcDbEntity
  8
0
  6
Continuous
 62
     7
370
    25
100
AcDbLine
 10
6286.224200089
 20
5206.4494545927
 30
0.0
 11
6288.724200089
 21
5206.4494545927
 31
0.0
  0
LINE
  5
166
330
1F
100
AcDbEntity
  8
0
  6
Continuous
 62
     7
370
    25
100
AcDbLine
 10
6289.0187553361
 20
5205.9273151093
 30
0.0
 11
6289.0187553361
 21
5203.9494545927
 31
0.0
  0
LINE
  5
167
330
1F
100
AcDbEntity
  8
0
  6
Continuous
 62
     7
370
    25
100
AcDbLine
 10
6285.6600687479
 20
5207.4494545927
 30
0.0
 11
6288.1600687479
 21
5207.4494545927
 31
0.0
  0
LINE
  5
168
330
1F
100
AcDbEntity
  8
0
  6
Continuous
 62
     7
370
    25
100
AcDbLine
 10
6293.6600687479
 20
5207.4494545927
 30
0.0
 11
6295.5187553361
 21
5207.4494545927
 31
0.0
  0
LINE
  5
169
330
1F
100
AcDbEntity
  8
0
  6
Continuous
 62
     7
370
    25
100
AcDbLine
 10
6289.6600687479
 20
5207.4494545927
 30
0.0
 11
6292.1600687479
 21
5207.4494545927
 31
0.0
  0
LINE
  5
16A
330
1F
100
AcDbEntity
  8
0
  6
Continuous
 62
     8
370
    25
100
AcDbLine
 10
6285.0187553361
 20
5208.5862703747
 30
0.0
 11
6285.0187553361
 21
5213.0178624837
 31
0.0
  0
LINE
  5
16B
330
1F
100
AcDbEntity
  8
0
  6
Continuous
 62
     8
370
    25
100
AcDbLine
 10
6285.0187553361
 20
5215.6768177491
 30
0.0
 11
6285.0187553361
 21
5217.4494545927
 31
0.0
  0
LINE
  5
16C
330
1F
100
AcDbEntity
  8
0
  6
Continuous
 62
     7
370
    25
100
AcDbLine
 10
6496.8410316056
 20
5184.4494545927
 30
0.0
 11
6496.8410316056
 21
5188.1994545927
 31
0.0
  0
LINE
  5
16D
330
1F
100
AcDbEntity
  8
0
  6
Continuous
 62
     7
370
    25
100
AcDbLine
 10
6405.2981744627
 20
5219.4494545927
 30
0.0
 11
6417.7981744627
 21
5219.4494545927
 31
0.0
  0
LINE
  5
16E
330
1F
100
AcDbEntity
  8
0
  6
Continuous
 62
     7
370
    25
100
AcDbLine
 10
6417.7981744627
 20
5219.4494545927
 30
0.0
 11
6417.7981744627
 21
5231.4494545927
 31
0.0
  0
LINE
  5
16F
330
1F
100
AcDbEntity
  8
0
  6
Continuous
 62
     7
370
    25
100
AcDbLine
 10
6417.7981744627
 20
5231.4494545927
 30
0.0
 11
6426.7981744627
 21
5231.4494545927
 31
0.0
  0
LINE
  5
170
330
1F
100
AcDbEntity
  8
0
  6
Continuous
 62
     7
370
    25
100
AcDbLine
 10
6426.7981744627
 20
5231.4494545927
 30
0.0
 11
6426.7981744627
 21
5240.9494545927
 31
0.0
  0
LINE
  5
171
330
1F
100
AcDbEntity
  8
0
  6
Continuous
 62
     7
370
    25
100
AcDbLine
 10
6426.7981744627
 20
5240.9494545927
 30
0.0
 11
6428.7981744627
 21
5242.9494545927
 31
0.0
  0
LINE
  5
172
330
1F
100
AcDbEntity
  8
0
  6
Continuous
 62
     7
370
    25
100
AcDbLine
 10
6428.7981744627
 20
5242.9494545927
 30
0.0
 11
6469.7981744627
 21
5242.9494545927
 31
0.0
  0
LINE
  5
173
330
1F
100
AcDbEntity
  8
0
  6
Continuous
 62
     7
370
    25
100
AcDbLine
 10
6469.7981744627
 20
5242.9494545927
 30
0.0
 11
6471.7981744627
 21
5240.9494545927
 31
0.0
  0
LINE
  5
174
330
1F
100
AcDbEntity
  8
0
  6
Continuous
 62
     7
370
    25
100
AcDbLine
 10
6471.7981744627
 20
5240.9494545927
 30
0.0
 11
6471.7981744627
 21
5231.4494545927
 31
0.0
  0
LINE
  5
175
330
1F
100
AcDbEntity
  8
0
  6
Continuous
 62
     7
370
    25
100
AcDbLine
 10
6471.7981744627
 20
5231.4494545927
 30
0.0
 11
6480.7981744627
 21
5231.4494545927
 31
0.0
  0
LINE
  5
176
330
1F
100
AcDbEntity
  8
0
  6
Continuous
 62
     7
370
    25
100
AcDbLine
 10
6480.7981744627
 20
5231.4494545927
 30
0.0
 11
6480.7981744627
 21
5219.4494545927
 31
0.0
  0
LINE
  5
177
330
1F
100
AcDbEntity
  8
0
  6
Continuous
 62
     7
370
    25
100
AcDbLine
 10
6480.7981744627
 20
5219.4494545927
 30
0.0
 11
6493.2981744627
 21
5219.4494545927
 31
0.0
  0
LINE
  5
178
330
1F
100
AcDbEntity
  8
0
  6
Continuous
 62
     7
370
    25
100
AcDbLine
 10
6493.2981744627
 20
5219.4494545927
 30
0.0
 11
6494.2981744627
 21
5184.4494545927
 31
0.0
  0
LINE
  5
179
330
1F
100
AcDbEntity
  8
0
  6
Continuous
 62
     7
370
    25
100
AcDbLine
 10
6494.2981744627
 20
5184.4494545927
 30
0.0
 11
6468.2981744627
 21
5184.4494545927
 31
0.0
  0
LINE
  5
17A
330
1F
100
AcDbEntity
  8
0
  6
Continuous
 62
     7
370
    25
100
AcDbLine
 10
6468.2981744627
 20
5184.4494545927
 30
0.0
 11
6467.2981744627
 21
5188.1994545927
 31
0.0
  0
LINE
  5
17B
330
1F
100
AcDbEntity
  8
0
  6
Continuous
 62
     7
370
    25
100
AcDbLine
 10
6467.2981744627
 20
5188.1994545927
 30
0.0
 11
6437.7981744627
 21
5188.1994545927
 31
0.0
  0
LINE
  5
17C
330
1F
100
AcDbEntity
  8
0
  6
Continuous
 62
     7
370
    25
100
AcDbLine
 10
6437.7981744627
 20
5188.1994545927
 30
0.0
 11
6435.5902184295
 21
5187.1199743297
 31
0.0
  0
LINE
  5
17D
330
1F
100
AcDbEntity
  8
0
  6
Continuous
 62
     7
370
    25
100
AcDbLine
 10
6435.5902184295
 20
5187.1199743297
 30
0.0
 11
6431.7981744627
 21
5188.1994545927
 31
0.0
  0
LINE
  5
17E
330
1F
100
AcDbEntity
  8
0
  6
Continuous
 62
     7
370
    25
100
AcDbLine
 10
6431.7981744627
 20
5188.1994545927
 30
0.0
 11
6431.7981744627
 21
5186.1994545927
 31
0.0
  0
LINE
  5
17F
330
1F
100
AcDbEntity
  8
0
  6
Continuous
 62
     7
370
    25
100
AcDbLine
 10
6431.7981744627
 20
5186.1994545927
 30
0.0
 11
6433.7981744627
 21
5184.4494545927
 31
0.0
  0
LINE
  5
180
330
1F
100
AcDbEntity
  8
0
  6
Continuous
 62
     7
370
    25
100
AcDbLine
 10
6433.7981744627
 20
5184.4494545927
 30
0.0
 11
6404.2981744627
 21
5184.4494545927
 31
0.0
  0
LINE
  5
181
330
1F
100
AcDbEntity
  8
0
  6
Continuous
 62
     7
370
    25
100
AcDbLine
 10
6404.2981744627
 20
5184.4494545927
 30
0.0
 11
6405.2981744627
 21
5219.4494545927
 31
0.0
  0
LINE
  5
182
330
1F
100
AcDbEntity
  8
0
  6
Continuous
 62
     7
370
    25
100
AcDbLine
 10
6456.7981744627
 20
5200.6994545927
 30
0.0
 11
6456.7981744627
 21
5204.6994545927
 31
0.0
  0
LINE
  5
183
330
1F
100
AcDbEntity
  8
0
  6
Continuous
 62
     7
370
    25
100
AcDbLine
 10
6456.7981744627
 20
5204.6994545927
 30
0.0
 11
6451.2981744627
 21
5204.6994545927
 31
0.0
  0
LINE
  5
184
330
1F
100
AcDbEntity
  8
0
  6
Continuous
 62
     7
370
    25
100
AcDbLine
 10
6451.2981744627
 20
5204.6994545927
 30
0.0
 11
6451.2981744627
 21
5200.6994545927
 31
0.0
  0
LINE
  5
185
330
1F
100
AcDbEntity
  8
0
  6
Continuous
 62
     7
370
    25
100
AcDbLine
 10
6451.2981744627
 20
5200.6994545927
 30
0.0
 11
6456.7981744627
 21
5200.6994545927
 31
0.0
  0
LINE
  5
186
330
1F
100
AcDbEntity
  8
0
  6
Continuous
 62
     7
370
    25
100
AcDbLine
 10
6447.2981744627
 20
5200.6994545927
 30
0.0
 11
6447.2981744627
 21
5204.6994545927
 31
0.0
  0
LINE
  5
187
330
1F
100
AcDbEntity
  8
0
  6
Continuous
 62
     7
370
    25
100
AcDbLine
 10
6447.2981744627
 20
5204.6994545927
 30
0.0
 11
6441.7981744627
 21
5204.6994545927
 31
0.0
  0
LINE
  5
188
330
1F
100
AcDbEntity
  8
0
  6
Continuous
 62
     7
370
    25
100
AcDbLine
 10
6441.7981744627
 20
5204.6994545927
 30
0.0
 11
6441.7981744627
 21
5200.6994545927
 31
0.0
  0
LINE
  5
189
330
1F
100
AcDbEntity
  8
0
  6
Continuous
 62
     7
370
    25
100
AcDbLine
 10
6441.7981744627
 20
5200.6994545927
 30
0.0
 11
6447.2981744627
 21
5200.6994545927
 31
0.0
  0
LINE
  5
18A
330
1F
100
AcDbEntity
  8
0
  6
Continuous
 62
     7
370
    25
100
AcDbLine
 10
6441.7981744627
 20
5203.6994545927
 30
0.0
 11
6447.2981744627
 21
5203.6994545927
 31
0.0
  0
LINE
  5
18B
330
1F
100
AcDbEntity
  8
0
  6
Continuous
 62
     7
370
    25
100
AcDbLine
 10
6451.2981744627
 20
5203.6994545927
 30
0.0
 11
6456.7981744627
 21
5203.6994545927
 31
0.0
  0
LINE
  5
18C
330
1F
100
AcDbEntity
  8
0
  6
Continuous
 62
     7
370
    25
100
AcDbLine
 10
6494.5158955857
 20
5188.1994545927
 30
0.0
 11
6494.1910316056
 21
5188.1994545927
 31
0.0
  0
LINE
  5
18D
330
1F
100
AcDbEntity
  8
0
  6
Continuous
 62
     7
370
    25
100
AcDbLine
 10
6494.5158955857
 20
5184.4494545927
 30
0.0
 11
6494.5158955857
 21
5188.1994545927
 31
0.0
  0
LINE
  5
18E
330
1F
100
AcDbEntity
  8
0
  6
Continuous
 62
     7
370
    25
100
AcDbLine
 10
6494.2981744627
 20
5184.4494545927
 30
0.0
 11
6494.5158955857
 21
5184.4494545927
 31
0.0
  0
LINE
  5
18F
330
1F
100
AcDbEntity
  8
0
  6
Continuous
 62
     7
370
    25
100
AcDbLine
 10
6495.47567534
 20
5184.4494545927
 30
0.0
 11
6495.47567534
 21
5188.1994545927
 31
0.0
  0
LINE
  5
190
330
1F
100
AcDbEntity
  8
0
  6
Continuous
 62
     7
370
    25
100
AcDbLine
 10
6495.47567534
 20
5188.1994545927
 30
0.0
 11
6494.5158955857
 21
5188.1994545927
 31
0.0
  0
LINE
  5
191
330
1F
100
AcDbEntity
  8
0
  6
Continuous
 62
     7
370
    25
100
AcDbLine
 10
6494.5158955857
 20
5184.4494545927
 30
0.0
 11
6495.47567534
 21
5184.4494545927
 31
0.0
  0
LINE
  5
192
330
1F
100
AcDbEntity
  8
0
  6
Continuous
 62
     7
370
    25
100
AcDbLine
 10
6496.8410316056
 20
5188.1994545927
 30
0.0
 11
6495.47567534
 21
5188.1994545927
 31
0.0
  0
LINE
  5
193
330
1F
100
AcDbEntity
  8
0
  6
Continuous
 62
     7
370
    25
100
AcDbLine
 10
6495.47567534
 20
5184.4494545927
 30
0.0
 11
6496.8410316056
 21
5184.4494545927
 31
0.0
  0
LINE
  5
194
330
1F
100
AcDbEntity
  8
0
  6
Continuous
 62
     7
370
    25
100
AcDbLine
 10
6467.2981744627
 20
5184.4494545927
 30
0.0
 11
6464.7981744627
 21
5187.1994545927
 31
0.0
  0
LINE
  5
195
330
1F
100
AcDbEntity
  8
0
  6
Continuous
 62
     7
370
    25
100
AcDbLine
 10
6467.2981744627
 20
5187.1994545927
 30
0.0
 11
6467.2981744627
 21
5188.1994545927
 31
0.0
  0
LINE
  5
196
330
1F
100
AcDbEntity
  8
0
  6
Continuous
 62
     7
370
    25
100
AcDbLine
 10
6464.7981744627
 20
5187.1994545927
 30
0.0
 11
6467.2981744627
 21
5187.1994545927
 31
0.0
  0
LINE
  5
197
330
1F
100
AcDbEntity
  8
0
  6
Continuous
 62
     7
370
    25
100
AcDbLine
 10
6467.2981744627
 20
5184.4494545927
 30
0.0
 11
6468.2981744627
 21
5184.4494545927
 31
0.0
  0
LINE
  5
198
330
1F
100
AcDbEntity
  8
0
  6
Continuous
 62
     7
370
    25
100
AcDbLine
 10
6254.5454258977
 20
5041.7699702013
 30
0.0
 11
6254.1144194042
 21
5041.7699702013
 31
0.0
  0
ARC
  5
199
330
1F
100
AcDbEntity
  8
0
  6
Continuous
 62
     7
370
    25
100
AcDbCircle
 10
6254.6125713801
 20
5041.4424838485
 30
0.0
 40
0.334299008422914
100
AcDbArc
 50
354.9802864076
 51
101.586936188
  0
ARC
  5
19A
330
1F
100
AcDbEntity
  8
0
  6
Continuous
 62
     7
370
    25
100
AcDbCircle
 10
6254.6026837765
 20
5041.3828131412
 30
0.0
 40
0.3442511396749148
100
AcDbArc
 50
261.1100722672
 51
5.0696030268
  0
LINE
  5
19B
330
1F
100
AcDbEntity
  8
0
  6
Continuous
 62
     7
370
    25
100
AcDbLine
 10
6254.1144194042
 20
5041.7699702013
 30
0.0
 11
6254.1144194042
 21
5041.042697474
 31
0.0
  0
LINE
  5
19C
330
1F
100
AcDbEntity
  8
0
  6
Continuous
 62
     7
370
    25
100
AcDbLine
 10
6254.1144194042
 20
5041.042697474
 30
0.0
 11
6254.5494843393
 21
5041.042697474
 31
0.0
  0
LINE
  5
19D
330
1F
100
AcDbEntity
  8
0
  6
Continuous
 62
     7
370
    25
100
AcDbLine
 10
6257.0908804432
 20
5038.7699702013
 30
0.0
 11
6256.6598739496
 21
5038.7699702013
 31
0.0
  0
ARC
  5
19E
330
1F
100
AcDbEntity
  8
0
  6
Continuous
 62
     7
370
    25
100
AcDbCircle
 10
6257.1580259255
 20
5038.4424838485
 30
0.0
 40
0.3342990084220297
100
AcDbArc
 50
354.9802864073
 51
101.5869361881
  0
ARC
  5
19F
330
1F
100
AcDbEntity
  8
0
  6
Continuous
 62
     7
370
    25
100
AcDbCircle
 10
6257.148138322
 20
5038.3828131412
 30
0.0
 40
0.3442511396746337
100
AcDbArc
 50
261.1100722675
 51
5.0696030268
  0
LINE
  5
1A0
330
1F
100
AcDbEntity
  8
0
  6
Continuous
 62
     7
370
    25
100
AcDbLine
 10
6256.6598739496
 20
5038.042697474
 30
0.0
 11
6257.0949388847
 21
5038.042697474
 31
0.0
  0
LINE
  5
1A1
330
1F
100
AcDbEntity
  8
0
  6
Continuous
 62
     7
370
    25
100
AcDbLine
 10
6256.6598739496
 20
5038.7699702013
 30
0.0
 11
6256.6598739496
 21
5038.042697474
 31
0.0
  0
LINE
  5
1A2
330
1F
100
AcDbEntity
  8
0
  6
Continuous
 62
     7
370
    25
100
AcDbLine
 10
6284.2442895341
 20
5040.9388013701
 30
0.0
 11
6284.2442895341
 21
5040.003736435
 31
0.0
  0
LINE
  5
1A3
330
1F
100
AcDbEntity
  8
0
  6
Continuous
 62
     7
370
    25
100
AcDbLine
 10
6285.1014323912
 20
5040.9388013701
 30
0.0
 11
6284.2442895341
 21
5040.9388013701
 31
0.0
  0
LINE
  5
1A4
330
1F
100
AcDbEntity
  8
0
  6
Continuous
 62
     7
370
    25
100
AcDbLine
 10
6285.1014323912
 20
5040.003736435
 30
0.0
 11
6285.1014323912
 21
5040.9388013701
 31
0.0
  0
LINE
  5
1A5
330
1F
100
AcDbEntity
  8
0
  6
Continuous
 62
     7
370
    25
100
AcDbLine
 10
6285.309224599
 20
5040.003736435
 30
0.0
 11
6285.1014323912
 21
5040.003736435
 31
0.0
  0
LINE
  5
1A6
330
1F
100
AcDbEntity
  8
0
  6
Continuous
 62
     7
370
    25
100
AcDbLine
 10
6285.309224599
 20
5042.003736435
 30
0.0
 11
6285.309224599
 21
5040.003736435
 31
0.0
  0
LINE
  5
1A7
330
1F
100
AcDbEntity
  8
0
  6
Continuous
 62
     7
370
    25
100
AcDbLine
 10
6285.1014323912
 20
5042.003736435
 30
0.0
 11
6285.309224599
 21
5042.003736435
 31
0.0
  0
LINE
  5
1A8
330
1F
100
AcDbEntity
  8
0
  6
Continuous
 62
     7
370
    25
100
AcDbLine
 10
6285.1014323912
 20
5041.1725676039
 30
0.0
 11
6285.1014323912
 21
5042.003736435
 31
0.0
  0
LINE
  5
1A9
330
1F
100
AcDbEntity
  8
0
  6
Continuous
 62
     7
370
    25
100
AcDbLine
 10
6284.2442895341
 20
5041.1725676039
 30
0.0
 11
6285.1014323912
 21
5041.1725676039
 31
0.0
  0
LINE
  5
1AA
330
1F
100
AcDbEntity
  8
0
  6
Continuous
 62
     7
370
    25
100
AcDbLine
 10
6284.2442895341
 20
5042.003736435
 30
0.0
 11
6284.2442895341
 21
5041.1725676039
 31
0.0
  0
LINE
  5
1AB
330
1F
100
AcDbEntity
  8
0
  6
Continuous
 62
     7
370
    25
100
AcDbLine
 10
6284.0364973263
 20
5042.003736435
 30
0.0
 11
6284.2442895341
 21
5042.003736435
 31
0.0
  0
LINE
  5
1AC
330
1F
100
AcDbEntity
  8
0
  6
Continuous
 62
     7
370
    25
100
AcDbLine
 10
6284.0364973263
 20
5040.003736435
 30
0.0
 11
6284.0364973263
 21
5042.003736435
 31
0.0
  0
LINE
  5
1AD
330
1F
100
AcDbEntity
  8
0
  6
Continuous
 62
     7
370
    25
100
AcDbLine
 10
6284.2442895341
 20
5040.003736435
 30
0.0
 11
6284.0364973263
 21
5040.003736435
 31
0.0
  0
ARC
  5
1AE
330
1F
100
AcDbEntity
  8
0
  6
Continuous
 62
     7
370
    25
100
AcDbCircle
 10
6252.3249201492
 20
5037.6695193537
 30
0.0
 40
0.69183330183111
100
AcDbArc
 50
213.1225321513
 51
270.8512671289
  0
LWPOLYLINE
  5
1AF
330
1F
100
AcDbEntity
  8
0
  6
Continuous
 62
     7
370
    25
100
AcDbPolyline
 90
        3
 70
   128
 43
0.0
 10
6252.9236726509
 20
5037.2833630584
 10
6252.6306516802
 20
5037.0378485021
 10
6252.335198625
 20
5036.9777624091
  0
LWPOLYLINE
  5
1B0
330
1F
100
AcDbEntity
  8
0
  6
Continuous
 62
     7
370
    25
100
AcDbPolyline
 90
        3
 70
   128
 43
0.0
 10
6253.1274064172
 20
5038.0017072143
 10
6253.0708576409
 20
5037.5816582198
 10
6252.9236726509
 20
5037.2833630584
  0
ARC
  5
1B1
330
1F
100
AcDbEntity
  8
0
  6
Continuous
 62
     7
370
    25
100
AcDbCircle
 10
6252.2302565855
 20
5038.1297139644
 30
0.0
 40
0.9062359232748243
100
AcDbArc
 50
351.879756053
 51
83.2727304886
  0
ARC
  5
1B2
330
1F
100
AcDbEntity
  8
0
  6
Continuous
 62
     7
370
    25
100
AcDbCircle
 10
6252.4261029745
 20
5038.1368111905
 30
0.0
 40
0.8973922400323344
100
AcDbArc
 50
95.7358076047
 51
190.2350429165
  0
LWPOLYLINE
  5
1B3
330
1F
100
AcDbEntity
  8
0
  6
Continuous
 62
     7
370
    25
100
AcDbPolyline
 90
        3
 70
   128
 43
0.0
 10
6251.7455070665
 20
5037.2914799415
 10
6251.5788076681
 20
5037.6602419434
 10
6251.5429908328
 20
5037.9773565649
  0
LINE
  5
1B4
330
1F
100
AcDbEntity
  8
0
  6
Continuous
 62
     7
370
    25
100
AcDbLine
 10
6255.6728609626
 20
5038.7699702013
 30
0.0
 11
6255.6728609626
 21
5037.003736435
 31
0.0
  0
LINE
  5
1B5
330
1F
100
AcDbEntity
  8
0
  6
Continuous
 62
     7
370
    25
100
AcDbLine
 10
6256.2183155081
 20
5038.7699702013
 30
0.0
 11
6255.6728609626
 21
5038.7699702013
 31
0.0
  0
LINE
  5
1B6
330
1F
100
AcDbEntity
  8
0
  6
Continuous
 62
     7
370
    25
100
AcDbLine
 10
6256.2183155081
 20
5039.003736435
 30
0.0
 11
6256.2183155081
 21
5038.7699702013
 31
0.0
  0
LINE
  5
1B7
330
1F
100
AcDbEntity
  8
0
  6
Continuous
 62
     7
370
    25
100
AcDbLine
 10
6254.9196142094
 20
5039.003736435
 30
0.0
 11
6256.2183155081
 21
5039.003736435
 31
0.0
  0
LINE
  5
1B8
330
1F
100
AcDbEntity
  8
0
  6
Continuous
 62
     7
370
    25
100
AcDbLine
 10
6254.9196142094
 20
5038.7699702013
 30
0.0
 11
6254.9196142094
 21
5039.003736435
 31
0.0
  0
LINE
  5
1B9
330
1F
100
AcDbEntity
  8
0
  6
Continuous
 62
     7
370
    25
100
AcDbLine
 10
6255.4650687548
 20
5038.7699702013
 30
0.0
 11
6254.9196142094
 21
5038.7699702013
 31
0.0
  0
LINE
  5
1BA
330
1F
100
AcDbEntity
  8
0
  6
Continuous
 62
     7
370
    25
100
AcDbLine
 10
6255.4650687548
 20
5037.003736435
 30
0.0
 11
6255.4650687548
 21
5038.7699702013
 31
0.0
  0
LINE
  5
1BB
330
1F
100
AcDbEntity
  8
0
  6
Continuous
 62
     7
370
    25
100
AcDbLine
 10
6255.6728609626
 20
5037.003736435
 30
0.0
 11
6255.4650687548
 21
5037.003736435
 31
0.0
  0
LWPOLYLINE
  5
1BC
330
1F
100
AcDbEntity
  8
0
  6
Continuous
 62
     7
370
    25
100
AcDbPolyline
 90
        6
 70
   128
 43
0.0
 10
6258.6079258977
 20
5037.2115286428
 10
6258.8279950717
 20
5037.2526162905
 10
6258.9208127255
 20
5037.3156757489
 10
6258.9842351225
 20
5037.4082164275
 10
6259.0379028538
 20
5037.6264365957
 10
6259.0494843393
 20
5037.8515448766
  0
LWPOLYLINE
  5
1BD
330
1F
100
AcDbEntity
  8
0
  6
Continuous
 62
     7
370
    25
100
AcDbPolyline
 90
        6
 70
   128
 43
0.0
 10
6258.1923414821
 20
5037.8515448766
 10
6258.2014085467
 20
5037.6325282273
 10
6258.2505024373
 20
5037.41984291
 10
6258.3106376889
 20
5037.3285120714
 10
6258.3964767182
 20
5037.2608956504
 10
6258.6079258977
 20
5037.2115286428
  0
LINE
  5
1BE
330
1F
100
AcDbEntity
  8
0
  6
Continuous
 62
     7
370
    25
100
AcDbLine
 10
6258.1923414821
 20
5039.003736435
 30
0.0
 11
6258.1923414821
 21
5037.8515448766
 31
0.0
  0
LINE
  5
1BF
330
1F
100
AcDbEntity
  8
0
  6
Continuous
 62
     7
370
    25
100
AcDbLine
 10
6257.9845492743
 20
5039.003736435
 30
0.0
 11
6258.1923414821
 21
5039.003736435
 31
0.0
  0
LINE
  5
1C0
330
1F
100
AcDbEntity
  8
0
  6
Continuous
 62
     7
370
    25
100
AcDbLine
 10
6257.9845492743
 20
5037.8527624091
 30
0.0
 11
6257.9845492743
 21
5039.003736435
 31
0.0
  0
LWPOLYLINE
  5
1C1
330
1F
100
AcDbEntity
  8
0
  6
Continuous
 62
     7
370
    25
100
AcDbPolyline
 90
        6
 70
   128
 43
0.0
 10
6258.6237538198
 20
5036.9777624091
 10
6258.3197274548
 20
5037.0363888783
 10
6258.1900270223
 20
5037.1219742996
 10
6258.094516731
 20
5037.244493949
 10
6258.0047683566
 20
5037.5417386416
 10
6257.9845492743
 20
5037.8527624091
  0
LWPOLYLINE
  5
1C2
330
1F
100
AcDbEntity
  8
0
  6
Continuous
 62
     7
370
    25
100
AcDbPolyline
 90
        6
 70
   128
 43
0.0
 10
6259.2572765471
 20
5037.8527624091
 10
6259.2372745633
 20
5037.5439943404
 10
6259.1465238367
 20
5037.2497534105
 10
6259.0508962157
 20
5037.128630434
 10
6258.9242807096
 20
5037.0404974335
 10
6258.6237538198
 20
5036.9777624091
  0
LINE
  5
1C3
330
1F
100
AcDbEntity
  8
0
  6
Continuous
 62
     7
370
    25
100
AcDbLine
 10
6259.2572765471
 20
5039.003736435
 30
0.0
 11
6259.2572765471
 21
5037.8527624091
 31
0.0
  0
LINE
  5
1C4
330
1F
100
AcDbEntity
  8
0
  6
Continuous
 62
     7
370
    25
100
AcDbLine
 10
6259.0494843393
 20
5039.003736435
 30
0.0
 11
6259.2572765471
 21
5039.003736435
 31
0.0
  0
LINE
  5
1C5
330
1F
100
AcDbEntity
  8
0
  6
Continuous
 62
     7
370
    25
100
AcDbLine
 10
6259.0494843393
 20
5037.8515448766
 30
0.0
 11
6259.0494843393
 21
5039.003736435
 31
0.0
  0
LWPOLYLINE
  5
1C6
330
1F
100
AcDbEntity
  8
0
  6
Continuous
 62
     7
370
    25
100
AcDbPolyline
 90
        6
 70
   128
 43
0.0
 10
6283.7507830406
 20
5041.0029247467
 10
6283.7342850159
 20
5040.6817520674
 10
6283.6693688813
 20
5040.3671573075
 10
6283.5095542834
 20
5040.0912397741
 10
6283.3749038632
 20
5040.0049958849
 10
6283.2170979756
 20
5039.9777624091
  0
LWPOLYLINE
  5
1C7
330
1F
100
AcDbEntity
  8
0
  6
Continuous
 62
     7
370
    25
100
AcDbPolyline
 90
        3
 70
   128
 43
0.0
 10
6283.5876336899
 20
5041.8186715
 10
6283.7287039656
 20
5041.372459926
 10
6283.7507830406
 20
5041.0029247467
  0
ARC
  5
1C8
330
1F
100
AcDbEntity
  8
0
  6
Continuous
 62
     7
370
    25
100
AcDbCircle
 10
6283.2256982885
 20
5041.6139183562
 30
0.0
 40
0.4158378105635304
100
AcDbArc
 50
29.4975951227
 51
90.8495033845
  0
LWPOLYLINE
  5
1C9
330
1F
100
AcDbEntity
  8
0
  6
Continuous
 62
     7
370
    25
100
AcDbPolyline
 90
        6
 70
   128
 43
0.0
 10
6282.6858479756
 20
5041.0029247467
 10
6282.7022191128
 20
5041.3244568528
 10
6282.7668145361
 20
5041.6394594993
 10
6282.9270209377
 20
5041.9155433649
 10
6283.0616495725
 20
5042.0021348888
 10
6283.2195330406
 20
5042.029710461
  0
LWPOLYLINE
  5
1CA
330
1F
100
AcDbEntity
  8
0
  6
Continuous
 62
     7
370
    25
100
AcDbPolyline
 90
        6
 70
   128
 43
0.0
 10
6283.2170979756
 20
5039.9777624091
 10
6283.0601244921
 20
5040.0074586909
 10
6282.926537957
 20
5040.09519171
 10
6282.7615543777
 20
5040.367108287
 10
6282.7002801303
 20
5040.6820093313
 10
6282.6858479756
 20
5041.0029247467
  0
LINE
  5
1CB
330
1F
100
AcDbEntity
  8
0
  6
Continuous
 62
     7
370
    25
100
AcDbLine
 10
6281.322211612
 20
5042.029710461
 30
0.0
 11
6280.8226174561
 21
5039.9777624091
 31
0.0
  0
LINE
  5
1CC
330
1F
100
AcDbEntity
  8
0
  6
Continuous
 62
     7
370
    25
100
AcDbLine
 10
6281.1627148587
 20
5042.029710461
 30
0.0
 11
6281.322211612
 21
5042.029710461
 31
0.0
  0
LINE
  5
1CD
330
1F
100
AcDbEntity
  8
0
  6
Continuous
 62
     7
370
    25
100
AcDbLine
 10
6280.6631207029
 20
5039.9777624091
 30
0.0
 11
6281.1627148587
 21
5042.029710461
 31
0.0
  0
LINE
  5
1CE
330
1F
100
AcDbEntity
  8
0
  6
Continuous
 62
     7
370
    25
100
AcDbLine
 10
6280.8226174561
 20
5039.9777624091
 30
0.0
 11
6280.6631207029
 21
5039.9777624091
 31
0.0
  0
ARC
  5
1CF
330
1F
100
AcDbEntity
  8
0
  6
Continuous
 62
     7
370
    25
100
AcDbCircle
 10
6278.6696836764
 20
5040.5945620999
 30
0.0
 40
0.6201587849181809
100
AcDbArc
 50
275.966140643
 51
8.3613526381
  0
LWPOLYLINE
  5
1D0
330
1F
100
AcDbEntity
  8
0
  6
Continuous
 62
     7
370
    25
100
AcDbPolyline
 90
        4
 70
   128
 43
0.0
 10
6278.7954258977
 20
5041.3284117597
 10
6279.0315830988
 20
5041.2533619447
 10
6279.1974788676
 20
5041.0666917822
 10
6279.283250573
 20
5040.6847429286
  0
LWPOLYLINE
  5
1D1
330
1F
100
AcDbEntity
  8
0
  6
Continuous
 62
     7
370
    25
100
AcDbPolyline
 90
        3
 70
   128
 43
0.0
 10
6278.4991596639
 20
5041.2500838376
 10
6278.6602367813
 20
5041.3131979845
 10
6278.7954258977
 20
5041.3284117597
  0
LINE
  5
1D2
330
1F
100
AcDbEntity
  8
0
  6
Continuous
 62
     7
370
    25
100
AcDbLine
 10
6278.5742408328
 20
5041.7439961753
 30
0.0
 11
6278.4991596639
 21
5041.2500838376
 31
0.0
  0
LINE
  5
1D3
330
1F
100
AcDbEntity
  8
0
  6
Continuous
 62
     7
370
    25
100
AcDbLine
 10
6279.2053284951
 20
5041.7439961753
 30
0.0
 11
6278.5742408328
 21
5041.7439961753
 31
0.0
  0
LINE
  5
1D4
330
1F
100
AcDbEntity
  8
0
  6
Continuous
 62
     7
370
    25
100
AcDbLine
 10
6279.2053284951
 20
5041.9777624091
 30
0.0
 11
6279.2053284951
 21
5041.7439961753
 31
0.0
  0
LINE
  5
1D5
330
1F
100
AcDbEntity
  8
0
  6
Continuous
 62
     7
370
    25
100
AcDbLine
 10
6278.4001336899
 20
5041.9777624091
 30
0.0
 11
6279.2053284951
 21
5041.9777624091
 31
0.0
  0
LINE
  5
1D6
330
1F
100
AcDbEntity
  8
0
  6
Continuous
 62
     7
370
    25
100
AcDbLine
 10
6278.2442895341
 20
5040.9530059156
 30
0.0
 11
6278.4001336899
 21
5041.9777624091
 31
0.0
  0
LINE
  5
1D7
330
1F
100
AcDbEntity
  8
0
  6
Continuous
 62
     7
370
    25
100
AcDbLine
 10
6278.4520817419
 20
5040.9233792922
 30
0.0
 11
6278.2442895341
 21
5040.9530059156
 31
0.0
  0
ARC
  5
1D8
330
1F
100
AcDbEntity
  8
0
  6
Continuous
 62
     7
370
    25
100
AcDbCircle
 10
6278.7474378218
 20
5040.8011158686
 30
0.0
 40
0.3196616315465477
100
AcDbArc
 50
91.8012237043
 51
157.5127624907
  0
ARC
  5
1D9
330
1F
100
AcDbEntity
  8
0
  6
Continuous
 62
     7
370
    25
100
AcDbCircle
 10
6278.6996816777
 20
5040.740723031
 30
0.0
 40
0.3817634058121394
100
AcDbArc
 50
349.839757475
 51
84.331392451
  0
LWPOLYLINE
  5
1DA
330
1F
100
AcDbEntity
  8
0
  6
Continuous
 62
     7
370
    25
100
AcDbPolyline
 90
        5
 70
   128
 43
0.0
 10
6278.7321142094
 20
5040.1855546169
 10
6278.8518570247
 20
5040.2127133135
 10
6278.9496417563
 20
5040.2875528662
 10
6279.0191152146
 20
5040.3894987549
 10
6279.0754583652
 20
5040.6733792922
  0
ARC
  5
1DB
330
1F
100
AcDbEntity
  8
0
  6
Continuous
 62
     7
370
    25
100
AcDbCircle
 10
6278.7931922872
 20
5040.548502852
 30
0.0
 40
0.3680515629577357
100
AcDbArc
 50
175.8457772107
 51
260.4475861402
  0
LINE
  5
1DC
330
1F
100
AcDbEntity
  8
0
  6
Continuous
 62
     7
370
    25
100
AcDbLine
 10
6278.2183155081
 20
5040.5491909805
 30
0.0
 11
6278.4261077159
 21
5040.5751650065
 31
0.0
  0
LWPOLYLINE
  5
1DD
330
1F
100
AcDbEntity
  8
0
  6
Continuous
 62
     7
370
    25
100
AcDbPolyline
 90
        4
 70
   128
 43
0.0
 10
6278.7341434302
 20
5039.9777624091
 10
6278.5041496493
 20
5040.0340101672
 10
6278.3294123904
 20
5040.194376396
 10
6278.2183155081
 20
5040.5491909805
  0
ARC
  5
1DE
330
1F
100
AcDbEntity
  8
0
  6
Continuous
 62
     7
370
    25
100
AcDbCircle
 10
6275.3227264501
 20
5040.5386346459
 30
0.0
 40
0.5614412759108853
100
AcDbArc
 50
174.6073972858
 51
267.4201575801
  0
ARC
  5
1DF
330
1F
100
AcDbEntity
  8
0
  6
Continuous
 62
     7
370
    25
100
AcDbCircle
 10
6275.2781594199
 20
5040.5306032864
 30
0.0
 40
0.5531775118473373
100
AcDbArc
 50
271.9989720872
 51
5.5912028202
  0
ARC
  5
1E0
330
1F
100
AcDbEntity
  8
0
  6
Continuous
 62
     7
370
    25
100
AcDbCircle
 10
6275.3281404735
 20
5040.6323733602
 30
0.0
 40
0.5028487622761068
100
AcDbArc
 50
354.536855699
 51
68.783559546
  0
ARC
  5
1E1
330
1F
100
AcDbEntity
  8
0
  6
Continuous
 62
     7
370
    25
100
AcDbCircle
 10
6275.3374412066
 20
5041.4776467587
 30
0.0
 40
0.4142163143734329
100
AcDbArc
 50
294.6374229149
 51
3.723707136
  0
ARC
  5
1E2
330
1F
100
AcDbEntity
  8
0
  6
Continuous
 62
     7
370
    25
100
AcDbCircle
 10
6275.2705696575
 20
5041.5481054892
 30
0.0
 40
0.4821847544431856
100
AcDbArc
 50
354.8172150508
 51
87.189995571
  0
ARC
  5
1E3
330
1F
100
AcDbEntity
  8
0
  6
Continuous
 62
     7
370
    25
100
AcDbCircle
 10
6275.3089781934
 20
5041.5602409844
 30
0.0
 40
0.4697017536005818
100
AcDbArc
 50
91.8019697267
 51
185.8134454242
  0
ARC
  5
1E4
330
1F
100
AcDbEntity
  8
0
  6
Continuous
 62
     7
370
    25
100
AcDbCircle
 10
6275.2508022348
 20
5041.4767721451
 30
0.0
 40
0.4106815970679014
100
AcDbArc
 50
174.9860509511
 51
246.1571721499
  0
ARC
  5
1E5
330
1F
100
AcDbEntity
  8
0
  6
Continuous
 62
     7
370
    25
100
AcDbCircle
 10
6275.2473082989
 20
5040.6428339795
 30
0.0
 40
0.4862661978523466
100
AcDbArc
 50
109.5245671351
 51
186.0718668135
  0
LINE
  5
1E6
330
1F
100
AcDbEntity
  8
0
  6
Continuous
 62
     7
370
    25
100
AcDbLine
 10
6252.5518538253
 20
5046.6791441418
 30
0.0
 11
6252.5518538253
 21
5045.0427805054
 31
0.0
  0
LINE
  5
1E7
330
1F
100
AcDbEntity
  8
0
  6
Continuous
 62
     7
370
    25
100
AcDbLine
 10
6254.0518538253
 20
5046.6791441418
 30
0.0
 11
6252.5518538253
 21
5046.6791441418
 31
0.0
  0
LINE
  5
1E8
330
1F
100
AcDbEntity
  8
0
  6
Continuous
 62
     7
370
    25
100
AcDbLine
 10
6254.0518538253
 20
5045.0427805054
 30
0.0
 11
6254.0518538253
 21
5046.6791441418
 31
0.0
  0
LINE
  5
1E9
330
1F
100
AcDbEntity
  8
0
  6
Continuous
 62
     7
370
    25
100
AcDbLine
 10
6254.4154901889
 20
5045.0427805054
 30
0.0
 11
6254.0518538253
 21
5045.0427805054
 31
0.0
  0
LINE
  5
1EA
330
1F
100
AcDbEntity
  8
0
  6
Continuous
 62
     7
370
    25
100
AcDbLine
 10
6254.4154901889
 20
5048.5427805054
 30
0.0
 11
6254.4154901889
 21
5045.0427805054
 31
0.0
  0
LINE
  5
1EB
330
1F
100
AcDbEntity
  8
0
  6
Continuous
 62
     7
370
    25
100
AcDbLine
 10
6254.0518538253
 20
5048.5427805054
 30
0.0
 11
6254.4154901889
 21
5048.5427805054
 31
0.0
  0
LINE
  5
1EC
330
1F
100
AcDbEntity
  8
0
  6
Continuous
 62
     7
370
    25
100
AcDbLine
 10
6254.0518538253
 20
5047.0882350508
 30
0.0
 11
6254.0518538253
 21
5048.5427805054
 31
0.0
  0
LINE
  5
1ED
330
1F
100
AcDbEntity
  8
0
  6
Continuous
 62
     7
370
    25
100
AcDbLine
 10
6252.5518538253
 20
5047.0882350508
 30
0.0
 11
6254.0518538253
 21
5047.0882350508
 31
0.0
  0
LINE
  5
1EE
330
1F
100
AcDbEntity
  8
0
  6
Continuous
 62
     7
370
    25
100
AcDbLine
 10
6252.5518538253
 20
5048.5427805054
 30
0.0
 11
6252.5518538253
 21
5047.0882350508
 31
0.0
  0
LINE
  5
1EF
330
1F
100
AcDbEntity
  8
0
  6
Continuous
 62
     7
370
    25
100
AcDbLine
 10
6252.1882174616
 20
5048.5427805054
 30
0.0
 11
6252.5518538253
 21
5048.5427805054
 31
0.0
  0
LINE
  5
1F0
330
1F
100
AcDbEntity
  8
0
  6
Continuous
 62
     7
370
    25
100
AcDbLine
 10
6252.1882174616
 20
5045.0427805054
 30
0.0
 11
6252.1882174616
 21
5048.5427805054
 31
0.0
  0
LINE
  5
1F1
330
1F
100
AcDbEntity
  8
0
  6
Continuous
 62
     7
370
    25
100
AcDbLine
 10
6252.5518538253
 20
5045.0427805054
 30
0.0
 11
6252.1882174616
 21
5045.0427805054
 31
0.0
  0
ARC
  5
1F2
330
1F
100
AcDbEntity
  8
0
  6
Continuous
 62
     7
370
    25
100
AcDbCircle
 10
6270.098255105
 20
5037.5945620999
 30
0.0
 40
0.6201587849189102
100
AcDbArc
 50
275.9661406431
 51
8.361352638
  0
LWPOLYLINE
  5
1F3
330
1F
100
AcDbEntity
  8
0
  6
Continuous
 62
     7
370
    25
100
AcDbPolyline
 90
        4
 70
   128
 43
0.0
 10
6270.2239973263
 20
5038.3284117597
 10
6270.4601545273
 20
5038.2533619447
 10
6270.6260502961
 20
5038.0666917822
 10
6270.7118220016
 20
5037.6847429285
  0
LWPOLYLINE
  5
1F4
330
1F
100
AcDbEntity
  8
0
  6
Continuous
 62
     7
370
    25
100
AcDbPolyline
 90
        3
 70
   128
 43
0.0
 10
6269.9277310925
 20
5038.2500838376
 10
6270.0888082098
 20
5038.3131979845
 10
6270.2239973263
 20
5038.3284117597
  0
LINE
  5
1F5
330
1F
100
AcDbEntity
  8
0
  6
Continuous
 62
     7
370
    25
100
AcDbLine
 10
6270.0028122613
 20
5038.7439961753
 30
0.0
 11
6269.9277310925
 21
5038.2500838376
 31
0.0
  0
LINE
  5
1F6
330
1F
100
AcDbEntity
  8
0
  6
Continuous
 62
     7
370
    25
100
AcDbLine
 10
6270.6338999237
 20
5038.7439961753
 30
0.0
 11
6270.0028122613
 21
5038.7439961753
 31
0.0
  0
LINE
  5
1F7
330
1F
100
AcDbEntity
  8
0
  6
Continuous
 62
     7
370
    25
100
AcDbLine
 10
6270.6338999237
 20
5038.9777624091
 30
0.0
 11
6270.6338999237
 21
5038.7439961753
 31
0.0
  0
LINE
  5
1F8
330
1F
100
AcDbEntity
  8
0
  6
Continuous
 62
     7
370
    25
100
AcDbLine
 10
6269.8287051185
 20
5038.9777624091
 30
0.0
 11
6270.6338999237
 21
5038.9777624091
 31
0.0
  0
LINE
  5
1F9
330
1F
100
AcDbEntity
  8
0
  6
Continuous
 62
     7
370
    25
100
AcDbLine
 10
6269.6728609626
 20
5037.9530059156
 30
0.0
 11
6269.8287051185
 21
5038.9777624091
 31
0.0
  0
LINE
  5
1FA
330
1F
100
AcDbEntity
  8
0
  6
Continuous
 62
     7
370
    25
100
AcDbLine
 10
6269.8806531704
 20
5037.9233792922
 30
0.0
 11
6269.6728609626
 21
5037.9530059156
 31
0.0
  0
ARC
  5
1FB
330
1F
100
AcDbEntity
  8
0
  6
Continuous
 62
     7
370
    25
100
AcDbCircle
 10
6270.1760092503
 20
5037.8011158686
 30
0.0
 40
0.3196616315438205
100
AcDbArc
 50
91.8012237043
 51
157.5127624909
  0
ARC
  5
1FC
330
1F
100
AcDbEntity
  8
0
  6
Continuous
 62
     7
370
    25
100
AcDbCircle
 10
6270.1282531063
 20
5037.740723031
 30
0.0
 40
0.3817634058121394
100
AcDbArc
 50
349.839757475
 51
84.3313924515
  0
LWPOLYLINE
  5
1FD
330
1F
100
AcDbEntity
  8
0
  6
Continuous
 62
     7
370
    25
100
AcDbPolyline
 90
        5
 70
   128
 43
0.0
 10
6270.160685638
 20
5037.1855546169
 10
6270.2804284532
 20
5037.2127133135
 10
6270.3782131849
 20
5037.2875528662
 10
6270.4476866432
 20
5037.3894987549
 10
6270.5040297938
 20
5037.6733792922
  0
ARC
  5
1FE
330
1F
100
AcDbEntity
  8
0
  6
Continuous
 62
     7
370
    25
100
AcDbCircle
 10
6270.2217637158
 20
5037.548502852
 30
0.0
 40
0.368051562955212
100
AcDbArc
 50
175.8457772103
 51
260.4475861406
  0
LINE
  5
1FF
330
1F
100
AcDbEntity
  8
0
  6
Continuous
 62
     7
370
    25
100
AcDbLine
 10
6269.6468869367
 20
5037.5491909805
 30
0.0
 11
6269.8546791445
 21
5037.5751650065
 31
0.0
  0
LWPOLYLINE
  5
200
330
1F
100
AcDbEntity
  8
0
  6
Continuous
 62
     7
370
    25
100
AcDbPolyline
 90
        4
 70
   128
 43
0.0
 10
6270.1627148587
 20
5036.9777624091
 10
6269.9327210779
 20
5037.0340101672
 10
6269.757983819
 20
5037.194376396
 10
6269.6468869367
 20
5037.5491909805
  0
LWPOLYLINE
  5
201
330
1F
100
AcDbEntity
  8
0
  6
Continuous
 62
     7
370
    25
100
AcDbPolyline
 90
        7
 70
   128
 43
0.0
 10
6257.4609447344
 20
5046.8119566418
 10
6257.4027957245
 20
5046.1853574424
 10
6257.1856417812
 20
5045.5963546931
 10
6256.9982149134
 20
5045.3439579912
 10
6256.7432719798
 20
5045.1614458078
 10
6256.4430498328
 20
5045.0682932109
 10
6256.129268598
 20
5045.0427805054
  0
ARC
  5
202
330
1F
100
AcDbEntity
  8
0
  6
Continuous
 62
     7
370
    25
100
AcDbCircle
 10
6255.7816815558
 20
5047.0202371617
 30
0.0
 40
1.692130490769701
100
AcDbArc
 50
352.9296613749
 51
59.4949092539
  0
LWPOLYLINE
  5
203
330
1F
100
AcDbEntity
  8
0
  6
Continuous
 62
     7
370
    25
100
AcDbPolyline
 90
        3
 70
   128
 43
0.0
 10
6256.0838140525
 20
5048.5427805054
 10
6256.3984119675
 20
5048.5273673481
 10
6256.6406322344
 20
5048.4781498236
  0
LINE
  5
204
330
1F
100
AcDbEntity
  8
0
  6
Continuous
 62
     7
370
    25
100
AcDbLine
 10
6255.0973083707
 20
5048.5427805054
 30
0.0
 11
6256.0838140525
 21
5048.5427805054
 31
0.0
  0
LINE
  5
205
330
1F
100
AcDbEntity
  8
0
  6
Continuous
 62
     7
370
    25
100
AcDbLine
 10
6255.0973083707
 20
5045.0427805054
 30
0.0
 11
6255.0973083707
 21
5048.5427805054
 31
0.0
  0
LINE
  5
206
330
1F
100
AcDbEntity
  8
0
  6
Continuous
 62
     7
370
    25
100
AcDbLine
 10
6256.129268598
 20
5045.0427805054
 30
0.0
 11
6255.0973083707
 21
5045.0427805054
 31
0.0
  0
LINE
  5
207
330
1F
100
AcDbEntity
  8
0
  6
Continuous
 62
     7
370
    25
100
AcDbLine
 10
6261.824581098
 20
5046.4973259599
 30
0.0
 11
6261.824581098
 21
5046.0882350508
 31
0.0
  0
LINE
  5
208
330
1F
100
AcDbEntity
  8
0
  6
Continuous
 62
     7
370
    25
100
AcDbLine
 10
6260.7336720071
 20
5046.4973259599
 30
0.0
 11
6261.824581098
 21
5046.4973259599
 31
0.0
  0
LINE
  5
209
330
1F
100
AcDbEntity
  8
0
  6
Continuous
 62
     7
370
    25
100
AcDbLine
 10
6260.7336720071
 20
5046.0882350508
 30
0.0
 11
6260.7336720071
 21
5046.4973259599
 31
0.0
  0
LINE
  5
20A
330
1F
100
AcDbEntity
  8
0
  6
Continuous
 62
     7
370
    25
100
AcDbLine
 10
6261.824581098
 20
5046.0882350508
 30
0.0
 11
6260.7336720071
 21
5046.0882350508
 31
0.0
  0
LWPOLYLINE
  5
20B
330
1F
100
AcDbEntity
  8
0
  6
Continuous
 62
     7
370
    25
100
AcDbPolyline
 90
        3
 70
   128
 43
0.0
 10
6268.3193707029
 20
5037.625895526
 10
6268.1316032027
 20
5037.4195473381
 10
6268.0105233003
 20
5037.2375026688
  0
ARC
  5
20C
330
1F
100
AcDbEntity
  8
0
  6
Continuous
 62
     7
370
    25
100
AcDbCircle
 10
6267.5307622637
 20
5038.6185871192
 30
0.0
 40
1.267809082478595
100
AcDbArc
 50
308.4641327998
 51
353.2348702305
  0
ARC
  5
20D
330
1F
100
AcDbEntity
  8
0
  6
Continuous
 62
     7
370
    25
100
AcDbCircle
 10
6268.2736239005
 20
5038.511918203
 30
0.0
 40
0.5178817387547395
100
AcDbArc
 50
355.2729063978
 51
88.9348929823
  0
ARC
  5
20E
330
1F
100
AcDbEntity
  8
0
  6
Continuous
 62
     7
370
    25
100
AcDbCircle
 10
6268.2957054965
 20
5038.4826127215
 30
0.0
 40
0.5472394921128841
100
AcDbArc
 50
91.3041386504
 51
185.2743467066
  0
LINE
  5
20F
330
1F
100
AcDbEntity
  8
0
  6
Continuous
 62
     7
370
    25
100
AcDbLine
 10
6267.9585752484
 20
5038.4063338376
 30
0.0
 11
6267.7507830406
 21
5038.4323078636
 31
0.0
  0
LWPOLYLINE
  5
210
330
1F
100
AcDbEntity
  8
0
  6
Continuous
 62
     7
370
    25
100
AcDbPolyline
 90
        5
 70
   128
 43
0.0
 10
6268.2755395341
 20
5038.8219182532
 10
6268.167954667
 20
5038.8031461852
 10
6268.0758633972
 20
5038.7445938176
 10
6268.009757008
 20
5038.6575372225
 10
6267.9585752484
 20
5038.4063338376
  0
ARC
  5
211
330
1F
100
AcDbEntity
  8
0
  6
Continuous
 62
     7
370
    25
100
AcDbCircle
 10
6268.2645267393
 20
5038.5032713809
 30
0.0
 40
0.3188371228103503
100
AcDbArc
 50
354.6057699974
 51
88.0205811981
  0
ARC
  5
212
330
1F
100
AcDbEntity
  8
0
  6
Continuous
 62
     7
370
    25
100
AcDbCircle
 10
6267.50559281
 20
5038.6340581341
 30
0.0
 40
1.088298034042063
100
AcDbArc
 50
305.3153210853
 51
351.5053593859
  0
ARC
  5
213
330
1F
100
AcDbEntity
  8
0
  6
Continuous
 62
     7
370
    25
100
AcDbCircle
 10
6268.834955021
 20
5036.8750194312
 30
0.0
 40
1.117583206165943
100
AcDbArc
 50
128.7974682059
 51
173.3863142526
  0
LINE
  5
214
330
1F
100
AcDbEntity
  8
0
  6
Continuous
 62
     7
370
    25
100
AcDbLine
 10
6268.7897440795
 20
5037.003736435
 30
0.0
 11
6267.7248090146
 21
5037.003736435
 31
0.0
  0
LINE
  5
215
330
1F
100
AcDbEntity
  8
0
  6
Continuous
 62
     7
370
    25
100
AcDbLine
 10
6268.7897440795
 20
5037.2375026688
 30
0.0
 11
6268.7897440795
 21
5037.003736435
 31
0.0
  0
LINE
  5
216
330
1F
100
AcDbEntity
  8
0
  6
Continuous
 62
     7
370
    25
100
AcDbLine
 10
6268.0105233003
 20
5037.2375026688
 30
0.0
 11
6268.7897440795
 21
5037.2375026688
 31
0.0
  0
LINE
  5
217
330
1F
100
AcDbEntity
  8
0
  6
Continuous
 62
     7
370
    25
100
AcDbLine
 10
6266.1663674561
 20
5037.8349052662
 30
0.0
 11
6266.1663674561
 21
5037.6011390324
 31
0.0
  0
LINE
  5
218
330
1F
100
AcDbEntity
  8
0
  6
Continuous
 62
     7
370
    25
100
AcDbLine
 10
6265.5429908328
 20
5037.8349052662
 30
0.0
 11
6266.1663674561
 21
5037.8349052662
 31
0.0
  0
LINE
  5
219
330
1F
100
AcDbEntity
  8
0
  6
Continuous
 62
     7
370
    25
100
AcDbLine
 10
6265.5429908328
 20
5037.6011390324
 30
0.0
 11
6265.5429908328
 21
5037.8349052662
 31
0.0
  0
LINE
  5
21A
330
1F
100
AcDbEntity
  8
0
  6
Continuous
 62
     7
370
    25
100
AcDbLine
 10
6266.1663674561
 20
5037.6011390324
 30
0.0
 11
6265.5429908328
 21
5037.6011390324
 31
0.0
  0
LINE
  5
21B
330
1F
100
AcDbEntity
  8
0
  6
Continuous
 62
     7
370
    25
100
AcDbLine
 10
6263.7248090146
 20
5037.4972429285
 30
0.0
 11
6263.7248090146
 21
5037.003736435
 31
0.0
  0
LINE
  5
21C
330
1F
100
AcDbEntity
  8
0
  6
Continuous
 62
     7
370
    25
100
AcDbLine
 10
6263.9585752484
 20
5037.4972429285
 30
0.0
 11
6263.7248090146
 21
5037.4972429285
 31
0.0
  0
LINE
  5
21D
330
1F
100
AcDbEntity
  8
0
  6
Continuous
 62
     7
370
    25
100
AcDbLine
 10
6263.9585752484
 20
5037.7310091623
 30
0.0
 11
6263.9585752484
 21
5037.4972429285
 31
0.0
  0
LINE
  5
21E
330
1F
100
AcDbEntity
  8
0
  6
Continuous
 62
     7
370
    25
100
AcDbLine
 10
6263.7248090146
 20
5037.7310091623
 30
0.0
 11
6263.9585752484
 21
5037.7310091623
 31
0.0
  0
LINE
  5
21F
330
1F
100
AcDbEntity
  8
0
  6
Continuous
 62
     7
370
    25
100
AcDbLine
 10
6263.7248090146
 20
5039.029710461
 30
0.0
 11
6263.7248090146
 21
5037.7310091623
 31
0.0
  0
LINE
  5
220
330
1F
100
AcDbEntity
  8
0
  6
Continuous
 62
     7
370
    25
100
AcDbLine
 10
6263.5287862873
 20
5039.029710461
 30
0.0
 11
6263.7248090146
 21
5039.029710461
 31
0.0
  0
LINE
  5
221
330
1F
100
AcDbEntity
  8
0
  6
Continuous
 62
     7
370
    25
100
AcDbLine
 10
6262.8157181055
 20
5037.7310091623
 30
0.0
 11
6263.5287862873
 21
5039.029710461
 31
0.0
  0
LINE
  5
222
330
1F
100
AcDbEntity
  8
0
  6
Continuous
 62
     7
370
    25
100
AcDbLine
 10
6262.8157181055
 20
5037.4972429285
 30
0.0
 11
6262.8157181055
 21
5037.7310091623
 31
0.0
  0
LINE
  5
223
330
1F
100
AcDbEntity
  8
0
  6
Continuous
 62
     7
370
    25
100
AcDbLine
 10
6263.5170168068
 20
5037.4972429285
 30
0.0
 11
6262.8157181055
 21
5037.4972429285
 31
0.0
  0
LINE
  5
224
330
1F
100
AcDbEntity
  8
0
  6
Continuous
 62
     7
370
    25
100
AcDbLine
 10
6263.5170168068
 20
5037.003736435
 30
0.0
 11
6263.5170168068
 21
5037.4972429285
 31
0.0
  0
LINE
  5
225
330
1F
100
AcDbEntity
  8
0
  6
Continuous
 62
     7
370
    25
100
AcDbLine
 10
6263.7248090146
 20
5037.003736435
 30
0.0
 11
6263.5170168068
 21
5037.003736435
 31
0.0
  0
LINE
  5
226
330
1F
100
AcDbEntity
  8
0
  6
Continuous
 62
     7
370
    25
100
AcDbLine
 10
6261.283250573
 20
5037.2894507208
 30
0.0
 11
6261.283250573
 21
5037.003736435
 31
0.0
  0
LINE
  5
227
330
1F
100
AcDbEntity
  8
0
  6
Continuous
 62
     7
370
    25
100
AcDbLine
 10
6261.0754583652
 20
5037.2894507208
 30
0.0
 11
6261.283250573
 21
5037.2894507208
 31
0.0
  0
LINE
  5
228
330
1F
100
AcDbEntity
  8
0
  6
Continuous
 62
     7
370
    25
100
AcDbLine
 10
6261.0754583652
 20
5037.003736435
 30
0.0
 11
6261.0754583652
 21
5037.2894507208
 31
0.0
  0
LINE
  5
229
330
1F
100
AcDbEntity
  8
0
  6
Continuous
 62
     7
370
    25
100
AcDbLine
 10
6261.283250573
 20
5037.003736435
 30
0.0
 11
6261.0754583652
 21
5037.003736435
 31
0.0
  0
LINE
  5
22A
330
1F
100
AcDbEntity
  8
0
  6
Continuous
 62
     7
370
    25
100
AcDbLine
 10
6297.2104306664
 20
5051.6613852367
 30
0.0
 11
6297.2104306664
 21
5051.375670951
 31
0.0
  0
LINE
  5
22B
330
1F
100
AcDbEntity
  8
0
  6
Continuous
 62
     7
370
    25
100
AcDbLine
 10
6297.0026384586
 20
5051.6613852367
 30
0.0
 11
6297.2104306664
 21
5051.6613852367
 31
0.0
  0
LINE
  5
22C
330
1F
100
AcDbEntity
  8
0
  6
Continuous
 62
     7
370
    25
100
AcDbLine
 10
6297.0026384586
 20
5051.375670951
 30
0.0
 11
6297.0026384586
 21
5051.6613852367
 31
0.0
  0
LINE
  5
22D
330
1F
100
AcDbEntity
  8
0
  6
Continuous
 62
     7
370
    25
100
AcDbLine
 10
6297.2104306664
 20
5051.375670951
 30
0.0
 11
6297.0026384586
 21
5051.375670951
 31
0.0
  0
LINE
  5
22E
330
1F
100
AcDbEntity
  8
0
  6
Continuous
 62
     7
370
    25
100
AcDbLine
 10
6294.4324274196
 20
5050.2587878341
 30
0.0
 11
6294.2579144326
 21
5049.6613852367
 31
0.0
  0
LINE
  5
22F
330
1F
100
AcDbEntity
  8
0
  6
Continuous
 62
     7
370
    25
100
AcDbLine
 10
6295.131291056
 20
5050.2587878341
 30
0.0
 11
6294.4324274196
 21
5050.2587878341
 31
0.0
  0
LINE
  5
230
330
1F
100
AcDbEntity
  8
0
  6
Continuous
 62
     7
370
    25
100
AcDbLine
 10
6295.3062098871
 20
5049.6613852367
 30
0.0
 11
6295.131291056
 21
5050.2587878341
 31
0.0
  0
LINE
  5
231
330
1F
100
AcDbEntity
  8
0
  6
Continuous
 62
     7
370
    25
100
AcDbLine
 10
6295.5221189781
 20
5049.6613852367
 30
0.0
 11
6295.3062098871
 21
5049.6613852367
 31
0.0
  0
LINE
  5
232
330
1F
100
AcDbEntity
  8
0
  6
Continuous
 62
     7
370
    25
100
AcDbLine
 10
6294.8829144326
 20
5051.6613852367
 30
0.0
 11
6295.5221189781
 21
5049.6613852367
 31
0.0
  0
LINE
  5
233
330
1F
100
AcDbEntity
  8
0
  6
Continuous
 62
     7
370
    25
100
AcDbLine
 10
6294.6803981988
 20
5051.6613852367
 30
0.0
 11
6294.8829144326
 21
5051.6613852367
 31
0.0
  0
LINE
  5
234
330
1F
100
AcDbEntity
  8
0
  6
Continuous
 62
     7
370
    25
100
AcDbLine
 10
6294.0415994975
 20
5049.6613852367
 30
0.0
 11
6294.6803981988
 21
5051.6613852367
 31
0.0
  0
LINE
  5
235
330
1F
100
AcDbEntity
  8
0
  6
Continuous
 62
     7
370
    25
100
AcDbLine
 10
6294.2579144326
 20
5049.6613852367
 30
0.0
 11
6294.0415994975
 21
5049.6613852367
 31
0.0
  0
LWPOLYLINE
  5
236
330
1F
100
AcDbEntity
  8
0
  6
Continuous
 62
     7
370
    25
100
AcDbPolyline
 90
        6
 70
   128
 43
0.0
 10
6297.2104306664
 20
5049.5960443276
 10
6297.1718365203
 20
5049.2688293045
 10
6297.1360361381
 20
5049.1945140498
 10
6297.0784825464
 20
5049.1355744477
 10
6297.0041000449
 20
5049.1002978202
 10
6296.9222813157
 20
5049.0899566653
  0
LINE
  5
237
330
1F
100
AcDbEntity
  8
0
  6
Continuous
 62
     7
370
    25
100
AcDbLine
 10
6297.2104306664
 20
5051.1159306912
 30
0.0
 11
6297.2104306664
 21
5049.5960443276
 31
0.0
  0
LINE
  5
238
330
1F
100
AcDbEntity
  8
0
  6
Continuous
 62
     7
370
    25
100
AcDbLine
 10
6297.0026384586
 20
5051.1159306912
 30
0.0
 11
6297.2104306664
 21
5051.1159306912
 31
0.0
  0
LINE
  5
239
330
1F
100
AcDbEntity
  8
0
  6
Continuous
 62
     7
370
    25
100
AcDbLine
 10
6297.0026384586
 20
5049.5960443276
 30
0.0
 11
6297.0026384586
 21
5051.1159306912
 31
0.0
  0
LWPOLYLINE
  5
23A
330
1F
100
AcDbEntity
  8
0
  6
Continuous
 62
     7
370
    25
100
AcDbPolyline
 90
        6
 70
   128
 43
0.0
 10
6296.8849436534
 20
5049.2977488731
 10
6296.9289476866
 20
5049.3058242853
 10
6296.9644382607
 20
5049.3328776419
 10
6296.9842512959
 20
5049.3728643267
 10
6296.993335513
 20
5049.4168159664
 10
6297.0026384586
 20
5049.5960443276
  0
LWPOLYLINE
  5
23B
330
1F
100
AcDbEntity
  8
0
  6
Continuous
 62
     7
370
    25
100
AcDbPolyline
 90
        3
 70
   128
 43
0.0
 10
6296.7948462508
 20
5049.3168235484
 10
6296.844676683
 20
5049.3029799349
 10
6296.8849436534
 20
5049.2977488731
  0
LINE
  5
23C
330
1F
100
AcDbEntity
  8
0
  6
Continuous
 62
     7
370
    25
100
AcDbLine
 10
6296.7688722248
 20
5049.0899566653
 30
0.0
 11
6296.7948462508
 21
5049.3168235484
 31
0.0
  0
LINE
  5
23D
330
1F
100
AcDbEntity
  8
0
  6
Continuous
 62
     7
370
    25
100
AcDbLine
 10
6296.9222813157
 20
5049.0899566653
 30
0.0
 11
6296.7688722248
 21
5049.0899566653
 31
0.0
  0
LINE
  5
23E
330
1F
100
AcDbEntity
  8
0
  6
Continuous
 62
     7
370
    25
100
AcDbLine
 10
6251.8546791445
 20
5042.003736435
 30
0.0
 11
6251.8546791445
 21
5040.003736435
 31
0.0
  0
LINE
  5
23F
330
1F
100
AcDbEntity
  8
0
  6
Continuous
 62
     7
370
    25
100
AcDbLine
 10
6251.6468869367
 20
5042.003736435
 30
0.0
 11
6251.8546791445
 21
5042.003736435
 31
0.0
  0
LINE
  5
240
330
1F
100
AcDbEntity
  8
0
  6
Continuous
 62
     7
370
    25
100
AcDbLine
 10
6251.6468869367
 20
5040.003736435
 30
0.0
 11
6251.6468869367
 21
5042.003736435
 31
0.0
  0
LINE
  5
241
330
1F
100
AcDbEntity
  8
0
  6
Continuous
 62
     7
370
    25
100
AcDbLine
 10
6251.8546791445
 20
5040.003736435
 30
0.0
 11
6251.6468869367
 21
5040.003736435
 31
0.0
  0
LINE
  5
242
330
1F
100
AcDbEntity
  8
0
  6
Continuous
 62
     7
370
    25
100
AcDbLine
 10
6295.889533182
 20
5054.4619193124
 30
0.0
 11
6295.2596630521
 21
5052.4619193124
 31
0.0
  0
LINE
  5
243
330
1F
100
AcDbEntity
  8
0
  6
Continuous
 62
     7
370
    25
100
AcDbLine
 10
6295.673624091
 20
5054.4619193124
 30
0.0
 11
6295.889533182
 21
5054.4619193124
 31
0.0
  0
LINE
  5
244
330
1F
100
AcDbEntity
  8
0
  6
Continuous
 62
     7
370
    25
100
AcDbLine
 10
6295.2288188962
 20
5053.0110264552
 30
0.0
 11
6295.673624091
 21
5054.4619193124
 31
0.0
  0
LWPOLYLINE
  5
245
330
1F
100
AcDbEntity
  8
0
  6
Continuous
 62
     7
370
    25
100
AcDbPolyline
 90
        3
 70
   128
 43
0.0
 10
6295.1411565586
 20
5052.6956855462
 10
6295.1883349273
 20
5052.8728076107
 10
6295.2288188962
 20
5053.0110264552
  0
LWPOLYLINE
  5
246
330
1F
100
AcDbEntity
  8
0
  6
Continuous
 62
     7
370
    25
100
AcDbPolyline
 90
        3
 70
   128
 43
0.0
 10
6295.0607994157
 20
5053.0110264552
 10
6295.1070533462
 20
5052.8347537926
 10
6295.1411565586
 20
5052.6956855462
  0
LINE
  5
247
330
1F
100
AcDbEntity
  8
0
  6
Continuous
 62
     7
370
    25
100
AcDbLine
 10
6294.6606370781
 20
5054.4619193124
 30
0.0
 11
6295.0607994157
 21
5053.0110264552
 31
0.0
  0
LINE
  5
248
330
1F
100
AcDbEntity
  8
0
  6
Continuous
 62
     7
370
    25
100
AcDbLine
 10
6294.4467572079
 20
5054.4619193124
 30
0.0
 11
6294.6606370781
 21
5054.4619193124
 31
0.0
  0
LINE
  5
249
330
1F
100
AcDbEntity
  8
0
  6
Continuous
 62
     7
370
    25
100
AcDbLine
 10
6295.0449714936
 20
5052.4619193124
 30
0.0
 11
6294.4467572079
 21
5054.4619193124
 31
0.0
  0
LINE
  5
24A
330
1F
100
AcDbEntity
  8
0
  6
Continuous
 62
     7
370
    25
100
AcDbLine
 10
6295.2596630521
 20
5052.4619193124
 30
0.0
 11
6295.0449714936
 21
5052.4619193124
 31
0.0
  0
LINE
  5
24B
330
1F
100
AcDbEntity
  8
0
  6
Continuous
 62
     7
370
    25
100
AcDbLine
 10
6270.125289427
 20
5054.2373684246
 30
0.0
 11
6269.8044696218
 21
5054.2373684246
 31
0.0
  0
LINE
  5
24C
330
1F
100
AcDbEntity
  8
0
  6
Continuous
 62
     7
370
    25
100
AcDbLine
 10
6269.8044696218
 20
5054.2373684246
 30
0.0
 11
6269.2042261153
 21
5052.0610291389
 31
0.0
  0
LWPOLYLINE
  5
24D
330
1F
100
AcDbEntity
  8
0
  6
Continuous
 62
     7
370
    25
100
AcDbPolyline
 90
        3
 70
   128
 43
0.0
 10
6269.2042261153
 20
5052.0610291389
 10
6269.1348452196
 20
5051.7966201449
 10
6269.083690401
 20
5051.5880177753
  0
LWPOLYLINE
  5
24E
330
1F
100
AcDbEntity
  8
0
  6
Continuous
 62
     7
370
    25
100
AcDbPolyline
 90
        3
 70
   128
 43
0.0
 10
6269.083690401
 20
5051.5880177753
 10
6269.012922848
 20
5051.8537008721
 10
6268.9521968945
 20
5052.0610291389
  0
LINE
  5
24F
330
1F
100
AcDbEntity
  8
0
  6
Continuous
 62
     7
370
    25
100
AcDbLine
 10
6268.9521968945
 20
5052.0610291389
 30
0.0
 11
6268.2849891023
 21
5054.2373684246
 31
0.0
  0
LINE
  5
250
330
1F
100
AcDbEntity
  8
0
  6
Continuous
 62
     7
370
    25
100
AcDbLine
 10
6268.2849891023
 20
5054.2373684246
 30
0.0
 11
6267.961125466
 21
5054.2373684246
 31
0.0
  0
LINE
  5
251
330
1F
100
AcDbEntity
  8
0
  6
Continuous
 62
     7
370
    25
100
AcDbLine
 10
6267.961125466
 20
5054.2373684246
 30
0.0
 11
6268.9059306608
 21
5051.2373684246
 31
0.0
  0
LINE
  5
252
330
1F
100
AcDbEntity
  8
0
  6
Continuous
 62
     7
370
    25
100
AcDbLine
 10
6268.9059306608
 20
5051.2373684246
 30
0.0
 11
6269.2279679984
 21
5051.2373684246
 31
0.0
  0
LINE
  5
253
330
1F
100
AcDbEntity
  8
0
  6
Continuous
 62
     7
370
    25
100
AcDbLine
 10
6269.2279679984
 20
5051.2373684246
 30
0.0
 11
6270.125289427
 21
5054.2373684246
 31
0.0
  0
LINE
  5
254
330
1F
100
AcDbEntity
  8
0
  6
Continuous
 62
     7
370
    25
100
AcDbLine
 10
6267.8174566348
 20
5052.4841216714
 30
0.0
 11
6266.8823916997
 21
5052.4841216714
 31
0.0
  0
LINE
  5
255
330
1F
100
AcDbEntity
  8
0
  6
Continuous
 62
     7
370
    25
100
AcDbLine
 10
6266.8823916997
 20
5052.4841216714
 30
0.0
 11
6266.8823916997
 21
5052.1334723207
 31
0.0
  0
LINE
  5
256
330
1F
100
AcDbEntity
  8
0
  6
Continuous
 62
     7
370
    25
100
AcDbLine
 10
6266.8823916997
 20
5052.1334723207
 30
0.0
 11
6267.8174566348
 21
5052.1334723207
 31
0.0
  0
LINE
  5
257
330
1F
100
AcDbEntity
  8
0
  6
Continuous
 62
     7
370
    25
100
AcDbLine
 10
6267.8174566348
 20
5052.1334723207
 30
0.0
 11
6267.8174566348
 21
5052.4841216714
 31
0.0
  0
LINE
  5
258
330
1F
100
AcDbEntity
  8
0
  6
Continuous
 62
     7
370
    25
100
AcDbLine
 10
6273.3174566348
 20
5052.4841216714
 30
0.0
 11
6272.3823916997
 21
5052.4841216714
 31
0.0
  0
LINE
  5
259
330
1F
100
AcDbEntity
  8
0
  6
Continuous
 62
     7
370
    25
100
AcDbLine
 10
6272.3823916997
 20
5052.4841216714
 30
0.0
 11
6272.3823916997
 21
5052.1334723207
 31
0.0
  0
LINE
  5
25A
330
1F
100
AcDbEntity
  8
0
  6
Continuous
 62
     7
370
    25
100
AcDbLine
 10
6272.3823916997
 20
5052.1334723207
 30
0.0
 11
6273.3174566348
 21
5052.1334723207
 31
0.0
  0
LINE
  5
25B
330
1F
100
AcDbEntity
  8
0
  6
Continuous
 62
     7
370
    25
100
AcDbLine
 10
6273.3174566348
 20
5052.1334723207
 30
0.0
 11
6273.3174566348
 21
5052.4841216714
 31
0.0
  0
LWPOLYLINE
  5
25C
330
1F
100
AcDbEntity
  8
0
  6
Continuous
 62
     7
370
    25
100
AcDbPolyline
 90
        6
 70
   128
 43
0.0
 10
6261.4131207029
 20
5041.0029247467
 10
6261.3966226782
 20
5040.6817520674
 10
6261.3317065437
 20
5040.3671573075
 10
6261.1718919457
 20
5040.0912397741
 10
6261.0372415256
 20
5040.0049958849
 10
6260.879435638
 20
5039.9777624091
  0
LWPOLYLINE
  5
25D
330
1F
100
AcDbEntity
  8
0
  6
Continuous
 62
     7
370
    25
100
AcDbPolyline
 90
        3
 70
   128
 43
0.0
 10
6261.2499713522
 20
5041.8186715
 10
6261.391041628
 20
5041.372459926
 10
6261.4131207029
 20
5041.0029247467
  0
ARC
  5
25E
330
1F
100
AcDbEntity
  8
0
  6
Continuous
 62
     7
370
    25
100
AcDbCircle
 10
6260.8880359508
 20
5041.6139183562
 30
0.0
 40
0.4158378105635304
100
AcDbArc
 50
29.4975951227
 51
90.8495033845
  0
LWPOLYLINE
  5
25F
330
1F
100
AcDbEntity
  8
0
  6
Continuous
 62
     7
370
    25
100
AcDbPolyline
 90
        6
 70
   128
 43
0.0
 10
6260.348185638
 20
5041.0029247467
 10
6260.3645567751
 20
5041.3244568528
 10
6260.4291521984
 20
5041.6394594993
 10
6260.5893586001
 20
5041.9155433649
 10
6260.7239872348
 20
5042.0021348888
 10
6260.8818707029
 20
5042.029710461
  0
LWPOLYLINE
  5
260
330
1F
100
AcDbEntity
  8
0
  6
Continuous
 62
     7
370
    25
100
AcDbPolyline
 90
        6
 70
   128
 43
0.0
 10
6260.879435638
 20
5039.9777624091
 10
6260.7224621544
 20
5040.0074586909
 10
6260.5888756193
 20
5040.09519171
 10
6260.42389204
 20
5040.367108287
 10
6260.3626177926
 20
5040.6820093313
 10
6260.348185638
 20
5041.0029247467
  0
LINE
  5
261
330
1F
100
AcDbEntity
  8
0
  6
Continuous
 62
     7
370
    25
100
AcDbLine
 10
6258.7377960276
 20
5040.2894507208
 30
0.0
 11
6258.7377960276
 21
5040.003736435
 31
0.0
  0
LINE
  5
262
330
1F
100
AcDbEntity
  8
0
  6
Continuous
 62
     7
370
    25
100
AcDbLine
 10
6258.5300038198
 20
5040.2894507208
 30
0.0
 11
6258.7377960276
 21
5040.2894507208
 31
0.0
  0
LINE
  5
263
330
1F
100
AcDbEntity
  8
0
  6
Continuous
 62
     7
370
    25
100
AcDbLine
 10
6258.5300038198
 20
5040.003736435
 30
0.0
 11
6258.5300038198
 21
5040.2894507208
 31
0.0
  0
LINE
  5
264
330
1F
100
AcDbEntity
  8
0
  6
Continuous
 62
     7
370
    25
100
AcDbLine
 10
6258.7377960276
 20
5040.003736435
 30
0.0
 11
6258.5300038198
 21
5040.003736435
 31
0.0
  0
LINE
  5
265
330
1F
100
AcDbEntity
  8
0
  6
Continuous
 62
     7
370
    25
100
AcDbLine
 10
6257.7248090146
 20
5041.7699702013
 30
0.0
 11
6257.7248090146
 21
5040.003736435
 31
0.0
  0
LINE
  5
266
330
1F
100
AcDbEntity
  8
0
  6
Continuous
 62
     7
370
    25
100
AcDbLine
 10
6258.27026356
 20
5041.7699702013
 30
0.0
 11
6257.7248090146
 21
5041.7699702013
 31
0.0
  0
LINE
  5
267
330
1F
100
AcDbEntity
  8
0
  6
Continuous
 62
     7
370
    25
100
AcDbLine
 10
6258.27026356
 20
5042.003736435
 30
0.0
 11
6258.27026356
 21
5041.7699702013
 31
0.0
  0
LINE
  5
268
330
1F
100
AcDbEntity
  8
0
  6
Continuous
 62
     7
370
    25
100
AcDbLine
 10
6256.9715622613
 20
5042.003736435
 30
0.0
 11
6258.27026356
 21
5042.003736435
 31
0.0
  0
LINE
  5
269
330
1F
100
AcDbEntity
  8
0
  6
Continuous
 62
     7
370
    25
100
AcDbLine
 10
6256.9715622613
 20
5041.7699702013
 30
0.0
 11
6256.9715622613
 21
5042.003736435
 31
0.0
  0
LINE
  5
26A
330
1F
100
AcDbEntity
  8
0
  6
Continuous
 62
     7
370
    25
100
AcDbLine
 10
6257.5170168068
 20
5041.7699702013
 30
0.0
 11
6256.9715622613
 21
5041.7699702013
 31
0.0
  0
LINE
  5
26B
330
1F
100
AcDbEntity
  8
0
  6
Continuous
 62
     7
370
    25
100
AcDbLine
 10
6257.5170168068
 20
5040.003736435
 30
0.0
 11
6257.5170168068
 21
5041.7699702013
 31
0.0
  0
LINE
  5
26C
330
1F
100
AcDbEntity
  8
0
  6
Continuous
 62
     7
370
    25
100
AcDbLine
 10
6257.7248090146
 20
5040.003736435
 30
0.0
 11
6257.5170168068
 21
5040.003736435
 31
0.0
  0
LINE
  5
26D
330
1F
100
AcDbEntity
  8
0
  6
Continuous
 62
     7
370
    25
100
AcDbLine
 10
6254.1144194042
 20
5040.8089312402
 30
0.0
 11
6254.1144194042
 21
5040.003736435
 31
0.0
  0
LINE
  5
26E
330
1F
100
AcDbEntity
  8
0
  6
Continuous
 62
     7
370
    25
100
AcDbLine
 10
6254.5364973263
 20
5040.8089312402
 30
0.0
 11
6254.1144194042
 21
5040.8089312402
 31
0.0
  0
ARC
  5
26F
330
1F
100
AcDbEntity
  8
0
  6
Continuous
 62
     7
370
    25
100
AcDbCircle
 10
6254.5984646602
 20
5041.3636856626
 30
0.0
 40
0.5582046395587515
100
AcDbArc
 50
263.6263519984
 51
6.2226710677
  0
ARC
  5
270
330
1F
100
AcDbEntity
  8
0
  6
Continuous
 62
     7
370
    25
100
AcDbCircle
 10
6254.628529654
 20
5041.4827272224
 30
0.0
 40
0.5281049540564962
100
AcDbArc
 50
353.6361410051
 51
66.0016367599
  0
LWPOLYLINE
  5
271
330
1F
100
AcDbEntity
  8
0
  6
Continuous
 62
     7
370
    25
100
AcDbPolyline
 90
        3
 70
   128
 43
0.0
 10
6254.522698625
 20
5042.003736435
 10
6254.7040489552
 20
5041.9949323091
 10
6254.8433155081
 20
5041.9651812402
  0
LINE
  5
272
330
1F
100
AcDbEntity
  8
0
  6
Continuous
 62
     7
370
    25
100
AcDbLine
 10
6253.9066271964
 20
5042.003736435
 30
0.0
 11
6254.522698625
 21
5042.003736435
 31
0.0
  0
LINE
  5
273
330
1F
100
AcDbEntity
  8
0
  6
Continuous
 62
     7
370
    25
100
AcDbLine
 10
6253.9066271964
 20
5040.003736435
 30
0.0
 11
6253.9066271964
 21
5042.003736435
 31
0.0
  0
LINE
  5
274
330
1F
100
AcDbEntity
  8
0
  6
Continuous
 62
     7
370
    25
100
AcDbLine
 10
6254.1144194042
 20
5040.003736435
 30
0.0
 11
6253.9066271964
 21
5040.003736435
 31
0.0
  0
LWPOLYLINE
  5
275
330
1F
100
AcDbEntity
  8
0
  6
Continuous
 62
     7
370
    25
100
AcDbPolyline
 90
        3
 70
   128
 43
0.0
 10
6264.241448625
 20
5040.625895526
 10
6264.0536811248
 20
5040.4195473381
 10
6263.9326012224
 20
5040.2375026688
  0
ARC
  5
276
330
1F
100
AcDbEntity
  8
0
  6
Continuous
 62
     7
370
    25
100
AcDbCircle
 10
6263.4528401858
 20
5041.6185871192
 30
0.0
 40
1.267809082479873
100
AcDbArc
 50
308.4641327998
 51
353.2348702305
  0
ARC
  5
277
330
1F
100
AcDbEntity
  8
0
  6
Continuous
 62
     7
370
    25
100
AcDbCircle
 10
6264.1957018226
 20
5041.511918203
 30
0.0
 40
0.5178817387538134
100
AcDbArc
 50
355.2729063977
 51
88.9348929824
  0
ARC
  5
278
330
1F
100
AcDbEntity
  8
0
  6
Continuous
 62
     7
370
    25
100
AcDbCircle
 10
6264.2177834186
 20
5041.4826127215
 30
0.0
 40
0.5472394921128841
100
AcDbArc
 50
91.3041386504
 51
185.2743467066
  0
LINE
  5
279
330
1F
100
AcDbEntity
  8
0
  6
Continuous
 62
     7
370
    25
100
AcDbLine
 10
6263.8806531704
 20
5041.4063338376
 30
0.0
 11
6263.6728609626
 21
5041.4323078636
 31
0.0
  0
LWPOLYLINE
  5
27A
330
1F
100
AcDbEntity
  8
0
  6
Continuous
 62
     7
370
    25
100
AcDbPolyline
 90
        5
 70
   128
 43
0.0
 10
6264.1976174561
 20
5041.8219182532
 10
6264.0900325891
 20
5041.8031461852
 10
6263.9979413193
 20
5041.7445938176
 10
6263.9318349301
 20
5041.6575372225
 10
6263.8806531704
 20
5041.4063338376
  0
ARC
  5
27B
330
1F
100
AcDbEntity
  8
0
  6
Continuous
 62
     7
370
    25
100
AcDbCircle
 10
6264.1866046614
 20
5041.5032713809
 30
0.0
 40
0.3188371228103503
100
AcDbArc
 50
354.6057699974
 51
88.0205811981
  0
ARC
  5
27C
330
1F
100
AcDbEntity
  8
0
  6
Continuous
 62
     7
370
    25
100
AcDbCircle
 10
6263.427670732
 20
5041.6340581341
 30
0.0
 40
1.08829803403594
100
AcDbArc
 50
305.3153210851
 51
351.5053593861
  0
ARC
  5
27D
330
1F
100
AcDbEntity
  8
0
  6
Continuous
 62
     7
370
    25
100
AcDbCircle
 10
6264.7570329431
 20
5039.8750194312
 30
0.0
 40
1.117583206165407
100
AcDbArc
 50
128.7974682059
 51
173.3863142526
  0
LINE
  5
27E
330
1F
100
AcDbEntity
  8
0
  6
Continuous
 62
     7
370
    25
100
AcDbLine
 10
6264.7118220016
 20
5040.003736435
 30
0.0
 11
6263.6468869367
 21
5040.003736435
 31
0.0
  0
LINE
  5
27F
330
1F
100
AcDbEntity
  8
0
  6
Continuous
 62
     7
370
    25
100
AcDbLine
 10
6264.7118220016
 20
5040.2375026688
 30
0.0
 11
6264.7118220016
 21
5040.003736435
 31
0.0
  0
LINE
  5
280
330
1F
100
AcDbEntity
  8
0
  6
Continuous
 62
     7
370
    25
100
AcDbLine
 10
6263.9326012224
 20
5040.2375026688
 30
0.0
 11
6264.7118220016
 21
5040.2375026688
 31
0.0
  0
LWPOLYLINE
  5
281
330
1F
100
AcDbEntity
  8
0
  6
Continuous
 62
     7
370
    25
100
AcDbPolyline
 90
        6
 70
   128
 43
0.0
 10
6267.2572765471
 20
5041.0029247467
 10
6267.2407785224
 20
5040.6817520674
 10
6267.1758623878
 20
5040.3671573075
 10
6267.0160477899
 20
5040.0912397741
 10
6266.8813973697
 20
5040.0049958849
 10
6266.7235914821
 20
5039.9777624091
  0
LWPOLYLINE
  5
282
330
1F
100
AcDbEntity
  8
0
  6
Continuous
 62
     7
370
    25
100
AcDbPolyline
 90
        3
 70
   128
 43
0.0
 10
6267.0941271964
 20
5041.8186715
 10
6267.2351974721
 20
5041.372459926
 10
6267.2572765471
 20
5041.0029247467
  0
ARC
  5
283
330
1F
100
AcDbEntity
  8
0
  6
Continuous
 62
     7
370
    25
100
AcDbCircle
 10
6266.732191795
 20
5041.6139183562
 30
0.0
 40
0.415837810564614
100
AcDbArc
 50
29.4975951228
 51
90.8495033843
  0
LWPOLYLINE
  5
284
330
1F
100
AcDbEntity
  8
0
  6
Continuous
 62
     7
370
    25
100
AcDbPolyline
 90
        6
 70
   128
 43
0.0
 10
6266.1923414821
 20
5041.0029247467
 10
6266.2087126193
 20
5041.3244568528
 10
6266.2733080426
 20
5041.6394594993
 10
6266.4335144442
 20
5041.9155433649
 10
6266.568143079
 20
5042.0021348888
 10
6266.7260265471
 20
5042.029710461
  0
LWPOLYLINE
  5
285
330
1F
100
AcDbEntity
  8
0
  6
Continuous
 62
     7
370
    25
100
AcDbPolyline
 90
        6
 70
   128
 43
0.0
 10
6266.7235914821
 20
5039.9777624091
 10
6266.5666179986
 20
5040.0074586909
 10
6266.4330314635
 20
5040.09519171
 10
6266.2680478842
 20
5040.367108287
 10
6266.2067736368
 20
5040.6820093313
 10
6266.1923414821
 20
5041.0029247467
  0
LINE
  5
286
330
1F
100
AcDbEntity
  8
0
  6
Continuous
 62
     7
370
    25
100
AcDbLine
 10
6269.2844681055
 20
5040.6011390324
 30
0.0
 11
6269.1099551185
 21
5040.003736435
 31
0.0
  0
LINE
  5
287
330
1F
100
AcDbEntity
  8
0
  6
Continuous
 62
     7
370
    25
100
AcDbLine
 10
6269.9833317419
 20
5040.6011390324
 30
0.0
 11
6269.2844681055
 21
5040.6011390324
 31
0.0
  0
LINE
  5
288
330
1F
100
AcDbEntity
  8
0
  6
Continuous
 62
     7
370
    25
100
AcDbLine
 10
6270.158250573
 20
5040.003736435
 30
0.0
 11
6269.9833317419
 21
5040.6011390324
 31
0.0
  0
LINE
  5
289
330
1F
100
AcDbEntity
  8
0
  6
Continuous
 62
     7
370
    25
100
AcDbLine
 10
6270.3741596639
 20
5040.003736435
 30
0.0
 11
6270.158250573
 21
5040.003736435
 31
0.0
  0
LINE
  5
28A
330
1F
100
AcDbEntity
  8
0
  6
Continuous
 62
     7
370
    25
100
AcDbLine
 10
6269.7349551185
 20
5042.003736435
 30
0.0
 11
6270.3741596639
 21
5040.003736435
 31
0.0
  0
LINE
  5
28B
330
1F
100
AcDbEntity
  8
0
  6
Continuous
 62
     7
370
    25
100
AcDbLine
 10
6269.5324388847
 20
5042.003736435
 30
0.0
 11
6269.7349551185
 21
5042.003736435
 31
0.0
  0
LINE
  5
28C
330
1F
100
AcDbEntity
  8
0
  6
Continuous
 62
     7
370
    25
100
AcDbLine
 10
6268.8936401834
 20
5040.003736435
 30
0.0
 11
6269.5324388847
 21
5042.003736435
 31
0.0
  0
LINE
  5
28D
330
1F
100
AcDbEntity
  8
0
  6
Continuous
 62
     7
370
    25
100
AcDbLine
 10
6269.1099551185
 20
5040.003736435
 30
0.0
 11
6268.8936401834
 21
5040.003736435
 31
0.0
  0
LINE
  5
28E
330
1F
100
AcDbEntity
  8
0
  6
Continuous
 62
     7
370
    25
100
AcDbLine
 10
6273.460198625
 20
5042.029710461
 30
0.0
 11
6273.5949388847
 21
5042.029710461
 31
0.0
  0
LWPOLYLINE
  5
28F
330
1F
100
AcDbEntity
  8
0
  6
Continuous
 62
     7
370
    25
100
AcDbPolyline
 90
        3
 70
   128
 43
0.0
 10
6272.9715622613
 20
5041.5102299415
 10
6273.2863445303
 20
5041.7640779323
 10
6273.460198625
 20
5042.029710461
  0
LINE
  5
290
330
1F
100
AcDbEntity
  8
0
  6
Continuous
 62
     7
370
    25
100
AcDbLine
 10
6272.9715622613
 20
5041.2764637078
 30
0.0
 11
6272.9715622613
 21
5041.5102299415
 31
0.0
  0
LWPOLYLINE
  5
291
330
1F
100
AcDbEntity
  8
0
  6
Continuous
 62
     7
370
    25
100
AcDbPolyline
 90
        3
 70
   128
 43
0.0
 10
6273.3871466769
 20
5041.5881520195
 10
6273.1690646156
 20
5041.3938200505
 10
6272.9715622613
 20
5041.2764637078
  0
LINE
  5
292
330
1F
100
AcDbEntity
  8
0
  6
Continuous
 62
     7
370
    25
100
AcDbLine
 10
6273.3871466769
 20
5040.003736435
 30
0.0
 11
6273.3871466769
 21
5041.5881520195
 31
0.0
  0
LINE
  5
293
330
1F
100
AcDbEntity
  8
0
  6
Continuous
 62
     7
370
    25
100
AcDbLine
 10
6273.5949388847
 20
5040.003736435
 30
0.0
 11
6273.3871466769
 21
5040.003736435
 31
0.0
  0
LINE
  5
294
330
1F
100
AcDbEntity
  8
0
  6
Continuous
 62
     7
370
    25
100
AcDbLine
 10
6273.5949388847
 20
5042.029710461
 30
0.0
 11
6273.5949388847
 21
5040.003736435
 31
0.0
  0
LINE
  5
295
330
1F
100
AcDbEntity
  8
0
  6
Continuous
 62
     7
370
    25
100
AcDbLine
 10
6267.5973083707
 20
5046.4973259599
 30
0.0
 11
6267.5973083707
 21
5046.0882350508
 31
0.0
  0
LINE
  5
296
330
1F
100
AcDbEntity
  8
0
  6
Continuous
 62
     7
370
    25
100
AcDbLine
 10
6266.5063992798
 20
5046.4973259599
 30
0.0
 11
6267.5973083707
 21
5046.4973259599
 31
0.0
  0
LINE
  5
297
330
1F
100
AcDbEntity
  8
0
  6
Continuous
 62
     7
370
    25
100
AcDbLine
 10
6266.5063992798
 20
5046.0882350508
 30
0.0
 11
6266.5063992798
 21
5046.4973259599
 31
0.0
  0
LINE
  5
298
330
1F
100
AcDbEntity
  8
0
  6
Continuous
 62
     7
370
    25
100
AcDbLine
 10
6267.5973083707
 20
5046.0882350508
 30
0.0
 11
6266.5063992798
 21
5046.0882350508
 31
0.0
  0
LINE
  5
299
330
1F
100
AcDbEntity
  8
0
  6
Continuous
 62
     7
370
    25
100
AcDbLine
 10
6271.5518538253
 20
5045.906416869
 30
0.0
 11
6271.5518538253
 21
5045.0427805054
 31
0.0
  0
LINE
  5
29A
330
1F
100
AcDbEntity
  8
0
  6
Continuous
 62
     7
370
    25
100
AcDbLine
 10
6271.9609447344
 20
5045.906416869
 30
0.0
 11
6271.5518538253
 21
5045.906416869
 31
0.0
  0
LINE
  5
29B
330
1F
100
AcDbEntity
  8
0
  6
Continuous
 62
     7
370
    25
100
AcDbLine
 10
6271.9609447344
 20
5046.3155077781
 30
0.0
 11
6271.9609447344
 21
5045.906416869
 31
0.0
  0
LINE
  5
29C
330
1F
100
AcDbEntity
  8
0
  6
Continuous
 62
     7
370
    25
100
AcDbLine
 10
6271.5518538253
 20
5046.3155077781
 30
0.0
 11
6271.9609447344
 21
5046.3155077781
 31
0.0
  0
LINE
  5
29D
330
1F
100
AcDbEntity
  8
0
  6
Continuous
 62
     7
370
    25
100
AcDbLine
 10
6271.5518538253
 20
5048.5882350508
 30
0.0
 11
6271.5518538253
 21
5046.3155077781
 31
0.0
  0
LINE
  5
29E
330
1F
100
AcDbEntity
  8
0
  6
Continuous
 62
     7
370
    25
100
AcDbLine
 10
6271.2088140525
 20
5048.5882350508
 30
0.0
 11
6271.5518538253
 21
5048.5882350508
 31
0.0
  0
LINE
  5
29F
330
1F
100
AcDbEntity
  8
0
  6
Continuous
 62
     7
370
    25
100
AcDbLine
 10
6269.9609447344
 20
5046.3155077781
 30
0.0
 11
6271.2088140525
 21
5048.5882350508
 31
0.0
  0
LINE
  5
2A0
330
1F
100
AcDbEntity
  8
0
  6
Continuous
 62
     7
370
    25
100
AcDbLine
 10
6269.9609447344
 20
5045.906416869
 30
0.0
 11
6269.9609447344
 21
5046.3155077781
 31
0.0
  0
LINE
  5
2A1
330
1F
100
AcDbEntity
  8
0
  6
Continuous
 62
     7
370
    25
100
AcDbLine
 10
6271.1882174616
 20
5045.906416869
 30
0.0
 11
6269.9609447344
 21
5045.906416869
 31
0.0
  0
LINE
  5
2A2
330
1F
100
AcDbEntity
  8
0
  6
Continuous
 62
     7
370
    25
100
AcDbLine
 10
6271.1882174616
 20
5045.0427805054
 30
0.0
 11
6271.1882174616
 21
5045.906416869
 31
0.0
  0
LINE
  5
2A3
330
1F
100
AcDbEntity
  8
0
  6
Continuous
 62
     7
370
    25
100
AcDbLine
 10
6271.5518538253
 20
5045.0427805054
 30
0.0
 11
6271.1882174616
 21
5045.0427805054
 31
0.0
  0
CIRCLE
  5
2A4
330
1F
100
AcDbEntity
  8
0
  6
Continuous
 62
     7
370
    25
100
AcDbCircle
 10
6292.0187553361
 20
5051.2373684246
 30
0.0
 40
1.500000000000909
  0
LINE
  5
2A5
330
1F
100
AcDbEntity
  8
0
  6
Continuous
 62
     7
370
    25
100
AcDbLine
 10
6284.0252488426
 20
5052.5620437493
 30
0.0
 11
6284.6875865049
 21
5052.5620437493
 31
0.0
  0
LINE
  5
2A6
330
1F
100
AcDbEntity
  8
0
  6
Continuous
 62
     7
370
    25
100
AcDbLine
 10
6284.6875865049
 20
5052.5620437493
 30
0.0
 11
6284.6875865049
 21
5052.9126931
 31
0.0
  0
LINE
  5
2A7
330
1F
100
AcDbEntity
  8
0
  6
Continuous
 62
     7
370
    25
100
AcDbLine
 10
6284.6875865049
 20
5052.9126931
 30
0.0
 11
6284.0252488426
 21
5052.9126931
 31
0.0
  0
LINE
  5
2A8
330
1F
100
AcDbEntity
  8
0
  6
Continuous
 62
     7
370
    25
100
AcDbLine
 10
6284.0252488426
 20
5052.9126931
 30
0.0
 11
6284.0252488426
 21
5053.7308749181
 31
0.0
  0
LINE
  5
2A9
330
1F
100
AcDbEntity
  8
0
  6
Continuous
 62
     7
370
    25
100
AcDbLine
 10
6284.0252488426
 20
5053.7308749181
 30
0.0
 11
6283.7135605309
 21
5053.7308749181
 31
0.0
  0
LINE
  5
2AA
330
1F
100
AcDbEntity
  8
0
  6
Continuous
 62
     7
370
    25
100
AcDbLine
 10
6283.7135605309
 20
5053.7308749181
 30
0.0
 11
6283.7135605309
 21
5052.9126931
 31
0.0
  0
LINE
  5
2AB
330
1F
100
AcDbEntity
  8
0
  6
Continuous
 62
     7
370
    25
100
AcDbLine
 10
6283.7135605309
 20
5052.9126931
 30
0.0
 11
6283.0512228686
 21
5052.9126931
 31
0.0
  0
LINE
  5
2AC
330
1F
100
AcDbEntity
  8
0
  6
Continuous
 62
     7
370
    25
100
AcDbLine
 10
6283.0512228686
 20
5052.9126931
 30
0.0
 11
6283.0512228686
 21
5052.5620437493
 31
0.0
  0
LINE
  5
2AD
330
1F
100
AcDbEntity
  8
0
  6
Continuous
 62
     7
370
    25
100
AcDbLine
 10
6283.0512228686
 20
5052.5620437493
 30
0.0
 11
6283.7135605309
 21
5052.5620437493
 31
0.0
  0
LINE
  5
2AE
330
1F
100
AcDbEntity
  8
0
  6
Continuous
 62
     7
370
    25
100
AcDbLine
 10
6283.7135605309
 20
5052.5620437493
 30
0.0
 11
6283.7135605309
 21
5051.7438619311
 31
0.0
  0
LINE
  5
2AF
330
1F
100
AcDbEntity
  8
0
  6
Continuous
 62
     7
370
    25
100
AcDbLine
 10
6283.7135605309
 20
5051.7438619311
 30
0.0
 11
6284.0252488426
 21
5051.7438619311
 31
0.0
  0
LINE
  5
2B0
330
1F
100
AcDbEntity
  8
0
  6
Continuous
 62
     7
370
    25
100
AcDbLine
 10
6284.0252488426
 20
5051.7438619311
 30
0.0
 11
6284.0252488426
 21
5052.5620437493
 31
0.0
  0
LINE
  5
2B1
330
1F
100
AcDbEntity
  8
0
  6
Continuous
 62
     7
370
    25
100
AcDbLine
 10
6268.2460280634
 20
5019.0235900155
 30
0.0
 11
6268.2460280634
 21
5016.2373684246
 31
0.0
  0
LINE
  5
2B2
330
1F
100
AcDbEntity
  8
0
  6
Continuous
 62
     7
370
    25
100
AcDbLine
 10
6269.7204598816
 20
5016.2373684246
 30
0.0
 11
6268.2460280634
 21
5019.0235900155
 31
0.0
  0
LINE
  5
2B3
330
1F
100
AcDbEntity
  8
0
  6
Continuous
 62
     7
370
    25
100
AcDbLine
 10
6270.109664427
 20
5016.2373684246
 30
0.0
 11
6269.7204598816
 21
5016.2373684246
 31
0.0
  0
LINE
  5
2B4
330
1F
100
AcDbEntity
  8
0
  6
Continuous
 62
     7
370
    25
100
AcDbLine
 10
6270.109664427
 20
5019.7373684246
 30
0.0
 11
6270.109664427
 21
5016.2373684246
 31
0.0
  0
LINE
  5
2B5
330
1F
100
AcDbEntity
  8
0
  6
Continuous
 62
     7
370
    25
100
AcDbLine
 10
6269.7460280634
 20
5019.7373684246
 30
0.0
 11
6270.109664427
 21
5019.7373684246
 31
0.0
  0
LINE
  5
2B6
330
1F
100
AcDbEntity
  8
0
  6
Continuous
 62
     7
370
    25
100
AcDbLine
 10
6269.7460280634
 20
5016.9475956974
 30
0.0
 11
6269.7460280634
 21
5019.7373684246
 31
0.0
  0
LINE
  5
2B7
330
1F
100
AcDbEntity
  8
0
  6
Continuous
 62
     7
370
    25
100
AcDbLine
 10
6268.2694655634
 20
5019.7373684246
 30
0.0
 11
6269.7460280634
 21
5016.9475956974
 31
0.0
  0
LINE
  5
2B8
330
1F
100
AcDbEntity
  8
0
  6
Continuous
 62
     7
370
    25
100
AcDbLine
 10
6267.8823916997
 20
5019.7373684246
 30
0.0
 11
6268.2694655634
 21
5019.7373684246
 31
0.0
  0
LINE
  5
2B9
330
1F
100
AcDbEntity
  8
0
  6
Continuous
 62
     7
370
    25
100
AcDbLine
 10
6267.8823916997
 20
5016.2373684246
 30
0.0
 11
6267.8823916997
 21
5019.7373684246
 31
0.0
  0
LINE
  5
2BA
330
1F
100
AcDbEntity
  8
0
  6
Continuous
 62
     7
370
    25
100
AcDbLine
 10
6268.2460280634
 20
5016.2373684246
 30
0.0
 11
6267.8823916997
 21
5016.2373684246
 31
0.0
  0
LINE
  5
2BB
330
1F
100
AcDbEntity
  8
0
  6
Continuous
 62
     7
370
    25
100
AcDbLine
 10
6299.5187553361
 20
5056.2373684246
 30
0.0
 11
6248.5187553361
 21
5056.2373684246
 31
0.0
  0
LINE
  5
2BC
330
1F
100
AcDbEntity
  8
0
  6
Continuous
 62
     7
370
    25
100
AcDbLine
 10
6299.5187553361
 20
5015.2373684246
 30
0.0
 11
6248.5187553361
 21
5015.2373684246
 31
0.0
  0
LINE
  5
2BD
330
1F
100
AcDbEntity
  8
0
  6
Continuous
 62
     7
370
    25
100
AcDbLine
 10
6260.0414826088
 20
5016.6464593337
 30
0.0
 11
6260.0414826088
 21
5016.2373684246
 31
0.0
  0
LINE
  5
2BE
330
1F
100
AcDbEntity
  8
0
  6
Continuous
 62
     7
370
    25
100
AcDbLine
 10
6258.5869371543
 20
5016.6464593337
 30
0.0
 11
6260.0414826088
 21
5016.6464593337
 31
0.0
  0
LINE
  5
2BF
330
1F
100
AcDbEntity
  8
0
  6
Continuous
 62
     7
370
    25
100
AcDbLine
 10
6258.5869371543
 20
5019.7373684246
 30
0.0
 11
6258.5869371543
 21
5016.6464593337
 31
0.0
  0
LINE
  5
2C0
330
1F
100
AcDbEntity
  8
0
  6
Continuous
 62
     7
370
    25
100
AcDbLine
 10
6258.2233007906
 20
5019.7373684246
 30
0.0
 11
6258.5869371543
 21
5019.7373684246
 31
0.0
  0
LINE
  5
2C1
330
1F
100
AcDbEntity
  8
0
  6
Continuous
 62
     7
370
    25
100
AcDbLine
 10
6258.2233007906
 20
5016.2373684246
 30
0.0
 11
6258.2233007906
 21
5019.7373684246
 31
0.0
  0
LINE
  5
2C2
330
1F
100
AcDbEntity
  8
0
  6
Continuous
 62
     7
370
    25
100
AcDbLine
 10
6260.0414826088
 20
5016.2373684246
 30
0.0
 11
6258.2233007906
 21
5016.2373684246
 31
0.0
  0
LWPOLYLINE
  5
2C3
330
1F
100
AcDbEntity
  8
0
  6
Continuous
 62
     7
370
    25
100
AcDbPolyline
 90
        3
 70
   128
 43
0.0
 10
6268.910518598
 20
5046.1315589145
 10
6268.5819254726
 20
5045.7704495858
 10
6268.3700356434
 20
5045.4518714145
  0
ARC
  5
2C4
330
1F
100
AcDbEntity
  8
0
  6
Continuous
 62
     7
370
    25
100
AcDbCircle
 10
6267.5304538294
 20
5047.8687692026
 30
0.0
 40
2.218665894341575
100
AcDbArc
 50
308.4641327999
 51
353.2348702305
  0
ARC
  5
2C5
330
1F
100
AcDbEntity
  8
0
  6
Continuous
 62
     7
370
    25
100
AcDbCircle
 10
6268.8304616938
 20
5047.6820985992
 30
0.0
 40
0.9062930428190429
100
AcDbArc
 50
355.2729063976
 51
88.9348929822
  0
ARC
  5
2C6
330
1F
100
AcDbEntity
  8
0
  6
Continuous
 62
     7
370
    25
100
AcDbCircle
 10
6268.8691044868
 20
5047.6308140067
 30
0.0
 40
0.9576691111988012
100
AcDbArc
 50
91.3041386504
 51
185.2743467066
  0
LINE
  5
2C7
330
1F
100
AcDbEntity
  8
0
  6
Continuous
 62
     7
370
    25
100
AcDbLine
 10
6268.2791265525
 20
5047.4973259599
 30
0.0
 11
6267.9154901889
 21
5047.5427805054
 31
0.0
  0
ARC
  5
2C8
330
1F
100
AcDbEntity
  8
0
  6
Continuous
 62
     7
370
    25
100
AcDbCircle
 10
6268.8987828082
 20
5047.5998821801
 30
0.0
 40
0.6280857055211013
100
AcDbArc
 50
95.9372563111
 51
189.3975513581
  0
ARC
  5
2C9
330
1F
100
AcDbEntity
  8
0
  6
Continuous
 62
     7
370
    25
100
AcDbCircle
 10
6268.8145416616
 20
5047.6669666607
 30
0.0
 40
0.5579649649157484
100
AcDbArc
 50
354.6057699974
 51
88.0205811982
  0
ARC
  5
2CA
330
1F
100
AcDbEntity
  8
0
  6
Continuous
 62
     7
370
    25
100
AcDbCircle
 10
6267.2380278097
 20
5048.0485857679
 30
0.0
 40
2.175747267417582
100
AcDbArc
 50
308.3286907048
 51
348.4919897664
  0
ARC
  5
2CB
330
1F
100
AcDbEntity
  8
0
  6
Continuous
 62
     7
370
    25
100
AcDbCircle
 10
6269.8127911547
 20
5044.8175257487
 30
0.0
 40
1.955770610789862
100
AcDbArc
 50
128.7974682058
 51
173.3863142525
  0
LINE
  5
2CC
330
1F
100
AcDbEntity
  8
0
  6
Continuous
 62
     7
370
    25
100
AcDbLine
 10
6269.7336720071
 20
5045.0427805054
 30
0.0
 11
6267.8700356434
 21
5045.0427805054
 31
0.0
  0
LINE
  5
2CD
330
1F
100
AcDbEntity
  8
0
  6
Continuous
 62
     7
370
    25
100
AcDbLine
 10
6269.7336720071
 20
5045.4518714145
 30
0.0
 11
6269.7336720071
 21
5045.0427805054
 31
0.0
  0
LINE
  5
2CE
330
1F
100
AcDbEntity
  8
0
  6
Continuous
 62
     7
370
    25
100
AcDbLine
 10
6268.3700356434
 20
5045.4518714145
 30
0.0
 11
6269.7336720071
 21
5045.4518714145
 31
0.0
  0
LWPOLYLINE
  5
2CF
330
1F
100
AcDbEntity
  8
0
  6
Continuous
 62
     7
370
    25
100
AcDbPolyline
 90
        7
 70
   128
 43
0.0
 10
6266.1882174616
 20
5046.7913600508
 10
6266.1593459185
 20
5046.229307862
 10
6266.045742683
 20
5045.6787670323
 10
6265.934519818
 20
5045.4204842371
 10
6265.7660671365
 20
5045.1959113488
 10
6265.5304289013
 20
5045.0449845427
 10
6265.254268598
 20
5044.9973259599
  0
ARC
  5
2D0
330
1F
100
AcDbEntity
  8
0
  6
Continuous
 62
     7
370
    25
100
AcDbCircle
 10
6263.4618123318
 20
5046.9884085703
 30
0.0
 40
2.733516608874339
100
AcDbArc
 50
355.8661859352
 51
26.7536790127
  0
ARC
  5
2D1
330
1F
100
AcDbEntity
  8
0
  6
Continuous
 62
     7
370
    25
100
AcDbCircle
 10
6265.2693191455
 20
5047.8605988674
 30
0.0
 40
0.7277161684913904
100
AcDbArc
 50
29.4975951229
 51
90.8495033844
  0
LWPOLYLINE
  5
2D2
330
1F
100
AcDbEntity
  8
0
  6
Continuous
 62
     7
370
    25
100
AcDbPolyline
 90
        7
 70
   128
 43
0.0
 10
6264.324581098
 20
5046.7913600508
 10
6264.353230588
 20
5047.3540412364
 10
6264.4662725788
 20
5047.9052958679
 10
6264.5779997624
 20
5048.1637167876
 10
6264.7466337817
 20
5048.3884426326
 10
6264.9822338925
 20
5048.5399777994
 10
6265.2585299616
 20
5048.5882350508
  0
LWPOLYLINE
  5
2D3
330
1F
100
AcDbEntity
  8
0
  6
Continuous
 62
     7
370
    25
100
AcDbPolyline
 90
        6
 70
   128
 43
0.0
 10
6265.254268598
 20
5044.9973259599
 10
6264.9795650018
 20
5045.0492944531
 10
6264.7457885654
 20
5045.2028272365
 10
6264.4570673016
 20
5045.6786812463
 10
6264.3498373687
 20
5046.2297580739
 10
6264.324581098
 20
5046.7913600508
  0
LWPOLYLINE
  5
2D4
330
1F
100
AcDbEntity
  8
0
  6
Continuous
 62
     7
370
    25
100
AcDbPolyline
 90
        6
 70
   128
 43
0.0
 10
6270.7637700535
 20
5041.0171292922
 10
6270.7834388072
 20
5040.7469005608
 10
6270.8630025915
 20
5040.4886393299
 10
6271.0385377566
 20
5040.2855405009
 10
6271.1613335469
 20
5040.2291933574
 10
6271.2954258977
 20
5040.2115286428
  0
LWPOLYLINE
  5
2D5
330
1F
100
AcDbEntity
  8
0
  6
Continuous
 62
     7
370
    25
100
AcDbPolyline
 90
        6
 70
   128
 43
0.0
 10
6271.3120655081
 20
5041.7959442273
 10
6271.0546233182
 20
5041.73078194
 10
6270.9509391219
 20
5041.6462653529
 10
6270.8737756501
 20
5041.5368005295
 10
6270.7858160125
 20
5041.2843450294
 10
6270.7637700535
 20
5041.0171292922
  0
ARC
  5
2D6
330
1F
100
AcDbEntity
  8
0
  6
Continuous
 62
     7
370
    25
100
AcDbCircle
 10
6271.2893832734
 20
5041.3326380332
 30
0.0
 40
0.4638610926160203
100
AcDbArc
 50
5.9050068499
 51
87.1971894113
  0
LINE
  5
2D7
330
1F
100
AcDbEntity
  8
0
  6
Continuous
 62
     7
370
    25
100
AcDbLine
 10
6271.9585752484
 20
5041.4323078636
 30
0.0
 11
6271.7507830406
 21
5041.3803598117
 31
0.0
  0
LWPOLYLINE
  5
2D8
330
1F
100
AcDbEntity
  8
0
  6
Continuous
 62
     7
370
    25
100
AcDbPolyline
 90
        4
 70
   128
 43
0.0
 10
6271.3205882354
 20
5042.029710461
 10
6271.5792909049
 20
5041.9744937857
 10
6271.786942635
 20
5041.8105711254
 10
6271.9585752484
 20
5041.4323078636
  0
ARC
  5
2D9
330
1F
100
AcDbEntity
  8
0
  6
Continuous
 62
     7
370
    25
100
AcDbCircle
 10
6271.4070359237
 20
5041.1694597837
 30
0.0
 40
0.8645833856265115
100
AcDbArc
 50
95.7384611345
 51
190.1478855405
  0
LWPOLYLINE
  5
2DA
330
1F
100
AcDbEntity
  8
0
  6
Continuous
 62
     7
370
    25
100
AcDbPolyline
 90
        6
 70
   128
 43
0.0
 10
6271.3019194042
 20
5039.9777624091
 10
6270.9568465635
 20
5040.0634086423
 10
6270.8181309926
 20
5040.176809726
 10
6270.71472916
 20
5040.3235117166
 10
6270.5907985924
 20
5040.6597497892
 10
6270.5559778458
 20
5041.0171292922
  0
ARC
  5
2DB
330
1F
100
AcDbEntity
  8
0
  6
Continuous
 62
     7
370
    25
100
AcDbCircle
 10
6271.2670113806
 20
5040.6957174249
 30
0.0
 40
0.718803154476842
100
AcDbArc
 50
272.7836125044
 51
356.5999415406
  0
LINE
  5
2DC
330
1F
100
AcDbEntity
  8
0
  6
Continuous
 62
     7
370
    25
100
AcDbLine
 10
6271.7767570665
 20
5040.7050351363
 30
0.0
 11
6271.9845492743
 21
5040.6530870844
 31
0.0
  0
LWPOLYLINE
  5
2DD
330
1F
100
AcDbEntity
  8
0
  6
Continuous
 62
     7
370
    25
100
AcDbPolyline
 90
        4
 70
   128
 43
0.0
 10
6271.2954258977
 20
5040.2115286428
 10
6271.4996931331
 20
5040.2594841768
 10
6271.658508434
 20
5040.3968218979
 10
6271.7767570665
 20
5040.7050351363
  0
LINE
  5
2DE
330
1F
100
AcDbEntity
  8
0
  6
Continuous
 62
     7
370
    25
100
AcDbLine
 10
6268.8757830406
 20
5042.003736435
 30
0.0
 11
6268.2459129107
 21
5040.003736435
 31
0.0
  0
LINE
  5
2DF
330
1F
100
AcDbEntity
  8
0
  6
Continuous
 62
     7
370
    25
100
AcDbLine
 10
6268.6598739496
 20
5042.003736435
 30
0.0
 11
6268.8757830406
 21
5042.003736435
 31
0.0
  0
LINE
  5
2E0
330
1F
100
AcDbEntity
  8
0
  6
Continuous
 62
     7
370
    25
100
AcDbLine
 10
6268.2150687548
 20
5040.5528435779
 30
0.0
 11
6268.6598739496
 21
5042.003736435
 31
0.0
  0
LWPOLYLINE
  5
2E1
330
1F
100
AcDbEntity
  8
0
  6
Continuous
 62
     7
370
    25
100
AcDbPolyline
 90
        3
 70
   128
 43
0.0
 10
6268.1274064172
 20
5040.2375026688
 10
6268.1745847859
 20
5040.4146247334
 10
6268.2150687548
 20
5040.5528435779
  0
LWPOLYLINE
  5
2E2
330
1F
100
AcDbEntity
  8
0
  6
Continuous
 62
     7
370
    25
100
AcDbPolyline
 90
        3
 70
   128
 43
0.0
 10
6268.0470492743
 20
5040.5528435779
 10
6268.0933032048
 20
5040.3765709152
 10
6268.1274064172
 20
5040.2375026688
  0
LINE
  5
2E3
330
1F
100
AcDbEntity
  8
0
  6
Continuous
 62
     7
370
    25
100
AcDbLine
 10
6267.6468869367
 20
5042.003736435
 30
0.0
 11
6268.0470492743
 21
5040.5528435779
 31
0.0
  0
LINE
  5
2E4
330
1F
100
AcDbEntity
  8
0
  6
Continuous
 62
     7
370
    25
100
AcDbLine
 10
6267.4330070665
 20
5042.003736435
 30
0.0
 11
6267.6468869367
 21
5042.003736435
 31
0.0
  0
LINE
  5
2E5
330
1F
100
AcDbEntity
  8
0
  6
Continuous
 62
     7
370
    25
100
AcDbLine
 10
6268.0312213522
 20
5040.003736435
 30
0.0
 11
6267.4330070665
 21
5042.003736435
 31
0.0
  0
LINE
  5
2E6
330
1F
100
AcDbEntity
  8
0
  6
Continuous
 62
     7
370
    25
100
AcDbLine
 10
6268.2459129107
 20
5040.003736435
 30
0.0
 11
6268.0312213522
 21
5040.003736435
 31
0.0
  0
LINE
  5
2E7
330
1F
100
AcDbEntity
  8
0
  6
Continuous
 62
     7
370
    25
100
AcDbLine
 10
6265.7507830406
 20
5040.4972429286
 30
0.0
 11
6265.7507830406
 21
5040.003736435
 31
0.0
  0
LINE
  5
2E8
330
1F
100
AcDbEntity
  8
0
  6
Continuous
 62
     7
370
    25
100
AcDbLine
 10
6265.9845492743
 20
5040.4972429286
 30
0.0
 11
6265.7507830406
 21
5040.4972429286
 31
0.0
  0
LINE
  5
2E9
330
1F
100
AcDbEntity
  8
0
  6
Continuous
 62
     7
370
    25
100
AcDbLine
 10
6265.9845492743
 20
5040.7310091623
 30
0.0
 11
6265.9845492743
 21
5040.4972429286
 31
0.0
  0
LINE
  5
2EA
330
1F
100
AcDbEntity
  8
0
  6
Continuous
 62
     7
370
    25
100
AcDbLine
 10
6265.7507830406
 20
5040.7310091623
 30
0.0
 11
6265.9845492743
 21
5040.7310091623
 31
0.0
  0
LINE
  5
2EB
330
1F
100
AcDbEntity
  8
0
  6
Continuous
 62
     7
370
    25
100
AcDbLine
 10
6265.7507830406
 20
5042.029710461
 30
0.0
 11
6265.7507830406
 21
5040.7310091623
 31
0.0
  0
LINE
  5
2EC
330
1F
100
AcDbEntity
  8
0
  6
Continuous
 62
     7
370
    25
100
AcDbLine
 10
6265.5547603133
 20
5042.029710461
 30
0.0
 11
6265.7507830406
 21
5042.029710461
 31
0.0
  0
LINE
  5
2ED
330
1F
100
AcDbEntity
  8
0
  6
Continuous
 62
     7
370
    25
100
AcDbLine
 10
6264.8416921315
 20
5040.7310091623
 30
0.0
 11
6265.5547603133
 21
5042.029710461
 31
0.0
  0
LINE
  5
2EE
330
1F
100
AcDbEntity
  8
0
  6
Continuous
 62
     7
370
    25
100
AcDbLine
 10
6264.8416921315
 20
5040.4972429286
 30
0.0
 11
6264.8416921315
 21
5040.7310091623
 31
0.0
  0
LINE
  5
2EF
330
1F
100
AcDbEntity
  8
0
  6
Continuous
 62
     7
370
    25
100
AcDbLine
 10
6265.5429908328
 20
5040.4972429286
 30
0.0
 11
6264.8416921315
 21
5040.4972429286
 31
0.0
  0
LINE
  5
2F0
330
1F
100
AcDbEntity
  8
0
  6
Continuous
 62
     7
370
    25
100
AcDbLine
 10
6265.5429908328
 20
5040.003736435
 30
0.0
 11
6265.5429908328
 21
5040.4972429286
 31
0.0
  0
LINE
  5
2F1
330
1F
100
AcDbEntity
  8
0
  6
Continuous
 62
     7
370
    25
100
AcDbLine
 10
6265.7507830406
 20
5040.003736435
 30
0.0
 11
6265.5429908328
 21
5040.003736435
 31
0.0
  0
LINE
  5
2F2
330
1F
100
AcDbEntity
  8
0
  6
Continuous
 62
     7
370
    25
100
AcDbLine
 10
6263.4910427808
 20
5040.8349052662
 30
0.0
 11
6263.4910427808
 21
5040.6011390324
 31
0.0
  0
LINE
  5
2F3
330
1F
100
AcDbEntity
  8
0
  6
Continuous
 62
     7
370
    25
100
AcDbLine
 10
6262.8676661574
 20
5040.8349052662
 30
0.0
 11
6263.4910427808
 21
5040.8349052662
 31
0.0
  0
LINE
  5
2F4
330
1F
100
AcDbEntity
  8
0
  6
Continuous
 62
     7
370
    25
100
AcDbLine
 10
6262.8676661574
 20
5040.6011390324
 30
0.0
 11
6262.8676661574
 21
5040.8349052662
 31
0.0
  0
LINE
  5
2F5
330
1F
100
AcDbEntity
  8
0
  6
Continuous
 62
     7
370
    25
100
AcDbLine
 10
6263.4910427808
 20
5040.6011390324
 30
0.0
 11
6262.8676661574
 21
5040.6011390324
 31
0.0
  0
LWPOLYLINE
  5
2F6
330
1F
100
AcDbEntity
  8
0
  6
Continuous
 62
     7
370
    25
100
AcDbPolyline
 90
        6
 70
   128
 43
0.0
 10
6256.0624713522
 20
5040.2115286428
 10
6256.2825405262
 20
5040.2526162905
 10
6256.3753581801
 20
5040.3156757489
 10
6256.4387805771
 20
5040.4082164275
 10
6256.4924483084
 20
5040.6264365957
 10
6256.5040297938
 20
5040.8515448766
  0
LWPOLYLINE
  5
2F7
330
1F
100
AcDbEntity
  8
0
  6
Continuous
 62
     7
370
    25
100
AcDbPolyline
 90
        6
 70
   128
 43
0.0
 10
6255.6468869367
 20
5040.8515448766
 10
6255.6559540013
 20
5040.6325282273
 10
6255.7050478918
 20
5040.41984291
 10
6255.7651831435
 20
5040.3285120714
 10
6255.8510221728
 20
5040.2608956504
 10
6256.0624713522
 20
5040.2115286428
  0
LINE
  5
2F8
330
1F
100
AcDbEntity
  8
0
  6
Continuous
 62
     7
370
    25
100
AcDbLine
 10
6255.6468869367
 20
5042.003736435
 30
0.0
 11
6255.6468869367
 21
5040.8515448766
 31
0.0
  0
LINE
  5
2F9
330
1F
100
AcDbEntity
  8
0
  6
Continuous
 62
     7
370
    25
100
AcDbLine
 10
6255.4390947289
 20
5042.003736435
 30
0.0
 11
6255.6468869367
 21
5042.003736435
 31
0.0
  0
LINE
  5
2FA
330
1F
100
AcDbEntity
  8
0
  6
Continuous
 62
     7
370
    25
100
AcDbLine
 10
6255.4390947289
 20
5040.8527624091
 30
0.0
 11
6255.4390947289
 21
5042.003736435
 31
0.0
  0
LWPOLYLINE
  5
2FB
330
1F
100
AcDbEntity
  8
0
  6
Continuous
 62
     7
370
    25
100
AcDbPolyline
 90
        6
 70
   128
 43
0.0
 10
6256.0782992743
 20
5039.9777624091
 10
6255.7742729094
 20
5040.0363888783
 10
6255.6445724768
 20
5040.1219742996
 10
6255.5490621856
 20
5040.244493949
 10
6255.4593138112
 20
5040.5417386416
 10
6255.4390947289
 20
5040.8527624091
  0
LWPOLYLINE
  5
2FC
330
1F
100
AcDbEntity
  8
0
  6
Continuous
 62
     7
370
    25
100
AcDbPolyline
 90
        6
 70
   128
 43
0.0
 10
6256.7118220016
 20
5040.8527624091
 10
6256.6918200178
 20
5040.5439943404
 10
6256.6010692913
 20
5040.2497534105
 10
6256.5054416703
 20
5040.128630434
 10
6256.3788261641
 20
5040.0404974335
 10
6256.0782992743
 20
5039.9777624091
  0
LINE
  5
2FD
330
1F
100
AcDbEntity
  8
0
  6
Continuous
 62
     7
370
    25
100
AcDbLine
 10
6256.7118220016
 20
5042.003736435
 30
0.0
 11
6256.7118220016
 21
5040.8527624091
 31
0.0
  0
LINE
  5
2FE
330
1F
100
AcDbEntity
  8
0
  6
Continuous
 62
     7
370
    25
100
AcDbLine
 10
6256.5040297938
 20
5042.003736435
 30
0.0
 11
6256.7118220016
 21
5042.003736435
 31
0.0
  0
LINE
  5
2FF
330
1F
100
AcDbEntity
  8
0
  6
Continuous
 62
     7
370
    25
100
AcDbLine
 10
6256.5040297938
 20
5040.8515448766
 30
0.0
 11
6256.5040297938
 21
5042.003736435
 31
0.0
  0
LINE
  5
300
330
1F
100
AcDbEntity
  8
0
  6
Continuous
 62
     7
370
    25
100
AcDbLine
 10
6258.7377960276
 20
5041.4582818896
 30
0.0
 11
6258.7377960276
 21
5041.1725676039
 31
0.0
  0
LINE
  5
301
330
1F
100
AcDbEntity
  8
0
  6
Continuous
 62
     7
370
    25
100
AcDbLine
 10
6258.5300038198
 20
5041.4582818896
 30
0.0
 11
6258.7377960276
 21
5041.4582818896
 31
0.0
  0
LINE
  5
302
330
1F
100
AcDbEntity
  8
0
  6
Continuous
 62
     7
370
    25
100
AcDbLine
 10
6258.5300038198
 20
5041.1725676039
 30
0.0
 11
6258.5300038198
 21
5041.4582818896
 31
0.0
  0
LINE
  5
303
330
1F
100
AcDbEntity
  8
0
  6
Continuous
 62
     7
370
    25
100
AcDbLine
 10
6258.7377960276
 20
5041.1725676039
 30
0.0
 11
6258.5300038198
 21
5041.1725676039
 31
0.0
  0
LINE
  5
304
330
1F
100
AcDbEntity
  8
0
  6
Continuous
 62
     7
370
    25
100
AcDbLine
 10
6259.6939648587
 20
5042.029710461
 30
0.0
 11
6259.8287051185
 21
5042.029710461
 31
0.0
  0
LWPOLYLINE
  5
305
330
1F
100
AcDbEntity
  8
0
  6
Continuous
 62
     7
370
    25
100
AcDbPolyline
 90
        3
 70
   128
 43
0.0
 10
6259.2053284951
 20
5041.5102299415
 10
6259.5201107641
 20
5041.7640779323
 10
6259.6939648587
 20
5042.029710461
  0
LINE
  5
306
330
1F
100
AcDbEntity
  8
0
  6
Continuous
 62
     7
370
    25
100
AcDbLine
 10
6259.2053284951
 20
5041.2764637078
 30
0.0
 11
6259.2053284951
 21
5041.5102299415
 31
0.0
  0
LWPOLYLINE
  5
307
330
1F
100
AcDbEntity
  8
0
  6
Continuous
 62
     7
370
    25
100
AcDbPolyline
 90
        3
 70
   128
 43
0.0
 10
6259.6209129107
 20
5041.5881520195
 10
6259.4028308494
 20
5041.3938200505
 10
6259.2053284951
 20
5041.2764637078
  0
LINE
  5
308
330
1F
100
AcDbEntity
  8
0
  6
Continuous
 62
     7
370
    25
100
AcDbLine
 10
6259.6209129107
 20
5040.003736435
 30
0.0
 11
6259.6209129107
 21
5041.5881520195
 31
0.0
  0
LINE
  5
309
330
1F
100
AcDbEntity
  8
0
  6
Continuous
 62
     7
370
    25
100
AcDbLine
 10
6259.8287051185
 20
5040.003736435
 30
0.0
 11
6259.6209129107
 21
5040.003736435
 31
0.0
  0
LINE
  5
30A
330
1F
100
AcDbEntity
  8
0
  6
Continuous
 62
     7
370
    25
100
AcDbLine
 10
6259.8287051185
 20
5042.029710461
 30
0.0
 11
6259.8287051185
 21
5040.003736435
 31
0.0
  0
LWPOLYLINE
  5
30B
330
1F
100
AcDbEntity
  8
0
  6
Continuous
 62
     7
370
    25
100
AcDbPolyline
 90
        6
 70
   128
 43
0.0
 10
6262.6858479756
 20
5041.0029247467
 10
6262.669349951
 20
5040.6817520674
 10
6262.6044338164
 20
5040.3671573075
 10
6262.4446192184
 20
5040.0912397741
 10
6262.3099687983
 20
5040.0049958849
 10
6262.1521629107
 20
5039.9777624091
  0
LWPOLYLINE
  5
30C
330
1F
100
AcDbEntity
  8
0
  6
Continuous
 62
     7
370
    25
100
AcDbPolyline
 90
        3
 70
   128
 43
0.0
 10
6262.522698625
 20
5041.8186715
 10
6262.6637689007
 20
5041.372459926
 10
6262.6858479756
 20
5041.0029247467
  0
ARC
  5
30D
330
1F
100
AcDbEntity
  8
0
  6
Continuous
 62
     7
370
    25
100
AcDbCircle
 10
6262.1607632235
 20
5041.6139183562
 30
0.0
 40
0.4158378105612395
100
AcDbArc
 50
29.4975951224
 51
90.8495033844
  0
LWPOLYLINE
  5
30E
330
1F
100
AcDbEntity
  8
0
  6
Continuous
 62
     7
370
    25
100
AcDbPolyline
 90
        6
 70
   128
 43
0.0
 10
6261.6209129107
 20
5041.0029247467
 10
6261.6372840478
 20
5041.3244568528
 10
6261.7018794712
 20
5041.6394594993
 10
6261.8620858728
 20
5041.9155433649
 10
6261.9967145075
 20
5042.0021348888
 10
6262.1545979756
 20
5042.029710461
  0
LWPOLYLINE
  5
30F
330
1F
100
AcDbEntity
  8
0
  6
Continuous
 62
     7
370
    25
100
AcDbPolyline
 90
        6
 70
   128
 43
0.0
 10
6262.1521629107
 20
5039.9777624091
 10
6261.9951894271
 20
5040.0074586909
 10
6261.8616028921
 20
5040.09519171
 10
6261.6966193128
 20
5040.367108287
 10
6261.6353450654
 20
5040.6820093313
 10
6261.6209129107
 20
5041.0029247467
  0
LINE
  5
310
330
1F
100
AcDbEntity
  8
0
  6
Continuous
 62
     7
370
    25
100
AcDbLine
 10
6287.0733413751
 20
5054.2373684246
 30
0.0
 11
6286.7525215699
 21
5054.2373684246
 31
0.0
  0
LINE
  5
311
330
1F
100
AcDbEntity
  8
0
  6
Continuous
 62
     7
370
    25
100
AcDbLine
 10
6286.7525215699
 20
5054.2373684246
 30
0.0
 11
6286.1522780634
 21
5052.0610291389
 31
0.0
  0
LWPOLYLINE
  5
312
330
1F
100
AcDbEntity
  8
0
  6
Continuous
 62
     7
370
    25
100
AcDbPolyline
 90
        3
 70
   128
 43
0.0
 10
6286.1522780634
 20
5052.0610291389
 10
6286.0828971677
 20
5051.7966201449
 10
6286.0317423491
 20
5051.5880177753
  0
LWPOLYLINE
  5
313
330
1F
100
AcDbEntity
  8
0
  6
Continuous
 62
     7
370
    25
100
AcDbPolyline
 90
        3
 70
   128
 43
0.0
 10
6286.0317423491
 20
5051.5880177753
 10
6285.960974796
 20
5051.8537008721
 10
6285.9002488426
 20
5052.0610291389
  0
LINE
  5
314
330
1F
100
AcDbEntity
  8
0
  6
Continuous
 62
     7
370
    25
100
AcDbLine
 10
6285.9002488426
 20
5052.0610291389
 30
0.0
 11
6285.2330410504
 21
5054.2373684246
 31
0.0
  0
LINE
  5
315
330
1F
100
AcDbEntity
  8
0
  6
Continuous
 62
     7
370
    25
100
AcDbLine
 10
6285.2330410504
 20
5054.2373684246
 30
0.0
 11
6284.909177414
 21
5054.2373684246
 31
0.0
  0
LINE
  5
316
330
1F
100
AcDbEntity
  8
0
  6
Continuous
 62
     7
370
    25
100
AcDbLine
 10
6284.909177414
 20
5054.2373684246
 30
0.0
 11
6285.8539826088
 21
5051.2373684246
 31
0.0
  0
LINE
  5
317
330
1F
100
AcDbEntity
  8
0
  6
Continuous
 62
     7
370
    25
100
AcDbLine
 10
6285.8539826088
 20
5051.2373684246
 30
0.0
 11
6286.1760199465
 21
5051.2373684246
 31
0.0
  0
LINE
  5
318
330
1F
100
AcDbEntity
  8
0
  6
Continuous
 62
     7
370
    25
100
AcDbLine
 10
6286.1760199465
 20
5051.2373684246
 30
0.0
 11
6287.0733413751
 21
5054.2373684246
 31
0.0
  0
LINE
  5
319
330
1F
100
AcDbEntity
  8
0
  6
Continuous
 62
     7
370
    25
100
AcDbLine
 10
6278.5252488426
 20
5052.5620437493
 30
0.0
 11
6279.1875865049
 21
5052.5620437493
 31
0.0
  0
LINE
  5
31A
330
1F
100
AcDbEntity
  8
0
  6
Continuous
 62
     7
370
    25
100
AcDbLine
 10
6279.1875865049
 20
5052.5620437493
 30
0.0
 11
6279.1875865049
 21
5052.9126931
 31
0.0
  0
LINE
  5
31B
330
1F
100
AcDbEntity
  8
0
  6
Continuous
 62
     7
370
    25
100
AcDbLine
 10
6279.1875865049
 20
5052.9126931
 30
0.0
 11
6278.5252488426
 21
5052.9126931
 31
0.0
  0
LINE
  5
31C
330
1F
100
AcDbEntity
  8
0
  6
Continuous
 62
     7
370
    25
100
AcDbLine
 10
6278.5252488426
 20
5052.9126931
 30
0.0
 11
6278.5252488426
 21
5053.7308749181
 31
0.0
  0
LINE
  5
31D
330
1F
100
AcDbEntity
  8
0
  6
Continuous
 62
     7
370
    25
100
AcDbLine
 10
6278.5252488426
 20
5053.7308749181
 30
0.0
 11
6278.2135605309
 21
5053.7308749181
 31
0.0
  0
LINE
  5
31E
330
1F
100
AcDbEntity
  8
0
  6
Continuous
 62
     7
370
    25
100
AcDbLine
 10
6278.2135605309
 20
5053.7308749181
 30
0.0
 11
6278.2135605309
 21
5052.9126931
 31
0.0
  0
LINE
  5
31F
330
1F
100
AcDbEntity
  8
0
  6
Continuous
 62
     7
370
    25
100
AcDbLine
 10
6278.2135605309
 20
5052.9126931
 30
0.0
 11
6277.5512228686
 21
5052.9126931
 31
0.0
  0
LINE
  5
320
330
1F
100
AcDbEntity
  8
0
  6
Continuous
 62
     7
370
    25
100
AcDbLine
 10
6277.5512228686
 20
5052.9126931
 30
0.0
 11
6277.5512228686
 21
5052.5620437493
 31
0.0
  0
LINE
  5
321
330
1F
100
AcDbEntity
  8
0
  6
Continuous
 62
     7
370
    25
100
AcDbLine
 10
6277.5512228686
 20
5052.5620437493
 30
0.0
 11
6278.2135605309
 21
5052.5620437493
 31
0.0
  0
LINE
  5
322
330
1F
100
AcDbEntity
  8
0
  6
Continuous
 62
     7
370
    25
100
AcDbLine
 10
6278.2135605309
 20
5052.5620437493
 30
0.0
 11
6278.2135605309
 21
5051.7438619311
 31
0.0
  0
LINE
  5
323
330
1F
100
AcDbEntity
  8
0
  6
Continuous
 62
     7
370
    25
100
AcDbLine
 10
6278.2135605309
 20
5051.7438619311
 30
0.0
 11
6278.5252488426
 21
5051.7438619311
 31
0.0
  0
LINE
  5
324
330
1F
100
AcDbEntity
  8
0
  6
Continuous
 62
     7
370
    25
100
AcDbLine
 10
6278.5252488426
 20
5051.7438619311
 30
0.0
 11
6278.5252488426
 21
5052.5620437493
 31
0.0
  0
LINE
  5
325
330
1F
100
AcDbEntity
  8
0
  6
Continuous
 62
     7
370
    25
100
AcDbLine
 10
6281.5733413751
 20
5054.2373684246
 30
0.0
 11
6281.2525215699
 21
5054.2373684246
 31
0.0
  0
LINE
  5
326
330
1F
100
AcDbEntity
  8
0
  6
Continuous
 62
     7
370
    25
100
AcDbLine
 10
6281.2525215699
 20
5054.2373684246
 30
0.0
 11
6280.6522780634
 21
5052.0610291389
 31
0.0
  0
LWPOLYLINE
  5
327
330
1F
100
AcDbEntity
  8
0
  6
Continuous
 62
     7
370
    25
100
AcDbPolyline
 90
        3
 70
   128
 43
0.0
 10
6280.6522780634
 20
5052.0610291389
 10
6280.5828971677
 20
5051.7966201449
 10
6280.5317423491
 20
5051.5880177753
  0
LWPOLYLINE
  5
328
330
1F
100
AcDbEntity
  8
0
  6
Continuous
 62
     7
370
    25
100
AcDbPolyline
 90
        3
 70
   128
 43
0.0
 10
6280.5317423491
 20
5051.5880177753
 10
6280.460974796
 20
5051.8537008721
 10
6280.4002488426
 20
5052.0610291389
  0
LINE
  5
329
330
1F
100
AcDbEntity
  8
0
  6
Continuous
 62
     7
370
    25
100
AcDbLine
 10
6280.4002488426
 20
5052.0610291389
 30
0.0
 11
6279.7330410504
 21
5054.2373684246
 31
0.0
  0
LINE
  5
32A
330
1F
100
AcDbEntity
  8
0
  6
Continuous
 62
     7
370
    25
100
AcDbLine
 10
6279.7330410504
 20
5054.2373684246
 30
0.0
 11
6279.409177414
 21
5054.2373684246
 31
0.0
  0
LINE
  5
32B
330
1F
100
AcDbEntity
  8
0
  6
Continuous
 62
     7
370
    25
100
AcDbLine
 10
6279.409177414
 20
5054.2373684246
 30
0.0
 11
6280.3539826088
 21
5051.2373684246
 31
0.0
  0
LINE
  5
32C
330
1F
100
AcDbEntity
  8
0
  6
Continuous
 62
     7
370
    25
100
AcDbLine
 10
6280.3539826088
 20
5051.2373684246
 30
0.0
 11
6280.6760199465
 21
5051.2373684246
 31
0.0
  0
LINE
  5
32D
330
1F
100
AcDbEntity
  8
0
  6
Continuous
 62
     7
370
    25
100
AcDbLine
 10
6280.6760199465
 20
5051.2373684246
 30
0.0
 11
6281.5733413751
 21
5054.2373684246
 31
0.0
  0
LINE
  5
32E
330
1F
100
AcDbEntity
  8
0
  6
Continuous
 62
     7
370
    25
100
AcDbLine
 10
6275.625289427
 20
5054.2373684246
 30
0.0
 11
6275.3044696218
 21
5054.2373684246
 31
0.0
  0
LINE
  5
32F
330
1F
100
AcDbEntity
  8
0
  6
Continuous
 62
     7
370
    25
100
AcDbLine
 10
6275.3044696218
 20
5054.2373684246
 30
0.0
 11
6274.7042261153
 21
5052.0610291389
 31
0.0
  0
LWPOLYLINE
  5
330
330
1F
100
AcDbEntity
  8
0
  6
Continuous
 62
     7
370
    25
100
AcDbPolyline
 90
        3
 70
   128
 43
0.0
 10
6274.7042261153
 20
5052.0610291389
 10
6274.6348452196
 20
5051.7966201449
 10
6274.583690401
 20
5051.5880177753
  0
LWPOLYLINE
  5
331
330
1F
100
AcDbEntity
  8
0
  6
Continuous
 62
     7
370
    25
100
AcDbPolyline
 90
        3
 70
   128
 43
0.0
 10
6274.583690401
 20
5051.5880177753
 10
6274.512922848
 20
5051.8537008721
 10
6274.4521968945
 20
5052.0610291389
  0
LINE
  5
332
330
1F
100
AcDbEntity
  8
0
  6
Continuous
 62
     7
370
    25
100
AcDbLine
 10
6274.4521968945
 20
5052.0610291389
 30
0.0
 11
6273.7849891023
 21
5054.2373684246
 31
0.0
  0
LINE
  5
333
330
1F
100
AcDbEntity
  8
0
  6
Continuous
 62
     7
370
    25
100
AcDbLine
 10
6273.7849891023
 20
5054.2373684246
 30
0.0
 11
6273.461125466
 21
5054.2373684246
 31
0.0
  0
LINE
  5
334
330
1F
100
AcDbEntity
  8
0
  6
Continuous
 62
     7
370
    25
100
AcDbLine
 10
6273.461125466
 20
5054.2373684246
 30
0.0
 11
6274.4059306608
 21
5051.2373684246
 31
0.0
  0
LINE
  5
335
330
1F
100
AcDbEntity
  8
0
  6
Continuous
 62
     7
370
    25
100
AcDbLine
 10
6274.4059306608
 20
5051.2373684246
 30
0.0
 11
6274.7279679984
 21
5051.2373684246
 31
0.0
  0
LINE
  5
336
330
1F
100
AcDbEntity
  8
0
  6
Continuous
 62
     7
370
    25
100
AcDbLine
 10
6274.7279679984
 20
5051.2373684246
 30
0.0
 11
6275.625289427
 21
5054.2373684246
 31
0.0
  0
LINE
  5
337
330
1F
100
AcDbEntity
  8
0
  6
Continuous
 62
     7
370
    25
100
AcDbLine
 10
6252.4520817419
 20
5041.5958630584
 30
0.0
 11
6252.4520817419
 21
5040.003736435
 31
0.0
  0
LINE
  5
338
330
1F
100
AcDbEntity
  8
0
  6
Continuous
 62
     7
370
    25
100
AcDbLine
 10
6253.2946142094
 20
5040.003736435
 30
0.0
 11
6252.4520817419
 21
5041.5958630584
 31
0.0
  0
LINE
  5
339
330
1F
100
AcDbEntity
  8
0
  6
Continuous
 62
     7
370
    25
100
AcDbLine
 10
6253.5170168068
 20
5040.003736435
 30
0.0
 11
6253.2946142094
 21
5040.003736435
 31
0.0
  0
LINE
  5
33A
330
1F
100
AcDbEntity
  8
0
  6
Continuous
 62
     7
370
    25
100
AcDbLine
 10
6253.5170168068
 20
5042.003736435
 30
0.0
 11
6253.5170168068
 21
5040.003736435
 31
0.0
  0
LINE
  5
33B
330
1F
100
AcDbEntity
  8
0
  6
Continuous
 62
     7
370
    25
100
AcDbLine
 10
6253.309224599
 20
5042.003736435
 30
0.0
 11
6253.5170168068
 21
5042.003736435
 31
0.0
  0
LINE
  5
33C
330
1F
100
AcDbEntity
  8
0
  6
Continuous
 62
     7
370
    25
100
AcDbLine
 10
6253.309224599
 20
5040.4095805909
 30
0.0
 11
6253.309224599
 21
5042.003736435
 31
0.0
  0
LINE
  5
33D
330
1F
100
AcDbEntity
  8
0
  6
Continuous
 62
     7
370
    25
100
AcDbLine
 10
6252.465474599
 20
5042.003736435
 30
0.0
 11
6253.309224599
 21
5040.4095805909
 31
0.0
  0
LINE
  5
33E
330
1F
100
AcDbEntity
  8
0
  6
Continuous
 62
     7
370
    25
100
AcDbLine
 10
6252.2442895341
 20
5042.003736435
 30
0.0
 11
6252.465474599
 21
5042.003736435
 31
0.0
  0
LINE
  5
33F
330
1F
100
AcDbEntity
  8
0
  6
Continuous
 62
     7
370
    25
100
AcDbLine
 10
6252.2442895341
 20
5040.003736435
 30
0.0
 11
6252.2442895341
 21
5042.003736435
 31
0.0
  0
LINE
  5
340
330
1F
100
AcDbEntity
  8
0
  6
Continuous
 62
     7
370
    25
100
AcDbLine
 10
6252.4520817419
 20
5040.003736435
 30
0.0
 11
6252.2442895341
 21
5040.003736435
 31
0.0
  0
LINE
  5
341
330
1F
100
AcDbEntity
  8
0
  6
Continuous
 62
     7
370
    25
100
AcDbLine
 10
6297.7818592378
 20
5049.9470995224
 30
0.0
 11
6297.7818592378
 21
5049.6613852367
 31
0.0
  0
LINE
  5
342
330
1F
100
AcDbEntity
  8
0
  6
Continuous
 62
     7
370
    25
100
AcDbLine
 10
6297.57406703
 20
5049.9470995224
 30
0.0
 11
6297.7818592378
 21
5049.9470995224
 31
0.0
  0
LINE
  5
343
330
1F
100
AcDbEntity
  8
0
  6
Continuous
 62
     7
370
    25
100
AcDbLine
 10
6297.57406703
 20
5049.6613852367
 30
0.0
 11
6297.57406703
 21
5049.9470995224
 31
0.0
  0
LINE
  5
344
330
1F
100
AcDbEntity
  8
0
  6
Continuous
 62
     7
370
    25
100
AcDbLine
 10
6297.7818592378
 20
5049.6613852367
 30
0.0
 11
6297.57406703
 21
5049.6613852367
 31
0.0
  0
LWPOLYLINE
  5
345
330
1F
100
AcDbEntity
  8
0
  6
Continuous
 62
     7
370
    25
100
AcDbPolyline
 90
        5
 70
   128
 43
0.0
 10
6297.1021955196
 20
5053.2042082734
 10
6297.0729186607
 20
5052.9065146331
 10
6296.9519796863
 20
5052.6349431959
 10
6296.7717377167
 20
5052.4863240067
 10
6296.5437539612
 20
5052.4359452864
  0
ARC
  5
346
330
1F
100
AcDbEntity
  8
0
  6
Continuous
 62
     7
370
    25
100
AcDbCircle
 10
6296.4708057505
 20
5053.3069219223
 30
0.0
 40
0.6396898734758264
100
AcDbArc
 50
350.7601402793
 51
83.4519255123
  0
ARC
  5
347
330
1F
100
AcDbEntity
  8
0
  6
Continuous
 62
     7
370
    25
100
AcDbCircle
 10
6296.6059359839
 20
5053.3127064425
 30
0.0
 40
0.63279494083715
100
AcDbArc
 50
95.6393091275
 51
191.2557453683
  0
LWPOLYLINE
  5
348
330
1F
100
AcDbEntity
  8
0
  6
Continuous
 62
     7
370
    25
100
AcDbPolyline
 90
        5
 70
   128
 43
0.0
 10
6296.5437539612
 20
5052.4359452864
 10
6296.3514849891
 20
5052.4717141773
 10
6296.1883219894
 20
5052.5795779477
 10
6296.0728422274
 20
5052.7377682314
 10
6295.9853124027
 20
5053.1891920397
  0
LINE
  5
349
330
1F
100
AcDbEntity
  8
0
  6
Continuous
 62
     7
370
    25
100
AcDbLine
 10
6296.6909501469
 20
5051.6613852367
 30
0.0
 11
6296.6909501469
 21
5049.6613852367
 31
0.0
  0
LINE
  5
34A
330
1F
100
AcDbEntity
  8
0
  6
Continuous
 62
     7
370
    25
100
AcDbLine
 10
6296.4571839131
 20
5051.6613852367
 30
0.0
 11
6296.6909501469
 21
5051.6613852367
 31
0.0
  0
LINE
  5
34B
330
1F
100
AcDbEntity
  8
0
  6
Continuous
 62
     7
370
    25
100
AcDbLine
 10
6296.4571839131
 20
5050.9369534185
 30
0.0
 11
6296.4571839131
 21
5051.6613852367
 31
0.0
  0
ARC
  5
34C
330
1F
100
AcDbEntity
  8
0
  6
Continuous
 62
     7
370
    25
100
AcDbCircle
 10
6296.1308476623
 20
5050.7798558334
 30
0.0
 40
0.3621808938054915
100
AcDbArc
 50
25.7060659337
 51
88.4529960394
  0
LWPOLYLINE
  5
34D
330
1F
100
AcDbEntity
  8
0
  6
Continuous
 62
     7
370
    25
100
AcDbPolyline
 90
        6
 70
   128
 43
0.0
 10
6295.6519891079
 20
5050.388657964
 10
6295.6724292704
 20
5050.6378089707
 10
6295.7488617382
 20
5050.8752928249
 10
6295.905697498
 20
5051.0671062247
 10
6296.0172554043
 20
5051.1230902034
 10
6296.1406254716
 20
5051.1419047172
  0
LWPOLYLINE
  5
34E
330
1F
100
AcDbEntity
  8
0
  6
Continuous
 62
     7
370
    25
100
AcDbPolyline
 90
        5
 70
   128
 43
0.0
 10
6296.1617293677
 20
5049.6354112107
 10
6295.9798169674
 20
5049.6788909391
 10
6295.8332004381
 20
5049.7960952492
 10
6295.7312855652
 20
5049.9541983359
 10
6295.6519891079
 20
5050.388657964
  0
LWPOLYLINE
  5
34F
330
1F
100
AcDbEntity
  8
0
  6
Continuous
 62
     7
370
    25
100
AcDbPolyline
 90
        3
 70
   128
 43
0.0
 10
6296.4831579391
 20
5049.8565962757
 10
6296.3336458253
 20
5049.6848820968
 10
6296.1617293677
 20
5049.6354112107
  0
LINE
  5
350
330
1F
100
AcDbEntity
  8
0
  6
Continuous
 62
     7
370
    25
100
AcDbLine
 10
6296.4831579391
 20
5049.6613852367
 30
0.0
 11
6296.4831579391
 21
5049.8565962757
 31
0.0
  0
LINE
  5
351
330
1F
100
AcDbEntity
  8
0
  6
Continuous
 62
     7
370
    25
100
AcDbLine
 10
6296.6909501469
 20
5049.6613852367
 30
0.0
 11
6296.4831579391
 21
5049.6613852367
 31
0.0
  0
LINE
  5
352
330
1F
100
AcDbEntity
  8
0
  6
Continuous
 62
     7
370
    25
100
AcDbLine
 10
6261.283250573
 20
5038.4582818896
 30
0.0
 11
6261.283250573
 21
5038.1725676039
 31
0.0
  0
LINE
  5
353
330
1F
100
AcDbEntity
  8
0
  6
Continuous
 62
     7
370
    25
100
AcDbLine
 10
6261.0754583652
 20
5038.4582818896
 30
0.0
 11
6261.283250573
 21
5038.4582818896
 31
0.0
  0
LINE
  5
354
330
1F
100
AcDbEntity
  8
0
  6
Continuous
 62
     7
370
    25
100
AcDbLine
 10
6261.0754583652
 20
5038.1725676039
 30
0.0
 11
6261.0754583652
 21
5038.4582818896
 31
0.0
  0
LINE
  5
355
330
1F
100
AcDbEntity
  8
0
  6
Continuous
 62
     7
370
    25
100
AcDbLine
 10
6261.283250573
 20
5038.1725676039
 30
0.0
 11
6261.0754583652
 21
5038.1725676039
 31
0.0
  0
LWPOLYLINE
  5
356
330
1F
100
AcDbEntity
  8
0
  6
Continuous
 62
     7
370
    25
100
AcDbPolyline
 90
        3
 70
   128
 43
0.0
 10
6262.215474599
 20
5037.625895526
 10
6262.0277070988
 20
5037.4195473381
 10
6261.9066271964
 20
5037.2375026688
  0
ARC
  5
357
330
1F
100
AcDbEntity
  8
0
  6
Continuous
 62
     7
370
    25
100
AcDbCircle
 10
6261.4268661598
 20
5038.6185871192
 30
0.0
 40
1.267809082468367
100
AcDbArc
 50
308.4641327997
 51
353.2348702307
  0
ARC
  5
358
330
1F
100
AcDbEntity
  8
0
  6
Continuous
 62
     7
370
    25
100
AcDbCircle
 10
6262.1697277966
 20
5038.511918203
 30
0.0
 40
0.5178817387533396
100
AcDbArc
 50
355.2729063976
 51
88.9348929823
  0
ARC
  5
359
330
1F
100
AcDbEntity
  8
0
  6
Continuous
 62
     7
370
    25
100
AcDbCircle
 10
6262.1918093926
 20
5038.4826127215
 30
0.0
 40
0.547239492112062
100
AcDbArc
 50
91.3041386504
 51
185.2743467067
  0
LINE
  5
35A
330
1F
100
AcDbEntity
  8
0
  6
Continuous
 62
     7
370
    25
100
AcDbLine
 10
6261.8546791445
 20
5038.4063338376
 30
0.0
 11
6261.6468869367
 21
5038.4323078636
 31
0.0
  0
LWPOLYLINE
  5
35B
330
1F
100
AcDbEntity
  8
0
  6
Continuous
 62
     7
370
    25
100
AcDbPolyline
 90
        5
 70
   128
 43
0.0
 10
6262.1716434302
 20
5038.8219182532
 10
6262.0640585631
 20
5038.8031461852
 10
6261.9719672933
 20
5038.7445938176
 10
6261.9058609041
 20
5038.6575372225
 10
6261.8546791445
 20
5038.4063338376
  0
ARC
  5
35C
330
1F
100
AcDbEntity
  8
0
  6
Continuous
 62
     7
370
    25
100
AcDbCircle
 10
6262.1606306354
 20
5038.5032713809
 30
0.0
 40
0.3188371228120758
100
AcDbArc
 50
354.6057699976
 51
88.0205811979
  0
ARC
  5
35D
330
1F
100
AcDbEntity
  8
0
  6
Continuous
 62
     7
370
    25
100
AcDbCircle
 10
6261.4016967061
 20
5038.6340581341
 30
0.0
 40
1.088298034028982
100
AcDbArc
 50
305.3153210849
 51
351.5053593861
  0
ARC
  5
35E
330
1F
100
AcDbEntity
  8
0
  6
Continuous
 62
     7
370
    25
100
AcDbCircle
 10
6262.7310589171
 20
5036.8750194312
 30
0.0
 40
1.117583206165407
100
AcDbArc
 50
128.7974682059
 51
173.3863142526
  0
LINE
  5
35F
330
1F
100
AcDbEntity
  8
0
  6
Continuous
 62
     7
370
    25
100
AcDbLine
 10
6262.6858479756
 20
5037.003736435
 30
0.0
 11
6261.6209129107
 21
5037.003736435
 31
0.0
  0
LINE
  5
360
330
1F
100
AcDbEntity
  8
0
  6
Continuous
 62
     7
370
    25
100
AcDbLine
 10
6262.6858479756
 20
5037.2375026688
 30
0.0
 11
6262.6858479756
 21
5037.003736435
 31
0.0
  0
LINE
  5
361
330
1F
100
AcDbEntity
  8
0
  6
Continuous
 62
     7
370
    25
100
AcDbLine
 10
6261.9066271964
 20
5037.2375026688
 30
0.0
 11
6262.6858479756
 21
5037.2375026688
 31
0.0
  0
LINE
  5
362
330
1F
100
AcDbEntity
  8
0
  6
Continuous
 62
     7
370
    25
100
AcDbLine
 10
6265.4131207029
 20
5037.8349052662
 30
0.0
 11
6265.4131207029
 21
5037.6011390324
 31
0.0
  0
LINE
  5
363
330
1F
100
AcDbEntity
  8
0
  6
Continuous
 62
     7
370
    25
100
AcDbLine
 10
6264.7897440795
 20
5037.8349052662
 30
0.0
 11
6265.4131207029
 21
5037.8349052662
 31
0.0
  0
LINE
  5
364
330
1F
100
AcDbEntity
  8
0
  6
Continuous
 62
     7
370
    25
100
AcDbLine
 10
6264.7897440795
 20
5037.6011390324
 30
0.0
 11
6264.7897440795
 21
5037.8349052662
 31
0.0
  0
LINE
  5
365
330
1F
100
AcDbEntity
  8
0
  6
Continuous
 62
     7
370
    25
100
AcDbLine
 10
6265.4131207029
 20
5037.6011390324
 30
0.0
 11
6264.7897440795
 21
5037.6011390324
 31
0.0
  0
LINE
  5
366
330
1F
100
AcDbEntity
  8
0
  6
Continuous
 62
     7
370
    25
100
AcDbLine
 10
6266.9196142094
 20
5037.8349052662
 30
0.0
 11
6266.9196142094
 21
5037.6011390324
 31
0.0
  0
LINE
  5
367
330
1F
100
AcDbEntity
  8
0
  6
Continuous
 62
     7
370
    25
100
AcDbLine
 10
6266.296237586
 20
5037.8349052662
 30
0.0
 11
6266.9196142094
 21
5037.8349052662
 31
0.0
  0
LINE
  5
368
330
1F
100
AcDbEntity
  8
0
  6
Continuous
 62
     7
370
    25
100
AcDbLine
 10
6266.296237586
 20
5037.6011390324
 30
0.0
 11
6266.296237586
 21
5037.8349052662
 31
0.0
  0
LINE
  5
369
330
1F
100
AcDbEntity
  8
0
  6
Continuous
 62
     7
370
    25
100
AcDbLine
 10
6266.9196142094
 20
5037.6011390324
 30
0.0
 11
6266.296237586
 21
5037.6011390324
 31
0.0
  0
LWPOLYLINE
  5
36A
330
1F
100
AcDbEntity
  8
0
  6
Continuous
 62
     7
370
    25
100
AcDbPolyline
 90
        7
 70
   128
 43
0.0
 10
6262.0973083707
 20
5046.7025816418
 10
6262.1265707889
 20
5047.2978686971
 10
6262.2492060183
 20
5047.8801749081
 10
6262.377362972
 20
5048.1487414024
 10
6262.5679343347
 20
5048.3771416885
 10
6262.8190095275
 20
5048.534987159
 10
6263.1108026889
 20
5048.5882350508
  0
LWPOLYLINE
  5
36B
330
1F
100
AcDbEntity
  8
0
  6
Continuous
 62
     7
370
    25
100
AcDbPolyline
 90
        6
 70
   128
 43
0.0
 10
6263.0781322344
 20
5044.9973259599
 10
6262.8079045548
 20
5045.0419797936
 10
6262.5696004049
 20
5045.1767460479
 10
6262.2530381328
 20
5045.6197202669
 10
6262.1273834956
 20
5046.1537699163
 10
6262.0973083707
 20
5046.7025816418
  0
ARC
  5
36C
330
1F
100
AcDbEntity
  8
0
  6
Continuous
 62
     7
370
    25
100
AcDbCircle
 10
6262.936334424
 20
5046.0246421364
 30
0.0
 40
1.037055999168456
100
AcDbArc
 50
277.8587331033
 51
8.8854879833
  0
ARC
  5
36D
330
1F
100
AcDbEntity
  8
0
  6
Continuous
 62
     7
370
    25
100
AcDbCircle
 10
6262.9531498173
 20
5046.3117307735
 30
0.0
 40
1.015753624897882
100
AcDbArc
 50
352.8229049473
 51
81.1927924413
  0
ARC
  5
36E
330
1F
100
AcDbEntity
  8
0
  6
Continuous
 62
     7
370
    25
100
AcDbCircle
 10
6263.1377728456
 20
5046.505735954
 30
0.0
 40
0.8102945550385683
100
AcDbArc
 50
92.0581575614
 51
153.6069076025
  0
LWPOLYLINE
  5
36F
330
1F
100
AcDbEntity
  8
0
  6
Continuous
 62
     7
370
    25
100
AcDbPolyline
 90
        3
 70
   128
 43
0.0
 10
6262.5738708707
 20
5047.8417861872
 10
6262.4351479375
 20
5047.303660322
 10
6262.4119390525
 20
5046.8659339145
  0
ARC
  5
370
330
1F
100
AcDbEntity
  8
0
  6
Continuous
 62
     7
370
    25
100
AcDbCircle
 10
6263.1029698366
 20
5047.6693285882
 30
0.0
 40
0.5564955877173732
100
AcDbArc
 50
93.8031298899
 51
161.9468374124
  0
LWPOLYLINE
  5
371
330
1F
100
AcDbEntity
  8
0
  6
Continuous
 62
     7
370
    25
100
AcDbPolyline
 90
        3
 70
   128
 43
0.0
 10
6263.4041265525
 20
5048.0591157327
 10
6263.2329889828
 20
5048.1911378091
 10
6263.0660583707
 20
5048.2245986872
  0
LWPOLYLINE
  5
372
330
1F
100
AcDbEntity
  8
0
  6
Continuous
 62
     7
370
    25
100
AcDbPolyline
 90
        3
 70
   128
 43
0.0
 10
6263.5518538253
 20
5047.6791441418
 10
6263.4923921624
 20
5047.9016960597
 10
6263.4041265525
 20
5048.0591157327
  0
LINE
  5
373
330
1F
100
AcDbEntity
  8
0
  6
Continuous
 62
     7
370
    25
100
AcDbLine
 10
6263.9154901889
 20
5047.7245986872
 30
0.0
 11
6263.5518538253
 21
5047.6791441418
 31
0.0
  0
ARC
  5
374
330
1F
100
AcDbEntity
  8
0
  6
Continuous
 62
     7
370
    25
100
AcDbCircle
 10
6263.0623419367
 20
5047.7363827399
 30
0.0
 40
0.8532296315510978
100
AcDbArc
 50
359.2086562319
 51
86.7440282533
  0
LINE
  5
375
330
1F
100
AcDbEntity
  8
0
  6
Continuous
 62
     7
370
    25
100
AcDbLine
 10
6258.3700356434
 20
5046.5882350508
 30
0.0
 11
6258.3700356434
 21
5045.0427805054
 31
0.0
  0
LINE
  5
376
330
1F
100
AcDbEntity
  8
0
  6
Continuous
 62
     7
370
    25
100
AcDbLine
 10
6258.8338140525
 20
5046.5882350508
 30
0.0
 11
6258.3700356434
 21
5046.5882350508
 31
0.0
  0
LWPOLYLINE
  5
377
330
1F
100
AcDbEntity
  8
0
  6
Continuous
 62
     7
370
    25
100
AcDbPolyline
 90
        5
 70
   128
 43
0.0
 10
6259.7343822344
 20
5045.7913600508
 10
6259.5577806646
 20
5046.1059518661
 10
6259.3474317549
 20
5046.3980268726
 10
6259.1142815086
 20
5046.5541734937
 10
6258.8338140525
 20
5046.5882350508
  0
LINE
  5
378
330
1F
100
AcDbEntity
  8
0
  6
Continuous
 62
     7
370
    25
100
AcDbLine
 10
6260.1385015525
 20
5045.0427805054
 30
0.0
 11
6259.7343822344
 21
5045.7913600508
 31
0.0
  0
LINE
  5
379
330
1F
100
AcDbEntity
  8
0
  6
Continuous
 62
     7
370
    25
100
AcDbLine
 10
6260.5518538253
 20
5045.0427805054
 30
0.0
 11
6260.1385015525
 21
5045.0427805054
 31
0.0
  0
LINE
  5
37A
330
1F
100
AcDbEntity
  8
0
  6
Continuous
 62
     7
370
    25
100
AcDbLine
 10
6260.0397799616
 20
5045.9994566418
 30
0.0
 11
6260.5518538253
 21
5045.0427805054
 31
0.0
  0
LWPOLYLINE
  5
37B
330
1F
100
AcDbEntity
  8
0
  6
Continuous
 62
     7
370
    25
100
AcDbPolyline
 90
        3
 70
   128
 43
0.0
 10
6259.7350924616
 20
5046.4476100508
 10
6259.9178317019
 20
5046.2047823207
 10
6260.0397799616
 20
5045.9994566418
  0
LWPOLYLINE
  5
37C
330
1F
100
AcDbEntity
  8
0
  6
Continuous
 62
     7
370
    25
100
AcDbPolyline
 90
        3
 70
   128
 43
0.0
 10
6259.5063992798
 20
5046.6109623236
 10
6259.641166491
 20
5046.5286014495
 10
6259.7350924616
 20
5046.4476100508
  0
ARC
  5
37D
330
1F
100
AcDbEntity
  8
0
  6
Continuous
 62
     7
370
    25
100
AcDbCircle
 10
6259.4110643348
 20
5047.5212780389
 30
0.0
 40
0.9152941895165077
100
AcDbArc
 50
275.9786406972
 51
3.5712758183
  0
ARC
  5
37E
330
1F
100
AcDbEntity
  8
0
  6
Continuous
 62
     7
370
    25
100
AcDbCircle
 10
6259.4145191975
 20
5047.6389761114
 30
0.0
 40
0.9120829129302059
100
AcDbArc
 50
356.1850821872
 51
97.725486394
  0
LINE
  5
37F
330
1F
100
AcDbEntity
  8
0
  6
Continuous
 62
     7
370
    25
100
AcDbLine
 10
6258.0063992798
 20
5048.5427805054
 30
0.0
 11
6259.2919106434
 21
5048.5427805054
 31
0.0
  0
LINE
  5
380
330
1F
100
AcDbEntity
  8
0
  6
Continuous
 62
     7
370
    25
100
AcDbLine
 10
6258.0063992798
 20
5045.0427805054
 30
0.0
 11
6258.0063992798
 21
5048.5427805054
 31
0.0
  0
LINE
  5
381
330
1F
100
AcDbEntity
  8
0
  6
Continuous
 62
     7
370
    25
100
AcDbLine
 10
6258.3700356434
 20
5045.0427805054
 30
0.0
 11
6258.0063992798
 21
5045.0427805054
 31
0.0
  0
LINE
  5
382
330
1F
100
AcDbEntity
  8
0
  6
Continuous
 62
     7
370
    25
100
AcDbLine
 10
6269.309224599
 20
5037.2894507208
 30
0.0
 11
6269.309224599
 21
5037.003736435
 31
0.0
  0
LINE
  5
383
330
1F
100
AcDbEntity
  8
0
  6
Continuous
 62
     7
370
    25
100
AcDbLine
 10
6269.1014323912
 20
5037.2894507208
 30
0.0
 11
6269.309224599
 21
5037.2894507208
 31
0.0
  0
LINE
  5
384
330
1F
100
AcDbEntity
  8
0
  6
Continuous
 62
     7
370
    25
100
AcDbLine
 10
6269.1014323912
 20
5037.003736435
 30
0.0
 11
6269.1014323912
 21
5037.2894507208
 31
0.0
  0
LINE
  5
385
330
1F
100
AcDbEntity
  8
0
  6
Continuous
 62
     7
370
    25
100
AcDbLine
 10
6269.309224599
 20
5037.003736435
 30
0.0
 11
6269.1014323912
 21
5037.003736435
 31
0.0
  0
LINE
  5
386
330
1F
100
AcDbEntity
  8
0
  6
Continuous
 62
     7
370
    25
100
AcDbLine
 10
6271.2065460276
 20
5037.6011390324
 30
0.0
 11
6271.0320330406
 21
5037.003736435
 31
0.0
  0
LINE
  5
387
330
1F
100
AcDbEntity
  8
0
  6
Continuous
 62
     7
370
    25
100
AcDbLine
 10
6271.9054096639
 20
5037.6011390324
 30
0.0
 11
6271.2065460276
 21
5037.6011390324
 31
0.0
  0
LINE
  5
388
330
1F
100
AcDbEntity
  8
0
  6
Continuous
 62
     7
370
    25
100
AcDbLine
 10
6272.0803284951
 20
5037.003736435
 30
0.0
 11
6271.9054096639
 21
5037.6011390324
 31
0.0
  0
LINE
  5
389
330
1F
100
AcDbEntity
  8
0
  6
Continuous
 62
     7
370
    25
100
AcDbLine
 10
6272.296237586
 20
5037.003736435
 30
0.0
 11
6272.0803284951
 21
5037.003736435
 31
0.0
  0
LINE
  5
38A
330
1F
100
AcDbEntity
  8
0
  6
Continuous
 62
     7
370
    25
100
AcDbLine
 10
6271.6570330406
 20
5039.003736435
 30
0.0
 11
6272.296237586
 21
5037.003736435
 31
0.0
  0
LINE
  5
38B
330
1F
100
AcDbEntity
  8
0
  6
Continuous
 62
     7
370
    25
100
AcDbLine
 10
6271.4545168068
 20
5039.003736435
 30
0.0
 11
6271.6570330406
 21
5039.003736435
 31
0.0
  0
LINE
  5
38C
330
1F
100
AcDbEntity
  8
0
  6
Continuous
 62
     7
370
    25
100
AcDbLine
 10
6270.8157181055
 20
5037.003736435
 30
0.0
 11
6271.4545168068
 21
5039.003736435
 31
0.0
  0
LINE
  5
38D
330
1F
100
AcDbEntity
  8
0
  6
Continuous
 62
     7
370
    25
100
AcDbLine
 10
6271.0320330406
 20
5037.003736435
 30
0.0
 11
6270.8157181055
 21
5037.003736435
 31
0.0
  0
LINE
  5
38E
330
1F
100
AcDbEntity
  8
0
  6
Continuous
 62
     7
370
    25
100
AcDbLine
 10
6274.4261077159
 20
5040.2894507208
 30
0.0
 11
6274.4261077159
 21
5040.003736435
 31
0.0
  0
LINE
  5
38F
330
1F
100
AcDbEntity
  8
0
  6
Continuous
 62
     7
370
    25
100
AcDbLine
 10
6274.2183155081
 20
5040.2894507208
 30
0.0
 11
6274.4261077159
 21
5040.2894507208
 31
0.0
  0
LINE
  5
390
330
1F
100
AcDbEntity
  8
0
  6
Continuous
 62
     7
370
    25
100
AcDbLine
 10
6274.2183155081
 20
5040.003736435
 30
0.0
 11
6274.2183155081
 21
5040.2894507208
 31
0.0
  0
LINE
  5
391
330
1F
100
AcDbEntity
  8
0
  6
Continuous
 62
     7
370
    25
100
AcDbLine
 10
6274.4261077159
 20
5040.003736435
 30
0.0
 11
6274.2183155081
 21
5040.003736435
 31
0.0
  0
LINE
  5
392
330
1F
100
AcDbEntity
  8
0
  6
Continuous
 62
     7
370
    25
100
AcDbLine
 10
6276.3234291445
 20
5040.6011390324
 30
0.0
 11
6276.1489161574
 21
5040.003736435
 31
0.0
  0
LINE
  5
393
330
1F
100
AcDbEntity
  8
0
  6
Continuous
 62
     7
370
    25
100
AcDbLine
 10
6277.0222927808
 20
5040.6011390324
 30
0.0
 11
6276.3234291445
 21
5040.6011390324
 31
0.0
  0
LINE
  5
394
330
1F
100
AcDbEntity
  8
0
  6
Continuous
 62
     7
370
    25
100
AcDbLine
 10
6277.197211612
 20
5040.003736435
 30
0.0
 11
6277.0222927808
 21
5040.6011390324
 31
0.0
  0
LINE
  5
395
330
1F
100
AcDbEntity
  8
0
  6
Continuous
 62
     7
370
    25
100
AcDbLine
 10
6277.4131207029
 20
5040.003736435
 30
0.0
 11
6277.197211612
 21
5040.003736435
 31
0.0
  0
LINE
  5
396
330
1F
100
AcDbEntity
  8
0
  6
Continuous
 62
     7
370
    25
100
AcDbLine
 10
6276.7739161574
 20
5042.003736435
 30
0.0
 11
6277.4131207029
 21
5040.003736435
 31
0.0
  0
LINE
  5
397
330
1F
100
AcDbEntity
  8
0
  6
Continuous
 62
     7
370
    25
100
AcDbLine
 10
6276.5713999237
 20
5042.003736435
 30
0.0
 11
6276.7739161574
 21
5042.003736435
 31
0.0
  0
LINE
  5
398
330
1F
100
AcDbEntity
  8
0
  6
Continuous
 62
     7
370
    25
100
AcDbLine
 10
6275.9326012224
 20
5040.003736435
 30
0.0
 11
6276.5713999237
 21
5042.003736435
 31
0.0
  0
LINE
  5
399
330
1F
100
AcDbEntity
  8
0
  6
Continuous
 62
     7
370
    25
100
AcDbLine
 10
6276.1489161574
 20
5040.003736435
 30
0.0
 11
6275.9326012224
 21
5040.003736435
 31
0.0
  0
LWPOLYLINE
  5
39A
330
1F
100
AcDbEntity
  8
0
  6
Continuous
 62
     7
370
    25
100
AcDbPolyline
 90
        6
 70
   128
 43
0.0
 10
6280.5559778458
 20
5041.0029247467
 10
6280.5394798211
 20
5040.6817520674
 10
6280.4745636865
 20
5040.3671573075
 10
6280.3147490886
 20
5040.0912397741
 10
6280.1800986684
 20
5040.0049958849
 10
6280.0222927808
 20
5039.9777624091
  0
LWPOLYLINE
  5
39B
330
1F
100
AcDbEntity
  8
0
  6
Continuous
 62
     7
370
    25
100
AcDbPolyline
 90
        3
 70
   128
 43
0.0
 10
6280.3928284951
 20
5041.8186715
 10
6280.5338987708
 20
5041.372459926
 10
6280.5559778458
 20
5041.0029247467
  0
ARC
  5
39C
330
1F
100
AcDbEntity
  8
0
  6
Continuous
 62
     7
370
    25
100
AcDbCircle
 10
6280.0308930937
 20
5041.6139183562
 30
0.0
 40
0.4158378105612395
100
AcDbArc
 50
29.4975951224
 51
90.8495033845
  0
LWPOLYLINE
  5
39D
330
1F
100
AcDbEntity
  8
0
  6
Continuous
 62
     7
370
    25
100
AcDbPolyline
 90
        6
 70
   128
 43
0.0
 10
6279.4910427808
 20
5041.0029247467
 10
6279.507413918
 20
5041.3244568528
 10
6279.5720093413
 20
5041.6394594993
 10
6279.7322157429
 20
5041.9155433649
 10
6279.8668443777
 20
5042.0021348888
 10
6280.0247278458
 20
5042.029710461
  0
LWPOLYLINE
  5
39E
330
1F
100
AcDbEntity
  8
0
  6
Continuous
 62
     7
370
    25
100
AcDbPolyline
 90
        6
 70
   128
 43
0.0
 10
6280.0222927808
 20
5039.9777624091
 10
6279.8653192973
 20
5040.0074586909
 10
6279.7317327622
 20
5040.09519171
 10
6279.5667491829
 20
5040.367108287
 10
6279.5054749355
 20
5040.6820093313
 10
6279.4910427808
 20
5041.0029247467
  0
LWPOLYLINE
  5
39F
330
1F
100
AcDbEntity
  8
0
  6
Continuous
 62
     7
370
    25
100
AcDbPolyline
 90
        6
 70
   128
 43
0.0
 10
6281.4131207029
 20
5040.9521942273
 10
6281.4298420847
 20
5041.2923582589
 10
6281.4999193587
 20
5041.6251046652
 10
6281.6820498251
 20
5041.9090856825
 10
6281.8255213639
 20
5041.9992830943
 10
6281.9922603133
 20
5042.029710461
  0
LWPOLYLINE
  5
3A0
330
1F
100
AcDbEntity
  8
0
  6
Continuous
 62
     7
370
    25
100
AcDbPolyline
 90
        6
 70
   128
 43
0.0
 10
6281.9735914821
 20
5039.9777624091
 10
6281.8191756652
 20
5040.0032788855
 10
6281.6830018653
 20
5040.0802881736
 10
6281.5021091384
 20
5040.3334162987
 10
6281.4303064885
 20
5040.638587527
 10
6281.4131207029
 20
5040.9521942273
  0
ARC
  5
3A1
330
1F
100
AcDbEntity
  8
0
  6
Continuous
 62
     7
370
    25
100
AcDbCircle
 10
6281.8925641619
 20
5040.5648002242
 30
0.0
 40
0.5926034280976391
100
AcDbArc
 50
277.8587331034
 51
8.8854879831
  0
LWPOLYLINE
  5
3A2
330
1F
100
AcDbEntity
  8
0
  6
Continuous
 62
     7
370
    25
100
AcDbPolyline
 90
        4
 70
   128
 43
0.0
 10
6281.9910427808
 20
5041.3024377337
 10
6282.2269466005
 20
5041.2262130362
 10
6282.3921457117
 20
5041.0385610959
 10
6282.4780557678
 20
5040.6563338376
  0
ARC
  5
3A3
330
1F
100
AcDbEntity
  8
0
  6
Continuous
 62
     7
370
    25
100
AcDbCircle
 10
6282.0076718314
 20
5040.8397109771
 30
0.0
 40
0.463025460027377
100
AcDbArc
 50
92.0581575619
 51
153.6069076022
  0
LWPOLYLINE
  5
3A4
330
1F
100
AcDbEntity
  8
0
  6
Continuous
 62
     7
370
    25
100
AcDbPolyline
 90
        3
 70
   128
 43
0.0
 10
6281.6854421315
 20
5041.6031682532
 10
6281.6061718839
 20
5041.2956677588
 10
6281.5929096639
 20
5041.0455383831
  0
ARC
  5
3A5
330
1F
100
AcDbEntity
  8
0
  6
Continuous
 62
     7
370
    25
100
AcDbCircle
 10
6281.9877843977
 20
5041.5046210538
 30
0.0
 40
0.317997478698096
100
AcDbArc
 50
93.8031298902
 51
161.9468374121
  0
LWPOLYLINE
  5
3A6
330
1F
100
AcDbEntity
  8
0
  6
Continuous
 62
     7
370
    25
100
AcDbPolyline
 90
        3
 70
   128
 43
0.0
 10
6282.1598739496
 20
5041.7273565649
 10
6282.0620810527
 20
5041.8027977515
 10
6281.9666921315
 20
5041.8219182532
  0
LWPOLYLINE
  5
3A7
330
1F
100
AcDbEntity
  8
0
  6
Continuous
 62
     7
370
    25
100
AcDbPolyline
 90
        3
 70
   128
 43
0.0
 10
6282.2442895341
 20
5041.5102299415
 10
6282.210311441
 20
5041.6374024661
 10
6282.1598739496
 20
5041.7273565649
  0
LINE
  5
3A8
330
1F
100
AcDbEntity
  8
0
  6
Continuous
 62
     7
370
    25
100
AcDbLine
 10
6282.4520817419
 20
5041.5362039675
 30
0.0
 11
6282.2442895341
 21
5041.5102299415
 31
0.0
  0
LWPOLYLINE
  5
3A9
330
1F
100
AcDbEntity
  8
0
  6
Continuous
 62
     7
370
    25
100
AcDbPolyline
 90
        4
 70
   128
 43
0.0
 10
6281.9922603133
 20
5042.029710461
 10
6282.1941332828
 20
5041.9828850628
 10
6282.3487610875
 20
5041.8448627863
 10
6282.4520817419
 20
5041.5362039675
  0
LINE
  5
3AA
330
1F
100
AcDbEntity
  8
0
  6
Continuous
 62
     7
370
    25
100
AcDbLine
 10
6260.27026356
 20
5038.7699702013
 30
0.0
 11
6260.27026356
 21
5037.003736435
 31
0.0
  0
LINE
  5
3AB
330
1F
100
AcDbEntity
  8
0
  6
Continuous
 62
     7
370
    25
100
AcDbLine
 10
6260.8157181055
 20
5038.7699702013
 30
0.0
 11
6260.27026356
 21
5038.7699702013
 31
0.0
  0
LINE
  5
3AC
330
1F
100
AcDbEntity
  8
0
  6
Continuous
 62
     7
370
    25
100
AcDbLine
 10
6260.8157181055
 20
5039.003736435
 30
0.0
 11
6260.8157181055
 21
5038.7699702013
 31
0.0
  0
LINE
  5
3AD
330
1F
100
AcDbEntity
  8
0
  6
Continuous
 62
     7
370
    25
100
AcDbLine
 10
6259.5170168068
 20
5039.003736435
 30
0.0
 11
6260.8157181055
 21
5039.003736435
 31
0.0
  0
LINE
  5
3AE
330
1F
100
AcDbEntity
  8
0
  6
Continuous
 62
     7
370
    25
100
AcDbLine
 10
6259.5170168068
 20
5038.7699702013
 30
0.0
 11
6259.5170168068
 21
5039.003736435
 31
0.0
  0
LINE
  5
3AF
330
1F
100
AcDbEntity
  8
0
  6
Continuous
 62
     7
370
    25
100
AcDbLine
 10
6260.0624713522
 20
5038.7699702013
 30
0.0
 11
6259.5170168068
 21
5038.7699702013
 31
0.0
  0
LINE
  5
3B0
330
1F
100
AcDbEntity
  8
0
  6
Continuous
 62
     7
370
    25
100
AcDbLine
 10
6260.0624713522
 20
5037.003736435
 30
0.0
 11
6260.0624713522
 21
5038.7699702013
 31
0.0
  0
LINE
  5
3B1
330
1F
100
AcDbEntity
  8
0
  6
Continuous
 62
     7
370
    25
100
AcDbLine
 10
6260.27026356
 20
5037.003736435
 30
0.0
 11
6260.0624713522
 21
5037.003736435
 31
0.0
  0
LINE
  5
3B2
330
1F
100
AcDbEntity
  8
0
  6
Continuous
 62
     7
370
    25
100
AcDbLine
 10
6256.6598739496
 20
5037.8089312402
 30
0.0
 11
6256.6598739496
 21
5037.003736435
 31
0.0
  0
LINE
  5
3B3
330
1F
100
AcDbEntity
  8
0
  6
Continuous
 62
     7
370
    25
100
AcDbLine
 10
6257.0819518717
 20
5037.8089312402
 30
0.0
 11
6256.6598739496
 21
5037.8089312402
 31
0.0
  0
ARC
  5
3B4
330
1F
100
AcDbEntity
  8
0
  6
Continuous
 62
     7
370
    25
100
AcDbCircle
 10
6257.1439192057
 20
5038.3636856626
 30
0.0
 40
0.5582046395578476
100
AcDbArc
 50
263.6263519984
 51
6.2226710678
  0
ARC
  5
3B5
330
1F
100
AcDbEntity
  8
0
  6
Continuous
 62
     7
370
    25
100
AcDbCircle
 10
6257.1739841994
 20
5038.4827272224
 30
0.0
 40
0.5281049540533549
100
AcDbArc
 50
353.6361410049
 51
66.0016367602
  0
LWPOLYLINE
  5
3B6
330
1F
100
AcDbEntity
  8
0
  6
Continuous
 62
     7
370
    25
100
AcDbPolyline
 90
        3
 70
   128
 43
0.0
 10
6257.0681531704
 20
5039.003736435
 10
6257.2495035006
 20
5038.9949323091
 10
6257.3887700535
 20
5038.9651812402
  0
LINE
  5
3B7
330
1F
100
AcDbEntity
  8
0
  6
Continuous
 62
     7
370
    25
100
AcDbLine
 10
6256.4520817419
 20
5039.003736435
 30
0.0
 11
6257.0681531704
 21
5039.003736435
 31
0.0
  0
LINE
  5
3B8
330
1F
100
AcDbEntity
  8
0
  6
Continuous
 62
     7
370
    25
100
AcDbLine
 10
6256.4520817419
 20
5037.003736435
 30
0.0
 11
6256.4520817419
 21
5039.003736435
 31
0.0
  0
LINE
  5
3B9
330
1F
100
AcDbEntity
  8
0
  6
Continuous
 62
     7
370
    25
100
AcDbLine
 10
6256.6598739496
 20
5037.003736435
 30
0.0
 11
6256.4520817419
 21
5037.003736435
 31
0.0
  0
LWPOLYLINE
  5
3BA
330
1F
100
AcDbEntity
  8
0
  6
Continuous
 62
     7
370
    25
100
AcDbPolyline
 90
        6
 70
   128
 43
0.0
 10
6254.0105233003
 20
5037.2115286428
 10
6254.2305924743
 20
5037.2526162905
 10
6254.3234101281
 20
5037.3156757489
 10
6254.3868325251
 20
5037.4082164275
 10
6254.4405002564
 20
5037.6264365957
 10
6254.4520817419
 20
5037.8515448766
  0
LWPOLYLINE
  5
3BB
330
1F
100
AcDbEntity
  8
0
  6
Continuous
 62
     7
370
    25
100
AcDbPolyline
 90
        6
 70
   128
 43
0.0
 10
6253.5949388847
 20
5037.8515448766
 10
6253.6040059493
 20
5037.6325282273
 10
6253.6530998399
 20
5037.41984291
 10
6253.7132350915
 20
5037.3285120714
 10
6253.7990741208
 20
5037.2608956504
 10
6254.0105233003
 20
5037.2115286428
  0
LINE
  5
3BC
330
1F
100
AcDbEntity
  8
0
  6
Continuous
 62
     7
370
    25
100
AcDbLine
 10
6253.5949388847
 20
5039.003736435
 30
0.0
 11
6253.5949388847
 21
5037.8515448766
 31
0.0
  0
LINE
  5
3BD
330
1F
100
AcDbEntity
  8
0
  6
Continuous
 62
     7
370
    25
100
AcDbLine
 10
6253.3871466769
 20
5039.003736435
 30
0.0
 11
6253.5949388847
 21
5039.003736435
 31
0.0
  0
LINE
  5
3BE
330
1F
100
AcDbEntity
  8
0
  6
Continuous
 62
     7
370
    25
100
AcDbLine
 10
6253.3871466769
 20
5037.8527624091
 30
0.0
 11
6253.3871466769
 21
5039.003736435
 31
0.0
  0
LWPOLYLINE
  5
3BF
330
1F
100
AcDbEntity
  8
0
  6
Continuous
 62
     7
370
    25
100
AcDbPolyline
 90
        6
 70
   128
 43
0.0
 10
6254.0263512224
 20
5036.9777624091
 10
6253.7223248574
 20
5037.0363888783
 10
6253.5926244249
 20
5037.1219742996
 10
6253.4971141336
 20
5037.244493949
 10
6253.4073657592
 20
5037.5417386416
 10
6253.3871466769
 20
5037.8527624091
  0
LWPOLYLINE
  5
3C0
330
1F
100
AcDbEntity
  8
0
  6
Continuous
 62
     7
370
    25
100
AcDbPolyline
 90
        6
 70
   128
 43
0.0
 10
6254.6598739496
 20
5037.8527624091
 10
6254.6398719659
 20
5037.5439943404
 10
6254.5491212393
 20
5037.2497534105
 10
6254.4534936183
 20
5037.128630434
 10
6254.3268781122
 20
5037.0404974335
 10
6254.0263512224
 20
5036.9777624091
  0
LINE
  5
3C1
330
1F
100
AcDbEntity
  8
0
  6
Continuous
 62
     7
370
    25
100
AcDbLine
 10
6254.6598739496
 20
5039.003736435
 30
0.0
 11
6254.6598739496
 21
5037.8527624091
 31
0.0
  0
LINE
  5
3C2
330
1F
100
AcDbEntity
  8
0
  6
Continuous
 62
     7
370
    25
100
AcDbLine
 10
6254.4520817419
 20
5039.003736435
 30
0.0
 11
6254.6598739496
 21
5039.003736435
 31
0.0
  0
LINE
  5
3C3
330
1F
100
AcDbEntity
  8
0
  6
Continuous
 62
     7
370
    25
100
AcDbLine
 10
6254.4520817419
 20
5037.8515448766
 30
0.0
 11
6254.4520817419
 21
5039.003736435
 31
0.0
  0
LINE
  5
3C4
330
1F
100
AcDbEntity
  8
0
  6
Continuous
 62
     7
370
    25
100
AcDbLine
 10
6286.6079258977
 20
5040.2115286428
 30
0.0
 11
6286.6079258977
 21
5040.003736435
 31
0.0
  0
LINE
  5
3C5
330
1F
100
AcDbEntity
  8
0
  6
Continuous
 62
     7
370
    25
100
AcDbLine
 10
6285.8185590146
 20
5040.2115286428
 30
0.0
 11
6286.6079258977
 21
5040.2115286428
 31
0.0
  0
LINE
  5
3C6
330
1F
100
AcDbEntity
  8
0
  6
Continuous
 62
     7
370
    25
100
AcDbLine
 10
6285.941935638
 20
5040.3767072143
 30
0.0
 11
6285.8185590146
 21
5040.2115286428
 31
0.0
  0
LINE
  5
3C7
330
1F
100
AcDbEntity
  8
0
  6
Continuous
 62
     7
370
    25
100
AcDbLine
 10
6286.5819518717
 20
5041.2817396818
 30
0.0
 11
6285.941935638
 21
5040.3767072143
 31
0.0
  0
LINE
  5
3C8
330
1F
100
AcDbEntity
  8
0
  6
Continuous
 62
     7
370
    25
100
AcDbLine
 10
6286.5819518717
 20
5041.4582818896
 30
0.0
 11
6286.5819518717
 21
5041.2817396818
 31
0.0
  0
LINE
  5
3C9
330
1F
100
AcDbEntity
  8
0
  6
Continuous
 62
     7
370
    25
100
AcDbLine
 10
6285.5949388847
 20
5041.4582818896
 30
0.0
 11
6286.5819518717
 21
5041.4582818896
 31
0.0
  0
LINE
  5
3CA
330
1F
100
AcDbEntity
  8
0
  6
Continuous
 62
     7
370
    25
100
AcDbLine
 10
6285.5949388847
 20
5041.2504896818
 30
0.0
 11
6285.5949388847
 21
5041.4582818896
 31
0.0
  0
LINE
  5
3CB
330
1F
100
AcDbEntity
  8
0
  6
Continuous
 62
     7
370
    25
100
AcDbLine
 10
6286.3100362873
 20
5041.2504896818
 30
0.0
 11
6285.5949388847
 21
5041.2504896818
 31
0.0
  0
LINE
  5
3CC
330
1F
100
AcDbEntity
  8
0
  6
Continuous
 62
     7
370
    25
100
AcDbLine
 10
6285.5689648587
 20
5040.2115286428
 30
0.0
 11
6286.3100362873
 21
5041.2504896818
 31
0.0
  0
LINE
  5
3CD
330
1F
100
AcDbEntity
  8
0
  6
Continuous
 62
     7
370
    25
100
AcDbLine
 10
6285.5689648587
 20
5040.003736435
 30
0.0
 11
6285.5689648587
 21
5040.2115286428
 31
0.0
  0
LINE
  5
3CE
330
1F
100
AcDbEntity
  8
0
  6
Continuous
 62
     7
370
    25
100
AcDbLine
 10
6286.6079258977
 20
5040.003736435
 30
0.0
 11
6285.5689648587
 21
5040.003736435
 31
0.0
  0
LINE
  5
3CF
330
1F
100
AcDbEntity
  8
0
  6
Continuous
 62
     7
370
    25
100
AcDbLine
 10
6299.5187553361
 20
5056.2373684246
 30
0.0
 11
6299.5187553361
 21
5015.2373684246
 31
0.0
  0
LINE
  5
3D0
330
1F
100
AcDbEntity
  8
0
  6
Continuous
 62
     7
370
    25
100
AcDbLine
 10
6248.5187553361
 20
5056.2373684246
 30
0.0
 11
6248.5187553361
 21
5015.2373684246
 31
0.0
  0
LWPOLYLINE
  5
3D1
330
1F
100
AcDbEntity
  8
0
  6
Continuous
 62
     7
370
    25
100
AcDbPolyline
 90
        5
 70
   128
 43
0.0
 10
6296.4908689781
 20
5050.3606547172
 10
6296.4369110326
 20
5050.7218298612
 10
6296.3329953037
 20
5050.8712931952
 10
6296.254553479
 20
5050.9182653104
 10
6296.1645702768
 20
5050.9341125094
  0
LWPOLYLINE
  5
3D2
330
1F
100
AcDbEntity
  8
0
  6
Continuous
 62
     7
370
    25
100
AcDbPolyline
 90
        5
 70
   128
 43
0.0
 10
6296.1791806664
 20
5049.8432034185
 10
6296.2611635204
 20
5049.8582277591
 10
6296.3329040093
 20
5049.9007987923
 10
6296.4334850434
 20
5050.0331245671
 10
6296.4908689781
 20
5050.3606547172
  0
LWPOLYLINE
  5
3D3
330
1F
100
AcDbEntity
  8
0
  6
Continuous
 62
     7
370
    25
100
AcDbPolyline
 90
        5
 70
   128
 43
0.0
 10
6295.8597813157
 20
5050.3874404315
 10
6295.9171817451
 20
5050.0451875649
 10
6296.0199611077
 20
5049.9055409368
 10
6296.0937837978
 20
5049.8594535411
 10
6296.1791806664
 20
5049.8432034185
  0
LWPOLYLINE
  5
3D4
330
1F
100
AcDbEntity
  8
0
  6
Continuous
 62
     7
370
    25
100
AcDbPolyline
 90
        5
 70
   128
 43
0.0
 10
6296.1645702768
 20
5050.9341125094
 10
6296.0801070402
 20
5050.9173657407
 10
6296.0076910821
 20
5050.8704212342
 10
6295.9108916818
 20
5050.7282897537
 10
6295.8597813157
 20
5050.3874404315
  0
LWPOLYLINE
  5
3D5
330
1F
100
AcDbEntity
  8
0
  6
Continuous
 62
     7
370
    25
100
AcDbPolyline
 90
        5
 70
   128
 43
0.0
 10
6296.8944033118
 20
5053.190003728
 10
6296.826719792
 20
5053.5442447538
 10
6296.7094258105
 20
5053.6812510376
 10
6296.6281743836
 20
5053.7213886283
 10
6296.5384779871
 20
5053.7346465851
  0
LWPOLYLINE
  5
3D6
330
1F
100
AcDbEntity
  8
0
  6
Continuous
 62
     7
370
    25
100
AcDbPolyline
 90
        5
 70
   128
 43
0.0
 10
6296.5490299352
 20
5052.6437374942
 10
6296.6374237313
 20
5052.6582532678
 10
6296.7161781184
 20
5052.701028676
 10
6296.8290969681
 20
5052.8392043098
 10
6296.8944033118
 20
5053.190003728
  0
LWPOLYLINE
  5
3D7
330
1F
100
AcDbEntity
  8
0
  6
Continuous
 62
     7
370
    25
100
AcDbPolyline
 90
        5
 70
   128
 43
0.0
 10
6296.1931046105
 20
5053.190003728
 10
6296.2603675059
 20
5052.8348063773
 10
6296.3777423365
 20
5052.6973766513
 10
6296.4591334373
 20
5052.6570568146
 10
6296.5490299352
 20
5052.6437374942
  0
LWPOLYLINE
  5
3D8
330
1F
100
AcDbEntity
  8
0
  6
Continuous
 62
     7
370
    25
100
AcDbPolyline
 90
        5
 70
   128
 43
0.0
 10
6296.5384779871
 20
5053.7346465851
 10
6296.450146918
 20
5053.7203544182
 10
6296.3710908649
 20
5053.6784186517
 10
6296.258314368
 20
5053.5403157322
 10
6296.1931046105
 20
5053.190003728
  0
LINE
  5
3D9
330
1F
100
AcDbEntity
  8
0
  6
Continuous
 62
     7
370
    25
100
AcDbLine
 10
6250.5187553361
 20
5058.2373684246
 30
0.0
 11
6248.5187553361
 21
5058.2373684246
 31
0.0
  0
LINE
  5
3DA
330
1F
100
AcDbEntity
  8
0
  6
Continuous
 62
     7
370
    25
100
AcDbLine
 10
6252.7752807008
 20
5058.2373684246
 30
0.0
 11
6250.5187553361
 21
5058.2373684246
 31
0.0
  0
LINE
  5
3DB
330
1F
100
AcDbEntity
  8
0
  6
Continuous
 62
     7
370
    25
100
AcDbLine
 10
6254.2752807008
 20
5058.2373684246
 30
0.0
 11
6252.7752807008
 21
5058.2373684246
 31
0.0
  0
LINE
  5
3DC
330
1F
100
AcDbEntity
  8
0
  6
Continuous
 62
     7
370
    25
100
AcDbLine
 10
6256.7752807008
 20
5058.2373684246
 30
0.0
 11
6254.2752807008
 21
5058.2373684246
 31
0.0
  0
LINE
  5
3DD
330
1F
100
AcDbEntity
  8
0
  6
Continuous
 62
     7
370
    25
100
AcDbLine
 10
6258.2752807008
 20
5058.2373684246
 30
0.0
 11
6256.7752807008
 21
5058.2373684246
 31
0.0
  0
LINE
  5
3DE
330
1F
100
AcDbEntity
  8
0
  6
Continuous
 62
     7
370
    25
100
AcDbLine
 10
6260.7752807008
 20
5058.2373684246
 30
0.0
 11
6258.2752807008
 21
5058.2373684246
 31
0.0
  0
LINE
  5
3DF
330
1F
100
AcDbEntity
  8
0
  6
Continuous
 62
     7
370
    25
100
AcDbLine
 10
6262.2752807008
 20
5058.2373684246
 30
0.0
 11
6260.7752807008
 21
5058.2373684246
 31
0.0
  0
LINE
  5
3E0
330
1F
100
AcDbEntity
  8
0
  6
Continuous
 62
     7
370
    25
100
AcDbLine
 10
6264.7752807008
 20
5058.2373684246
 30
0.0
 11
6262.2752807008
 21
5058.2373684246
 31
0.0
  0
LINE
  5
3E1
330
1F
100
AcDbEntity
  8
0
  6
Continuous
 62
     7
370
    25
100
AcDbLine
 10
6266.2752807008
 20
5058.2373684246
 30
0.0
 11
6264.7752807008
 21
5058.2373684246
 31
0.0
  0
LINE
  5
3E2
330
1F
100
AcDbEntity
  8
0
  6
Continuous
 62
     7
370
    25
100
AcDbLine
 10
6268.7752807008
 20
5058.2373684246
 30
0.0
 11
6266.2752807008
 21
5058.2373684246
 31
0.0
  0
LINE
  5
3E3
330
1F
100
AcDbEntity
  8
0
  6
Continuous
 62
     7
370
    25
100
AcDbLine
 10
6270.2752807008
 20
5058.2373684246
 30
0.0
 11
6268.7752807008
 21
5058.2373684246
 31
0.0
  0
LINE
  5
3E4
330
1F
100
AcDbEntity
  8
0
  6
Continuous
 62
     7
370
    25
100
AcDbLine
 10
6272.7752807008
 20
5058.2373684246
 30
0.0
 11
6270.2752807008
 21
5058.2373684246
 31
0.0
  0
LINE
  5
3E5
330
1F
100
AcDbEntity
  8
0
  6
Continuous
 62
     7
370
    25
100
AcDbLine
 10
6274.2752807008
 20
5058.2373684246
 30
0.0
 11
6272.7752807008
 21
5058.2373684246
 31
0.0
  0
LINE
  5
3E6
330
1F
100
AcDbEntity
  8
0
  6
Continuous
 62
     7
370
    25
100
AcDbLine
 10
6276.7752807008
 20
5058.2373684246
 30
0.0
 11
6274.2752807008
 21
5058.2373684246
 31
0.0
  0
LINE
  5
3E7
330
1F
100
AcDbEntity
  8
0
  6
Continuous
 62
     7
370
    25
100
AcDbLine
 10
6278.2752807008
 20
5058.2373684246
 30
0.0
 11
6276.7752807008
 21
5058.2373684246
 31
0.0
  0
LINE
  5
3E8
330
1F
100
AcDbEntity
  8
0
  6
Continuous
 62
     7
370
    25
100
AcDbLine
 10
6280.7752807008
 20
5058.2373684246
 30
0.0
 11
6278.2752807008
 21
5058.2373684246
 31
0.0
  0
LINE
  5
3E9
330
1F
100
AcDbEntity
  8
0
  6
Continuous
 62
     7
370
    25
100
AcDbLine
 10
6282.2752807008
 20
5058.2373684246
 30
0.0
 11
6280.7752807008
 21
5058.2373684246
 31
0.0
  0
LINE
  5
3EA
330
1F
100
AcDbEntity
  8
0
  6
Continuous
 62
     7
370
    25
100
AcDbLine
 10
6284.7752807008
 20
5058.2373684246
 30
0.0
 11
6282.2752807008
 21
5058.2373684246
 31
0.0
  0
LINE
  5
3EB
330
1F
100
AcDbEntity
  8
0
  6
Continuous
 62
     7
370
    25
100
AcDbLine
 10
6286.2752807008
 20
5058.2373684246
 30
0.0
 11
6284.7752807008
 21
5058.2373684246
 31
0.0
  0
LINE
  5
3EC
330
1F
100
AcDbEntity
  8
0
  6
Continuous
 62
     7
370
    25
100
AcDbLine
 10
6288.7752807008
 20
5058.2373684246
 30
0.0
 11
6286.2752807008
 21
5058.2373684246
 31
0.0
  0
LINE
  5
3ED
330
1F
100
AcDbEntity
  8
0
  6
Continuous
 62
     7
370
    25
100
AcDbLine
 10
6290.2752807008
 20
5058.2373684246
 30
0.0
 11
6288.7752807008
 21
5058.2373684246
 31
0.0
  0
LINE
  5
3EE
330
1F
100
AcDbEntity
  8
0
  6
Continuous
 62
     7
370
    25
100
AcDbLine
 10
6292.7752807008
 20
5058.2373684246
 30
0.0
 11
6290.2752807008
 21
5058.2373684246
 31
0.0
  0
LINE
  5
3EF
330
1F
100
AcDbEntity
  8
0
  6
Continuous
 62
     7
370
    25
100
AcDbLine
 10
6294.2752807008
 20
5058.2373684246
 30
0.0
 11
6292.7752807008
 21
5058.2373684246
 31
0.0
  0
LINE
  5
3F0
330
1F
100
AcDbEntity
  8
0
  6
Continuous
 62
     7
370
    25
100
AcDbLine
 10
6296.7752807008
 20
5058.2373684246
 30
0.0
 11
6294.2752807008
 21
5058.2373684246
 31
0.0
  0
LINE
  5
3F1
330
1F
100
AcDbEntity
  8
0
  6
Continuous
 62
     7
370
    25
100
AcDbLine
 10
6299.5187553361
 20
5058.2373684246
 30
0.0
 11
6296.7752807008
 21
5058.2373684246
 31
0.0
  0
LINE
  5
3F2
330
1F
100
AcDbEntity
  8
0
  6
Continuous
 62
     7
370
    25
100
AcDbLine
 10
6299.5187553361
 20
5058.2373684246
 30
0.0
 11
6299.5187553361
 21
5056.2373684246
 31
0.0
  0
LINE
  5
3F3
330
1F
100
AcDbEntity
  8
0
  6
Continuous
 62
     7
370
    25
100
AcDbLine
 10
6248.5187553361
 20
5058.2373684246
 30
0.0
 11
6248.5187553361
 21
5056.2373684246
 31
0.0
  0
LWPOLYLINE
  5
3F4
330
1F
100
AcDbEntity
  8
0
  6
Continuous
 62
     7
370
    25
100
AcDbPolyline
 90
        6
 70
   128
 43
0.0
 10
6265.824581098
 20
5046.7927805054
 10
6265.8126880549
 20
5047.2173802511
 10
6265.7614806643
 20
5047.6388233555
 10
6265.6023765626
 20
5048.0287546896
 10
6265.4468679589
 20
5048.1715087144
 10
6265.2436151889
 20
5048.2245986872
  0
LWPOLYLINE
  5
3F5
330
1F
100
AcDbEntity
  8
0
  6
Continuous
 62
     7
370
    25
100
AcDbPolyline
 90
        5
 70
   128
 43
0.0
 10
6265.2649220071
 20
5045.3609623236
 10
6265.463686481
 20
5045.4198108062
 10
6265.6109316551
 20
5045.5679813977
 10
6265.7629396418
 20
5045.9561510364
 10
6265.824581098
 20
5046.7927805054
  0
LWPOLYLINE
  5
3F6
330
1F
100
AcDbEntity
  8
0
  6
Continuous
 62
     7
370
    25
100
AcDbPolyline
 90
        5
 70
   128
 43
0.0
 10
6265.2436151889
 20
5048.2245986872
 10
6265.0455685016
 20
5048.1650330216
 10
6264.8996781102
 20
5048.0160196967
 10
6264.749714981
 20
5047.6278976155
 10
6264.6882174616
 20
5046.7927805054
  0
LWPOLYLINE
  5
3F7
330
1F
100
AcDbEntity
  8
0
  6
Continuous
 62
     7
370
    25
100
AcDbPolyline
 90
        6
 70
   128
 43
0.0
 10
6264.6882174616
 20
5046.7927805054
 10
6264.7001195635
 20
5046.3692146653
 10
6264.7510510421
 20
5045.9487731199
 10
6264.9088276794
 20
5045.5593502818
 10
6265.0625743177
 20
5045.4153294552
 10
6265.2649220071
 20
5045.3609623236
  0
ARC
  5
3F8
330
1F
100
AcDbEntity
  8
0
  6
Continuous
 62
     7
370
    25
100
AcDbCircle
 10
6262.9438910426
 20
5046.2935080772
 30
0.0
 40
0.6646113484215249
100
AcDbArc
 50
349.469275371
 51
82.1374128455
  0
LWPOLYLINE
  5
3F9
330
1F
100
AcDbEntity
  8
0
  6
Continuous
 62
     7
370
    25
100
AcDbPolyline
 90
        5
 70
   128
 43
0.0
 10
6263.058956098
 20
5045.3609623236
 10
6263.2512468244
 20
5045.4116382366
 10
6263.4035359513
 20
5045.5411164863
 10
6263.5115867319
 20
5045.7097496895
 10
6263.5973083707
 20
5046.172041869
  0
ARC
  5
3FA
330
1F
100
AcDbEntity
  8
0
  6
Continuous
 62
     7
370
    25
100
AcDbCircle
 10
6263.1850459715
 20
5046.0832294752
 30
0.0
 40
0.7331906263322855
100
AcDbArc
 50
170.968784303
 51
260.0973767404
  0
LWPOLYLINE
  5
3FB
330
1F
100
AcDbEntity
  8
0
  6
Continuous
 62
     7
370
    25
100
AcDbPolyline
 90
        4
 70
   128
 43
0.0
 10
6263.0348083707
 20
5046.9518714145
 10
6262.757694979
 20
5046.8642212748
 10
6262.5622956037
 20
5046.6459812378
 10
6262.4609447344
 20
5046.1983202781
  0
LINE
  5
3FC
330
1F
100
AcDbEntity
  8
0
  6
Continuous
 62
     7
370
    25
100
AcDbLine
 10
6256.0752913253
 20
5048.1336895963
 30
0.0
 11
6255.4609447344
 21
5048.1336895963
 31
0.0
  0
LWPOLYLINE
  5
3FD
330
1F
100
AcDbEntity
  8
0
  6
Continuous
 62
     7
370
    25
100
AcDbPolyline
 90
        3
 70
   128
 43
0.0
 10
6256.5703197344
 20
5048.0640873236
 10
6256.2963668489
 20
5048.1244576294
 10
6256.0752913253
 20
5048.1336895963
  0
ARC
  5
3FE
330
1F
100
AcDbEntity
  8
0
  6
Continuous
 62
     7
370
    25
100
AcDbCircle
 10
6255.8201583636
 20
5047.0121862968
 30
0.0
 40
1.291989880886204
100
AcDbArc
 50
351.3075990635
 51
54.5055000013
  0
LWPOLYLINE
  5
3FF
330
1F
100
AcDbEntity
  8
0
  6
Continuous
 62
     7
370
    25
100
AcDbPolyline
 90
        3
 70
   128
 43
0.0
 10
6256.9581038253
 20
5045.9618145963
 10
6257.07396041
 20
5046.434543382
 10
6257.0973083707
 20
5046.8169282327
  0
ARC
  5
400
330
1F
100
AcDbEntity
  8
0
  6
Continuous
 62
     7
370
    25
100
AcDbCircle
 10
6256.2053187209
 20
5046.2483397982
 30
0.0
 40
0.8054701140616565
100
AcDbArc
 50
261.4260448054
 51
339.1621653187
  0
LINE
  5
401
330
1F
100
AcDbEntity
  8
0
  6
Continuous
 62
     7
370
    25
100
AcDbLine
 10
6255.4609447344
 20
5045.4518714145
 30
0.0
 11
6256.0852345071
 21
5045.4518714145
 31
0.0
  0
LINE
  5
402
330
1F
100
AcDbEntity
  8
0
  6
Continuous
 62
     7
370
    25
100
AcDbLine
 10
6255.4609447344
 20
5048.1336895963
 30
0.0
 11
6255.4609447344
 21
5045.4518714145
 31
0.0
  0
LWPOLYLINE
  5
403
330
1F
100
AcDbEntity
  8
0
  6
Continuous
 62
     7
370
    25
100
AcDbPolyline
 90
        3
 70
   128
 43
0.0
 10
6294.7818592378
 20
5051.4531871847
 10
6294.7362125097
 20
5051.2395474726
 10
6294.6889209261
 20
5051.0745345873
  0
LINE
  5
404
330
1F
100
AcDbEntity
  8
0
  6
Continuous
 62
     7
370
    25
100
AcDbLine
 10
6295.0627033936
 20
5050.4925540679
 30
0.0
 11
6294.8954956014
 21
5051.0420670549
 31
0.0
  0
LINE
  5
405
330
1F
100
AcDbEntity
  8
0
  6
Continuous
 62
     7
370
    25
100
AcDbLine
 10
6294.5006092378
 20
5050.4925540679
 30
0.0
 11
6295.0627033936
 21
5050.4925540679
 31
0.0
  0
LINE
  5
406
330
1F
100
AcDbEntity
  8
0
  6
Continuous
 62
     7
370
    25
100
AcDbLine
 10
6294.6889209261
 20
5051.0745345873
 30
0.0
 11
6294.5006092378
 21
5050.4925540679
 31
0.0
  0
LWPOLYLINE
  5
407
330
1F
100
AcDbEntity
  8
0
  6
Continuous
 62
     7
370
    25
100
AcDbPolyline
 90
        3
 70
   128
 43
0.0
 10
6294.8954956014
 20
5051.0420670549
 10
6294.8285267315
 20
5051.2713856474
 10
6294.7818592378
 20
5051.4531871847
  0
ARC
  5
408
330
1F
100
AcDbEntity
  8
0
  6
Continuous
 62
     7
370
    25
100
AcDbCircle
 10
6275.2605006742
 20
5040.6289417233
 30
0.0
 40
0.363191872634772
100
AcDbArc
 50
352.9068210033
 51
84.9961656747
  0
ARC
  5
409
330
1F
100
AcDbEntity
  8
0
  6
Continuous
 62
     7
370
    25
100
AcDbCircle
 10
6275.2644073968
 20
5040.5429065458
 30
0.0
 40
0.3588767936531564
100
AcDbArc
 50
275.2836555273
 51
6.590157083
  0
ARC
  5
40A
330
1F
100
AcDbEntity
  8
0
  6
Continuous
 62
     7
370
    25
100
AcDbCircle
 10
6275.3301777244
 20
5040.5456911564
 30
0.0
 40
0.3616200990300657
100
AcDbArc
 50
172.6089107072
 51
264.8082660926
  0
LWPOLYLINE
  5
40B
330
1F
100
AcDbEntity
  8
0
  6
Continuous
 62
     7
370
    25
100
AcDbPolyline
 90
        4
 70
   128
 43
0.0
 10
6275.2921791445
 20
5040.9907494221
 10
6275.1407842985
 20
5040.9473144421
 10
6275.031368143
 20
5040.8327908257
 10
6274.9715622613
 20
5040.592210461
  0
LINE
  5
40C
330
1F
100
AcDbEntity
  8
0
  6
Continuous
 62
     7
370
    25
100
AcDbLine
 10
6259.3174788253
 20
5048.1336895963
 30
0.0
 11
6258.3700356434
 21
5048.1336895963
 31
0.0
  0
ARC
  5
40D
330
1F
100
AcDbEntity
  8
0
  6
Continuous
 62
     7
370
    25
100
AcDbCircle
 10
6259.355097443
 20
5047.5887346262
 30
0.0
 40
0.6059777486216711
100
AcDbArc
 50
257.4107641279
 51
358.8110839197
  0
LINE
  5
40E
330
1F
100
AcDbEntity
  8
0
  6
Continuous
 62
     7
370
    25
100
AcDbLine
 10
6258.3700356434
 20
5046.9973259599
 30
0.0
 11
6259.223018598
 21
5046.9973259599
 31
0.0
  0
LINE
  5
40F
330
1F
100
AcDbEntity
  8
0
  6
Continuous
 62
     7
370
    25
100
AcDbLine
 10
6258.3700356434
 20
5048.1336895963
 30
0.0
 11
6258.3700356434
 21
5046.9973259599
 31
0.0
  0
ARC
  5
410
330
1F
100
AcDbEntity
  8
0
  6
Continuous
 62
     7
370
    25
100
AcDbCircle
 10
6259.3982496844
 20
5047.5768213682
 30
0.0
 40
0.5626954372758883
100
AcDbArc
 50
359.9327778554
 51
98.2529030538
  0
CIRCLE
  5
411
330
1F
100
AcDbEntity
  8
0
  6
Continuous
 62
     7
370
    25
100
AcDbCircle
 10
6292.0187553361
 20
5051.2373684246
 30
0.0
 40
1.0
  0
LWPOLYLINE
  5
412
330
1F
100
AcDbEntity
  8
0
  6
Continuous
 62
     7
370
    25
100
AcDbPolyline
 90
        5
 70
   128
 43
0.0
 10
6281.9626336899
 20
5040.1855546169
 10
6282.072514105
 20
5040.2145122814
 10
6282.1595364632
 20
5040.2884998527
 10
6282.2212797665
 20
5040.3848616831
 10
6282.27026356
 20
5040.6490286428
  0
ARC
  5
413
330
1F
100
AcDbEntity
  8
0
  6
Continuous
 62
     7
370
    25
100
AcDbCircle
 10
6282.0346850462
 20
5040.5982787035
 30
0.0
 40
0.4189660721918489
100
AcDbArc
 50
170.9687843031
 51
260.09737674
  0
LWPOLYLINE
  5
414
330
1F
100
AcDbEntity
  8
0
  6
Continuous
 62
     7
370
    25
100
AcDbPolyline
 90
        4
 70
   128
 43
0.0
 10
6281.9488349886
 20
5041.094645526
 10
6281.7904844791
 20
5041.0445597318
 10
6281.6788276932
 20
5040.9198511393
 10
6281.6209129107
 20
5040.6640448766
  0
ARC
  5
415
330
1F
100
AcDbEntity
  8
0
  6
Continuous
 62
     7
370
    25
100
AcDbCircle
 10
6281.8968822297
 20
5040.7184379046
 30
0.0
 40
0.3797779133813151
100
AcDbArc
 50
349.4692753709
 51
82.1374128459
  0
ARC
  5
416
330
1F
100
AcDbEntity
  8
0
  6
Continuous
 62
     7
370
    25
100
AcDbCircle
 10
6275.2620728516
 20
5041.5406629817
 30
0.0
 40
0.2831784699740095
100
AcDbArc
 50
352.7556735176
 51
83.3186277748
  0
LWPOLYLINE
  5
417
330
1F
100
AcDbEntity
  8
0
  6
Continuous
 62
     7
370
    25
100
AcDbPolyline
 90
        4
 70
   128
 43
0.0
 10
6275.2974551185
 20
5041.1985416298
 10
6275.4135799023
 20
5041.2322471077
 10
6275.497124349
 20
5041.3204435856
 10
6275.5429908328
 20
5041.5049539675
  0
ARC
  5
418
330
1F
100
AcDbEntity
  8
0
  6
Continuous
 62
     7
370
    25
100
AcDbCircle
 10
6275.3251252598
 20
5041.4760350006
 30
0.0
 40
0.2788695170132289
100
AcDbArc
 50
171.2730218719
 51
264.3055974623
  0
LWPOLYLINE
  5
419
330
1F
100
AcDbEntity
  8
0
  6
Continuous
 62
     7
370
    25
100
AcDbPolyline
 90
        4
 70
   128
 43
0.0
 10
6275.2950200535
 20
5041.8219182532
 10
6275.1800658762
 20
5041.7880849615
 10
6275.096842245
 20
5041.7007577432
 10
6275.0494843393
 20
5041.5183468247
  0
LWPOLYLINE
  5
41A
330
1F
100
AcDbEntity
  8
0
  6
Continuous
 62
     7
370
    25
100
AcDbPolyline
 90
        5
 70
   128
 43
0.0
 10
6262.4780557678
 20
5041.003736435
 10
6262.4419983771
 20
5041.4871894922
 10
6262.3510817476
 20
5041.7100073974
 10
6262.2622196884
 20
5041.7915811259
 10
6262.1460752483
 20
5041.8219182532
  0
LWPOLYLINE
  5
41B
330
1F
100
AcDbEntity
  8
0
  6
Continuous
 62
     7
370
    25
100
AcDbPolyline
 90
        5
 70
   128
 43
0.0
 10
6262.158250573
 20
5040.1855546169
 10
6262.2718302724
 20
5040.2191823212
 10
6262.3559703719
 20
5040.3038512307
 10
6262.4428320786
 20
5040.5256624528
 10
6262.4780557678
 20
5041.003736435
  0
LWPOLYLINE
  5
41C
330
1F
100
AcDbEntity
  8
0
  6
Continuous
 62
     7
370
    25
100
AcDbPolyline
 90
        5
 70
   128
 43
0.0
 10
6261.8287051185
 20
5041.003736435
 10
6261.8646100216
 20
5040.5214465005
 10
6261.9547681001
 20
5040.2989191644
 10
6262.0426233219
 20
5040.2166215492
 10
6262.158250573
 20
5040.1855546169
  0
LWPOLYLINE
  5
41D
330
1F
100
AcDbEntity
  8
0
  6
Continuous
 62
     7
370
    25
100
AcDbPolyline
 90
        5
 70
   128
 43
0.0
 10
6262.1460752483
 20
5041.8219182532
 10
6262.0329057128
 20
5041.78788073
 10
6261.9495397748
 20
5041.7027302586
 10
6261.8638465581
 20
5041.4809462123
 10
6261.8287051185
 20
5041.003736435
  0
LWPOLYLINE
  5
41E
330
1F
100
AcDbEntity
  8
0
  6
Continuous
 62
     7
370
    25
100
AcDbPolyline
 90
        5
 70
   128
 43
0.0
 10
6280.348185638
 20
5041.003736435
 10
6280.3121282473
 20
5041.4871894922
 10
6280.2212116177
 20
5041.7100073974
 10
6280.1323495585
 20
5041.7915811259
 10
6280.0162051185
 20
5041.8219182532
  0
LWPOLYLINE
  5
41F
330
1F
100
AcDbEntity
  8
0
  6
Continuous
 62
     7
370
    25
100
AcDbPolyline
 90
        5
 70
   128
 43
0.0
 10
6280.0283804432
 20
5040.1855546169
 10
6280.1419601426
 20
5040.2191823212
 10
6280.226100242
 20
5040.3038512307
 10
6280.3129619487
 20
5040.5256624528
 10
6280.348185638
 20
5041.003736435
  0
LWPOLYLINE
  5
420
330
1F
100
AcDbEntity
  8
0
  6
Continuous
 62
     7
370
    25
100
AcDbPolyline
 90
        5
 70
   128
 43
0.0
 10
6279.6988349886
 20
5041.003736435
 10
6279.7347398917
 20
5040.5214465005
 10
6279.8248979702
 20
5040.2989191644
 10
6279.9127531921
 20
5040.2166215492
 10
6280.0283804432
 20
5040.1855546169
  0
LWPOLYLINE
  5
421
330
1F
100
AcDbEntity
  8
0
  6
Continuous
 62
     7
370
    25
100
AcDbPolyline
 90
        5
 70
   128
 43
0.0
 10
6280.0162051185
 20
5041.8219182532
 10
6279.9030355829
 20
5041.78788073
 10
6279.8196696449
 20
5041.7027302586
 10
6279.7339764283
 20
5041.4809462123
 10
6279.6988349886
 20
5041.003736435
  0
ARC
  5
422
330
1F
100
AcDbEntity
  8
0
  6
Continuous
 62
     7
370
    25
100
AcDbCircle
 10
6252.3280007985
 20
5038.2489736447
 30
0.0
 40
0.5470626969075235
100
AcDbArc
 50
22.6792057406
 51
88.9485492867
  0
LWPOLYLINE
  5
423
330
1F
100
AcDbEntity
  8
0
  6
Continuous
 62
     7
370
    25
100
AcDbPolyline
 90
        3
 70
   128
 43
0.0
 10
6252.9196142094
 20
5038.0077948766
 10
6252.8942645924
 20
5038.2657277005
 10
6252.83276356
 20
5038.4599052662
  0
ARC
  5
424
330
1F
100
AcDbEntity
  8
0
  6
Continuous
 62
     7
370
    25
100
AcDbCircle
 10
6252.2450003253
 20
5037.890509017
 30
0.0
 40
0.6847334266152355
100
AcDbArc
 50
277.4324256864
 51
9.8626500241
  0
ARC
  5
425
330
1F
100
AcDbEntity
  8
0
  6
Continuous
 62
     7
370
    25
100
AcDbCircle
 10
6252.4001712538
 20
5037.8664097909
 30
0.0
 40
0.6582585707961297
100
AcDbArc
 50
170.5832978339
 51
264.1934529833
  0
LWPOLYLINE
  5
426
330
1F
100
AcDbEntity
  8
0
  6
Continuous
 62
     7
370
    25
100
AcDbPolyline
 90
        5
 70
   128
 43
0.0
 10
6252.3380395341
 20
5038.7959442273
 10
6252.0656691757
 20
5038.7251802601
 10
6251.8673371093
 20
5038.5249003007
 10
6251.7737140504
 20
5038.2574899701
 10
6251.7507830406
 20
5037.9741098117
  0
LWPOLYLINE
  5
427
330
1F
100
AcDbEntity
  8
0
  6
Continuous
 62
     7
370
    25
100
AcDbPolyline
 90
        5
 70
   128
 43
0.0
 10
6261.2053284951
 20
5041.003736435
 10
6261.1692711044
 20
5041.4871894922
 10
6261.0783544749
 20
5041.7100073974
 10
6260.9894924156
 20
5041.7915811259
 10
6260.8733479756
 20
5041.8219182532
  0
LWPOLYLINE
  5
428
330
1F
100
AcDbEntity
  8
0
  6
Continuous
 62
     7
370
    25
100
AcDbPolyline
 90
        5
 70
   128
 43
0.0
 10
6260.8855233003
 20
5040.1855546169
 10
6260.9991029997
 20
5040.2191823212
 10
6261.0832430991
 20
5040.3038512307
 10
6261.1701048059
 20
5040.5256624528
 10
6261.2053284951
 20
5041.003736435
  0
LWPOLYLINE
  5
429
330
1F
100
AcDbEntity
  8
0
  6
Continuous
 62
     7
370
    25
100
AcDbPolyline
 90
        5
 70
   128
 43
0.0
 10
6260.5559778458
 20
5041.003736435
 10
6260.5918827489
 20
5040.5214465005
 10
6260.6820408273
 20
5040.2989191644
 10
6260.7698960492
 20
5040.2166215492
 10
6260.8855233003
 20
5040.1855546169
  0
LWPOLYLINE
  5
42A
330
1F
100
AcDbEntity
  8
0
  6
Continuous
 62
     7
370
    25
100
AcDbPolyline
 90
        5
 70
   128
 43
0.0
 10
6260.8733479756
 20
5041.8219182532
 10
6260.76017844
 20
5041.78788073
 10
6260.6768125021
 20
5041.7027302586
 10
6260.5911192854
 20
5041.4809462123
 10
6260.5559778458
 20
5041.003736435
  0
LWPOLYLINE
  5
42B
330
1F
100
AcDbEntity
  8
0
  6
Continuous
 62
     7
370
    25
100
AcDbPolyline
 90
        5
 70
   128
 43
0.0
 10
6283.5429908328
 20
5041.003736435
 10
6283.5069334421
 20
5041.4871894922
 10
6283.4160168125
 20
5041.7100073974
 10
6283.3271547533
 20
5041.7915811259
 10
6283.2110103133
 20
5041.8219182532
  0
LWPOLYLINE
  5
42C
330
1F
100
AcDbEntity
  8
0
  6
Continuous
 62
     7
370
    25
100
AcDbPolyline
 90
        5
 70
   128
 43
0.0
 10
6283.223185638
 20
5040.1855546169
 10
6283.3367653374
 20
5040.2191823212
 10
6283.4209054368
 20
5040.3038512307
 10
6283.5077671435
 20
5040.5256624528
 10
6283.5429908328
 20
5041.003736435
  0
LWPOLYLINE
  5
42D
330
1F
100
AcDbEntity
  8
0
  6
Continuous
 62
     7
370
    25
100
AcDbPolyline
 90
        5
 70
   128
 43
0.0
 10
6282.8936401834
 20
5041.003736435
 10
6282.9295450866
 20
5040.5214465005
 10
6283.019703165
 20
5040.2989191644
 10
6283.1075583869
 20
5040.2166215492
 10
6283.223185638
 20
5040.1855546169
  0
LWPOLYLINE
  5
42E
330
1F
100
AcDbEntity
  8
0
  6
Continuous
 62
     7
370
    25
100
AcDbPolyline
 90
        5
 70
   128
 43
0.0
 10
6283.2110103133
 20
5041.8219182532
 10
6283.0978407777
 20
5041.78788073
 10
6283.0144748397
 20
5041.7027302586
 10
6282.9287816231
 20
5041.4809462123
 10
6282.8936401834
 20
5041.003736435
  0
LWPOLYLINE
  5
42F
330
1F
100
AcDbEntity
  8
0
  6
Continuous
 62
     7
370
    25
100
AcDbPolyline
 90
        5
 70
   128
 43
0.0
 10
6266.4001336899
 20
5041.003736435
 10
6266.436038593
 20
5040.5214465005
 10
6266.5261966715
 20
5040.2989191644
 10
6266.6140518934
 20
5040.2166215492
 10
6266.7296791445
 20
5040.1855546169
  0
LWPOLYLINE
  5
430
330
1F
100
AcDbEntity
  8
0
  6
Continuous
 62
     7
370
    25
100
AcDbPolyline
 90
        5
 70
   128
 43
0.0
 10
6266.7175038198
 20
5041.8219182532
 10
6266.6043342842
 20
5041.78788073
 10
6266.5209683462
 20
5041.7027302586
 10
6266.4352751296
 20
5041.4809462123
 10
6266.4001336899
 20
5041.003736435
  0
LWPOLYLINE
  5
431
330
1F
100
AcDbEntity
  8
0
  6
Continuous
 62
     7
370
    25
100
AcDbPolyline
 90
        5
 70
   128
 43
0.0
 10
6267.0494843393
 20
5041.003736435
 10
6267.0134269486
 20
5041.4871894922
 10
6266.922510319
 20
5041.7100073974
 10
6266.8336482598
 20
5041.7915811259
 10
6266.7175038198
 20
5041.8219182532
  0
LWPOLYLINE
  5
432
330
1F
100
AcDbEntity
  8
0
  6
Continuous
 62
     7
370
    25
100
AcDbPolyline
 90
        5
 70
   128
 43
0.0
 10
6266.7296791445
 20
5040.1855546169
 10
6266.8432588439
 20
5040.2191823212
 10
6266.9273989433
 20
5040.3038512307
 10
6267.01426065
 20
5040.5256624528
 10
6267.0494843393
 20
5041.003736435
  0
LINE
  5
433
330
1F
100
AcDbEntity
  8
0
  6
Continuous
 62
     7
370
    25
100
AcDbLine
 10
6271.1882174616
 20
5047.8971839145
 30
0.0
 11
6270.3196095071
 21
5046.3155077781
 31
0.0
  0
LINE
  5
434
330
1F
100
AcDbEntity
  8
0
  6
Continuous
 62
     7
370
    25
100
AcDbLine
 10
6271.1882174616
 20
5046.3155077781
 30
0.0
 11
6271.1882174616
 21
5047.8971839145
 31
0.0
  0
LINE
  5
435
330
1F
100
AcDbEntity
  8
0
  6
Continuous
 62
     7
370
    25
100
AcDbLine
 10
6270.3196095071
 20
5046.3155077781
 30
0.0
 11
6271.1882174616
 21
5046.3155077781
 31
0.0
  0
LWPOLYLINE
  5
436
330
1F
100
AcDbEntity
  8
0
  6
Continuous
 62
     7
370
    25
100
AcDbPolyline
 90
        3
 70
   128
 43
0.0
 10
6269.6338999237
 20
5041.7955383831
 10
6269.5882531956
 20
5041.581898671
 10
6269.540961612
 20
5041.4168857857
  0
LWPOLYLINE
  5
437
330
1F
100
AcDbEntity
  8
0
  6
Continuous
 62
     7
370
    25
100
AcDbPolyline
 90
        3
 70
   128
 43
0.0
 10
6269.7475362873
 20
5041.3844182532
 10
6269.6805674174
 20
5041.6137368458
 10
6269.6338999237
 20
5041.7955383831
  0
LINE
  5
438
330
1F
100
AcDbEntity
  8
0
  6
Continuous
 62
     7
370
    25
100
AcDbLine
 10
6269.9147440795
 20
5040.8349052662
 30
0.0
 11
6269.7475362873
 21
5041.3844182532
 31
0.0
  0
LINE
  5
439
330
1F
100
AcDbEntity
  8
0
  6
Continuous
 62
     7
370
    25
100
AcDbLine
 10
6269.3526499237
 20
5040.8349052662
 30
0.0
 11
6269.9147440795
 21
5040.8349052662
 31
0.0
  0
LINE
  5
43A
330
1F
100
AcDbEntity
  8
0
  6
Continuous
 62
     7
370
    25
100
AcDbLine
 10
6269.540961612
 20
5041.4168857857
 30
0.0
 11
6269.3526499237
 21
5040.8349052662
 31
0.0
  0
LWPOLYLINE
  5
43B
330
1F
100
AcDbEntity
  8
0
  6
Continuous
 62
     7
370
    25
100
AcDbPolyline
 90
        3
 70
   128
 43
0.0
 10
6276.7864973263
 20
5041.3844182532
 10
6276.7195284564
 20
5041.6137368458
 10
6276.6728609626
 20
5041.7955383831
  0
LINE
  5
43C
330
1F
100
AcDbEntity
  8
0
  6
Continuous
 62
     7
370
    25
100
AcDbLine
 10
6276.9537051185
 20
5040.8349052662
 30
0.0
 11
6276.7864973263
 21
5041.3844182532
 31
0.0
  0
LINE
  5
43D
330
1F
100
AcDbEntity
  8
0
  6
Continuous
 62
     7
370
    25
100
AcDbLine
 10
6276.3916109626
 20
5040.8349052662
 30
0.0
 11
6276.9537051185
 21
5040.8349052662
 31
0.0
  0
LINE
  5
43E
330
1F
100
AcDbEntity
  8
0
  6
Continuous
 62
     7
370
    25
100
AcDbLine
 10
6276.5799226509
 20
5041.4168857857
 30
0.0
 11
6276.3916109626
 21
5040.8349052662
 31
0.0
  0
LWPOLYLINE
  5
43F
330
1F
100
AcDbEntity
  8
0
  6
Continuous
 62
     7
370
    25
100
AcDbPolyline
 90
        3
 70
   128
 43
0.0
 10
6276.6728609626
 20
5041.7955383831
 10
6276.6272142345
 20
5041.581898671
 10
6276.5799226509
 20
5041.4168857857
  0
LWPOLYLINE
  5
440
330
1F
100
AcDbEntity
  8
0
  6
Continuous
 62
     7
370
    25
100
AcDbPolyline
 90
        3
 70
   128
 43
0.0
 10
6271.6696142094
 20
5038.3844182532
 10
6271.6026453395
 20
5038.6137368458
 10
6271.5559778458
 20
5038.7955383831
  0
LINE
  5
441
330
1F
100
AcDbEntity
  8
0
  6
Continuous
 62
     7
370
    25
100
AcDbLine
 10
6271.8368220016
 20
5037.8349052662
 30
0.0
 11
6271.6696142094
 21
5038.3844182532
 31
0.0
  0
LINE
  5
442
330
1F
100
AcDbEntity
  8
0
  6
Continuous
 62
     7
370
    25
100
AcDbLine
 10
6271.2747278458
 20
5037.8349052662
 30
0.0
 11
6271.8368220016
 21
5037.8349052662
 31
0.0
  0
LINE
  5
443
330
1F
100
AcDbEntity
  8
0
  6
Continuous
 62
     7
370
    25
100
AcDbLine
 10
6271.4630395341
 20
5038.4168857857
 30
0.0
 11
6271.2747278458
 21
5037.8349052662
 31
0.0
  0
LWPOLYLINE
  5
444
330
1F
100
AcDbEntity
  8
0
  6
Continuous
 62
     7
370
    25
100
AcDbPolyline
 90
        3
 70
   128
 43
0.0
 10
6271.5559778458
 20
5038.7955383831
 10
6271.5103311177
 20
5038.581898671
 10
6271.4630395341
 20
5038.4168857857
  0
LINE
  5
445
330
1F
100
AcDbEntity
  8
0
  6
Continuous
 62
     7
370
    25
100
AcDbLine
 10
6265.5429908328
 20
5041.6348240974
 30
0.0
 11
6265.0466434302
 21
5040.7310091623
 31
0.0
  0
LINE
  5
446
330
1F
100
AcDbEntity
  8
0
  6
Continuous
 62
     7
370
    25
100
AcDbLine
 10
6265.5429908328
 20
5040.7310091623
 30
0.0
 11
6265.5429908328
 21
5041.6348240974
 31
0.0
  0
LINE
  5
447
330
1F
100
AcDbEntity
  8
0
  6
Continuous
 62
     7
370
    25
100
AcDbLine
 10
6265.0466434302
 20
5040.7310091623
 30
0.0
 11
6265.5429908328
 21
5040.7310091623
 31
0.0
  0
LINE
  5
448
330
1F
100
AcDbEntity
  8
0
  6
Continuous
 62
     7
370
    25
100
AcDbLine
 10
6263.0206694042
 20
5037.7310091623
 30
0.0
 11
6263.5170168068
 21
5037.7310091623
 31
0.0
  0
LINE
  5
449
330
1F
100
AcDbEntity
  8
0
  6
Continuous
 62
     7
370
    25
100
AcDbLine
 10
6263.5170168068
 20
5038.6348240974
 30
0.0
 11
6263.0206694042
 21
5037.7310091623
 31
0.0
  0
LINE
  5
44A
330
1F
100
AcDbEntity
  8
0
  6
Continuous
 62
     7
370
    25
100
AcDbLine
 10
6263.5170168068
 20
5037.7310091623
 30
0.0
 11
6263.5170168068
 21
5038.6348240974
 31
0.0
  0
LINE
  5
44B
330
1F
100
AcDbEntity
  8
0
  6
Continuous
 62
     7
370
    25
100
AcDbLine
 10
6299.5187553361
 20
5013.2373684246
 30
0.0
 11
6296.7752807008
 21
5013.2373684246
 31
0.0
  0
LINE
  5
44C
330
1F
100
AcDbEntity
  8
0
  6
Continuous
 62
     7
370
    25
100
AcDbLine
 10
6294.2752807008
 20
5013.2373684246
 30
0.0
 11
6296.7752807008
 21
5013.2373684246
 31
0.0
  0
LINE
  5
44D
330
1F
100
AcDbEntity
  8
0
  6
Continuous
 62
     7
370
    25
100
AcDbLine
 10
6294.2752807008
 20
5013.2373684246
 30
0.0
 11
6292.7752807008
 21
5013.2373684246
 31
0.0
  0
LINE
  5
44E
330
1F
100
AcDbEntity
  8
0
  6
Continuous
 62
     7
370
    25
100
AcDbLine
 10
6290.2752807008
 20
5013.2373684246
 30
0.0
 11
6292.7752807008
 21
5013.2373684246
 31
0.0
  0
LINE
  5
44F
330
1F
100
AcDbEntity
  8
0
  6
Continuous
 62
     7
370
    25
100
AcDbLine
 10
6290.2752807008
 20
5013.2373684246
 30
0.0
 11
6288.7752807008
 21
5013.2373684246
 31
0.0
  0
LINE
  5
450
330
1F
100
AcDbEntity
  8
0
  6
Continuous
 62
     7
370
    25
100
AcDbLine
 10
6286.2752807008
 20
5013.2373684246
 30
0.0
 11
6288.7752807008
 21
5013.2373684246
 31
0.0
  0
LINE
  5
451
330
1F
100
AcDbEntity
  8
0
  6
Continuous
 62
     7
370
    25
100
AcDbLine
 10
6286.2752807008
 20
5013.2373684246
 30
0.0
 11
6284.7752807008
 21
5013.2373684246
 31
0.0
  0
LINE
  5
452
330
1F
100
AcDbEntity
  8
0
  6
Continuous
 62
     7
370
    25
100
AcDbLine
 10
6282.2752807008
 20
5013.2373684246
 30
0.0
 11
6284.7752807008
 21
5013.2373684246
 31
0.0
  0
LINE
  5
453
330
1F
100
AcDbEntity
  8
0
  6
Continuous
 62
     7
370
    25
100
AcDbLine
 10
6282.2752807008
 20
5013.2373684246
 30
0.0
 11
6280.7752807008
 21
5013.2373684246
 31
0.0
  0
LINE
  5
454
330
1F
100
AcDbEntity
  8
0
  6
Continuous
 62
     7
370
    25
100
AcDbLine
 10
6278.2752807008
 20
5013.2373684246
 30
0.0
 11
6280.7752807008
 21
5013.2373684246
 31
0.0
  0
LINE
  5
455
330
1F
100
AcDbEntity
  8
0
  6
Continuous
 62
     7
370
    25
100
AcDbLine
 10
6278.2752807008
 20
5013.2373684246
 30
0.0
 11
6276.7752807008
 21
5013.2373684246
 31
0.0
  0
LINE
  5
456
330
1F
100
AcDbEntity
  8
0
  6
Continuous
 62
     7
370
    25
100
AcDbLine
 10
6274.2752807008
 20
5013.2373684246
 30
0.0
 11
6276.7752807008
 21
5013.2373684246
 31
0.0
  0
LINE
  5
457
330
1F
100
AcDbEntity
  8
0
  6
Continuous
 62
     7
370
    25
100
AcDbLine
 10
6274.2752807008
 20
5013.2373684246
 30
0.0
 11
6272.7752807008
 21
5013.2373684246
 31
0.0
  0
LINE
  5
458
330
1F
100
AcDbEntity
  8
0
  6
Continuous
 62
     7
370
    25
100
AcDbLine
 10
6270.2752807008
 20
5013.2373684246
 30
0.0
 11
6272.7752807008
 21
5013.2373684246
 31
0.0
  0
LINE
  5
459
330
1F
100
AcDbEntity
  8
0
  6
Continuous
 62
     7
370
    25
100
AcDbLine
 10
6270.2752807008
 20
5013.2373684246
 30
0.0
 11
6268.7752807008
 21
5013.2373684246
 31
0.0
  0
LINE
  5
45A
330
1F
100
AcDbEntity
  8
0
  6
Continuous
 62
     7
370
    25
100
AcDbLine
 10
6266.2752807008
 20
5013.2373684246
 30
0.0
 11
6268.7752807008
 21
5013.2373684246
 31
0.0
  0
LINE
  5
45B
330
1F
100
AcDbEntity
  8
0
  6
Continuous
 62
     7
370
    25
100
AcDbLine
 10
6266.2752807008
 20
5013.2373684246
 30
0.0
 11
6264.7752807008
 21
5013.2373684246
 31
0.0
  0
LINE
  5
45C
330
1F
100
AcDbEntity
  8
0
  6
Continuous
 62
     7
370
    25
100
AcDbLine
 10
6262.2752807008
 20
5013.2373684246
 30
0.0
 11
6264.7752807008
 21
5013.2373684246
 31
0.0
  0
LINE
  5
45D
330
1F
100
AcDbEntity
  8
0
  6
Continuous
 62
     7
370
    25
100
AcDbLine
 10
6262.2752807008
 20
5013.2373684246
 30
0.0
 11
6260.7752807008
 21
5013.2373684246
 31
0.0
  0
LINE
  5
45E
330
1F
100
AcDbEntity
  8
0
  6
Continuous
 62
     7
370
    25
100
AcDbLine
 10
6258.2752807008
 20
5013.2373684246
 30
0.0
 11
6260.7752807008
 21
5013.2373684246
 31
0.0
  0
LINE
  5
45F
330
1F
100
AcDbEntity
  8
0
  6
Continuous
 62
     7
370
    25
100
AcDbLine
 10
6258.2752807008
 20
5013.2373684246
 30
0.0
 11
6256.7752807008
 21
5013.2373684246
 31
0.0
  0
LINE
  5
460
330
1F
100
AcDbEntity
  8
0
  6
Continuous
 62
     7
370
    25
100
AcDbLine
 10
6254.2752807008
 20
5013.2373684246
 30
0.0
 11
6256.7752807008
 21
5013.2373684246
 31
0.0
  0
LINE
  5
461
330
1F
100
AcDbEntity
  8
0
  6
Continuous
 62
     7
370
    25
100
AcDbLine
 10
6254.2752807008
 20
5013.2373684246
 30
0.0
 11
6252.7752807008
 21
5013.2373684246
 31
0.0
  0
LINE
  5
462
330
1F
100
AcDbEntity
  8
0
  6
Continuous
 62
     7
370
    25
100
AcDbLine
 10
6250.5187553361
 20
5013.2373684246
 30
0.0
 11
6252.7752807008
 21
5013.2373684246
 31
0.0
  0
LINE
  5
463
330
1F
100
AcDbEntity
  8
0
  6
Continuous
 62
     7
370
    25
100
AcDbLine
 10
6250.5187553361
 20
5013.2373684246
 30
0.0
 11
6248.5187553361
 21
5013.2373684246
 31
0.0
  0
LINE
  5
464
330
1F
100
AcDbEntity
  8
0
  6
Continuous
 62
     7
370
    25
100
AcDbLine
 10
6299.5187553361
 20
5015.2373684246
 30
0.0
 11
6299.5187553361
 21
5013.2373684246
 31
0.0
  0
LINE
  5
465
330
1F
100
AcDbEntity
  8
0
  6
Continuous
 62
     7
370
    25
100
AcDbLine
 10
6248.5187553361
 20
5015.2373684246
 30
0.0
 11
6248.5187553361
 21
5013.2373684246
 31
0.0
  0
LINE
  5
466
330
1F
100
AcDbEntity
  8
0
  6
Continuous
 62
     7
370
    25
100
AcDbLine
 10
6299.5187553361
 20
5067.2373684246
 30
0.0
 11
6248.5187553361
 21
5067.2373684246
 31
0.0
  0
LINE
  5
467
330
1F
100
AcDbEntity
  8
0
  6
Continuous
 62
     7
370
    25
100
AcDbLine
 10
6299.5187553361
 20
5067.2373684246
 30
0.0
 11
6299.5187553361
 21
5058.2373684246
 31
0.0
  0
LINE
  5
468
330
1F
100
AcDbEntity
  8
0
  6
Continuous
 62
     7
370
    25
100
AcDbLine
 10
6248.5187553361
 20
5067.2373684246
 30
0.0
 11
6248.5187553361
 21
5058.2373684246
 31
0.0
  0
LINE
  5
469
330
1F
100
AcDbEntity
  8
0
  6
Continuous
 62
     7
370
    25
100
AcDbLine
 10
6299.5187553361
 20
5004.2373684246
 30
0.0
 11
6248.5187553361
 21
5004.2373684246
 31
0.0
  0
LINE
  5
46A
330
1F
100
AcDbEntity
  8
0
  6
Continuous
 62
     7
370
    25
100
AcDbLine
 10
6299.5187553361
 20
5013.2373684246
 30
0.0
 11
6299.5187553361
 21
5004.2373684246
 31
0.0
  0
LINE
  5
46B
330
1F
100
AcDbEntity
  8
0
  6
Continuous
 62
     7
370
    25
100
AcDbLine
 10
6248.5187553361
 20
5013.2373684246
 30
0.0
 11
6248.5187553361
 21
5004.2373684246
 31
0.0
  0
LINE
  5
46C
330
1F
100
AcDbEntity
  8
0
  6
Continuous
 62
     7
370
    25
100
AcDbLine
 10
6287.0187553361
 20
5080.4974279431
 30
0.0
 11
6283.0187553361
 21
5080.4974279431
 31
0.0
  0
LINE
  5
46D
330
1F
100
AcDbEntity
  8
0
  6
Continuous
 62
     7
370
    25
100
AcDbLine
 10
6283.0187553361
 20
5080.4974279431
 30
0.0
 11
6283.0187553361
 21
5080.3545708002
 31
0.0
  0
LINE
  5
46E
330
1F
100
AcDbEntity
  8
0
  6
Continuous
 62
     7
370
    25
100
AcDbLine
 10
6283.0187553361
 20
5080.3545708002
 30
0.0
 11
6287.0187553361
 21
5080.3545708002
 31
0.0
  0
LINE
  5
46F
330
1F
100
AcDbEntity
  8
0
  6
Continuous
 62
     7
370
    25
100
AcDbLine
 10
6287.0187553361
 20
5080.3545708002
 30
0.0
 11
6287.0187553361
 21
5080.4974279431
 31
0.0
  0
LINE
  5
470
330
1F
100
AcDbEntity
  8
0
  6
Continuous
 62
     7
370
    25
100
AcDbLine
 10
6276.0187553361
 20
5080.4974279431
 30
0.0
 11
6272.0187553361
 21
5080.4974279431
 31
0.0
  0
LINE
  5
471
330
1F
100
AcDbEntity
  8
0
  6
Continuous
 62
     7
370
    25
100
AcDbLine
 10
6272.0187553361
 20
5080.4974279431
 30
0.0
 11
6272.0187553361
 21
5080.3545708002
 31
0.0
  0
LINE
  5
472
330
1F
100
AcDbEntity
  8
0
  6
Continuous
 62
     7
370
    25
100
AcDbLine
 10
6272.0187553361
 20
5080.3545708002
 30
0.0
 11
6276.0187553361
 21
5080.3545708002
 31
0.0
  0
LINE
  5
473
330
1F
100
AcDbEntity
  8
0
  6
Continuous
 62
     7
370
    25
100
AcDbLine
 10
6276.0187553361
 20
5080.3545708002
 30
0.0
 11
6276.0187553361
 21
5080.4974279431
 31
0.0
  0
LINE
  5
474
330
1F
100
AcDbEntity
  8
0
  6
Continuous
 62
     7
370
    25
100
AcDbLine
 10
6299.5187553361
 20
5080.7373684246
 30
0.0
 11
6248.5187553361
 21
5080.7373684246
 31
0.0
  0
LINE
  5
475
330
1F
100
AcDbEntity
  8
0
  6
Continuous
 62
     7
370
    25
100
AcDbLine
 10
6299.5187553361
 20
5079.7373684246
 30
0.0
 11
6248.5187553361
 21
5079.7373684246
 31
0.0
  0
LINE
  5
476
330
1F
100
AcDbEntity
  8
0
  6
Continuous
 62
     7
370
    25
100
AcDbLine
 10
6297.5187553361
 20
5079.7945112818
 30
0.0
 11
6296.0187553361
 21
5079.7945112818
 31
0.0
  0
LINE
  5
477
330
1F
100
AcDbEntity
  8
0
  6
Continuous
 62
     7
370
    25
100
AcDbLine
 10
6296.0187553361
 20
5079.7945112818
 30
0.0
 11
6297.5187553361
 21
5079.8704814322
 31
0.0
  0
LINE
  5
478
330
1F
100
AcDbEntity
  8
0
  6
Continuous
 62
     7
370
    25
100
AcDbLine
 10
6262.5187553361
 20
5079.7945112818
 30
0.0
 11
6260.0187553361
 21
5079.7945112818
 31
0.0
  0
LINE
  5
479
330
1F
100
AcDbEntity
  8
0
  6
Continuous
 62
     7
370
    25
100
AcDbLine
 10
6270.134528442
 20
5080.1802255675
 30
0.0
 11
6262.5187553361
 21
5079.7945112818
 31
0.0
  0
LINE
  5
47A
330
1F
100
AcDbEntity
  8
0
  6
Continuous
 62
     7
370
    25
100
AcDbLine
 10
6267.634528442
 20
5080.1802255675
 30
0.0
 11
6270.134528442
 21
5080.1802255675
 31
0.0
  0
LINE
  5
47B
330
1F
100
AcDbEntity
  8
0
  6
Continuous
 62
     7
370
    25
100
AcDbLine
 10
6260.0187553361
 20
5079.7945112818
 30
0.0
 11
6267.634528442
 21
5080.1802255675
 31
0.0
  0
LINE
  5
47C
330
1F
100
AcDbEntity
  8
0
  6
Continuous
 62
     7
370
    25
100
AcDbLine
 10
6258.5187553361
 20
5079.7945112818
 30
0.0
 11
6256.0187553361
 21
5079.7945112818
 31
0.0
  0
LINE
  5
47D
330
1F
100
AcDbEntity
  8
0
  6
Continuous
 62
     7
370
    25
100
AcDbLine
 10
6266.134528442
 20
5080.1802255675
 30
0.0
 11
6258.5187553361
 21
5079.7945112818
 31
0.0
  0
LINE
  5
47E
330
1F
100
AcDbEntity
  8
0
  6
Continuous
 62
     7
370
    25
100
AcDbLine
 10
6263.634528442
 20
5080.1802255675
 30
0.0
 11
6266.134528442
 21
5080.1802255675
 31
0.0
  0
LINE
  5
47F
330
1F
100
AcDbEntity
  8
0
  6
Continuous
 62
     7
370
    25
100
AcDbLine
 10
6256.0187553361
 20
5079.7945112818
 30
0.0
 11
6263.634528442
 21
5080.1802255675
 31
0.0
  0
LINE
  5
480
330
1F
100
AcDbEntity
  8
0
  6
Continuous
 62
     7
370
    25
100
AcDbLine
 10
6270.5187553361
 20
5079.7945112818
 30
0.0
 11
6268.0187553361
 21
5079.7945112818
 31
0.0
  0
LINE
  5
481
330
1F
100
AcDbEntity
  8
0
  6
Continuous
 62
     7
370
    25
100
AcDbLine
 10
6278.134528442
 20
5080.1802255675
 30
0.0
 11
6270.5187553361
 21
5079.7945112818
 31
0.0
  0
LINE
  5
482
330
1F
100
AcDbEntity
  8
0
  6
Continuous
 62
     7
370
    25
100
AcDbLine
 10
6275.634528442
 20
5080.1802255675
 30
0.0
 11
6278.134528442
 21
5080.1802255675
 31
0.0
  0
LINE
  5
483
330
1F
100
AcDbEntity
  8
0
  6
Continuous
 62
     7
370
    25
100
AcDbLine
 10
6268.0187553361
 20
5079.7945112818
 30
0.0
 11
6275.634528442
 21
5080.1802255675
 31
0.0
  0
LINE
  5
484
330
1F
100
AcDbEntity
  8
0
  6
Continuous
 62
     7
370
    25
100
AcDbLine
 10
6266.5187553361
 20
5079.7945112818
 30
0.0
 11
6264.0187553361
 21
5079.7945112818
 31
0.0
  0
LINE
  5
485
330
1F
100
AcDbEntity
  8
0
  6
Continuous
 62
     7
370
    25
100
AcDbLine
 10
6274.134528442
 20
5080.1802255675
 30
0.0
 11
6266.5187553361
 21
5079.7945112818
 31
0.0
  0
LINE
  5
486
330
1F
100
AcDbEntity
  8
0
  6
Continuous
 62
     7
370
    25
100
AcDbLine
 10
6271.634528442
 20
5080.1802255675
 30
0.0
 11
6274.134528442
 21
5080.1802255675
 31
0.0
  0
LINE
  5
487
330
1F
100
AcDbEntity
  8
0
  6
Continuous
 62
     7
370
    25
100
AcDbLine
 10
6264.0187553361
 20
5079.7945112818
 30
0.0
 11
6271.634528442
 21
5080.1802255675
 31
0.0
  0
LINE
  5
488
330
1F
100
AcDbEntity
  8
0
  6
Continuous
 62
     7
370
    25
100
AcDbLine
 10
6254.5187553361
 20
5079.7945112818
 30
0.0
 11
6252.0187553361
 21
5079.7945112818
 31
0.0
  0
LINE
  5
489
330
1F
100
AcDbEntity
  8
0
  6
Continuous
 62
     7
370
    25
100
AcDbLine
 10
6262.134528442
 20
5080.1802255675
 30
0.0
 11
6254.5187553361
 21
5079.7945112818
 31
0.0
  0
LINE
  5
48A
330
1F
100
AcDbEntity
  8
0
  6
Continuous
 62
     7
370
    25
100
AcDbLine
 10
6259.634528442
 20
5080.1802255675
 30
0.0
 11
6262.134528442
 21
5080.1802255675
 31
0.0
  0
LINE
  5
48B
330
1F
100
AcDbEntity
  8
0
  6
Continuous
 62
     7
370
    25
100
AcDbLine
 10
6252.0187553361
 20
5079.7945112818
 30
0.0
 11
6259.634528442
 21
5080.1802255675
 31
0.0
  0
LINE
  5
48C
330
1F
100
AcDbEntity
  8
0
  6
Continuous
 62
     7
370
    25
100
AcDbLine
 10
6294.5187553361
 20
5079.7945112818
 30
0.0
 11
6292.0187553361
 21
5079.7945112818
 31
0.0
  0
LINE
  5
48D
330
1F
100
AcDbEntity
  8
0
  6
Continuous
 62
     7
370
    25
100
AcDbLine
 10
6297.5187553361
 20
5079.9464515826
 30
0.0
 11
6294.5187553361
 21
5079.7945112818
 31
0.0
  0
LINE
  5
48E
330
1F
100
AcDbEntity
  8
0
  6
Continuous
 62
     7
370
    25
100
AcDbLine
 10
6292.0187553361
 20
5079.7945112818
 30
0.0
 11
6297.5187553361
 21
5080.0730685
 31
0.0
  0
LINE
  5
48F
330
1F
100
AcDbEntity
  8
0
  6
Continuous
 62
     7
370
    25
100
AcDbLine
 10
6288.0187553361
 20
5079.7945112818
 30
0.0
 11
6295.634528442
 21
5080.1802255675
 31
0.0
  0
LINE
  5
490
330
1F
100
AcDbEntity
  8
0
  6
Continuous
 62
     7
370
    25
100
AcDbLine
 10
6290.5187553361
 20
5079.7945112818
 30
0.0
 11
6288.0187553361
 21
5079.7945112818
 31
0.0
  0
LINE
  5
491
330
1F
100
AcDbEntity
  8
0
  6
Continuous
 62
     7
370
    25
100
AcDbLine
 10
6297.5187553361
 20
5080.1490386505
 30
0.0
 11
6290.5187553361
 21
5079.7945112818
 31
0.0
  0
LINE
  5
492
330
1F
100
AcDbEntity
  8
0
  6
Continuous
 62
     7
370
    25
100
AcDbLine
 10
6295.634528442
 20
5080.1802255675
 30
0.0
 11
6297.5187553361
 21
5080.1802255675
 31
0.0
  0
LINE
  5
493
330
1F
100
AcDbEntity
  8
0
  6
Continuous
 62
     7
370
    25
100
AcDbLine
 10
6250.5187553361
 20
5080.123715267
 30
0.0
 11
6251.634528442
 21
5080.1802255675
 31
0.0
  0
LINE
  5
494
330
1F
100
AcDbEntity
  8
0
  6
Continuous
 62
     7
370
    25
100
AcDbLine
 10
6254.134528442
 20
5080.1802255675
 30
0.0
 11
6250.5187553361
 21
5079.9970983496
 31
0.0
  0
LINE
  5
495
330
1F
100
AcDbEntity
  8
0
  6
Continuous
 62
     7
370
    25
100
AcDbLine
 10
6251.634528442
 20
5080.1802255675
 30
0.0
 11
6254.134528442
 21
5080.1802255675
 31
0.0
  0
LINE
  5
496
330
1F
100
AcDbEntity
  8
0
  6
Continuous
 62
     7
370
    25
100
AcDbLine
 10
6255.634528442
 20
5080.1802255675
 30
0.0
 11
6258.134528442
 21
5080.1802255675
 31
0.0
  0
LINE
  5
497
330
1F
100
AcDbEntity
  8
0
  6
Continuous
 62
     7
370
    25
100
AcDbLine
 10
6250.5187553361
 20
5079.9211281992
 30
0.0
 11
6255.634528442
 21
5080.1802255675
 31
0.0
  0
LINE
  5
498
330
1F
100
AcDbEntity
  8
0
  6
Continuous
 62
     7
370
    25
100
AcDbLine
 10
6258.134528442
 20
5080.1802255675
 30
0.0
 11
6250.5187553361
 21
5079.7945112818
 31
0.0
  0
LINE
  5
499
330
1F
100
AcDbEntity
  8
0
  6
Continuous
 62
     7
370
    25
100
AcDbLine
 10
6278.5187553361
 20
5079.7945112818
 30
0.0
 11
6276.0187553361
 21
5079.7945112818
 31
0.0
  0
LINE
  5
49A
330
1F
100
AcDbEntity
  8
0
  6
Continuous
 62
     7
370
    25
100
AcDbLine
 10
6286.134528442
 20
5080.1802255675
 30
0.0
 11
6278.5187553361
 21
5079.7945112818
 31
0.0
  0
LINE
  5
49B
330
1F
100
AcDbEntity
  8
0
  6
Continuous
 62
     7
370
    25
100
AcDbLine
 10
6283.634528442
 20
5080.1802255675
 30
0.0
 11
6286.134528442
 21
5080.1802255675
 31
0.0
  0
LINE
  5
49C
330
1F
100
AcDbEntity
  8
0
  6
Continuous
 62
     7
370
    25
100
AcDbLine
 10
6276.0187553361
 20
5079.7945112818
 30
0.0
 11
6283.634528442
 21
5080.1802255675
 31
0.0
  0
LINE
  5
49D
330
1F
100
AcDbEntity
  8
0
  6
Continuous
 62
     7
370
    25
100
AcDbLine
 10
6274.5187553361
 20
5079.7945112818
 30
0.0
 11
6272.0187553361
 21
5079.7945112818
 31
0.0
  0
LINE
  5
49E
330
1F
100
AcDbEntity
  8
0
  6
Continuous
 62
     7
370
    25
100
AcDbLine
 10
6282.134528442
 20
5080.1802255675
 30
0.0
 11
6274.5187553361
 21
5079.7945112818
 31
0.0
  0
LINE
  5
49F
330
1F
100
AcDbEntity
  8
0
  6
Continuous
 62
     7
370
    25
100
AcDbLine
 10
6279.634528442
 20
5080.1802255675
 30
0.0
 11
6282.134528442
 21
5080.1802255675
 31
0.0
  0
LINE
  5
4A0
330
1F
100
AcDbEntity
  8
0
  6
Continuous
 62
     7
370
    25
100
AcDbLine
 10
6272.0187553361
 20
5079.7945112818
 30
0.0
 11
6279.634528442
 21
5080.1802255675
 31
0.0
  0
LINE
  5
4A1
330
1F
100
AcDbEntity
  8
0
  6
Continuous
 62
     7
370
    25
100
AcDbLine
 10
6286.5187553361
 20
5079.7945112818
 30
0.0
 11
6284.0187553361
 21
5079.7945112818
 31
0.0
  0
LINE
  5
4A2
330
1F
100
AcDbEntity
  8
0
  6
Continuous
 62
     7
370
    25
100
AcDbLine
 10
6294.134528442
 20
5080.1802255675
 30
0.0
 11
6286.5187553361
 21
5079.7945112818
 31
0.0
  0
LINE
  5
4A3
330
1F
100
AcDbEntity
  8
0
  6
Continuous
 62
     7
370
    25
100
AcDbLine
 10
6291.634528442
 20
5080.1802255675
 30
0.0
 11
6294.134528442
 21
5080.1802255675
 31
0.0
  0
LINE
  5
4A4
330
1F
100
AcDbEntity
  8
0
  6
Continuous
 62
     7
370
    25
100
AcDbLine
 10
6284.0187553361
 20
5079.7945112818
 30
0.0
 11
6291.634528442
 21
5080.1802255675
 31
0.0
  0
LINE
  5
4A5
330
1F
100
AcDbEntity
  8
0
  6
Continuous
 62
     7
370
    25
100
AcDbLine
 10
6282.5187553361
 20
5079.7945112818
 30
0.0
 11
6280.0187553361
 21
5079.7945112818
 31
0.0
  0
LINE
  5
4A6
330
1F
100
AcDbEntity
  8
0
  6
Continuous
 62
     7
370
    25
100
AcDbLine
 10
6290.134528442
 20
5080.1802255675
 30
0.0
 11
6282.5187553361
 21
5079.7945112818
 31
0.0
  0
LINE
  5
4A7
330
1F
100
AcDbEntity
  8
0
  6
Continuous
 62
     7
370
    25
100
AcDbLine
 10
6287.634528442
 20
5080.1802255675
 30
0.0
 11
6290.134528442
 21
5080.1802255675
 31
0.0
  0
LINE
  5
4A8
330
1F
100
AcDbEntity
  8
0
  6
Continuous
 62
     7
370
    25
100
AcDbLine
 10
6280.0187553361
 20
5079.7945112818
 30
0.0
 11
6287.634528442
 21
5080.1802255675
 31
0.0
  0
LINE
  5
4A9
330
1F
100
AcDbEntity
  8
0
  6
Continuous
 62
     7
370
    25
100
AcDbLine
 10
6270.5187553361
 20
5080.4974279431
 30
0.0
 11
6266.5187553361
 21
5080.4974279431
 31
0.0
  0
LINE
  5
4AA
330
1F
100
AcDbEntity
  8
0
  6
Continuous
 62
     7
370
    25
100
AcDbLine
 10
6266.5187553361
 20
5080.4974279431
 30
0.0
 11
6266.5187553361
 21
5080.3545708002
 31
0.0
  0
LINE
  5
4AB
330
1F
100
AcDbEntity
  8
0
  6
Continuous
 62
     7
370
    25
100
AcDbLine
 10
6266.5187553361
 20
5080.3545708002
 30
0.0
 11
6270.5187553361
 21
5080.3545708002
 31
0.0
  0
LINE
  5
4AC
330
1F
100
AcDbEntity
  8
0
  6
Continuous
 62
     7
370
    25
100
AcDbLine
 10
6270.5187553361
 20
5080.3545708002
 30
0.0
 11
6270.5187553361
 21
5080.4974279431
 31
0.0
  0
LINE
  5
4AD
330
1F
100
AcDbEntity
  8
0
  6
Continuous
 62
     7
370
    25
100
AcDbLine
 10
6281.5187553361
 20
5080.4974279431
 30
0.0
 11
6277.5187553361
 21
5080.4974279431
 31
0.0
  0
LINE
  5
4AE
330
1F
100
AcDbEntity
  8
0
  6
Continuous
 62
     7
370
    25
100
AcDbLine
 10
6277.5187553361
 20
5080.4974279431
 30
0.0
 11
6277.5187553361
 21
5080.3545708002
 31
0.0
  0
LINE
  5
4AF
330
1F
100
AcDbEntity
  8
0
  6
Continuous
 62
     7
370
    25
100
AcDbLine
 10
6277.5187553361
 20
5080.3545708002
 30
0.0
 11
6281.5187553361
 21
5080.3545708002
 31
0.0
  0
LINE
  5
4B0
330
1F
100
AcDbEntity
  8
0
  6
Continuous
 62
     7
370
    25
100
AcDbLine
 10
6281.5187553361
 20
5080.3545708002
 30
0.0
 11
6281.5187553361
 21
5080.4974279431
 31
0.0
  0
LINE
  5
4B1
330
1F
100
AcDbEntity
  8
0
  6
Continuous
 62
     7
370
    25
100
AcDbLine
 10
6250.5187553361
 20
5079.7945112818
 30
0.0
 11
6250.5187553361
 21
5079.9211281992
 31
0.0
  0
LINE
  5
4B2
330
1F
100
AcDbEntity
  8
0
  6
Continuous
 62
     7
370
    25
100
AcDbLine
 10
6250.5187553361
 20
5079.9970983496
 30
0.0
 11
6250.5187553361
 21
5080.123715267
 31
0.0
  0
LINE
  5
4B3
330
1F
100
AcDbEntity
  8
0
  6
Continuous
 62
     7
370
    25
100
AcDbLine
 10
6297.5187553361
 20
5080.1802255675
 30
0.0
 11
6297.5187553361
 21
5080.1490386505
 31
0.0
  0
LINE
  5
4B4
330
1F
100
AcDbEntity
  8
0
  6
Continuous
 62
     7
370
    25
100
AcDbLine
 10
6297.5187553361
 20
5080.0730685
 30
0.0
 11
6297.5187553361
 21
5079.9464515826
 31
0.0
  0
LINE
  5
4B5
330
1F
100
AcDbEntity
  8
0
  6
Continuous
 62
     7
370
    25
100
AcDbLine
 10
6297.5187553361
 20
5079.8704814322
 30
0.0
 11
6297.5187553361
 21
5079.7945112818
 31
0.0
  0
LINE
  5
4B6
330
1F
100
AcDbEntity
  8
0
  6
Continuous
 62
     7
370
    25
100
AcDbLine
 10
6299.5187553361
 20
5080.7373684246
 30
0.0
 11
6299.5187553361
 21
5079.7373684246
 31
0.0
  0
LINE
  5
4B7
330
1F
100
AcDbEntity
  8
0
  6
Continuous
 62
     7
370
    25
100
AcDbLine
 10
6248.5187553361
 20
5080.7373684246
 30
0.0
 11
6248.5187553361
 21
5079.7373684246
 31
0.0
  0
CIRCLE
  5
4B8
330
1F
100
AcDbEntity
  8
0
  6
Continuous
 62
     7
370
    25
100
AcDbCircle
 10
6292.5187553361
 20
5073.7373684246
 30
0.0
 40
2.5
  0
ARC
  5
4B9
330
1F
100
AcDbEntity
  8
0
  6
Continuous
 62
     7
370
    25
100
AcDbCircle
 10
6279.5187553361
 20
5073.4873684246
 30
0.0
 40
2.500000000000154
100
AcDbArc
 50
203.5781784782
 51
336.4218215218
  0
ARC
  5
4BA
330
1F
100
AcDbEntity
  8
0
  6
Continuous
 62
     7
370
    25
100
AcDbCircle
 10
6282.2687553361
 20
5072.2871700283
 30
0.0
 40
0.5004959907456792
100
AcDbArc
 50
23.5781784782
 51
156.4218215218
  0
ARC
  5
4BB
330
1F
100
AcDbEntity
  8
0
  6
Continuous
 62
     7
370
    25
100
AcDbCircle
 10
6285.0187553361
 20
5073.4873684246
 30
0.0
 40
2.500000000000154
100
AcDbArc
 50
203.5781784782
 51
156.4218215218
  0
ARC
  5
4BC
330
1F
100
AcDbEntity
  8
0
  6
Continuous
 62
     7
370
    25
100
AcDbCircle
 10
6282.2687553361
 20
5074.6875668209
 30
0.0
 40
0.5004959907453154
100
AcDbArc
 50
203.5781784781
 51
336.4218215219
  0
ARC
  5
4BD
330
1F
100
AcDbEntity
  8
0
  6
Continuous
 62
     7
370
    25
100
AcDbCircle
 10
6279.5187553361
 20
5073.4873684246
 30
0.0
 40
2.500000000000154
100
AcDbArc
 50
23.5781784782
 51
156.4218215218
  0
ARC
  5
4BE
330
1F
100
AcDbEntity
  8
0
  6
Continuous
 62
     7
370
    25
100
AcDbCircle
 10
6276.7687553361
 20
5074.6875668209
 30
0.0
 40
0.5004959907444818
100
AcDbArc
 50
203.5781784781
 51
336.4218215219
  0
ARC
  5
4BF
330
1F
100
AcDbEntity
  8
0
  6
Continuous
 62
     7
370
    25
100
AcDbCircle
 10
6274.0187553361
 20
5073.4873684246
 30
0.0
 40
2.500000000000154
100
AcDbArc
 50
23.5781784782
 51
156.4218215218
  0
ARC
  5
4C0
330
1F
100
AcDbEntity
  8
0
  6
Continuous
 62
     7
370
    25
100
AcDbCircle
 10
6271.2687553361
 20
5074.6875668209
 30
0.0
 40
0.5004959907444818
100
AcDbArc
 50
203.5781784781
 51
336.4218215219
  0
ARC
  5
4C1
330
1F
100
AcDbEntity
  8
0
  6
Continuous
 62
     7
370
    25
100
AcDbCircle
 10
6268.5187553361
 20
5073.4873684246
 30
0.0
 40
2.500000000000154
100
AcDbArc
 50
23.5781784782
 51
336.4218215218
  0
ARC
  5
4C2
330
1F
100
AcDbEntity
  8
0
  6
Continuous
 62
     7
370
    25
100
AcDbCircle
 10
6271.2687553361
 20
5072.2871700283
 30
0.0
 40
0.5004959907448455
100
AcDbArc
 50
23.5781784782
 51
156.4218215218
  0
ARC
  5
4C3
330
1F
100
AcDbEntity
  8
0
  6
Continuous
 62
     7
370
    25
100
AcDbCircle
 10
6274.0187553361
 20
5073.4873684246
 30
0.0
 40
2.500000000000154
100
AcDbArc
 50
203.5781784782
 51
336.4218215218
  0
ARC
  5
4C4
330
1F
100
AcDbEntity
  8
0
  6
Continuous
 62
     7
370
    25
100
AcDbCircle
 10
6276.7687553361
 20
5072.2871700283
 30
0.0
 40
0.5004959907448455
100
AcDbArc
 50
23.5781784782
 51
156.4218215218
  0
LINE
  5
4C5
330
1F
100
AcDbEntity
  8
0
  6
Continuous
 62
     7
370
    25
100
AcDbLine
 10
6299.5187553361
 20
5079.7373684246
 30
0.0
 11
6299.5187553361
 21
5067.2373684246
 31
0.0
  0
LINE
  5
4C6
330
1F
100
AcDbEntity
  8
0
  6
Continuous
 62
     7
370
    25
100
AcDbLine
 10
6248.5187553361
 20
5079.7373684246
 30
0.0
 11
6248.5187553361
 21
5067.2373684246
 31
0.0
  0
CIRCLE
  5
4C7
330
1F
100
AcDbEntity
  8
0
  6
Continuous
 62
     7
370
    25
100
AcDbCircle
 10
6259.0187553361
 20
4997.9873684246
 30
0.0
 40
2.5
  0
CIRCLE
  5
4C8
330
1F
100
AcDbEntity
  8
0
  6
Continuous
 62
     7
370
    25
100
AcDbCircle
 10
6269.0187553361
 20
4997.9873684246
 30
0.0
 40
2.5
  0
LINE
  5
4C9
330
1F
100
AcDbEntity
  8
0
  6
Continuous
 62
     7
370
    25
100
AcDbLine
 10
6299.5187553361
 20
4991.7373684246
 30
0.0
 11
6248.5187553361
 21
4991.7373684246
 31
0.0
  0
LINE
  5
4CA
330
1F
100
AcDbEntity
  8
0
  6
Continuous
 62
     7
370
    25
100
AcDbLine
 10
6299.5187553361
 20
5004.2373684246
 30
0.0
 11
6299.5187553361
 21
4991.7373684246
 31
0.0
  0
LINE
  5
4CB
330
1F
100
AcDbEntity
  8
0
  6
Continuous
 62
     7
370
    25
100
AcDbLine
 10
6248.5187553361
 20
5004.2373684246
 30
0.0
 11
6248.5187553361
 21
4991.7373684246
 31
0.0
  0
LINE
  5
4CC
330
1F
100
AcDbEntity
  8
0
  6
Continuous
 62
     7
370
    25
100
AcDbLine
 10
6263.2687553361
 20
4990.7373684246
 30
0.0
 11
6263.2687553361
 21
4990.8445112818
 31
0.0
  0
LINE
  5
4CD
330
1F
100
AcDbEntity
  8
0
  6
Continuous
 62
     7
370
    25
100
AcDbLine
 10
6263.2687553361
 20
4990.7373684246
 30
0.0
 11
6248.5187553361
 21
4990.7373684246
 31
0.0
  0
LINE
  5
4CE
330
1F
100
AcDbEntity
  8
0
  6
Continuous
 62
     7
370
    25
100
AcDbLine
 10
6299.5187553361
 20
4990.7373684246
 30
0.0
 11
6284.7687553361
 21
4990.7373684246
 31
0.0
  0
LINE
  5
4CF
330
1F
100
AcDbEntity
  8
0
  6
Continuous
 62
     7
370
    25
100
AcDbLine
 10
6284.7687553361
 20
4990.8445112818
 30
0.0
 11
6284.7687553361
 21
4990.7373684246
 31
0.0
  0
LINE
  5
4D0
330
1F
100
AcDbEntity
  8
0
  6
Continuous
 62
     7
370
    25
100
AcDbLine
 10
6284.2687553361
 20
4990.8445112818
 30
0.0
 11
6284.7687553361
 21
4990.8445112818
 31
0.0
  0
LINE
  5
4D1
330
1F
100
AcDbEntity
  8
0
  6
Continuous
 62
     7
370
    25
100
AcDbLine
 10
6263.7687553361
 20
4990.8445112818
 30
0.0
 11
6284.2687553361
 21
4990.8445112818
 31
0.0
  0
LINE
  5
4D2
330
1F
100
AcDbEntity
  8
0
  6
Continuous
 62
     7
370
    25
100
AcDbLine
 10
6263.2687553361
 20
4990.8445112818
 30
0.0
 11
6263.7687553361
 21
4990.8445112818
 31
0.0
  0
LINE
  5
4D3
330
1F
100
AcDbEntity
  8
0
  6
Continuous
 62
     7
370
    25
100
AcDbLine
 10
6297.5187553361
 20
4991.604255417
 30
0.0
 11
6296.0187553361
 21
4991.6802255675
 31
0.0
  0
LINE
  5
4D4
330
1F
100
AcDbEntity
  8
0
  6
Continuous
 62
     7
370
    25
100
AcDbLine
 10
6296.0187553361
 20
4991.6802255675
 30
0.0
 11
6297.5187553361
 21
4991.6802255675
 31
0.0
  0
LINE
  5
4D5
330
1F
100
AcDbEntity
  8
0
  6
Continuous
 62
     7
370
    25
100
AcDbLine
 10
6260.0187553361
 20
4991.6802255675
 30
0.0
 11
6262.5187553361
 21
4991.6802255675
 31
0.0
  0
LINE
  5
4D6
330
1F
100
AcDbEntity
  8
0
  6
Continuous
 62
     7
370
    25
100
AcDbLine
 10
6267.634528442
 20
4991.2945112818
 30
0.0
 11
6260.0187553361
 21
4991.6802255675
 31
0.0
  0
LINE
  5
4D7
330
1F
100
AcDbEntity
  8
0
  6
Continuous
 62
     7
370
    25
100
AcDbLine
 10
6270.134528442
 20
4991.2945112818
 30
0.0
 11
6267.634528442
 21
4991.2945112818
 31
0.0
  0
LINE
  5
4D8
330
1F
100
AcDbEntity
  8
0
  6
Continuous
 62
     7
370
    25
100
AcDbLine
 10
6262.5187553361
 20
4991.6802255675
 30
0.0
 11
6270.134528442
 21
4991.2945112818
 31
0.0
  0
LINE
  5
4D9
330
1F
100
AcDbEntity
  8
0
  6
Continuous
 62
     7
370
    25
100
AcDbLine
 10
6256.0187553361
 20
4991.6802255675
 30
0.0
 11
6258.5187553361
 21
4991.6802255675
 31
0.0
  0
LINE
  5
4DA
330
1F
100
AcDbEntity
  8
0
  6
Continuous
 62
     7
370
    25
100
AcDbLine
 10
6263.634528442
 20
4991.2945112818
 30
0.0
 11
6256.0187553361
 21
4991.6802255675
 31
0.0
  0
LINE
  5
4DB
330
1F
100
AcDbEntity
  8
0
  6
Continuous
 62
     7
370
    25
100
AcDbLine
 10
6266.134528442
 20
4991.2945112818
 30
0.0
 11
6263.634528442
 21
4991.2945112818
 31
0.0
  0
LINE
  5
4DC
330
1F
100
AcDbEntity
  8
0
  6
Continuous
 62
     7
370
    25
100
AcDbLine
 10
6258.5187553361
 20
4991.6802255675
 30
0.0
 11
6266.134528442
 21
4991.2945112818
 31
0.0
  0
LINE
  5
4DD
330
1F
100
AcDbEntity
  8
0
  6
Continuous
 62
     7
370
    25
100
AcDbLine
 10
6268.0187553361
 20
4991.6802255675
 30
0.0
 11
6270.5187553361
 21
4991.6802255675
 31
0.0
  0
LINE
  5
4DE
330
1F
100
AcDbEntity
  8
0
  6
Continuous
 62
     7
370
    25
100
AcDbLine
 10
6275.634528442
 20
4991.2945112818
 30
0.0
 11
6268.0187553361
 21
4991.6802255675
 31
0.0
  0
LINE
  5
4DF
330
1F
100
AcDbEntity
  8
0
  6
Continuous
 62
     7
370
    25
100
AcDbLine
 10
6278.134528442
 20
4991.2945112818
 30
0.0
 11
6275.634528442
 21
4991.2945112818
 31
0.0
  0
LINE
  5
4E0
330
1F
100
AcDbEntity
  8
0
  6
Continuous
 62
     7
370
    25
100
AcDbLine
 10
6270.5187553361
 20
4991.6802255675
 30
0.0
 11
6278.134528442
 21
4991.2945112818
 31
0.0
  0
LINE
  5
4E1
330
1F
100
AcDbEntity
  8
0
  6
Continuous
 62
     7
370
    25
100
AcDbLine
 10
6264.0187553361
 20
4991.6802255675
 30
0.0
 11
6266.5187553361
 21
4991.6802255675
 31
0.0
  0
LINE
  5
4E2
330
1F
100
AcDbEntity
  8
0
  6
Continuous
 62
     7
370
    25
100
AcDbLine
 10
6271.634528442
 20
4991.2945112818
 30
0.0
 11
6264.0187553361
 21
4991.6802255675
 31
0.0
  0
LINE
  5
4E3
330
1F
100
AcDbEntity
  8
0
  6
Continuous
 62
     7
370
    25
100
AcDbLine
 10
6274.134528442
 20
4991.2945112818
 30
0.0
 11
6271.634528442
 21
4991.2945112818
 31
0.0
  0
LINE
  5
4E4
330
1F
100
AcDbEntity
  8
0
  6
Continuous
 62
     7
370
    25
100
AcDbLine
 10
6266.5187553361
 20
4991.6802255675
 30
0.0
 11
6274.134528442
 21
4991.2945112818
 31
0.0
  0
LINE
  5
4E5
330
1F
100
AcDbEntity
  8
0
  6
Continuous
 62
     7
370
    25
100
AcDbLine
 10
6252.0187553361
 20
4991.6802255675
 30
0.0
 11
6254.5187553361
 21
4991.6802255675
 31
0.0
  0
LINE
  5
4E6
330
1F
100
AcDbEntity
  8
0
  6
Continuous
 62
     7
370
    25
100
AcDbLine
 10
6259.634528442
 20
4991.2945112818
 30
0.0
 11
6252.0187553361
 21
4991.6802255675
 31
0.0
  0
LINE
  5
4E7
330
1F
100
AcDbEntity
  8
0
  6
Continuous
 62
     7
370
    25
100
AcDbLine
 10
6262.134528442
 20
4991.2945112818
 30
0.0
 11
6259.634528442
 21
4991.2945112818
 31
0.0
  0
LINE
  5
4E8
330
1F
100
AcDbEntity
  8
0
  6
Continuous
 62
     7
370
    25
100
AcDbLine
 10
6254.5187553361
 20
4991.6802255675
 30
0.0
 11
6262.134528442
 21
4991.2945112818
 31
0.0
  0
LINE
  5
4E9
330
1F
100
AcDbEntity
  8
0
  6
Continuous
 62
     7
370
    25
100
AcDbLine
 10
6292.0187553361
 20
4991.6802255675
 30
0.0
 11
6294.5187553361
 21
4991.6802255675
 31
0.0
  0
LINE
  5
4EA
330
1F
100
AcDbEntity
  8
0
  6
Continuous
 62
     7
370
    25
100
AcDbLine
 10
6297.5187553361
 20
4991.4016683492
 30
0.0
 11
6292.0187553361
 21
4991.6802255675
 31
0.0
  0
LINE
  5
4EB
330
1F
100
AcDbEntity
  8
0
  6
Continuous
 62
     7
370
    25
100
AcDbLine
 10
6294.5187553361
 20
4991.6802255675
 30
0.0
 11
6297.5187553361
 21
4991.5282852666
 31
0.0
  0
LINE
  5
4EC
330
1F
100
AcDbEntity
  8
0
  6
Continuous
 62
     7
370
    25
100
AcDbLine
 10
6288.0187553361
 20
4991.6802255675
 30
0.0
 11
6290.5187553361
 21
4991.6802255675
 31
0.0
  0
LINE
  5
4ED
330
1F
100
AcDbEntity
  8
0
  6
Continuous
 62
     7
370
    25
100
AcDbLine
 10
6295.634528442
 20
4991.2945112818
 30
0.0
 11
6288.0187553361
 21
4991.6802255675
 31
0.0
  0
LINE
  5
4EE
330
1F
100
AcDbEntity
  8
0
  6
Continuous
 62
     7
370
    25
100
AcDbLine
 10
6297.5187553361
 20
4991.2945112818
 30
0.0
 11
6295.634528442
 21
4991.2945112818
 31
0.0
  0
LINE
  5
4EF
330
1F
100
AcDbEntity
  8
0
  6
Continuous
 62
     7
370
    25
100
AcDbLine
 10
6290.5187553361
 20
4991.6802255675
 30
0.0
 11
6297.5187553361
 21
4991.3256981988
 31
0.0
  0
LINE
  5
4F0
330
1F
100
AcDbEntity
  8
0
  6
Continuous
 62
     7
370
    25
100
AcDbLine
 10
6251.634528442
 20
4991.2945112818
 30
0.0
 11
6250.5187553361
 21
4991.3510215822
 31
0.0
  0
LINE
  5
4F1
330
1F
100
AcDbEntity
  8
0
  6
Continuous
 62
     7
370
    25
100
AcDbLine
 10
6254.134528442
 20
4991.2945112818
 30
0.0
 11
6251.634528442
 21
4991.2945112818
 31
0.0
  0
LINE
  5
4F2
330
1F
100
AcDbEntity
  8
0
  6
Continuous
 62
     7
370
    25
100
AcDbLine
 10
6250.5187553361
 20
4991.4776384996
 30
0.0
 11
6254.134528442
 21
4991.2945112818
 31
0.0
  0
LINE
  5
4F3
330
1F
100
AcDbEntity
  8
0
  6
Continuous
 62
     7
370
    25
100
AcDbLine
 10
6258.134528442
 20
4991.2945112818
 30
0.0
 11
6255.634528442
 21
4991.2945112818
 31
0.0
  0
LINE
  5
4F4
330
1F
100
AcDbEntity
  8
0
  6
Continuous
 62
     7
370
    25
100
AcDbLine
 10
6250.5187553361
 20
4991.6802255675
 30
0.0
 11
6258.134528442
 21
4991.2945112818
 31
0.0
  0
LINE
  5
4F5
330
1F
100
AcDbEntity
  8
0
  6
Continuous
 62
     7
370
    25
100
AcDbLine
 10
6255.634528442
 20
4991.2945112818
 30
0.0
 11
6250.5187553361
 21
4991.5536086501
 31
0.0
  0
LINE
  5
4F6
330
1F
100
AcDbEntity
  8
0
  6
Continuous
 62
     7
370
    25
100
AcDbLine
 10
6276.0187553361
 20
4991.6802255675
 30
0.0
 11
6278.5187553361
 21
4991.6802255675
 31
0.0
  0
LINE
  5
4F7
330
1F
100
AcDbEntity
  8
0
  6
Continuous
 62
     7
370
    25
100
AcDbLine
 10
6283.634528442
 20
4991.2945112818
 30
0.0
 11
6276.0187553361
 21
4991.6802255675
 31
0.0
  0
LINE
  5
4F8
330
1F
100
AcDbEntity
  8
0
  6
Continuous
 62
     7
370
    25
100
AcDbLine
 10
6286.134528442
 20
4991.2945112818
 30
0.0
 11
6283.634528442
 21
4991.2945112818
 31
0.0
  0
LINE
  5
4F9
330
1F
100
AcDbEntity
  8
0
  6
Continuous
 62
     7
370
    25
100
AcDbLine
 10
6278.5187553361
 20
4991.6802255675
 30
0.0
 11
6286.134528442
 21
4991.2945112818
 31
0.0
  0
LINE
  5
4FA
330
1F
100
AcDbEntity
  8
0
  6
Continuous
 62
     7
370
    25
100
AcDbLine
 10
6272.0187553361
 20
4991.6802255675
 30
0.0
 11
6274.5187553361
 21
4991.6802255675
 31
0.0
  0
LINE
  5
4FB
330
1F
100
AcDbEntity
  8
0
  6
Continuous
 62
     7
370
    25
100
AcDbLine
 10
6279.634528442
 20
4991.2945112818
 30
0.0
 11
6272.0187553361
 21
4991.6802255675
 31
0.0
  0
LINE
  5
4FC
330
1F
100
AcDbEntity
  8
0
  6
Continuous
 62
     7
370
    25
100
AcDbLine
 10
6282.134528442
 20
4991.2945112818
 30
0.0
 11
6279.634528442
 21
4991.2945112818
 31
0.0
  0
LINE
  5
4FD
330
1F
100
AcDbEntity
  8
0
  6
Continuous
 62
     7
370
    25
100
AcDbLine
 10
6274.5187553361
 20
4991.6802255675
 30
0.0
 11
6282.134528442
 21
4991.2945112818
 31
0.0
  0
LINE
  5
4FE
330
1F
100
AcDbEntity
  8
0
  6
Continuous
 62
     7
370
    25
100
AcDbLine
 10
6284.0187553361
 20
4991.6802255675
 30
0.0
 11
6286.5187553361
 21
4991.6802255675
 31
0.0
  0
LINE
  5
4FF
330
1F
100
AcDbEntity
  8
0
  6
Continuous
 62
     7
370
    25
100
AcDbLine
 10
6291.634528442
 20
4991.2945112818
 30
0.0
 11
6284.0187553361
 21
4991.6802255675
 31
0.0
  0
LINE
  5
500
330
1F
100
AcDbEntity
  8
0
  6
Continuous
 62
     7
370
    25
100
AcDbLine
 10
6294.134528442
 20
4991.2945112818
 30
0.0
 11
6291.634528442
 21
4991.2945112818
 31
0.0
  0
LINE
  5
501
330
1F
100
AcDbEntity
  8
0
  6
Continuous
 62
     7
370
    25
100
AcDbLine
 10
6286.5187553361
 20
4991.6802255675
 30
0.0
 11
6294.134528442
 21
4991.2945112818
 31
0.0
  0
LINE
  5
502
330
1F
100
AcDbEntity
  8
0
  6
Continuous
 62
     7
370
    25
100
AcDbLine
 10
6280.0187553361
 20
4991.6802255675
 30
0.0
 11
6282.5187553361
 21
4991.6802255675
 31
0.0
  0
LINE
  5
503
330
1F
100
AcDbEntity
  8
0
  6
Continuous
 62
     7
370
    25
100
AcDbLine
 10
6287.634528442
 20
4991.2945112818
 30
0.0
 11
6280.0187553361
 21
4991.6802255675
 31
0.0
  0
LINE
  5
504
330
1F
100
AcDbEntity
  8
0
  6
Continuous
 62
     7
370
    25
100
AcDbLine
 10
6290.134528442
 20
4991.2945112818
 30
0.0
 11
6287.634528442
 21
4991.2945112818
 31
0.0
  0
LINE
  5
505
330
1F
100
AcDbEntity
  8
0
  6
Continuous
 62
     7
370
    25
100
AcDbLine
 10
6282.5187553361
 20
4991.6802255675
 30
0.0
 11
6290.134528442
 21
4991.2945112818
 31
0.0
  0
LINE
  5
506
330
1F
100
AcDbEntity
  8
0
  6
Continuous
 62
     7
370
    25
100
AcDbLine
 10
6271.0187553361
 20
4991.118700562
 30
0.0
 11
6271.0187553361
 21
4990.9758434192
 31
0.0
  0
LINE
  5
507
330
1F
100
AcDbEntity
  8
0
  6
Continuous
 62
     7
370
    25
100
AcDbLine
 10
6267.0187553361
 20
4991.118700562
 30
0.0
 11
6271.0187553361
 21
4991.118700562
 31
0.0
  0
LINE
  5
508
330
1F
100
AcDbEntity
  8
0
  6
Continuous
 62
     7
370
    25
100
AcDbLine
 10
6267.0187553361
 20
4990.9758434192
 30
0.0
 11
6267.0187553361
 21
4991.118700562
 31
0.0
  0
LINE
  5
509
330
1F
100
AcDbEntity
  8
0
  6
Continuous
 62
     7
370
    25
100
AcDbLine
 10
6271.0187553361
 20
4990.9758434192
 30
0.0
 11
6267.0187553361
 21
4990.9758434192
 31
0.0
  0
LINE
  5
50A
330
1F
100
AcDbEntity
  8
0
  6
Continuous
 62
     7
370
    25
100
AcDbLine
 10
6261.0187553361
 20
4991.118700562
 30
0.0
 11
6261.0187553361
 21
4990.9758434192
 31
0.0
  0
LINE
  5
50B
330
1F
100
AcDbEntity
  8
0
  6
Continuous
 62
     7
370
    25
100
AcDbLine
 10
6257.0187553361
 20
4991.118700562
 30
0.0
 11
6261.0187553361
 21
4991.118700562
 31
0.0
  0
LINE
  5
50C
330
1F
100
AcDbEntity
  8
0
  6
Continuous
 62
     7
370
    25
100
AcDbLine
 10
6257.0187553361
 20
4990.9758434192
 30
0.0
 11
6257.0187553361
 21
4991.118700562
 31
0.0
  0
LINE
  5
50D
330
1F
100
AcDbEntity
  8
0
  6
Continuous
 62
     7
370
    25
100
AcDbLine
 10
6261.0187553361
 20
4990.9758434192
 30
0.0
 11
6257.0187553361
 21
4990.9758434192
 31
0.0
  0
LINE
  5
50E
330
1F
100
AcDbEntity
  8
0
  6
Continuous
 62
     7
370
    25
100
AcDbLine
 10
6250.5187553361
 20
4991.3510215822
 30
0.0
 11
6250.5187553361
 21
4991.4776384996
 31
0.0
  0
LINE
  5
50F
330
1F
100
AcDbEntity
  8
0
  6
Continuous
 62
     7
370
    25
100
AcDbLine
 10
6250.5187553361
 20
4991.5536086501
 30
0.0
 11
6250.5187553361
 21
4991.6802255675
 31
0.0
  0
LINE
  5
510
330
1F
100
AcDbEntity
  8
0
  6
Continuous
 62
     7
370
    25
100
AcDbLine
 10
6297.5187553361
 20
4991.6802255675
 30
0.0
 11
6297.5187553361
 21
4991.604255417
 31
0.0
  0
LINE
  5
511
330
1F
100
AcDbEntity
  8
0
  6
Continuous
 62
     7
370
    25
100
AcDbLine
 10
6297.5187553361
 20
4991.5282852666
 30
0.0
 11
6297.5187553361
 21
4991.4016683492
 31
0.0
  0
LINE
  5
512
330
1F
100
AcDbEntity
  8
0
  6
Continuous
 62
     7
370
    25
100
AcDbLine
 10
6297.5187553361
 20
4991.3256981988
 30
0.0
 11
6297.5187553361
 21
4991.2945112818
 31
0.0
  0
LINE
  5
513
330
1F
100
AcDbEntity
  8
0
  6
Continuous
 62
     7
370
    25
100
AcDbLine
 10
6299.5187553361
 20
4991.7373684246
 30
0.0
 11
6299.5187553361
 21
4990.7373684246
 31
0.0
  0
LINE
  5
514
330
1F
100
AcDbEntity
  8
0
  6
Continuous
 62
     7
370
    25
100
AcDbLine
 10
6248.5187553361
 20
4991.7373684246
 30
0.0
 11
6248.5187553361
 21
4990.7373684246
 31
0.0
  0
LINE
  5
515
330
1F
100
AcDbEntity
  8
0
  6
Continuous
 62
     7
370
    25
100
AcDbLine
 10
6287.634528442
 20
5080.1802255675
 30
0.0
 11
6287.634528442
 21
5080.0536086501
 31
0.0
  0
LINE
  5
516
330
1F
100
AcDbEntity
  8
0
  6
Continuous
 62
     7
370
    25
100
AcDbLine
 10
6295.634528442
 20
5080.1802255675
 30
0.0
 11
6295.634528442
 21
5080.0536086501
 31
0.0
  0
LINE
  5
517
330
1F
100
AcDbEntity
  8
0
  6
Continuous
 62
     7
370
    25
100
AcDbLine
 10
6291.634528442
 20
5080.1802255675
 30
0.0
 11
6291.634528442
 21
5080.0536086501
 31
0.0
  0
LINE
  5
518
330
1F
100
AcDbEntity
  8
0
  6
Continuous
 62
     7
370
    25
100
AcDbLine
 10
6275.634528442
 20
5080.1802255675
 30
0.0
 11
6275.634528442
 21
5080.0536086501
 31
0.0
  0
LINE
  5
519
330
1F
100
AcDbEntity
  8
0
  6
Continuous
 62
     7
370
    25
100
AcDbLine
 10
6263.634528442
 20
5080.1802255675
 30
0.0
 11
6263.634528442
 21
5080.0536086501
 31
0.0
  0
LINE
  5
51A
330
1F
100
AcDbEntity
  8
0
  6
Continuous
 62
     7
370
    25
100
AcDbLine
 10
6259.634528442
 20
5080.1802255675
 30
0.0
 11
6259.634528442
 21
5080.0536086501
 31
0.0
  0
LINE
  5
51B
330
1F
100
AcDbEntity
  8
0
  6
Continuous
 62
     7
370
    25
100
AcDbLine
 10
6271.634528442
 20
5080.1802255675
 30
0.0
 11
6271.634528442
 21
5080.0536086501
 31
0.0
  0
LINE
  5
51C
330
1F
100
AcDbEntity
  8
0
  6
Continuous
 62
     7
370
    25
100
AcDbLine
 10
6279.634528442
 20
5080.1802255675
 30
0.0
 11
6279.634528442
 21
5080.0536086501
 31
0.0
  0
LINE
  5
51D
330
1F
100
AcDbEntity
  8
0
  6
Continuous
 62
     7
370
    25
100
AcDbLine
 10
6283.634528442
 20
5080.1802255675
 30
0.0
 11
6283.634528442
 21
5080.0536086501
 31
0.0
  0
LINE
  5
51E
330
1F
100
AcDbEntity
  8
0
  6
Continuous
 62
     7
370
    25
100
AcDbLine
 10
6267.634528442
 20
5080.1802255675
 30
0.0
 11
6267.634528442
 21
5080.0536086501
 31
0.0
  0
LINE
  5
51F
330
1F
100
AcDbEntity
  8
0
  6
Continuous
 62
     7
370
    25
100
AcDbLine
 10
6295.634528442
 20
4991.4211281992
 30
0.0
 11
6295.634528442
 21
4991.2945112818
 31
0.0
  0
LINE
  5
520
330
1F
100
AcDbEntity
  8
0
  6
Continuous
 62
     7
370
    25
100
AcDbLine
 10
6291.634528442
 20
4991.4211281992
 30
0.0
 11
6291.634528442
 21
4991.2945112818
 31
0.0
  0
LINE
  5
521
330
1F
100
AcDbEntity
  8
0
  6
Continuous
 62
     7
370
    25
100
AcDbLine
 10
6283.634528442
 20
4991.4211281992
 30
0.0
 11
6283.634528442
 21
4991.2945112818
 31
0.0
  0
LINE
  5
522
330
1F
100
AcDbEntity
  8
0
  6
Continuous
 62
     7
370
    25
100
AcDbLine
 10
6267.634528442
 20
4991.4211281992
 30
0.0
 11
6267.634528442
 21
4991.2945112818
 31
0.0
  0
LINE
  5
523
330
1F
100
AcDbEntity
  8
0
  6
Continuous
 62
     7
370
    25
100
AcDbLine
 10
6263.634528442
 20
4991.4211281992
 30
0.0
 11
6263.634528442
 21
4991.2945112818
 31
0.0
  0
LINE
  5
524
330
1F
100
AcDbEntity
  8
0
  6
Continuous
 62
     7
370
    25
100
AcDbLine
 10
6287.634528442
 20
4991.4211281992
 30
0.0
 11
6287.634528442
 21
4991.2945112818
 31
0.0
  0
LINE
  5
525
330
1F
100
AcDbEntity
  8
0
  6
Continuous
 62
     7
370
    25
100
AcDbLine
 10
6275.634528442
 20
4991.4211281992
 30
0.0
 11
6275.634528442
 21
4991.2945112818
 31
0.0
  0
LINE
  5
526
330
1F
100
AcDbEntity
  8
0
  6
Continuous
 62
     7
370
    25
100
AcDbLine
 10
6271.634528442
 20
4991.4211281992
 30
0.0
 11
6271.634528442
 21
4991.2945112818
 31
0.0
  0
LINE
  5
527
330
1F
100
AcDbEntity
  8
0
  6
Continuous
 62
     7
370
    25
100
AcDbLine
 10
6279.634528442
 20
4991.4211281992
 30
0.0
 11
6279.634528442
 21
4991.2945112818
 31
0.0
  0
LINE
  5
528
330
1F
100
AcDbEntity
  8
0
  6
Continuous
 62
     7
370
    25
100
AcDbLine
 10
6259.634528442
 20
4991.4211281992
 30
0.0
 11
6259.634528442
 21
4991.2945112818
 31
0.0
  0
LINE
  5
529
330
1F
100
AcDbEntity
  8
0
  6
Continuous
 62
     7
370
    25
100
AcDbLine
 10
6255.634528442
 20
5080.1802255675
 30
0.0
 11
6255.634528442
 21
5080.0536086501
 31
0.0
  0
LINE
  5
52A
330
1F
100
AcDbEntity
  8
0
  6
Continuous
 62
     7
370
    25
100
AcDbLine
 10
6255.634528442
 20
4991.4211281992
 30
0.0
 11
6255.634528442
 21
4991.2945112818
 31
0.0
  0
LINE
  5
52B
330
1F
100
AcDbEntity
  8
0
  6
Continuous
 62
     7
370
    25
100
AcDbLine
 10
6251.634528442
 20
5080.1802255675
 30
0.0
 11
6251.634528442
 21
5080.0536086501
 31
0.0
  0
LINE
  5
52C
330
1F
100
AcDbEntity
  8
0
  6
Continuous
 62
     7
370
    25
100
AcDbLine
 10
6251.634528442
 20
4991.4211281992
 30
0.0
 11
6251.634528442
 21
4991.2945112818
 31
0.0
  0
ARC
  5
52D
330
1F
100
AcDbEntity
  8
0
  6
Continuous
 62
     7
370
    25
100
AcDbCircle
 10
6283.2687553361
 20
4990.5196473016
 30
0.0
 40
1.000000000000368
100
AcDbArc
 50
286.3052124994
 51
0.0
  0
ARC
  5
52E
330
1F
100
AcDbEntity
  8
0
  6
Continuous
 62
     7
370
    25
100
AcDbCircle
 10
6274.0187553361
 20
5022.141500935
 30
0.0
 40
33.94698965320326
100
AcDbArc
 50
253.6947875006
 51
286.3052124994
  0
ARC
  5
52F
330
1F
100
AcDbEntity
  8
0
  6
Continuous
 62
     7
370
    25
100
AcDbCircle
 10
6264.7687553361
 20
4990.5196473016
 30
0.0
 40
1.000000000000368
100
AcDbArc
 50
180.0
 51
253.6947875006
  0
LINE
  5
530
330
1F
100
AcDbEntity
  8
0
  6
Continuous
 62
     7
370
    25
100
AcDbLine
 10
6279.0187553361
 20
4990.3445112818
 30
0.0
 11
6279.0187553361
 21
4989.3445112818
 31
0.0
  0
LINE
  5
531
330
1F
100
AcDbEntity
  8
0
  6
Continuous
 62
     7
370
    25
100
AcDbLine
 10
6269.0187553361
 20
4990.3445112818
 30
0.0
 11
6279.0187553361
 21
4990.3445112818
 31
0.0
  0
LINE
  5
532
330
1F
100
AcDbEntity
  8
0
  6
Continuous
 62
     7
370
    25
100
AcDbLine
 10
6269.0187553361
 20
4989.3445112818
 30
0.0
 11
6269.0187553361
 21
4990.3445112818
 31
0.0
  0
LINE
  5
533
330
1F
100
AcDbEntity
  8
0
  6
Continuous
 62
     7
370
    25
100
AcDbLine
 10
6279.0187553361
 20
4989.3445112818
 30
0.0
 11
6269.0187553361
 21
4989.3445112818
 31
0.0
  0
LINE
  5
534
330
1F
100
AcDbEntity
  8
0
  6
Continuous
 62
     7
370
    25
100
AcDbLine
 10
6284.2687553361
 20
4990.8445112818
 30
0.0
 11
6284.2687553361
 21
4990.5196473016
 31
0.0
  0
LINE
  5
535
330
1F
100
AcDbEntity
  8
0
  6
Continuous
 62
     7
370
    25
100
AcDbLine
 10
6263.7687553361
 20
4990.5196473016
 30
0.0
 11
6263.7687553361
 21
4990.8445112818
 31
0.0
  0
ENDSEC
  0
SECTION
  2
OBJECTS
  0
DICTIONARY
  5
C
330
0
100
AcDbDictionary
281
     1
  3
ACAD_GROUP
350
D
  3
ACAD_LAYOUT
350
1A
  3
ACAD_MLINESTYLE
350
17
  3
ACAD_PLOTSETTINGS
350
19
  3
ACAD_PLOTSTYLENAME
350
E
  3
ACAD_SCALELIST
350
47
  3
DWGPROPS
350
536
  0
DICTIONARY
  5
D
102
{ACAD_REACTORS
330
C
102
}
330
C
100
AcDbDictionary
281
     1
  0
DICTIONARY
  5
1A
102
{ACAD_REACTORS
330
C
102
}
330
C
100
AcDbDictionary
281
     1
  3
Layout1
350
1E
  3
Layout2
350
26
  3
Model
350
22
  0
DICTIONARY
  5
17
102
{ACAD_REACTORS
330
C
102
}
330
C
100
AcDbDictionary
281
     1
  3
Standard
350
18
  0
DICTIONARY
  5
19
102
{ACAD_REACTORS
330
C
102
}
330
C
100
AcDbDictionary
281
     1
  0
ACDBDICTIONARYWDFLT
  5
E
102
{ACAD_REACTORS
330
C
102
}
330
C
100
AcDbDictionary
281
     1
  3
Normal
350
F
100
AcDbDictionaryWithDefault
340
F
  0
DICTIONARY
  5
47
102
{ACAD_REACTORS
330
C
102
}
330
C
100
AcDbDictionary
281
     1
  3
A0
350
48
  3
A1
350
49
  3
A2
350
4A
  3
A3
350
4B
  3
A4
350
4C
  3
A5
350
4D
  3
A6
350
4E
  3
A7
350
4F
  3
A8
350
50
  3
A9
350
51
  3
B0
350
52
  3
B1
350
53
  3
B2
350
54
  3
B3
350
55
  3
B4
350
56
  3
B5
350
57
  3
B6
350
58
  3
B7
350
59
  3
B8
350
5A
  3
B9
350
5B
  3
C0
350
5C
  3
C1
350
5D
  3
C2
350
5E
  3
C3
350
5F
  3
C4
350
60
  3
C5
350
61
  3
C6
350
62
  3
C7
350
63
  3
C8
350
64
  3
C9
350
65
  3
D0
350
66
  3
D1
350
67
  3
D2
350
68
  0
XRECORD
  5
536
102
{ACAD_REACTORS
330
C
102
}
330
C
100
AcDbXrecord
280
     1
  1
DWGPROPS COOKIE
  2

  3

  4

  6

  7

  8
radek.stransky
  9

300
=
301
=
302
=
303
=
304
=
305
=
306
=
307
=
308
=
309
=
 40
0.0
 41
2459744.196666979
 42
2459744.196667454
  1

 90
        0
  0
LAYOUT
  5
1E
102
{ACAD_REACTORS
330
1A
102
}
330
1A
100
AcDbPlotSettings
  1

  2
none_device
  4

  6

 40
0.0
 41
0.0
 42
0.0
 43
0.0
 44
0.0
 45
0.0
 46
0.0
 47
0.0
 48
0.0
 49
0.0
140
0.0
141
0.0
142
1.0
143
1.0
 70
   688
 72
     1
 73
     0
 74
     5
  7

 75
    16
147
1.0
148
0.0
149
0.0
100
AcDbLayout
  1
Layout1
 70
     1
 71
     1
 10
0.0
 20
0.0
 11
420.0
 21
297.0
 12
0.0
 22
0.0
 32
0.0
 14
1.0000000000E+20
 24
1.0000000000E+20
 34
1.0000000000E+20
 15
-1.0000000000E+20
 25
-1.0000000000E+20
 35
-1.0000000000E+20
146
0.0
 13
0.0
 23
0.0
 33
0.0
 16
1.0
 26
0.0
 36
0.0
 17
0.0
 27
1.0
 37
0.0
 76
     0
330
1B
  0
LAYOUT
  5
26
102
{ACAD_REACTORS
330
1A
102
}
330
1A
100
AcDbPlotSettings
  1

  2
none_device
  4

  6

 40
0.0
 41
0.0
 42
0.0
 43
0.0
 44
0.0
 45
0.0
 46
0.0
 47
0.0
 48
0.0
 49
0.0
140
0.0
141
0.0
142
1.0
143
1.0
 70
   688
 72
     1
 73
     0
 74
     5
  7

 75
    16
147
1.0
148
0.0
149
0.0
100
AcDbLayout
  1
Layout2
 70
     1
 71
     2
 10
0.0
 20
0.0
 11
0.0
 21
0.0
 12
0.0
 22
0.0
 32
0.0
 14
0.0
 24
0.0
 34
0.0
 15
0.0
 25
0.0
 35
0.0
146
0.0
 13
0.0
 23
0.0
 33
0.0
 16
1.0
 26
0.0
 36
0.0
 17
0.0
 27
1.0
 37
0.0
 76
     0
330
23
  0
LAYOUT
  5
22
102
{ACAD_REACTORS
330
1A
102
}
330
1A
100
AcDbPlotSettings
  1

  2
none_device
  4
Letter_(8.50_x_11.00_Inches)
  6

 40
6.35
 41
6.35
 42
6.35000508
 43
6.35000508
 44
215.9
 45
279.4
 46
0.0
 47
0.0
 48
0.0
 49
0.0
140
0.0
141
0.0
142
1.0
143
1.0
 70
  1712
 72
     1
 73
     0
 74
     0
  7

 75
     0
147
1.0
148
0.0
149
0.0
100
AcDbLayout
  1
Model
 70
     1
 71
     0
 10
0.0
 20
0.0
 11
20000.0
 21
10000.0
 12
0.0
 22
0.0
 32
0.0
 14
0.0
 24
0.0
 34
0.0
 15
20000.0
 25
10000.0
 35
0.0
146
0.0
 13
0.0
 23
0.0
 33
0.0
 16
1.0
 26
0.0
 36
0.0
 17
0.0
 27
1.0
 37
0.0
 76
     0
330
1F
331
29
  0
MLINESTYLE
  5
18
102
{ACAD_REACTORS
330
17
102
}
330
17
100
AcDbMlineStyle
  2
Standard
 70
     0
  3

 62
   256
 51
90.0
 52
90.0
 71
     2
 49
0.5
 62
   256
  6
BYLAYER
 49
-0.5
 62
   256
  6
BYLAYER
  0
ACDBPLACEHOLDER
  5
F
102
{ACAD_REACTORS
330
E
102
}
330
E
  0
SCALE
  5
48
102
{ACAD_REACTORS
330
47
102
}
330
47
100
AcDbScale
 70
     0
300
1:1
140
1.0
141
1.0
290
     1
  0
SCALE
  5
49
102
{ACAD_REACTORS
330
47
102
}
330
47
100
AcDbScale
 70
     0
300
1:2
140
1.0
141
2.0
290
     0
  0
SCALE
  5
4A
102
{ACAD_REACTORS
330
47
102
}
330
47
100
AcDbScale
 70
     0
300
1:4
140
1.0
141
4.0
290
     0
  0
SCALE
  5
4B
102
{ACAD_REACTORS
330
47
102
}
330
47
100
AcDbScale
 70
     0
300
1:5
140
1.0
141
5.0
290
     0
  0
SCALE
  5
4C
102
{ACAD_REACTORS
330
47
102
}
330
47
100
AcDbScale
 70
     0
300
1:8
140
1.0
141
8.0
290
     0
  0
SCALE
  5
4D
102
{ACAD_REACTORS
330
47
102
}
330
47
100
AcDbScale
 70
     0
300
1:10
140
1.0
141
10.0
290
     0
  0
SCALE
  5
4E
102
{ACAD_REACTORS
330
47
102
}
330
47
100
AcDbScale
 70
     0
300
1:16
140
1.0
141
16.0
290
     0
  0
SCALE
  5
4F
102
{ACAD_REACTORS
330
47
102
}
330
47
100
AcDbScale
 70
     0
300
1:20
140
1.0
141
20.0
290
     0
  0
SCALE
  5
50
102
{ACAD_REACTORS
330
47
102
}
330
47
100
AcDbScale
 70
     0
300
1:30
140
1.0
141
30.0
290
     0
  0
SCALE
  5
51
102
{ACAD_REACTORS
330
47
102
}
330
47
100
AcDbScale
 70
     0
300
1:40
140
1.0
141
40.0
290
     0
  0
SCALE
  5
52
102
{ACAD_REACTORS
330
47
102
}
330
47
100
AcDbScale
 70
     0
300
1:50
140
1.0
141
50.0
290
     0
  0
SCALE
  5
53
102
{ACAD_REACTORS
330
47
102
}
330
47
100
AcDbScale
 70
     0
300
1:100
140
1.0
141
100.0
290
     0
  0
SCALE
  5
54
102
{ACAD_REACTORS
330
47
102
}
330
47
100
AcDbScale
 70
     0
300
2:1
140
2.0
141
1.0
290
     0
  0
SCALE
  5
55
102
{ACAD_REACTORS
330
47
102
}
330
47
100
AcDbScale
 70
     0
300
4:1
140
4.0
141
1.0
290
     0
  0
SCALE
  5
56
102
{ACAD_REACTORS
330
47
102
}
330
47
100
AcDbScale
 70
     0
300
8:1
140
8.0
141
1.0
290
     0
  0
SCALE
  5
57
102
{ACAD_REACTORS
330
47
102
}
330
47
100
AcDbScale
 70
     0
300
10:1
140
10.0
141
1.0
290
     0
  0
SCALE
  5
58
102
{ACAD_REACTORS
330
47
102
}
330
47
100
AcDbScale
 70
     0
300
100:1
140
100.0
141
1.0
290
     0
  0
SCALE
  5
59
102
{ACAD_REACTORS
330
47
102
}
330
47
100
AcDbScale
 70
     0
300
1/128" = 1'-0"
140
0.0078125
141
12.0
290
     0
  0
SCALE
  5
5A
102
{ACAD_REACTORS
330
47
102
}
330
47
100
AcDbScale
 70
     0
300
1/64" = 1'-0"
140
0.015625
141
12.0
290
     0
  0
SCALE
  5
5B
102
{ACAD_REACTORS
330
47
102
}
330
47
100
AcDbScale
 70
     0
300
1/32" = 1'-0"
140
0.03125
141
12.0
290
     0
  0
SCALE
  5
5C
102
{ACAD_REACTORS
330
47
102
}
330
47
100
AcDbScale
 70
     0
300
1/16" = 1'-0"
140
0.0625
141
12.0
290
     0
  0
SCALE
  5
5D
102
{ACAD_REACTORS
330
47
102
}
330
47
100
AcDbScale
 70
     0
300
3/32" = 1'-0"
140
0.09375
141
12.0
290
     0
  0
SCALE
  5
5E
102
{ACAD_REACTORS
330
47
102
}
330
47
100
AcDbScale
 70
     0
300
1/8" = 1'-0"
140
0.125
141
12.0
290
     0
  0
SCALE
  5
5F
102
{ACAD_REACTORS
330
47
102
}
330
47
100
AcDbScale
 70
     0
300
3/16" = 1'-0"
140
0.1875
141
12.0
290
     0
  0
SCALE
  5
60
102
{ACAD_REACTORS
330
47
102
}
330
47
100
AcDbScale
 70
     0
300
1/4" = 1'-0"
140
0.25
141
12.0
290
     0
  0
SCALE
  5
61
102
{ACAD_REACTORS
330
47
102
}
330
47
100
AcDbScale
 70
     0
300
3/8" = 1'-0"
140
0.375
141
12.0
290
     0
  0
SCALE
  5
62
102
{ACAD_REACTORS
330
47
102
}
330
47
100
AcDbScale
 70
     0
300
1/2" = 1'-0"
140
0.5
141
12.0
290
     0
  0
SCALE
  5
63
102
{ACAD_REACTORS
330
47
102
}
330
47
100
AcDbScale
 70
     0
300
3/4" = 1'-0"
140
0.75
141
12.0
290
     0
  0
SCALE
  5
64
102
{ACAD_REACTORS
330
47
102
}
330
47
100
AcDbScale
 70
     0
300
1" = 1'-0"
140
1.0
141
12.0
290
     0
  0
SCALE
  5
65
102
{ACAD_REACTORS
330
47
102
}
330
47
100
AcDbScale
 70
     0
300
1-1/2" = 1'-0"
140
1.5
141
12.0
290
     0
  0
SCALE
  5
66
102
{ACAD_REACTORS
330
47
102
}
330
47
100
AcDbScale
 70
     0
300
3" = 1'-0"
140
3.0
141
12.0
290
     0
  0
SCALE
  5
67
102
{ACAD_REACTORS
330
47
102
}
330
47
100
AcDbScale
 70
     0
300
6" = 1'-0"
140
6.0
141
12.0
290
     0
  0
SCALE
  5
68
102
{ACAD_REACTORS
330
47
102
}
330
47
100
AcDbScale
 70
     0
300
1'-0" = 1'-0"
140
12.0
141
12.0
290
     0
  0
ENDSEC
  0
EOF
