  0
SECTION
  2
HEADER
  9
$ACADVER
  1
AC1015
  9
$ACADMAINTVER
 70
     6
  9
$DWGCODEPAGE
  3
ANSI_1250
  9
$INSBASE
 10
0.0
 20
0.0
 30
0.0
  9
$EXTMIN
 10
0.0
 20
0.0
 30
0.0
  9
$EXTMAX
 10
20000.0
 20
10000.0
 30
0.0
  9
$LIMMIN
 10
0.0
 20
0.0
  9
$LIMMAX
 10
20000.0
 20
10000.0
  9
$ORTHOMODE
 70
     0
  9
$REGENMODE
 70
     1
  9
$FILLMODE
 70
     1
  9
$QTEXTMODE
 70
     0
  9
$MIRRTEXT
 70
     1
  9
$LTSCALE
 40
1.0
  9
$ATTMODE
 70
     1
  9
$TEXTSIZE
 40
2.0
  9
$TRACEWID
 40
1.0
  9
$TEXTSTYLE
  7
Standard
  9
$CLAYER
  8
0
  9
$CELTYPE
  6
ByLayer
  9
$CECOLOR
 62
   256
  9
$CELTSCALE
 40
1.0
  9
$DISPSILH
 70
     0
  9
$DIMSCALE
 40
1.0
  9
$DIMASZ
 40
2.0
  9
$DIMEXO
 40
1.0
  9
$DIMDLI
 40
3.75
  9
$DIMRND
 40
0.0
  9
$DIMDLE
 40
0.0
  9
$DIMEXE
 40
1.0
  9
$DIMTP
 40
0.0
  9
$DIMTM
 40
0.0
  9
$DIMTXT
 40
2.0
  9
$DIMCEN
 40
2.5
  9
$DIMTSZ
 40
0.0
  9
$DIMTOL
 70
     0
  9
$DIMLIM
 70
     0
  9
$DIMTIH
 70
     1
  9
$DIMTOH
 70
     1
  9
$DIMSE1
 70
     0
  9
$DIMSE2
 70
     0
  9
$DIMTAD
 70
     1
  9
$DIMZIN
 70
     0
  9
$DIMBLK
  1

  9
$DIMASO
 70
     1
  9
$DIMSHO
 70
     1
  9
$DIMPOST
  1

  9
$DIMAPOST
  1

  9
$DIMALT
 70
     0
  9
$DIMALTD
 70
     3
  9
$DIMALTF
 40
0.0393700787
  9
$DIMLFAC
 40
1.0
  9
$DIMTOFL
 70
     1
  9
$DIMTVP
 40
0.0
  9
$DIMTIX
 70
     0
  9
$DIMSOXD
 70
     0
  9
$DIMSAH
 70
     0
  9
$DIMBLK1
  1

  9
$DIMBLK2
  1

  9
$DIMSTYLE
  2
ISO-25
  9
$DIMCLRD
 70
     0
  9
$DIMCLRE
 70
     0
  9
$DIMCLRT
 70
     0
  9
$DIMTFAC
 40
1.0
  9
$DIMGAP
 40
1.524
  9
$DIMJUST
 70
     0
  9
$DIMSD1
 70
     0
  9
$DIMSD2
 70
     0
  9
$DIMTOLJ
 70
     0
  9
$DIMTZIN
 70
     0
  9
$DIMALTZ
 70
     0
  9
$DIMALTTZ
 70
     0
  9
$DIMUPT
 70
     0
  9
$DIMDEC
 70
     2
  9
$DIMTDEC
 70
     0
  9
$DIMALTU
 70
     2
  9
$DIMALTTD
 70
     3
  9
$DIMTXSTY
  7
Standard
  9
$DIMAUNIT
 70
     0
  9
$DIMADEC
 70
     2
  9
$DIMALTRND
 40
0.0
  9
$DIMAZIN
 70
     0
  9
$DIMDSEP
 70
    44
  9
$DIMATFIT
 70
     3
  9
$DIMFRAC
 70
     0
  9
$DIMLDRBLK
  1

  9
$DIMLUNIT
 70
     2
  9
$DIMLWD
 70
    -2
  9
$DIMLWE
 70
    -2
  9
$DIMTMOVE
 70
     0
  9
$LUNITS
 70
     2
  9
$LUPREC
 70
     3
  9
$SKETCHINC
 40
1.0
  9
$FILLETRAD
 40
10.0
  9
$AUNITS
 70
     0
  9
$AUPREC
 70
     2
  9
$MENU
  1
.
  9
$ELEVATION
 40
0.0
  9
$PELEVATION
 40
0.0
  9
$THICKNESS
 40
0.0
  9
$LIMCHECK
 70
     0
  9
$CHAMFERA
 40
0.0
  9
$CHAMFERB
 40
0.0
  9
$CHAMFERC
 40
0.0
  9
$CHAMFERD
 40
0.0
  9
$SKPOLY
 70
     0
  9
$TDCREATE
 40
2459744.281566007
  9
$TDUCREATE
 40
2459744.198232674
  9
$TDUPDATE
 40
2459744.281566331
  9
$TDUUPDATE
 40
2459744.198232998
  9
$TDINDWG
 40
0.0000000116
  9
$TDUSRTIMER
 40
0.0000000116
  9
$USRTIMER
 70
     1
  9
$ANGBASE
 50
0.0
  9
$ANGDIR
 70
     0
  9
$PDMODE
 70
     0
  9
$PDSIZE
 40
-1.0
  9
$PLINEWID
 40
0.0
  9
$SPLFRAME
 70
     0
  9
$SPLINETYPE
 70
     6
  9
$SPLINESEGS
 70
     8
  9
$HANDSEED
  5
443
  9
$SURFTAB1
 70
     6
  9
$SURFTAB2
 70
     6
  9
$SURFTYPE
 70
     6
  9
$SURFU
 70
     6
  9
$SURFV
 70
     6
  9
$UCSBASE
  2

  9
$UCSNAME
  2

  9
$UCSORG
 10
0.0
 20
0.0
 30
0.0
  9
$UCSXDIR
 10
1.0
 20
0.0
 30
0.0
  9
$UCSYDIR
 10
0.0
 20
1.0
 30
0.0
  9
$UCSORTHOREF
  2

  9
$UCSORTHOVIEW
 70
     0
  9
$UCSORGTOP
 10
0.0
 20
0.0
 30
0.0
  9
$UCSORGBOTTOM
 10
0.0
 20
0.0
 30
0.0
  9
$UCSORGLEFT
 10
0.0
 20
0.0
 30
0.0
  9
$UCSORGRIGHT
 10
0.0
 20
0.0
 30
0.0
  9
$UCSORGFRONT
 10
0.0
 20
0.0
 30
0.0
  9
$UCSORGBACK
 10
0.0
 20
0.0
 30
0.0
  9
$PUCSBASE
  2

  9
$PUCSNAME
  2

  9
$PUCSORG
 10
0.0
 20
0.0
 30
0.0
  9
$PUCSXDIR
 10
1.0
 20
0.0
 30
0.0
  9
$PUCSYDIR
 10
0.0
 20
1.0
 30
0.0
  9
$PUCSORTHOREF
  2

  9
$PUCSORTHOVIEW
 70
     0
  9
$PUCSORGTOP
 10
0.0
 20
0.0
 30
0.0
  9
$PUCSORGBOTTOM
 10
0.0
 20
0.0
 30
0.0
  9
$PUCSORGLEFT
 10
0.0
 20
0.0
 30
0.0
  9
$PUCSORGRIGHT
 10
0.0
 20
0.0
 30
0.0
  9
$PUCSORGFRONT
 10
0.0
 20
0.0
 30
0.0
  9
$PUCSORGBACK
 10
0.0
 20
0.0
 30
0.0
  9
$USERI1
 70
     0
  9
$USERI2
 70
     0
  9
$USERI3
 70
     0
  9
$USERI4
 70
     0
  9
$USERI5
 70
     0
  9
$USERR1
 40
0.0
  9
$USERR2
 40
0.0
  9
$USERR3
 40
0.0
  9
$USERR4
 40
0.0
  9
$USERR5
 40
0.0
  9
$WORLDVIEW
 70
     1
  9
$SHADEDGE
 70
     3
  9
$SHADEDIF
 70
    70
  9
$TILEMODE
 70
     1
  9
$MAXACTVP
 70
    64
  9
$PINSBASE
 10
0.0
 20
0.0
 30
0.0
  9
$PLIMCHECK
 70
     0
  9
$PEXTMIN
 10
1.0000000000E+20
 20
1.0000000000E+20
 30
1.0000000000E+20
  9
$PEXTMAX
 10
-1.0000000000E+20
 20
-1.0000000000E+20
 30
-1.0000000000E+20
  9
$PLIMMIN
 10
0.0
 20
0.0
  9
$PLIMMAX
 10
420.0
 20
297.0
  9
$UNITMODE
 70
     0
  9
$VISRETAIN
 70
     1
  9
$PLINEGEN
 70
     0
  9
$PSLTSCALE
 70
     1
  9
$TREEDEPTH
 70
  3020
  9
$CMLSTYLE
  2
Standard
  9
$CMLJUST
 70
     0
  9
$CMLSCALE
 40
20.0
  9
$PROXYGRAPHICS
 70
     1
  9
$MEASUREMENT
 70
     1
  9
$CELWEIGHT
370
    -1
  9
$ENDCAPS
280
     0
  9
$JOINSTYLE
280
     0
  9
$LWDISPLAY
290
     1
  9
$INSUNITS
 70
     4
  9
$HYPERLINKBASE
  1

  9
$STYLESHEET
  1

  9
$XEDIT
290
     1
  9
$CEPSNTYPE
380
     0
  9
$PSTYLEMODE
290
     1
  9
$FINGERPRINTGUID
  2
{83a92880-aa23-4f9d-a40d-53b6488bc642}
  9
$VERSIONGUID
  2
{FAEB1C32-E019-11D5-929B-00C0DF256EC4}
  9
$EXTNAMES
290
     1
  9
$PSVPSCALE
 40
0.0
  9
$OLESTARTUP
290
     0
  0
ENDSEC
  0
SECTION
  2
CLASSES
  0
CLASS
  1
ACDBDICTIONARYWDFLT
  2
AcDbDictionaryWithDefault
  3
ObjectDBX Classes
 90
        0
280
     0
281
     0
  0
CLASS
  1
VISUALSTYLE
  2
AcDbVisualStyle
  3
ObjectDBX Classes
 90
     4095
280
     0
281
     0
  0
CLASS
  1
MATERIAL
  2
AcDbMaterial
  3
ObjectDBX Classes
 90
     1153
280
     0
281
     0
  0
CLASS
  1
SCALE
  2
AcDbScale
  3
ObjectDBX Classes
 90
     1153
280
     0
281
     0
  0
CLASS
  1
TABLESTYLE
  2
AcDbTableStyle
  3
ObjectDBX Classes
 90
     4095
280
     0
281
     0
  0
CLASS
  1
MLEADERSTYLE
  2
AcDbMLeaderStyle
  3
ACDB_MLEADERSTYLE_CLASS
 90
     4095
280
     0
281
     0
  0
CLASS
  1
SUN
  2
AcDbSun
  3
SCENEOE
 90
     1153
280
     0
281
     0
  0
CLASS
  1
ACDBPLACEHOLDER
  2
AcDbPlaceHolder
  3
ObjectDBX Classes
 90
        0
280
     0
281
     0
  0
CLASS
  1
LAYOUT
  2
AcDbLayout
  3
ObjectDBX Classes
 90
        0
280
     0
281
     0
  0
ENDSEC
  0
SECTION
  2
TABLES
  0
TABLE
  2
VPORT
  5
8
330
0
100
AcDbSymbolTable
 70
     1
  0
VPORT
  5
29
330
8
100
AcDbSymbolTableRecord
100
AcDbViewportTableRecord
  2
*Active
 70
     0
 10
0.0
 20
0.0
 11
1.0
 21
1.0
 12
10000.0
 22
5000.0
 13
0.0
 23
0.0
 14
10.0
 24
10.0
 15
10.0
 25
10.0
 16
0.0
 26
0.0
 36
1.0
 17
0.0
 27
0.0
 37
0.0
 40
10000.0
 41
2.0
 42
50.0
 43
0.0
 44
0.0
 50
0.0
 51
0.0
 71
     0
 72
  2000
 73
     1
 74
     3
 75
     0
 76
     0
 77
     0
 78
     0
281
     0
 65
     1
110
0.0
120
0.0
130
0.0
111
1.0
121
0.0
131
0.0
112
0.0
122
1.0
132
0.0
 79
     0
146
0.0
  0
ENDTAB
  0
TABLE
  2
LTYPE
  5
5
330
0
100
AcDbSymbolTable
 70
     6
  0
LTYPE
  5
14
330
5
100
AcDbSymbolTableRecord
100
AcDbLinetypeTableRecord
  2
ByBlock
 70
     0
  3

 72
    65
 73
     0
 40
0.0
  0
LTYPE
  5
15
330
5
100
AcDbSymbolTableRecord
100
AcDbLinetypeTableRecord
  2
ByLayer
 70
     0
  3

 72
    65
 73
     0
 40
0.0
  0
LTYPE
  5
16
330
5
100
AcDbSymbolTableRecord
100
AcDbLinetypeTableRecord
  2
Continuous
 70
     0
  3
Solid line
 72
    65
 73
     0
 40
0.0
  0
LTYPE
  5
6E
330
5
100
AcDbSymbolTableRecord
100
AcDbLinetypeTableRecord
  2
HIDDEN
 70
     0
  3
Hidden __ __ __ __ __ __ __ __ __ __ __ __ __ __
 72
    65
 73
     2
 40
1.905
 49
1.27
 74
     0
 49
-0.635
 74
     0
  0
LTYPE
  5
6F
330
5
100
AcDbSymbolTableRecord
100
AcDbLinetypeTableRecord
  2
PHANTOM
 70
     0
  3
Phantom ______  __  __  ______  __  __  ______
 72
    65
 73
     6
 40
12.7
 49
6.35
 74
     0
 49
-1.27
 74
     0
 49
1.27
 74
     0
 49
-1.27
 74
     0
 49
1.27
 74
     0
 49
-1.27
 74
     0
  0
LTYPE
  5
70
330
5
100
AcDbSymbolTableRecord
100
AcDbLinetypeTableRecord
  2
CENTER
 70
     0
  3
Center ____ _ ____ _ ____ _ ____ _ ____ _ ____
 72
    65
 73
     4
 40
10.16
 49
6.35
 74
     0
 49
-1.27
 74
     0
 49
1.27
 74
     0
 49
-1.27
 74
     0
  0
LTYPE
  5
71
330
5
100
AcDbSymbolTableRecord
100
AcDbLinetypeTableRecord
  2
CENTERX2
 70
     0
  3
Center (2x) ________  __  ________  __  _____
 72
    65
 73
     4
 40
20.32
 49
12.7
 74
     0
 49
-2.54
 74
     0
 49
2.54
 74
     0
 49
-2.54
 74
     0
  0
LTYPE
  5
72
330
5
100
AcDbSymbolTableRecord
100
AcDbLinetypeTableRecord
  2
DOT2
 70
     0
  3
Dot (.5x) ........................................
 72
    65
 73
     2
 40
0.635
 49
0.0
 74
     0
 49
-0.635
 74
     0
  0
ENDTAB
  0
TABLE
  2
LAYER
  5
2
330
0
100
AcDbSymbolTable
 70
    13
  0
LAYER
  5
10
330
2
100
AcDbSymbolTableRecord
100
AcDbLayerTableRecord
  2
0
 70
     0
 62
     7
  6
Continuous
370
    -3
390
F
  0
LAYER
  5
73
330
2
100
AcDbSymbolTableRecord
100
AcDbLayerTableRecord
  2
FORMAT
 70
     0
 62
     7
  6
Continuous
370
    -3
390
F
  0
LAYER
  5
74
330
2
100
AcDbSymbolTableRecord
100
AcDbLayerTableRecord
  2
OSA
 70
     0
 62
     7
  6
CENTER
370
    -3
390
F
  0
LAYER
  5
75
330
2
100
AcDbSymbolTableRecord
100
AcDbLayerTableRecord
  2
0_35
 70
     0
 62
     7
  6
Continuous
370
    35
390
F
  0
LAYER
  5
76
330
2
100
AcDbSymbolTableRecord
100
AcDbLayerTableRecord
  2
0_5
 70
     0
 62
     7
  6
Continuous
370
    50
390
F
  0
LAYER
  5
77
330
2
100
AcDbSymbolTableRecord
100
AcDbLayerTableRecord
  2
0_25
 70
     0
 62
     7
  6
Continuous
370
    25
390
F
  0
LAYER
  5
78
330
2
100
AcDbSymbolTableRecord
100
AcDbLayerTableRecord
  2
0_18
 70
     0
 62
     7
  6
Continuous
370
    -3
390
F
  0
LAYER
  5
79
330
2
100
AcDbSymbolTableRecord
100
AcDbLayerTableRecord
  2
SLD-0
 70
     0
 62
   179
  6
Continuous
370
    -3
390
F
  0
LAYER
  5
7A
330
2
100
AcDbSymbolTableRecord
100
AcDbLayerTableRecord
  2
KOTY
 70
     0
 62
     7
  6
Continuous
370
    -3
390
F
  0
LAYER
  5
7B
330
2
100
AcDbSymbolTableRecord
100
AcDbLayerTableRecord
  2
SILNA
 70
     0
 62
   179
  6
Continuous
370
    -3
390
F
  0
LAYER
  5
7C
330
2
100
AcDbSymbolTableRecord
100
AcDbLayerTableRecord
  2
0_18_1
 70
     0
 62
   179
  6
Continuous
370
    -3
390
F
  0
LAYER
  5
7D
330
2
100
AcDbSymbolTableRecord
100
AcDbLayerTableRecord
  2
0_35_1
 70
     0
 62
   179
  6
Continuous
370
    35
390
F
  0
LAYER
  5
7E
330
2
100
AcDbSymbolTableRecord
100
AcDbLayerTableRecord
  2
0_5_1
 70
     0
 62
   179
  6
Continuous
370
    50
390
F
  0
ENDTAB
  0
TABLE
  2
STYLE
  5
3
330
0
100
AcDbSymbolTable
 70
     1
  0
STYLE
  5
11
330
3
100
AcDbSymbolTableRecord
100
AcDbTextStyleTableRecord
  2
Standard
 70
     0
 40
0.0
 41
1.0
 50
0.0
 71
     0
 42
2.0
  3
txt
  4

  0
ENDTAB
  0
TABLE
  2
VIEW
  5
6
330
0
100
AcDbSymbolTable
 70
     0
  0
ENDTAB
  0
TABLE
  2
UCS
  5
7
330
0
100
AcDbSymbolTable
 70
     0
  0
ENDTAB
  0
TABLE
  2
APPID
  5
9
330
0
100
AcDbSymbolTable
 70
     1
  0
APPID
  5
12
330
9
100
AcDbSymbolTableRecord
100
AcDbRegAppTableRecord
  2
ACAD
 70
     0
  0
ENDTAB
  0
TABLE
  2
DIMSTYLE
  5
A
330
0
100
AcDbSymbolTable
 70
     1
100
AcDbDimStyleTable
  0
DIMSTYLE
105
27
330
A
100
AcDbSymbolTableRecord
100
AcDbDimStyleTableRecord
  2
ISO-25
 70
     0
 41
2.5
 42
0.625
 43
3.75
 44
1.25
 73
     0
 74
     0
 77
     1
 78
     8
140
2.5
141
2.5
143
0.0393700787
147
0.625
171
     3
172
     1
178
     0
271
     2
272
     2
274
     3
278
    44
283
     0
284
     8
340
11
  0
ENDTAB
  0
TABLE
  2
BLOCK_RECORD
  5
1
330
0
100
AcDbSymbolTable
 70
     1
  0
BLOCK_RECORD
  5
1F
330
1
100
AcDbSymbolTableRecord
100
AcDbBlockTableRecord
  2
*Model_Space
340
22
  0
BLOCK_RECORD
  5
1B
330
1
100
AcDbSymbolTableRecord
100
AcDbBlockTableRecord
  2
*Paper_Space
340
1E
  0
BLOCK_RECORD
  5
23
330
1
100
AcDbSymbolTableRecord
100
AcDbBlockTableRecord
  2
*Paper_Space0
340
26
  0
ENDTAB
  0
ENDSEC
  0
SECTION
  2
BLOCKS
  0
BLOCK
  5
20
330
1F
100
AcDbEntity
  8
0
100
AcDbBlockBegin
  2
*Model_Space
 70
     0
 10
0.0
 20
0.0
 30
0.0
  3
*Model_Space
  1

  0
ENDBLK
  5
21
330
1F
100
AcDbEntity
  8
0
100
AcDbBlockEnd
  0
BLOCK
  5
1C
330
1B
100
AcDbEntity
 67
     1
  8
0
100
AcDbBlockBegin
  2
*Paper_Space
 70
     0
 10
0.0
 20
0.0
 30
0.0
  3
*Paper_Space
  1

  0
ENDBLK
  5
1D
330
1B
100
AcDbEntity
 67
     1
  8
0
100
AcDbBlockEnd
  0
BLOCK
  5
24
330
23
100
AcDbEntity
  8
0
100
AcDbBlockBegin
  2
*Paper_Space0
 70
     0
 10
0.0
 20
0.0
 30
0.0
  3
*Paper_Space0
  1

  0
ENDBLK
  5
25
330
23
100
AcDbEntity
  8
0
100
AcDbBlockEnd
  0
ENDSEC
  0
SECTION
  2
ENTITIES
  0
LINE
  5
7F
330
1F
100
AcDbEntity
  8
0
  6
Continuous
 62
     7
370
    25
100
AcDbLine
 10
6274.5187553361
 20
5205.9273151093
 30
0.0
 11
6274.5187553361
 21
5206.4494545927
 31
0.0
  0
LINE
  5
80
330
1F
100
AcDbEntity
  8
0
  6
Continuous
 62
     7
370
    25
100
AcDbLine
 10
6266.5187553361
 20
5206.4494545927
 30
0.0
 11
6266.5187553361
 21
5205.9273151093
 31
0.0
  0
LINE
  5
81
330
1F
100
AcDbEntity
  8
0
  6
Continuous
 62
     7
370
    25
100
AcDbLine
 10
6284.5187553361
 20
5203.9494545927
 30
0.0
 11
6284.5187553361
 21
5206.4494545927
 31
0.0
  0
LINE
  5
82
330
1F
100
AcDbEntity
  8
0
  6
Continuous
 62
     7
370
    25
100
AcDbLine
 10
6276.5187553361
 20
5206.4494545927
 30
0.0
 11
6276.5187553361
 21
5203.9494545927
 31
0.0
  0
LINE
  5
83
330
1F
100
AcDbEntity
  8
0
  6
Continuous
 62
     7
370
    25
100
AcDbLine
 10
6277.0187553361
 20
5217.4494545927
 30
0.0
 11
6277.0187553361
 21
5215.6768177491
 31
0.0
  0
LINE
  5
84
330
1F
100
AcDbEntity
  8
0
  6
Continuous
 62
     7
370
    25
100
AcDbLine
 10
6277.0187553361
 20
5213.0178624837
 30
0.0
 11
6277.0187553361
 21
5208.5862703747
 31
0.0
  0
LINE
  5
85
330
1F
100
AcDbEntity
  8
0
  6
Continuous
 62
     7
370
    25
100
AcDbLine
 10
6284.0187553361
 20
5207.4494545927
 30
0.0
 11
6284.0187553361
 21
5207.6999519529
 31
0.0
  0
LINE
  5
86
330
1F
100
AcDbEntity
  8
0
  6
Continuous
 62
     7
370
    25
100
AcDbLine
 10
6284.0187553361
 20
5210.3589072183
 30
0.0
 11
6284.0187553361
 21
5214.7904993273
 31
0.0
  0
LINE
  5
87
330
1F
100
AcDbEntity
  8
0
  6
Continuous
 62
     7
370
    25
100
AcDbLine
 10
6267.0187553361
 20
5216.5631361709
 30
0.0
 11
6267.0187553361
 21
5212.1315440619
 31
0.0
  0
LINE
  5
88
330
1F
100
AcDbEntity
  8
0
  6
Continuous
 62
     7
370
    25
100
AcDbLine
 10
6267.0187553361
 20
5209.4725887965
 30
0.0
 11
6267.0187553361
 21
5207.4494545927
 31
0.0
  0
LINE
  5
89
330
1F
100
AcDbEntity
  8
0
  6
Continuous
 62
     7
370
    25
100
AcDbLine
 10
6274.0187553361
 20
5207.4494545927
 30
0.0
 11
6274.0187553361
 21
5211.2452256401
 31
0.0
  0
LINE
  5
8A
330
1F
100
AcDbEntity
  8
0
  6
Continuous
 62
     7
370
    25
100
AcDbLine
 10
6274.0187553361
 20
5213.9041809055
 30
0.0
 11
6274.0187553361
 21
5217.4494545927
 31
0.0
  0
LINE
  5
8B
330
1F
100
AcDbEntity
  8
0
  6
Continuous
 62
     7
370
    25
100
AcDbLine
 10
6262.5187553361
 20
5217.4494545927
 30
0.0
 11
6262.5187553361
 21
5213.0178624837
 31
0.0
  0
LINE
  5
8C
330
1F
100
AcDbEntity
  8
0
  6
Continuous
 62
     7
370
    25
100
AcDbLine
 10
6262.5187553361
 20
5210.3589072183
 30
0.0
 11
6262.5187553361
 21
5207.4494545927
 31
0.0
  0
LINE
  5
8D
330
1F
100
AcDbEntity
  8
0
  6
Continuous
 62
     7
370
    25
100
AcDbLine
 10
6288.0187553361
 20
5207.4494545927
 30
0.0
 11
6288.0187553361
 21
5207.6999519529
 31
0.0
  0
LINE
  5
8E
330
1F
100
AcDbEntity
  8
0
  6
Continuous
 62
     7
370
    25
100
AcDbLine
 10
6288.0187553361
 20
5210.3589072183
 30
0.0
 11
6288.0187553361
 21
5214.7904993273
 31
0.0
  0
LINE
  5
8F
330
1F
100
AcDbEntity
  8
0
  6
Continuous
 62
     7
370
    25
100
AcDbLine
 10
6274.5187553361
 20
5217.4494545927
 30
0.0
 11
6274.5187553361
 21
5213.0178624837
 31
0.0
  0
LINE
  5
90
330
1F
100
AcDbEntity
  8
0
  6
Continuous
 62
     7
370
    25
100
AcDbLine
 10
6274.5187553361
 20
5210.3589072183
 30
0.0
 11
6274.5187553361
 21
5207.4494545927
 31
0.0
  0
LINE
  5
91
330
1F
100
AcDbEntity
  8
0
  6
Continuous
 62
     7
370
    25
100
AcDbLine
 10
6283.5495093624
 20
5188.1994545927
 30
0.0
 11
6264.4880013098
 21
5188.1994545927
 31
0.0
  0
LINE
  5
92
330
1F
100
AcDbEntity
  8
0
  6
Continuous
 62
     7
370
    25
100
AcDbLine
 10
6283.5495093624
 20
5184.4494545927
 30
0.0
 11
6283.5495093624
 21
5188.1994545927
 31
0.0
  0
LINE
  5
93
330
1F
100
AcDbEntity
  8
0
  6
Continuous
 62
     7
370
    25
100
AcDbLine
 10
6264.4880013098
 20
5184.4494545927
 30
0.0
 11
6264.4880013098
 21
5188.1994545927
 31
0.0
  0
LINE
  5
94
330
1F
100
AcDbEntity
  8
0
  6
Continuous
 62
     7
370
    25
100
AcDbLine
 10
6264.4880013098
 20
5184.4494545927
 30
0.0
 11
6283.5495093624
 21
5184.4494545927
 31
0.0
  0
LINE
  5
95
330
1F
100
AcDbEntity
  8
0
  6
Continuous
 62
     7
370
    25
100
AcDbLine
 10
6284.2687553361
 20
5184.4494545927
 30
0.0
 11
6284.2687553361
 21
5188.1994545927
 31
0.0
  0
LINE
  5
96
330
1F
100
AcDbEntity
  8
0
  6
Continuous
 62
     7
370
    25
100
AcDbLine
 10
6284.2687553361
 20
5188.1994545927
 30
0.0
 11
6283.5495093624
 21
5188.1994545927
 31
0.0
  0
LINE
  5
97
330
1F
100
AcDbEntity
  8
0
  6
Continuous
 62
     7
370
    25
100
AcDbLine
 10
6283.5495093624
 20
5184.4494545927
 30
0.0
 11
6284.2687553361
 21
5184.4494545927
 31
0.0
  0
LINE
  5
98
330
1F
100
AcDbEntity
  8
0
  6
Continuous
 62
     7
370
    25
100
AcDbLine
 10
6263.7687553361
 20
5184.4494545927
 30
0.0
 11
6263.7687553361
 21
5188.1994545927
 31
0.0
  0
LINE
  5
99
330
1F
100
AcDbEntity
  8
0
  6
Continuous
 62
     7
370
    25
100
AcDbLine
 10
6264.4880013098
 20
5188.1994545927
 30
0.0
 11
6263.7687553361
 21
5188.1994545927
 31
0.0
  0
LINE
  5
9A
330
1F
100
AcDbEntity
  8
0
  6
Continuous
 62
     7
370
    25
100
AcDbLine
 10
6263.7687553361
 20
5184.4494545927
 30
0.0
 11
6264.4880013098
 21
5184.4494545927
 31
0.0
  0
LINE
  5
9B
330
1F
100
AcDbEntity
  8
0
  6
Continuous
 62
     7
370
    25
100
AcDbLine
 10
6257.0187553361
 20
5219.4494545927
 30
0.0
 11
6257.0187553361
 21
5184.4494545927
 31
0.0
  0
LINE
  5
9C
330
1F
100
AcDbEntity
  8
0
  6
Continuous
 62
     7
370
    25
100
AcDbLine
 10
6291.0187553361
 20
5219.4494545927
 30
0.0
 11
6257.0187553361
 21
5219.4494545927
 31
0.0
  0
LINE
  5
9D
330
1F
100
AcDbEntity
  8
0
  6
Continuous
 62
     7
370
    25
100
AcDbLine
 10
6291.0187553361
 20
5219.4494545927
 30
0.0
 11
6291.0187553361
 21
5184.4494545927
 31
0.0
  0
LINE
  5
9E
330
1F
100
AcDbEntity
  8
0
  6
Continuous
 62
     7
370
    25
100
AcDbLine
 10
6291.0187553361
 20
5184.4494545927
 30
0.0
 11
6284.7687553361
 21
5184.4494545927
 31
0.0
  0
LINE
  5
9F
330
1F
100
AcDbEntity
  8
0
  6
Continuous
 62
     7
370
    25
100
AcDbLine
 10
6284.2687553361
 20
5188.1994545927
 30
0.0
 11
6284.7687553361
 21
5188.1994545927
 31
0.0
  0
LINE
  5
A0
330
1F
100
AcDbEntity
  8
0
  6
Continuous
 62
     7
370
    25
100
AcDbLine
 10
6263.2687553361
 20
5188.1994545927
 30
0.0
 11
6263.7687553361
 21
5188.1994545927
 31
0.0
  0
LINE
  5
A1
330
1F
100
AcDbEntity
  8
0
  6
Continuous
 62
     7
370
    25
100
AcDbLine
 10
6284.0187553361
 20
5217.4494545927
 30
0.0
 11
6286.5187553361
 21
5217.4494545927
 31
0.0
  0
LINE
  5
A2
330
1F
100
AcDbEntity
  8
0
  6
Continuous
 62
     7
370
    25
100
AcDbLine
 10
6289.0187553361
 20
5208.5862703747
 30
0.0
 11
6284.0187553361
 21
5217.4494545927
 31
0.0
  0
LINE
  5
A3
330
1F
100
AcDbEntity
  8
0
  6
Continuous
 62
     7
370
    25
100
AcDbLine
 10
6289.0187553361
 20
5213.0178624837
 30
0.0
 11
6289.0187553361
 21
5208.5862703747
 31
0.0
  0
LINE
  5
A4
330
1F
100
AcDbEntity
  8
0
  6
Continuous
 62
     7
370
    25
100
AcDbLine
 10
6286.5187553361
 20
5217.4494545927
 30
0.0
 11
6289.0187553361
 21
5213.0178624837
 31
0.0
  0
LINE
  5
A5
330
1F
100
AcDbEntity
  8
0
  6
Continuous
 62
     7
370
    25
100
AcDbLine
 10
6260.0187553361
 20
5217.4494545927
 30
0.0
 11
6262.5187553361
 21
5217.4494545927
 31
0.0
  0
LINE
  5
A6
330
1F
100
AcDbEntity
  8
0
  6
Continuous
 62
     7
370
    25
100
AcDbLine
 10
6267.634528442
 20
5203.9494545927
 30
0.0
 11
6260.0187553361
 21
5217.4494545927
 31
0.0
  0
LINE
  5
A7
330
1F
100
AcDbEntity
  8
0
  6
Continuous
 62
     7
370
    25
100
AcDbLine
 10
6270.134528442
 20
5203.9494545927
 30
0.0
 11
6267.634528442
 21
5203.9494545927
 31
0.0
  0
LINE
  5
A8
330
1F
100
AcDbEntity
  8
0
  6
Continuous
 62
     7
370
    25
100
AcDbLine
 10
6262.5187553361
 20
5217.4494545927
 30
0.0
 11
6270.134528442
 21
5203.9494545927
 31
0.0
  0
LINE
  5
A9
330
1F
100
AcDbEntity
  8
0
  6
Continuous
 62
     7
370
    25
100
AcDbLine
 10
6282.5187553361
 20
5217.4494545927
 30
0.0
 11
6289.0187553361
 21
5205.9273151093
 31
0.0
  0
LINE
  5
AA
330
1F
100
AcDbEntity
  8
0
  6
Continuous
 62
     7
370
    25
100
AcDbLine
 10
6280.0187553361
 20
5217.4494545927
 30
0.0
 11
6282.5187553361
 21
5217.4494545927
 31
0.0
  0
LINE
  5
AB
330
1F
100
AcDbEntity
  8
0
  6
Continuous
 62
     7
370
    25
100
AcDbLine
 10
6287.634528442
 20
5203.9494545927
 30
0.0
 11
6280.0187553361
 21
5217.4494545927
 31
0.0
  0
LINE
  5
AC
330
1F
100
AcDbEntity
  8
0
  6
Continuous
 62
     7
370
    25
100
AcDbLine
 10
6289.0187553361
 20
5203.9494545927
 30
0.0
 11
6287.634528442
 21
5203.9494545927
 31
0.0
  0
LINE
  5
AD
330
1F
100
AcDbEntity
  8
0
  6
Continuous
 62
     7
370
    25
100
AcDbLine
 10
6289.0187553361
 20
5205.9273151093
 30
0.0
 11
6289.0187553361
 21
5203.9494545927
 31
0.0
  0
LINE
  5
AE
330
1F
100
AcDbEntity
  8
0
  6
Continuous
 62
     7
370
    25
100
AcDbLine
 10
6289.0187553361
 20
5215.6768177491
 30
0.0
 11
6288.0187553361
 21
5217.4494545927
 31
0.0
  0
LINE
  5
AF
330
1F
100
AcDbEntity
  8
0
  6
Continuous
 62
     7
370
    25
100
AcDbLine
 10
6289.0187553361
 20
5217.4494545927
 30
0.0
 11
6289.0187553361
 21
5215.6768177491
 31
0.0
  0
LINE
  5
B0
330
1F
100
AcDbEntity
  8
0
  6
Continuous
 62
     7
370
    25
100
AcDbLine
 10
6288.0187553361
 20
5217.4494545927
 30
0.0
 11
6289.0187553361
 21
5217.4494545927
 31
0.0
  0
LINE
  5
B1
330
1F
100
AcDbEntity
  8
0
  6
Continuous
 62
     7
370
    25
100
AcDbLine
 10
6259.634528442
 20
5203.9494545927
 30
0.0
 11
6259.0187553361
 21
5205.0409966875
 31
0.0
  0
LINE
  5
B2
330
1F
100
AcDbEntity
  8
0
  6
Continuous
 62
     7
370
    25
100
AcDbLine
 10
6262.134528442
 20
5203.9494545927
 30
0.0
 11
6259.634528442
 21
5203.9494545927
 31
0.0
  0
LINE
  5
B3
330
1F
100
AcDbEntity
  8
0
  6
Continuous
 62
     7
370
    25
100
AcDbLine
 10
6259.0187553361
 20
5209.4725887965
 30
0.0
 11
6262.134528442
 21
5203.9494545927
 31
0.0
  0
LINE
  5
B4
330
1F
100
AcDbEntity
  8
0
  6
Continuous
 62
     7
370
    25
100
AcDbLine
 10
6259.0187553361
 20
5205.0409966875
 30
0.0
 11
6259.0187553361
 21
5209.4725887965
 31
0.0
  0
LINE
  5
B5
330
1F
100
AcDbEntity
  8
0
  6
Continuous
 62
     7
370
    25
100
AcDbLine
 10
6266.134528442
 20
5203.9494545927
 30
0.0
 11
6263.634528442
 21
5203.9494545927
 31
0.0
  0
LINE
  5
B6
330
1F
100
AcDbEntity
  8
0
  6
Continuous
 62
     7
370
    25
100
AcDbLine
 10
6259.0187553361
 20
5216.5631361709
 30
0.0
 11
6266.134528442
 21
5203.9494545927
 31
0.0
  0
LINE
  5
B7
330
1F
100
AcDbEntity
  8
0
  6
Continuous
 62
     7
370
    25
100
AcDbLine
 10
6259.0187553361
 20
5212.1315440619
 30
0.0
 11
6259.0187553361
 21
5216.5631361709
 31
0.0
  0
LINE
  5
B8
330
1F
100
AcDbEntity
  8
0
  6
Continuous
 62
     7
370
    25
100
AcDbLine
 10
6263.634528442
 20
5203.9494545927
 30
0.0
 11
6259.0187553361
 21
5212.1315440619
 31
0.0
  0
LINE
  5
B9
330
1F
100
AcDbEntity
  8
0
  6
Continuous
 62
     7
370
    25
100
AcDbLine
 10
6268.0187553361
 20
5217.4494545927
 30
0.0
 11
6270.5187553361
 21
5217.4494545927
 31
0.0
  0
LINE
  5
BA
330
1F
100
AcDbEntity
  8
0
  6
Continuous
 62
     7
370
    25
100
AcDbLine
 10
6275.634528442
 20
5203.9494545927
 30
0.0
 11
6268.0187553361
 21
5217.4494545927
 31
0.0
  0
LINE
  5
BB
330
1F
100
AcDbEntity
  8
0
  6
Continuous
 62
     7
370
    25
100
AcDbLine
 10
6278.134528442
 20
5203.9494545927
 30
0.0
 11
6275.634528442
 21
5203.9494545927
 31
0.0
  0
LINE
  5
BC
330
1F
100
AcDbEntity
  8
0
  6
Continuous
 62
     7
370
    25
100
AcDbLine
 10
6270.5187553361
 20
5217.4494545927
 30
0.0
 11
6278.134528442
 21
5203.9494545927
 31
0.0
  0
LINE
  5
BD
330
1F
100
AcDbEntity
  8
0
  6
Continuous
 62
     7
370
    25
100
AcDbLine
 10
6264.0187553361
 20
5217.4494545927
 30
0.0
 11
6266.5187553361
 21
5217.4494545927
 31
0.0
  0
LINE
  5
BE
330
1F
100
AcDbEntity
  8
0
  6
Continuous
 62
     7
370
    25
100
AcDbLine
 10
6271.634528442
 20
5203.9494545927
 30
0.0
 11
6264.0187553361
 21
5217.4494545927
 31
0.0
  0
LINE
  5
BF
330
1F
100
AcDbEntity
  8
0
  6
Continuous
 62
     7
370
    25
100
AcDbLine
 10
6274.134528442
 20
5203.9494545927
 30
0.0
 11
6271.634528442
 21
5203.9494545927
 31
0.0
  0
LINE
  5
C0
330
1F
100
AcDbEntity
  8
0
  6
Continuous
 62
     7
370
    25
100
AcDbLine
 10
6266.5187553361
 20
5217.4494545927
 30
0.0
 11
6274.134528442
 21
5203.9494545927
 31
0.0
  0
LINE
  5
C1
330
1F
100
AcDbEntity
  8
0
  6
Continuous
 62
     7
370
    25
100
AcDbLine
 10
6276.0187553361
 20
5217.4494545927
 30
0.0
 11
6278.5187553361
 21
5217.4494545927
 31
0.0
  0
LINE
  5
C2
330
1F
100
AcDbEntity
  8
0
  6
Continuous
 62
     7
370
    25
100
AcDbLine
 10
6283.634528442
 20
5203.9494545927
 30
0.0
 11
6276.0187553361
 21
5217.4494545927
 31
0.0
  0
LINE
  5
C3
330
1F
100
AcDbEntity
  8
0
  6
Continuous
 62
     7
370
    25
100
AcDbLine
 10
6286.134528442
 20
5203.9494545927
 30
0.0
 11
6283.634528442
 21
5203.9494545927
 31
0.0
  0
LINE
  5
C4
330
1F
100
AcDbEntity
  8
0
  6
Continuous
 62
     7
370
    25
100
AcDbLine
 10
6278.5187553361
 20
5217.4494545927
 30
0.0
 11
6286.134528442
 21
5203.9494545927
 31
0.0
  0
LINE
  5
C5
330
1F
100
AcDbEntity
  8
0
  6
Continuous
 62
     7
370
    25
100
AcDbLine
 10
6272.0187553361
 20
5217.4494545927
 30
0.0
 11
6274.5187553361
 21
5217.4494545927
 31
0.0
  0
LINE
  5
C6
330
1F
100
AcDbEntity
  8
0
  6
Continuous
 62
     7
370
    25
100
AcDbLine
 10
6279.634528442
 20
5203.9494545927
 30
0.0
 11
6272.0187553361
 21
5217.4494545927
 31
0.0
  0
LINE
  5
C7
330
1F
100
AcDbEntity
  8
0
  6
Continuous
 62
     7
370
    25
100
AcDbLine
 10
6282.134528442
 20
5203.9494545927
 30
0.0
 11
6279.634528442
 21
5203.9494545927
 31
0.0
  0
LINE
  5
C8
330
1F
100
AcDbEntity
  8
0
  6
Continuous
 62
     7
370
    25
100
AcDbLine
 10
6274.5187553361
 20
5217.4494545927
 30
0.0
 11
6282.134528442
 21
5203.9494545927
 31
0.0
  0
LINE
  5
C9
330
1F
100
AcDbEntity
  8
0
  6
Continuous
 62
     7
370
    25
100
AcDbLine
 10
6282.5187553361
 20
5197.7960794016
 30
0.0
 11
6282.5187553361
 21
5192.7960794016
 31
0.0
  0
LINE
  5
CA
330
1F
100
AcDbEntity
  8
0
  6
Continuous
 62
     7
370
    25
100
AcDbLine
 10
6278.5187553361
 20
5197.7960794016
 30
0.0
 11
6282.5187553361
 21
5197.7960794016
 31
0.0
  0
LINE
  5
CB
330
1F
100
AcDbEntity
  8
0
  6
Continuous
 62
     7
370
    25
100
AcDbLine
 10
6278.5187553361
 20
5192.7960794016
 30
0.0
 11
6278.5187553361
 21
5197.7960794016
 31
0.0
  0
LINE
  5
CC
330
1F
100
AcDbEntity
  8
0
  6
Continuous
 62
     7
370
    25
100
AcDbLine
 10
6282.5187553361
 20
5192.7960794016
 30
0.0
 11
6278.5187553361
 21
5192.7960794016
 31
0.0
  0
LINE
  5
CD
330
1F
100
AcDbEntity
  8
0
  6
Continuous
 62
     7
370
    25
100
AcDbLine
 10
6272.5187553361
 20
5197.7960794016
 30
0.0
 11
6272.5187553361
 21
5192.7960794016
 31
0.0
  0
LINE
  5
CE
330
1F
100
AcDbEntity
  8
0
  6
Continuous
 62
     7
370
    25
100
AcDbLine
 10
6268.5187553361
 20
5197.7960794016
 30
0.0
 11
6272.5187553361
 21
5197.7960794016
 31
0.0
  0
LINE
  5
CF
330
1F
100
AcDbEntity
  8
0
  6
Continuous
 62
     7
370
    25
100
AcDbLine
 10
6268.5187553361
 20
5192.7960794016
 30
0.0
 11
6268.5187553361
 21
5197.7960794016
 31
0.0
  0
LINE
  5
D0
330
1F
100
AcDbEntity
  8
0
  6
Continuous
 62
     7
370
    25
100
AcDbLine
 10
6272.5187553361
 20
5192.7960794016
 30
0.0
 11
6268.5187553361
 21
5192.7960794016
 31
0.0
  0
LINE
  5
D1
330
1F
100
AcDbEntity
  8
0
  6
Continuous
 62
     7
370
    25
100
AcDbLine
 10
6284.7687553361
 20
5188.1994545927
 30
0.0
 11
6284.7687553361
 21
5184.4494545927
 31
0.0
  0
LINE
  5
D2
330
1F
100
AcDbEntity
  8
0
  6
Continuous
 62
     7
370
    25
100
AcDbLine
 10
6263.2687553361
 20
5184.4494545927
 30
0.0
 11
6263.2687553361
 21
5188.1994545927
 31
0.0
  0
LINE
  5
D3
330
1F
100
AcDbEntity
  8
0
  6
Continuous
 62
     7
370
    25
100
AcDbLine
 10
6263.2687553361
 20
5184.4494545927
 30
0.0
 11
6257.0187553361
 21
5184.4494545927
 31
0.0
  0
LINE
  5
D4
330
1F
100
AcDbEntity
  8
0
  6
Continuous
 62
     7
370
    25
100
AcDbLine
 10
6263.2687553361
 20
5184.4494545927
 30
0.0
 11
6263.7687553361
 21
5184.4494545927
 31
0.0
  0
LINE
  5
D5
330
1F
100
AcDbEntity
  8
0
  6
Continuous
 62
     7
370
    25
100
AcDbLine
 10
6284.2687553361
 20
5184.4494545927
 30
0.0
 11
6284.7687553361
 21
5184.4494545927
 31
0.0
  0
LINE
  5
D6
330
1F
100
AcDbEntity
  8
0
  6
Continuous
 62
     7
370
    25
100
AcDbLine
 10
6270.5187553361
 20
5206.4494545927
 30
0.0
 11
6272.724200089
 21
5206.4494545927
 31
0.0
  0
LINE
  5
D7
330
1F
100
AcDbEntity
  8
0
  6
Continuous
 62
     7
370
    25
100
AcDbLine
 10
6274.224200089
 20
5206.4494545927
 30
0.0
 11
6274.5187553361
 21
5206.4494545927
 31
0.0
  0
LINE
  5
D8
330
1F
100
AcDbEntity
  8
0
  6
Continuous
 62
     7
370
    25
100
AcDbLine
 10
6266.5187553361
 20
5206.4494545927
 30
0.0
 11
6268.724200089
 21
5206.4494545927
 31
0.0
  0
LINE
  5
D9
330
1F
100
AcDbEntity
  8
0
  6
Continuous
 62
     7
370
    25
100
AcDbLine
 10
6270.224200089
 20
5206.4494545927
 30
0.0
 11
6270.5187553361
 21
5206.4494545927
 31
0.0
  0
LINE
  5
DA
330
1F
100
AcDbEntity
  8
0
  6
Continuous
 62
     7
370
    25
100
AcDbLine
 10
6280.5187553361
 20
5206.4494545927
 30
0.0
 11
6280.724200089
 21
5206.4494545927
 31
0.0
  0
LINE
  5
DB
330
1F
100
AcDbEntity
  8
0
  6
Continuous
 62
     7
370
    25
100
AcDbLine
 10
6282.224200089
 20
5206.4494545927
 30
0.0
 11
6284.5187553361
 21
5206.4494545927
 31
0.0
  0
LINE
  5
DC
330
1F
100
AcDbEntity
  8
0
  6
Continuous
 62
     7
370
    25
100
AcDbLine
 10
6276.5187553361
 20
5206.4494545927
 30
0.0
 11
6276.724200089
 21
5206.4494545927
 31
0.0
  0
LINE
  5
DD
330
1F
100
AcDbEntity
  8
0
  6
Continuous
 62
     7
370
    25
100
AcDbLine
 10
6278.224200089
 20
5206.4494545927
 30
0.0
 11
6280.5187553361
 21
5206.4494545927
 31
0.0
  0
LINE
  5
DE
330
1F
100
AcDbEntity
  8
0
  6
Continuous
 62
     7
370
    25
100
AcDbLine
 10
6281.6600687478
 20
5207.4494545927
 30
0.0
 11
6284.0187553361
 21
5207.4494545927
 31
0.0
  0
LINE
  5
DF
330
1F
100
AcDbEntity
  8
0
  6
Continuous
 62
     7
370
    25
100
AcDbLine
 10
6277.6600687479
 20
5207.4494545927
 30
0.0
 11
6280.1600687478
 21
5207.4494545927
 31
0.0
  0
LINE
  5
E0
330
1F
100
AcDbEntity
  8
0
  6
Continuous
 62
     7
370
    25
100
AcDbLine
 10
6270.5187553361
 20
5207.4494545927
 30
0.0
 11
6272.1600687478
 21
5207.4494545927
 31
0.0
  0
LINE
  5
E1
330
1F
100
AcDbEntity
  8
0
  6
Continuous
 62
     7
370
    25
100
AcDbLine
 10
6273.6600687478
 20
5207.4494545927
 30
0.0
 11
6274.0187553361
 21
5207.4494545927
 31
0.0
  0
LINE
  5
E2
330
1F
100
AcDbEntity
  8
0
  6
Continuous
 62
     7
370
    25
100
AcDbLine
 10
6267.0187553361
 20
5207.4494545927
 30
0.0
 11
6268.1600687479
 21
5207.4494545927
 31
0.0
  0
LINE
  5
E3
330
1F
100
AcDbEntity
  8
0
  6
Continuous
 62
     7
370
    25
100
AcDbLine
 10
6269.6600687479
 20
5207.4494545927
 30
0.0
 11
6270.5187553361
 21
5207.4494545927
 31
0.0
  0
LINE
  5
E4
330
1F
100
AcDbEntity
  8
0
  6
Continuous
 62
     7
370
    25
100
AcDbLine
 10
6264.4932150302
 20
5229.4494545927
 30
0.0
 11
6270.134528442
 21
5219.4494545927
 31
0.0
  0
LINE
  5
E5
330
1F
100
AcDbEntity
  8
0
  6
Continuous
 62
     7
370
    25
100
AcDbLine
 10
6261.9932150302
 20
5229.4494545927
 30
0.0
 11
6264.4932150302
 21
5229.4494545927
 31
0.0
  0
LINE
  5
E6
330
1F
100
AcDbEntity
  8
0
  6
Continuous
 62
     7
370
    25
100
AcDbLine
 10
6267.634528442
 20
5219.4494545927
 30
0.0
 11
6261.9932150302
 21
5229.4494545927
 31
0.0
  0
LINE
  5
E7
330
1F
100
AcDbEntity
  8
0
  6
Continuous
 62
     7
370
    25
100
AcDbLine
 10
6260.4932150302
 20
5229.4494545927
 30
0.0
 11
6266.134528442
 21
5219.4494545927
 31
0.0
  0
LINE
  5
E8
330
1F
100
AcDbEntity
  8
0
  6
Continuous
 62
     7
370
    25
100
AcDbLine
 10
6259.0187553361
 20
5229.4494545927
 30
0.0
 11
6260.4932150302
 21
5229.4494545927
 31
0.0
  0
LINE
  5
E9
330
1F
100
AcDbEntity
  8
0
  6
Continuous
 62
     7
370
    25
100
AcDbLine
 10
6263.634528442
 20
5219.4494545927
 30
0.0
 11
6259.0187553361
 21
5227.6315440619
 31
0.0
  0
LINE
  5
EA
330
1F
100
AcDbEntity
  8
0
  6
Continuous
 62
     7
370
    25
100
AcDbLine
 10
6259.0187553361
 20
5224.9725887965
 30
0.0
 11
6262.134528442
 21
5219.4494545927
 31
0.0
  0
LINE
  5
EB
330
1F
100
AcDbEntity
  8
0
  6
Continuous
 62
     7
370
    25
100
AcDbLine
 10
6259.634528442
 20
5219.4494545927
 30
0.0
 11
6259.0187553361
 21
5220.5409966875
 31
0.0
  0
LINE
  5
EC
330
1F
100
AcDbEntity
  8
0
  6
Continuous
 62
     7
370
    25
100
AcDbLine
 10
6291.0187553361
 20
5231.4494545927
 30
0.0
 11
6257.0187553361
 21
5231.4494545927
 31
0.0
  0
LINE
  5
ED
330
1F
100
AcDbEntity
  8
0
  6
Continuous
 62
     7
370
    25
100
AcDbLine
 10
6284.4932150302
 20
5229.4494545927
 30
0.0
 11
6289.0187553361
 21
5221.4273151093
 31
0.0
  0
LINE
  5
EE
330
1F
100
AcDbEntity
  8
0
  6
Continuous
 62
     7
370
    25
100
AcDbLine
 10
6281.9932150302
 20
5229.4494545927
 30
0.0
 11
6284.4932150302
 21
5229.4494545927
 31
0.0
  0
LINE
  5
EF
330
1F
100
AcDbEntity
  8
0
  6
Continuous
 62
     7
370
    25
100
AcDbLine
 10
6287.634528442
 20
5219.4494545927
 30
0.0
 11
6281.9932150302
 21
5229.4494545927
 31
0.0
  0
LINE
  5
F0
330
1F
100
AcDbEntity
  8
0
  6
Continuous
 62
     7
370
    25
100
AcDbLine
 10
6280.4932150302
 20
5229.4494545927
 30
0.0
 11
6286.134528442
 21
5219.4494545927
 31
0.0
  0
LINE
  5
F1
330
1F
100
AcDbEntity
  8
0
  6
Continuous
 62
     7
370
    25
100
AcDbLine
 10
6277.9932150302
 20
5229.4494545927
 30
0.0
 11
6280.4932150302
 21
5229.4494545927
 31
0.0
  0
LINE
  5
F2
330
1F
100
AcDbEntity
  8
0
  6
Continuous
 62
     7
370
    25
100
AcDbLine
 10
6283.634528442
 20
5219.4494545927
 30
0.0
 11
6277.9932150302
 21
5229.4494545927
 31
0.0
  0
LINE
  5
F3
330
1F
100
AcDbEntity
  8
0
  6
Continuous
 62
     7
370
    25
100
AcDbLine
 10
6276.4932150302
 20
5229.4494545927
 30
0.0
 11
6282.134528442
 21
5219.4494545927
 31
0.0
  0
LINE
  5
F4
330
1F
100
AcDbEntity
  8
0
  6
Continuous
 62
     7
370
    25
100
AcDbLine
 10
6273.9932150302
 20
5229.4494545927
 30
0.0
 11
6276.4932150302
 21
5229.4494545927
 31
0.0
  0
LINE
  5
F5
330
1F
100
AcDbEntity
  8
0
  6
Continuous
 62
     7
370
    25
100
AcDbLine
 10
6279.634528442
 20
5219.4494545927
 30
0.0
 11
6273.9932150302
 21
5229.4494545927
 31
0.0
  0
LINE
  5
F6
330
1F
100
AcDbEntity
  8
0
  6
Continuous
 62
     7
370
    25
100
AcDbLine
 10
6272.4932150302
 20
5229.4494545927
 30
0.0
 11
6278.134528442
 21
5219.4494545927
 31
0.0
  0
LINE
  5
F7
330
1F
100
AcDbEntity
  8
0
  6
Continuous
 62
     7
370
    25
100
AcDbLine
 10
6269.9932150302
 20
5229.4494545927
 30
0.0
 11
6272.4932150302
 21
5229.4494545927
 31
0.0
  0
LINE
  5
F8
330
1F
100
AcDbEntity
  8
0
  6
Continuous
 62
     7
370
    25
100
AcDbLine
 10
6275.634528442
 20
5219.4494545927
 30
0.0
 11
6269.9932150302
 21
5229.4494545927
 31
0.0
  0
LINE
  5
F9
330
1F
100
AcDbEntity
  8
0
  6
Continuous
 62
     7
370
    25
100
AcDbLine
 10
6268.4932150302
 20
5229.4494545927
 30
0.0
 11
6274.134528442
 21
5219.4494545927
 31
0.0
  0
LINE
  5
FA
330
1F
100
AcDbEntity
  8
0
  6
Continuous
 62
     7
370
    25
100
AcDbLine
 10
6265.9932150302
 20
5229.4494545927
 30
0.0
 11
6268.4932150302
 21
5229.4494545927
 31
0.0
  0
LINE
  5
FB
330
1F
100
AcDbEntity
  8
0
  6
Continuous
 62
     7
370
    25
100
AcDbLine
 10
6271.634528442
 20
5219.4494545927
 30
0.0
 11
6265.9932150302
 21
5229.4494545927
 31
0.0
  0
LINE
  5
FC
330
1F
100
AcDbEntity
  8
0
  6
Continuous
 62
     7
370
    25
100
AcDbLine
 10
6288.4932150302
 20
5229.4494545927
 30
0.0
 11
6289.0187553361
 21
5228.5178624837
 31
0.0
  0
LINE
  5
FD
330
1F
100
AcDbEntity
  8
0
  6
Continuous
 62
     7
370
    25
100
AcDbLine
 10
6285.9932150302
 20
5229.4494545927
 30
0.0
 11
6288.4932150302
 21
5229.4494545927
 31
0.0
  0
LINE
  5
FE
330
1F
100
AcDbEntity
  8
0
  6
Continuous
 62
     7
370
    25
100
AcDbLine
 10
6289.0187553361
 20
5224.0862703747
 30
0.0
 11
6285.9932150302
 21
5229.4494545927
 31
0.0
  0
LINE
  5
FF
330
1F
100
AcDbEntity
  8
0
  6
Continuous
 62
     7
370
    25
100
AcDbLine
 10
6259.0187553361
 20
5220.5409966875
 30
0.0
 11
6259.0187553361
 21
5224.9725887965
 31
0.0
  0
LINE
  5
100
330
1F
100
AcDbEntity
  8
0
  6
Continuous
 62
     7
370
    25
100
AcDbLine
 10
6259.0187553361
 20
5227.6315440619
 30
0.0
 11
6259.0187553361
 21
5229.4494545927
 31
0.0
  0
LINE
  5
101
330
1F
100
AcDbEntity
  8
0
  6
Continuous
 62
     7
370
    25
100
AcDbLine
 10
6289.0187553361
 20
5228.5178624837
 30
0.0
 11
6289.0187553361
 21
5224.0862703747
 31
0.0
  0
LINE
  5
102
330
1F
100
AcDbEntity
  8
0
  6
Continuous
 62
     7
370
    25
100
AcDbLine
 10
6289.0187553361
 20
5221.4273151093
 30
0.0
 11
6289.0187553361
 21
5219.4494545927
 31
0.0
  0
LINE
  5
103
330
1F
100
AcDbEntity
  8
0
  6
Continuous
 62
     7
370
    25
100
AcDbLine
 10
6257.0187553361
 20
5231.4494545927
 30
0.0
 11
6257.0187553361
 21
5219.4494545927
 31
0.0
  0
LINE
  5
104
330
1F
100
AcDbEntity
  8
0
  6
Continuous
 62
     7
370
    25
100
AcDbLine
 10
6291.0187553361
 20
5231.4494545927
 30
0.0
 11
6291.0187553361
 21
5219.4494545927
 31
0.0
  0
LINE
  5
105
330
1F
100
AcDbEntity
  8
0
  6
Continuous
 62
     7
370
    25
100
AcDbLine
 10
6286.2752807008
 20
5240.9494545927
 30
0.0
 11
6284.7752807008
 21
5240.9494545927
 31
0.0
  0
LINE
  5
106
330
1F
100
AcDbEntity
  8
0
  6
Continuous
 62
     7
370
    25
100
AcDbLine
 10
6289.0187553361
 20
5236.0862703747
 30
0.0
 11
6286.2752807008
 21
5240.9494545927
 31
0.0
  0
LINE
  5
107
330
1F
100
AcDbEntity
  8
0
  6
Continuous
 62
     7
370
    25
100
AcDbLine
 10
6288.7752807008
 20
5240.9494545927
 30
0.0
 11
6289.0187553361
 21
5240.5178624837
 31
0.0
  0
LINE
  5
108
330
1F
100
AcDbEntity
  8
0
  6
Continuous
 62
     7
370
    25
100
AcDbLine
 10
6291.0187553361
 20
5240.9494545927
 30
0.0
 11
6288.7752807008
 21
5240.9494545927
 31
0.0
  0
LINE
  5
109
330
1F
100
AcDbEntity
  8
0
  6
Continuous
 62
     7
370
    25
100
AcDbLine
 10
6284.7752807008
 20
5240.9494545927
 30
0.0
 11
6289.0187553361
 21
5233.4273151093
 31
0.0
  0
LINE
  5
10A
330
1F
100
AcDbEntity
  8
0
  6
Continuous
 62
     7
370
    25
100
AcDbLine
 10
6289.0187553361
 20
5240.5178624837
 30
0.0
 11
6289.0187553361
 21
5236.0862703747
 31
0.0
  0
LINE
  5
10B
330
1F
100
AcDbEntity
  8
0
  6
Continuous
 62
     7
370
    25
100
AcDbLine
 10
6289.0187553361
 20
5233.4273151093
 30
0.0
 11
6289.0187553361
 21
5231.4494545927
 31
0.0
  0
LINE
  5
10C
330
1F
100
AcDbEntity
  8
0
  6
Continuous
 62
     7
370
    25
100
AcDbLine
 10
6291.0187553361
 20
5240.9494545927
 30
0.0
 11
6291.0187553361
 21
5231.4494545927
 31
0.0
  0
LINE
  5
10D
330
1F
100
AcDbEntity
  8
0
  6
Continuous
 62
     7
370
    25
100
AcDbLine
 10
6259.0187553361
 20
5240.9494545927
 30
0.0
 11
6257.0187553361
 21
5240.9494545927
 31
0.0
  0
LINE
  5
10E
330
1F
100
AcDbEntity
  8
0
  6
Continuous
 62
     7
370
    25
100
AcDbLine
 10
6263.634528442
 20
5231.4494545927
 30
0.0
 11
6259.0187553361
 21
5239.6315440619
 31
0.0
  0
LINE
  5
10F
330
1F
100
AcDbEntity
  8
0
  6
Continuous
 62
     7
370
    25
100
AcDbLine
 10
6259.0187553361
 20
5236.9725887965
 30
0.0
 11
6262.134528442
 21
5231.4494545927
 31
0.0
  0
LINE
  5
110
330
1F
100
AcDbEntity
  8
0
  6
Continuous
 62
     7
370
    25
100
AcDbLine
 10
6259.634528442
 20
5231.4494545927
 30
0.0
 11
6259.0187553361
 21
5232.5409966875
 31
0.0
  0
LINE
  5
111
330
1F
100
AcDbEntity
  8
0
  6
Continuous
 62
     7
370
    25
100
AcDbLine
 10
6259.0187553361
 20
5239.6315440619
 30
0.0
 11
6259.0187553361
 21
5240.9494545927
 31
0.0
  0
LINE
  5
112
330
1F
100
AcDbEntity
  8
0
  6
Continuous
 62
     7
370
    25
100
AcDbLine
 10
6259.0187553361
 20
5232.5409966875
 30
0.0
 11
6259.0187553361
 21
5236.9725887965
 31
0.0
  0
LINE
  5
113
330
1F
100
AcDbEntity
  8
0
  6
Continuous
 62
     7
370
    25
100
AcDbLine
 10
6257.0187553361
 20
5240.9494545927
 30
0.0
 11
6257.0187553361
 21
5231.4494545927
 31
0.0
  0
LINE
  5
114
330
1F
100
AcDbEntity
  8
0
  6
Continuous
 62
     7
370
    25
100
AcDbLine
 10
6291.0187553361
 20
5242.9494545927
 30
0.0
 11
6257.0187553361
 21
5242.9494545927
 31
0.0
  0
LINE
  5
115
330
1F
100
AcDbEntity
  8
0
  6
Continuous
 62
     7
370
    25
100
AcDbLine
 10
6288.7752807008
 20
5240.9494545927
 30
0.0
 11
6286.2752807008
 21
5240.9494545927
 31
0.0
  0
LINE
  5
116
330
1F
100
AcDbEntity
  8
0
  6
Continuous
 62
     7
370
    25
100
AcDbLine
 10
6284.7752807008
 20
5240.9494545927
 30
0.0
 11
6282.2752807008
 21
5240.9494545927
 31
0.0
  0
LINE
  5
117
330
1F
100
AcDbEntity
  8
0
  6
Continuous
 62
     7
370
    25
100
AcDbLine
 10
6282.2752807008
 20
5240.9494545927
 30
0.0
 11
6280.7752807008
 21
5240.9494545927
 31
0.0
  0
LINE
  5
118
330
1F
100
AcDbEntity
  8
0
  6
Continuous
 62
     7
370
    25
100
AcDbLine
 10
6280.7752807008
 20
5240.9494545927
 30
0.0
 11
6278.2752807008
 21
5240.9494545927
 31
0.0
  0
LINE
  5
119
330
1F
100
AcDbEntity
  8
0
  6
Continuous
 62
     7
370
    25
100
AcDbLine
 10
6278.2752807008
 20
5240.9494545927
 30
0.0
 11
6276.7752807008
 21
5240.9494545927
 31
0.0
  0
LINE
  5
11A
330
1F
100
AcDbEntity
  8
0
  6
Continuous
 62
     7
370
    25
100
AcDbLine
 10
6276.7752807008
 20
5240.9494545927
 30
0.0
 11
6274.2752807008
 21
5240.9494545927
 31
0.0
  0
LINE
  5
11B
330
1F
100
AcDbEntity
  8
0
  6
Continuous
 62
     7
370
    25
100
AcDbLine
 10
6274.2752807008
 20
5240.9494545927
 30
0.0
 11
6272.7752807008
 21
5240.9494545927
 31
0.0
  0
LINE
  5
11C
330
1F
100
AcDbEntity
  8
0
  6
Continuous
 62
     7
370
    25
100
AcDbLine
 10
6272.7752807008
 20
5240.9494545927
 30
0.0
 11
6270.2752807008
 21
5240.9494545927
 31
0.0
  0
LINE
  5
11D
330
1F
100
AcDbEntity
  8
0
  6
Continuous
 62
     7
370
    25
100
AcDbLine
 10
6270.2752807008
 20
5240.9494545927
 30
0.0
 11
6268.7752807008
 21
5240.9494545927
 31
0.0
  0
LINE
  5
11E
330
1F
100
AcDbEntity
  8
0
  6
Continuous
 62
     7
370
    25
100
AcDbLine
 10
6268.7752807008
 20
5240.9494545927
 30
0.0
 11
6266.2752807008
 21
5240.9494545927
 31
0.0
  0
LINE
  5
11F
330
1F
100
AcDbEntity
  8
0
  6
Continuous
 62
     7
370
    25
100
AcDbLine
 10
6266.2752807008
 20
5240.9494545927
 30
0.0
 11
6264.7752807008
 21
5240.9494545927
 31
0.0
  0
LINE
  5
120
330
1F
100
AcDbEntity
  8
0
  6
Continuous
 62
     7
370
    25
100
AcDbLine
 10
6264.7752807008
 20
5240.9494545927
 30
0.0
 11
6262.2752807008
 21
5240.9494545927
 31
0.0
  0
LINE
  5
121
330
1F
100
AcDbEntity
  8
0
  6
Continuous
 62
     7
370
    25
100
AcDbLine
 10
6262.2752807008
 20
5240.9494545927
 30
0.0
 11
6260.7752807008
 21
5240.9494545927
 31
0.0
  0
LINE
  5
122
330
1F
100
AcDbEntity
  8
0
  6
Continuous
 62
     7
370
    25
100
AcDbLine
 10
6260.7752807008
 20
5240.9494545927
 30
0.0
 11
6259.0187553361
 21
5240.9494545927
 31
0.0
  0
LINE
  5
123
330
1F
100
AcDbEntity
  8
0
  6
Continuous
 62
     7
370
    25
100
AcDbLine
 10
6257.0187553361
 20
5242.9494545927
 30
0.0
 11
6257.0187553361
 21
5240.9494545927
 31
0.0
  0
LINE
  5
124
330
1F
100
AcDbEntity
  8
0
  6
Continuous
 62
     7
370
    25
100
AcDbLine
 10
6291.0187553361
 20
5242.9494545927
 30
0.0
 11
6291.0187553361
 21
5240.9494545927
 31
0.0
  0
LINE
  5
125
330
1F
100
AcDbEntity
  8
0
  6
Continuous
 62
     7
370
    25
100
AcDbLine
 10
6272.7752807008
 20
5240.9494545927
 30
0.0
 11
6278.134528442
 21
5231.4494545927
 31
0.0
  0
LINE
  5
126
330
1F
100
AcDbEntity
  8
0
  6
Continuous
 62
     7
370
    25
100
AcDbLine
 10
6279.634528442
 20
5231.4494545927
 30
0.0
 11
6274.2752807008
 21
5240.9494545927
 31
0.0
  0
LINE
  5
127
330
1F
100
AcDbEntity
  8
0
  6
Continuous
 62
     7
370
    25
100
AcDbLine
 10
6267.634528442
 20
5231.4494545927
 30
0.0
 11
6262.2752807008
 21
5240.9494545927
 31
0.0
  0
LINE
  5
128
330
1F
100
AcDbEntity
  8
0
  6
Continuous
 62
     7
370
    25
100
AcDbLine
 10
6260.7752807008
 20
5240.9494545927
 30
0.0
 11
6266.134528442
 21
5231.4494545927
 31
0.0
  0
LINE
  5
129
330
1F
100
AcDbEntity
  8
0
  6
Continuous
 62
     7
370
    25
100
AcDbLine
 10
6264.7752807008
 20
5240.9494545927
 30
0.0
 11
6270.134528442
 21
5231.4494545927
 31
0.0
  0
LINE
  5
12A
330
1F
100
AcDbEntity
  8
0
  6
Continuous
 62
     7
370
    25
100
AcDbLine
 10
6271.634528442
 20
5231.4494545927
 30
0.0
 11
6266.2752807008
 21
5240.9494545927
 31
0.0
  0
LINE
  5
12B
330
1F
100
AcDbEntity
  8
0
  6
Continuous
 62
     7
370
    25
100
AcDbLine
 10
6268.7752807008
 20
5240.9494545927
 30
0.0
 11
6274.134528442
 21
5231.4494545927
 31
0.0
  0
LINE
  5
12C
330
1F
100
AcDbEntity
  8
0
  6
Continuous
 62
     7
370
    25
100
AcDbLine
 10
6275.634528442
 20
5231.4494545927
 30
0.0
 11
6270.2752807008
 21
5240.9494545927
 31
0.0
  0
LINE
  5
12D
330
1F
100
AcDbEntity
  8
0
  6
Continuous
 62
     7
370
    25
100
AcDbLine
 10
6276.7752807008
 20
5240.9494545927
 30
0.0
 11
6282.134528442
 21
5231.4494545927
 31
0.0
  0
LINE
  5
12E
330
1F
100
AcDbEntity
  8
0
  6
Continuous
 62
     7
370
    25
100
AcDbLine
 10
6283.634528442
 20
5231.4494545927
 30
0.0
 11
6278.2752807008
 21
5240.9494545927
 31
0.0
  0
LINE
  5
12F
330
1F
100
AcDbEntity
  8
0
  6
Continuous
 62
     7
370
    25
100
AcDbLine
 10
6280.7752807008
 20
5240.9494545927
 30
0.0
 11
6286.134528442
 21
5231.4494545927
 31
0.0
  0
LINE
  5
130
330
1F
100
AcDbEntity
  8
0
  6
Continuous
 62
     7
370
    25
100
AcDbLine
 10
6287.634528442
 20
5231.4494545927
 30
0.0
 11
6282.2752807008
 21
5240.9494545927
 31
0.0
  0
LINE
  5
131
330
1F
100
AcDbEntity
  8
0
  6
Continuous
 62
     7
370
    25
100
AcDbLine
 10
6266.0187553361
 20
5207.4494545927
 30
0.0
 11
6267.0187553361
 21
5207.4494545927
 31
0.0
  0
LINE
  5
132
330
1F
100
AcDbEntity
  8
0
  6
Continuous
 62
     7
370
    25
100
AcDbLine
 10
6262.5187553361
 20
5207.4494545927
 30
0.0
 11
6264.1600687478
 21
5207.4494545927
 31
0.0
  0
LINE
  5
133
330
1F
100
AcDbEntity
  8
0
  6
Continuous
 62
     7
370
    25
100
AcDbLine
 10
6265.6600687478
 20
5207.4494545927
 30
0.0
 11
6266.0187553361
 21
5207.4494545927
 31
0.0
  0
LINE
  5
134
330
1F
100
AcDbEntity
  8
0
  6
Continuous
 62
     7
370
    25
100
AcDbLine
 10
6288.0187553361
 20
5206.4494545927
 30
0.0
 11
6288.0187553361
 21
5203.9494545927
 31
0.0
  0
LINE
  5
135
330
1F
100
AcDbEntity
  8
0
  6
Continuous
 62
     7
370
    25
100
AcDbLine
 10
6274.5187553361
 20
5206.4494545927
 30
0.0
 11
6276.5187553361
 21
5206.4494545927
 31
0.0
  0
LINE
  5
136
330
1F
100
AcDbEntity
  8
0
  6
Continuous
 62
     7
370
    25
100
AcDbLine
 10
6284.5187553361
 20
5206.4494545927
 30
0.0
 11
6284.724200089
 21
5206.4494545927
 31
0.0
  0
LINE
  5
137
330
1F
100
AcDbEntity
  8
0
  6
Continuous
 62
     7
370
    25
100
AcDbLine
 10
6286.224200089
 20
5206.4494545927
 30
0.0
 11
6288.0187553361
 21
5206.4494545927
 31
0.0
  0
LINE
  5
138
330
1F
100
AcDbEntity
  8
0
  6
Continuous
 62
     7
370
    25
100
AcDbLine
 10
6284.0187553361
 20
5207.4494545927
 30
0.0
 11
6284.1600687479
 21
5207.4494545927
 31
0.0
  0
LINE
  5
139
330
1F
100
AcDbEntity
  8
0
  6
Continuous
 62
     7
370
    25
100
AcDbLine
 10
6285.6600687479
 20
5207.4494545927
 30
0.0
 11
6288.0187553361
 21
5207.4494545927
 31
0.0
  0
LINE
  5
13A
330
1F
100
AcDbEntity
  8
0
  6
Continuous
 62
     7
370
    25
100
AcDbLine
 10
6274.5187553361
 20
5207.4494545927
 30
0.0
 11
6276.1600687479
 21
5207.4494545927
 31
0.0
  0
LINE
  5
13B
330
1F
100
AcDbEntity
  8
0
  6
Continuous
 62
     8
370
    25
100
AcDbLine
 10
6284.0187553361
 20
5207.4494545927
 30
0.0
 11
6284.0187553361
 21
5207.6999519529
 31
0.0
  0
LINE
  5
13C
330
1F
100
AcDbEntity
  8
0
  6
Continuous
 62
     8
370
    25
100
AcDbLine
 10
6284.0187553361
 20
5210.3589072183
 30
0.0
 11
6284.0187553361
 21
5214.7904993273
 31
0.0
  0
LINE
  5
13D
330
1F
100
AcDbEntity
  8
0
  6
Continuous
 62
     7
370
    25
100
AcDbLine
 10
6488.5883697466
 20
5184.4494545927
 30
0.0
 11
6488.5883697466
 21
5188.1994545927
 31
0.0
  0
LINE
  5
13E
330
1F
100
AcDbEntity
  8
0
  6
Continuous
 62
     7
370
    25
100
AcDbLine
 10
6423.0455126038
 20
5184.4494545927
 30
0.0
 11
6396.0455126038
 21
5184.4494545927
 31
0.0
  0
LINE
  5
13F
330
1F
100
AcDbEntity
  8
0
  6
Continuous
 62
     7
370
    25
100
AcDbLine
 10
6397.0455126038
 20
5219.4494545927
 30
0.0
 11
6409.5455126038
 21
5219.4494545927
 31
0.0
  0
LINE
  5
140
330
1F
100
AcDbEntity
  8
0
  6
Continuous
 62
     7
370
    25
100
AcDbLine
 10
6409.5455126038
 20
5219.4494545927
 30
0.0
 11
6409.5455126038
 21
5231.4494545927
 31
0.0
  0
LINE
  5
141
330
1F
100
AcDbEntity
  8
0
  6
Continuous
 62
     7
370
    25
100
AcDbLine
 10
6409.5455126038
 20
5231.4494545927
 30
0.0
 11
6418.5455126038
 21
5231.4494545927
 31
0.0
  0
LINE
  5
142
330
1F
100
AcDbEntity
  8
0
  6
Continuous
 62
     7
370
    25
100
AcDbLine
 10
6418.5455126038
 20
5231.4494545927
 30
0.0
 11
6418.5455126038
 21
5240.9494545927
 31
0.0
  0
LINE
  5
143
330
1F
100
AcDbEntity
  8
0
  6
Continuous
 62
     7
370
    25
100
AcDbLine
 10
6418.5455126038
 20
5240.9494545927
 30
0.0
 11
6420.5455126038
 21
5242.9494545927
 31
0.0
  0
LINE
  5
144
330
1F
100
AcDbEntity
  8
0
  6
Continuous
 62
     7
370
    25
100
AcDbLine
 10
6420.5455126038
 20
5242.9494545927
 30
0.0
 11
6461.5455126038
 21
5242.9494545927
 31
0.0
  0
LINE
  5
145
330
1F
100
AcDbEntity
  8
0
  6
Continuous
 62
     7
370
    25
100
AcDbLine
 10
6461.5455126038
 20
5242.9494545927
 30
0.0
 11
6463.5455126038
 21
5240.9494545927
 31
0.0
  0
LINE
  5
146
330
1F
100
AcDbEntity
  8
0
  6
Continuous
 62
     7
370
    25
100
AcDbLine
 10
6463.5455126038
 20
5240.9494545927
 30
0.0
 11
6463.5455126038
 21
5231.4494545927
 31
0.0
  0
LINE
  5
147
330
1F
100
AcDbEntity
  8
0
  6
Continuous
 62
     7
370
    25
100
AcDbLine
 10
6463.5455126038
 20
5231.4494545927
 30
0.0
 11
6472.5455126038
 21
5231.4494545927
 31
0.0
  0
LINE
  5
148
330
1F
100
AcDbEntity
  8
0
  6
Continuous
 62
     7
370
    25
100
AcDbLine
 10
6472.5455126038
 20
5231.4494545927
 30
0.0
 11
6472.5455126038
 21
5219.4494545927
 31
0.0
  0
LINE
  5
149
330
1F
100
AcDbEntity
  8
0
  6
Continuous
 62
     7
370
    25
100
AcDbLine
 10
6472.5455126038
 20
5219.4494545927
 30
0.0
 11
6485.0455126038
 21
5219.4494545927
 31
0.0
  0
LINE
  5
14A
330
1F
100
AcDbEntity
  8
0
  6
Continuous
 62
     7
370
    25
100
AcDbLine
 10
6485.0455126038
 20
5219.4494545927
 30
0.0
 11
6486.0455126038
 21
5184.4494545927
 31
0.0
  0
LINE
  5
14B
330
1F
100
AcDbEntity
  8
0
  6
Continuous
 62
     7
370
    25
100
AcDbLine
 10
6486.0455126038
 20
5184.4494545927
 30
0.0
 11
6460.0455126038
 21
5184.4494545927
 31
0.0
  0
LINE
  5
14C
330
1F
100
AcDbEntity
  8
0
  6
Continuous
 62
     7
370
    25
100
AcDbLine
 10
6460.0455126038
 20
5184.4494545927
 30
0.0
 11
6459.0455126038
 21
5188.1994545927
 31
0.0
  0
LINE
  5
14D
330
1F
100
AcDbEntity
  8
0
  6
Continuous
 62
     7
370
    25
100
AcDbLine
 10
6459.0455126038
 20
5188.1994545927
 30
0.0
 11
6423.0455126038
 21
5188.1994545927
 31
0.0
  0
LINE
  5
14E
330
1F
100
AcDbEntity
  8
0
  6
Continuous
 62
     7
370
    25
100
AcDbLine
 10
6423.0455126038
 20
5188.1994545927
 30
0.0
 11
6423.0455126038
 21
5184.4494545927
 31
0.0
  0
LINE
  5
14F
330
1F
100
AcDbEntity
  8
0
  6
Continuous
 62
     7
370
    25
100
AcDbLine
 10
6448.5455126038
 20
5200.6994545927
 30
0.0
 11
6448.5455126038
 21
5204.6994545927
 31
0.0
  0
LINE
  5
150
330
1F
100
AcDbEntity
  8
0
  6
Continuous
 62
     7
370
    25
100
AcDbLine
 10
6448.5455126038
 20
5204.6994545927
 30
0.0
 11
6443.0455126038
 21
5204.6994545927
 31
0.0
  0
LINE
  5
151
330
1F
100
AcDbEntity
  8
0
  6
Continuous
 62
     7
370
    25
100
AcDbLine
 10
6443.0455126038
 20
5204.6994545927
 30
0.0
 11
6443.0455126038
 21
5200.6994545927
 31
0.0
  0
LINE
  5
152
330
1F
100
AcDbEntity
  8
0
  6
Continuous
 62
     7
370
    25
100
AcDbLine
 10
6443.0455126038
 20
5200.6994545927
 30
0.0
 11
6448.5455126038
 21
5200.6994545927
 31
0.0
  0
LINE
  5
153
330
1F
100
AcDbEntity
  8
0
  6
Continuous
 62
     7
370
    25
100
AcDbLine
 10
6439.0455126038
 20
5200.6994545927
 30
0.0
 11
6439.0455126038
 21
5204.6994545927
 31
0.0
  0
LINE
  5
154
330
1F
100
AcDbEntity
  8
0
  6
Continuous
 62
     7
370
    25
100
AcDbLine
 10
6439.0455126038
 20
5204.6994545927
 30
0.0
 11
6433.5455126038
 21
5204.6994545927
 31
0.0
  0
LINE
  5
155
330
1F
100
AcDbEntity
  8
0
  6
Continuous
 62
     7
370
    25
100
AcDbLine
 10
6433.5455126038
 20
5204.6994545927
 30
0.0
 11
6433.5455126038
 21
5200.6994545927
 31
0.0
  0
LINE
  5
156
330
1F
100
AcDbEntity
  8
0
  6
Continuous
 62
     7
370
    25
100
AcDbLine
 10
6433.5455126038
 20
5200.6994545927
 30
0.0
 11
6439.0455126038
 21
5200.6994545927
 31
0.0
  0
LINE
  5
157
330
1F
100
AcDbEntity
  8
0
  6
Continuous
 62
     7
370
    25
100
AcDbLine
 10
6396.0455126038
 20
5184.4494545927
 30
0.0
 11
6397.0455126038
 21
5219.4494545927
 31
0.0
  0
LINE
  5
158
330
1F
100
AcDbEntity
  8
0
  6
Continuous
 62
     7
370
    25
100
AcDbLine
 10
6433.5455126038
 20
5203.6994545927
 30
0.0
 11
6439.0455126038
 21
5203.6994545927
 31
0.0
  0
LINE
  5
159
330
1F
100
AcDbEntity
  8
0
  6
Continuous
 62
     7
370
    25
100
AcDbLine
 10
6443.0455126038
 20
5203.6994545927
 30
0.0
 11
6448.5455126038
 21
5203.6994545927
 31
0.0
  0
LINE
  5
15A
330
1F
100
AcDbEntity
  8
0
  6
Continuous
 62
     7
370
    25
100
AcDbLine
 10
6486.2632337268
 20
5188.1994545927
 30
0.0
 11
6485.9383697466
 21
5188.1994545927
 31
0.0
  0
LINE
  5
15B
330
1F
100
AcDbEntity
  8
0
  6
Continuous
 62
     7
370
    25
100
AcDbLine
 10
6486.2632337268
 20
5184.4494545927
 30
0.0
 11
6486.2632337268
 21
5188.1994545927
 31
0.0
  0
LINE
  5
15C
330
1F
100
AcDbEntity
  8
0
  6
Continuous
 62
     7
370
    25
100
AcDbLine
 10
6486.0455126038
 20
5184.4494545927
 30
0.0
 11
6486.2632337268
 21
5184.4494545927
 31
0.0
  0
LINE
  5
15D
330
1F
100
AcDbEntity
  8
0
  6
Continuous
 62
     7
370
    25
100
AcDbLine
 10
6487.223013481
 20
5184.4494545927
 30
0.0
 11
6487.223013481
 21
5188.1994545927
 31
0.0
  0
LINE
  5
15E
330
1F
100
AcDbEntity
  8
0
  6
Continuous
 62
     7
370
    25
100
AcDbLine
 10
6487.223013481
 20
5188.1994545927
 30
0.0
 11
6486.2632337268
 21
5188.1994545927
 31
0.0
  0
LINE
  5
15F
330
1F
100
AcDbEntity
  8
0
  6
Continuous
 62
     7
370
    25
100
AcDbLine
 10
6486.2632337268
 20
5184.4494545927
 30
0.0
 11
6487.223013481
 21
5184.4494545927
 31
0.0
  0
LINE
  5
160
330
1F
100
AcDbEntity
  8
0
  6
Continuous
 62
     7
370
    25
100
AcDbLine
 10
6488.5883697466
 20
5188.1994545927
 30
0.0
 11
6487.223013481
 21
5188.1994545927
 31
0.0
  0
LINE
  5
161
330
1F
100
AcDbEntity
  8
0
  6
Continuous
 62
     7
370
    25
100
AcDbLine
 10
6487.223013481
 20
5184.4494545927
 30
0.0
 11
6488.5883697466
 21
5184.4494545927
 31
0.0
  0
LINE
  5
162
330
1F
100
AcDbEntity
  8
0
  6
Continuous
 62
     7
370
    25
100
AcDbLine
 10
6459.0455126038
 20
5184.4494545927
 30
0.0
 11
6456.5455126038
 21
5187.1994545927
 31
0.0
  0
LINE
  5
163
330
1F
100
AcDbEntity
  8
0
  6
Continuous
 62
     7
370
    25
100
AcDbLine
 10
6456.5455126038
 20
5187.1994545927
 30
0.0
 11
6459.0455126038
 21
5187.1994545927
 31
0.0
  0
LINE
  5
164
330
1F
100
AcDbEntity
  8
0
  6
Continuous
 62
     7
370
    25
100
AcDbLine
 10
6459.0455126038
 20
5187.1994545927
 30
0.0
 11
6459.0455126038
 21
5188.1994545927
 31
0.0
  0
LINE
  5
165
330
1F
100
AcDbEntity
  8
0
  6
Continuous
 62
     7
370
    25
100
AcDbLine
 10
6459.0455126038
 20
5184.4494545927
 30
0.0
 11
6460.0455126038
 21
5184.4494545927
 31
0.0
  0
LINE
  5
166
330
1F
100
AcDbEntity
  8
0
  6
Continuous
 62
     7
370
    25
100
AcDbLine
 10
6265.0298273521
 20
5034.2485706043
 30
0.0
 11
6264.5988208586
 21
5034.2485706043
 31
0.0
  0
ARC
  5
167
330
1F
100
AcDbEntity
  8
0
  6
Continuous
 62
     7
370
    25
100
AcDbCircle
 10
6265.0969728344
 20
5033.9210842516
 30
0.0
 40
0.3342990084228561
100
AcDbArc
 50
354.9802864074
 51
101.5869361879
  0
ARC
  5
168
330
1F
100
AcDbEntity
  8
0
  6
Continuous
 62
     7
370
    25
100
AcDbCircle
 10
6265.0870852309
 20
5033.8614135442
 30
0.0
 40
0.3442511396741416
100
AcDbArc
 50
261.1100722673
 51
5.0696030271
  0
LINE
  5
169
330
1F
100
AcDbEntity
  8
0
  6
Continuous
 62
     7
370
    25
100
AcDbLine
 10
6264.5988208586
 20
5034.2485706043
 30
0.0
 11
6264.5988208586
 21
5033.5212978771
 31
0.0
  0
LINE
  5
16A
330
1F
100
AcDbEntity
  8
0
  6
Continuous
 62
     7
370
    25
100
AcDbLine
 10
6264.5988208586
 20
5033.5212978771
 30
0.0
 11
6265.0338857936
 21
5033.5212978771
 31
0.0
  0
LINE
  5
16B
330
1F
100
AcDbEntity
  8
0
  6
Continuous
 62
     7
370
    25
100
AcDbLine
 10
6268.209210469
 20
5034.2485706043
 30
0.0
 11
6268.209210469
 21
5032.4823368381
 31
0.0
  0
LINE
  5
16C
330
1F
100
AcDbEntity
  8
0
  6
Continuous
 62
     7
370
    25
100
AcDbLine
 10
6268.7546650144
 20
5034.2485706043
 30
0.0
 11
6268.209210469
 21
5034.2485706043
 31
0.0
  0
LINE
  5
16D
330
1F
100
AcDbEntity
  8
0
  6
Continuous
 62
     7
370
    25
100
AcDbLine
 10
6268.7546650144
 20
5034.4823368381
 30
0.0
 11
6268.7546650144
 21
5034.2485706043
 31
0.0
  0
LINE
  5
16E
330
1F
100
AcDbEntity
  8
0
  6
Continuous
 62
     7
370
    25
100
AcDbLine
 10
6267.4559637157
 20
5034.4823368381
 30
0.0
 11
6268.7546650144
 21
5034.4823368381
 31
0.0
  0
LINE
  5
16F
330
1F
100
AcDbEntity
  8
0
  6
Continuous
 62
     7
370
    25
100
AcDbLine
 10
6267.4559637157
 20
5034.2485706043
 30
0.0
 11
6267.4559637157
 21
5034.4823368381
 31
0.0
  0
LINE
  5
170
330
1F
100
AcDbEntity
  8
0
  6
Continuous
 62
     7
370
    25
100
AcDbLine
 10
6268.0014182612
 20
5034.2485706043
 30
0.0
 11
6267.4559637157
 21
5034.2485706043
 31
0.0
  0
LINE
  5
171
330
1F
100
AcDbEntity
  8
0
  6
Continuous
 62
     7
370
    25
100
AcDbLine
 10
6268.0014182612
 20
5032.4823368381
 30
0.0
 11
6268.0014182612
 21
5034.2485706043
 31
0.0
  0
LINE
  5
172
330
1F
100
AcDbEntity
  8
0
  6
Continuous
 62
     7
370
    25
100
AcDbLine
 10
6268.209210469
 20
5032.4823368381
 30
0.0
 11
6268.0014182612
 21
5032.4823368381
 31
0.0
  0
LINE
  5
173
330
1F
100
AcDbEntity
  8
0
  6
Continuous
 62
     7
370
    25
100
AcDbLine
 10
6269.2221974819
 20
5032.7680511238
 30
0.0
 11
6269.2221974819
 21
5032.4823368381
 31
0.0
  0
LINE
  5
174
330
1F
100
AcDbEntity
  8
0
  6
Continuous
 62
     7
370
    25
100
AcDbLine
 10
6269.0144052741
 20
5032.7680511238
 30
0.0
 11
6269.2221974819
 21
5032.7680511238
 31
0.0
  0
LINE
  5
175
330
1F
100
AcDbEntity
  8
0
  6
Continuous
 62
     7
370
    25
100
AcDbLine
 10
6269.0144052741
 20
5032.4823368381
 30
0.0
 11
6269.0144052741
 21
5032.7680511238
 31
0.0
  0
LINE
  5
176
330
1F
100
AcDbEntity
  8
0
  6
Continuous
 62
     7
370
    25
100
AcDbLine
 10
6269.2221974819
 20
5032.4823368381
 30
0.0
 11
6269.0144052741
 21
5032.4823368381
 31
0.0
  0
LWPOLYLINE
  5
177
330
1F
100
AcDbEntity
  8
0
  6
Continuous
 62
     7
370
    25
100
AcDbPolyline
 90
        6
 70
   128
 43
0.0
 10
6266.5468728066
 20
5032.6901290459
 10
6266.7669419806
 20
5032.7312166935
 10
6266.8597596344
 20
5032.794276152
 10
6266.9231820314
 20
5032.8868168306
 10
6266.9768497628
 20
5033.1050369988
 10
6266.9884312482
 20
5033.3301452797
  0
LWPOLYLINE
  5
178
330
1F
100
AcDbEntity
  8
0
  6
Continuous
 62
     7
370
    25
100
AcDbPolyline
 90
        6
 70
   128
 43
0.0
 10
6266.131288391
 20
5033.3301452797
 10
6266.1403554556
 20
5033.1111286303
 10
6266.1894493462
 20
5032.8984433131
 10
6266.2495845978
 20
5032.8071124745
 10
6266.3354236272
 20
5032.7394960535
 10
6266.5468728066
 20
5032.6901290459
  0
LINE
  5
179
330
1F
100
AcDbEntity
  8
0
  6
Continuous
 62
     7
370
    25
100
AcDbLine
 10
6266.131288391
 20
5034.4823368381
 30
0.0
 11
6266.131288391
 21
5033.3301452797
 31
0.0
  0
LINE
  5
17A
330
1F
100
AcDbEntity
  8
0
  6
Continuous
 62
     7
370
    25
100
AcDbLine
 10
6265.9234961832
 20
5034.4823368381
 30
0.0
 11
6266.131288391
 21
5034.4823368381
 31
0.0
  0
LINE
  5
17B
330
1F
100
AcDbEntity
  8
0
  6
Continuous
 62
     7
370
    25
100
AcDbLine
 10
6265.9234961832
 20
5033.3313628121
 30
0.0
 11
6265.9234961832
 21
5034.4823368381
 31
0.0
  0
LWPOLYLINE
  5
17C
330
1F
100
AcDbEntity
  8
0
  6
Continuous
 62
     7
370
    25
100
AcDbPolyline
 90
        6
 70
   128
 43
0.0
 10
6266.5627007287
 20
5032.4563628121
 10
6266.2586743638
 20
5032.5149892813
 10
6266.1289739312
 20
5032.6005747026
 10
6266.03346364
 20
5032.7230943521
 10
6265.9437152656
 20
5033.0203390447
 10
6265.9234961832
 20
5033.3313628121
  0
LWPOLYLINE
  5
17D
330
1F
100
AcDbEntity
  8
0
  6
Continuous
 62
     7
370
    25
100
AcDbPolyline
 90
        6
 70
   128
 43
0.0
 10
6267.196223456
 20
5033.3313628121
 10
6267.1762214722
 20
5033.0225947435
 10
6267.0854707457
 20
5032.7283538135
 10
6266.9898431246
 20
5032.6072308371
 10
6266.8632276185
 20
5032.5190978365
 10
6266.5627007287
 20
5032.4563628121
  0
LINE
  5
17E
330
1F
100
AcDbEntity
  8
0
  6
Continuous
 62
     7
370
    25
100
AcDbLine
 10
6267.196223456
 20
5034.4823368381
 30
0.0
 11
6267.196223456
 21
5033.3313628121
 31
0.0
  0
LINE
  5
17F
330
1F
100
AcDbEntity
  8
0
  6
Continuous
 62
     7
370
    25
100
AcDbLine
 10
6266.9884312482
 20
5034.4823368381
 30
0.0
 11
6267.196223456
 21
5034.4823368381
 31
0.0
  0
LINE
  5
180
330
1F
100
AcDbEntity
  8
0
  6
Continuous
 62
     7
370
    25
100
AcDbLine
 10
6266.9884312482
 20
5033.3301452797
 30
0.0
 11
6266.9884312482
 21
5034.4823368381
 31
0.0
  0
LINE
  5
181
330
1F
100
AcDbEntity
  8
0
  6
Continuous
 62
     7
370
    25
100
AcDbLine
 10
6263.6118078716
 20
5034.2485706043
 30
0.0
 11
6263.6118078716
 21
5032.4823368381
 31
0.0
  0
LINE
  5
182
330
1F
100
AcDbEntity
  8
0
  6
Continuous
 62
     7
370
    25
100
AcDbLine
 10
6264.157262417
 20
5034.2485706043
 30
0.0
 11
6263.6118078716
 21
5034.2485706043
 31
0.0
  0
LINE
  5
183
330
1F
100
AcDbEntity
  8
0
  6
Continuous
 62
     7
370
    25
100
AcDbLine
 10
6264.157262417
 20
5034.4823368381
 30
0.0
 11
6264.157262417
 21
5034.2485706043
 31
0.0
  0
LINE
  5
184
330
1F
100
AcDbEntity
  8
0
  6
Continuous
 62
     7
370
    25
100
AcDbLine
 10
6262.8585611183
 20
5034.4823368381
 30
0.0
 11
6264.157262417
 21
5034.4823368381
 31
0.0
  0
LINE
  5
185
330
1F
100
AcDbEntity
  8
0
  6
Continuous
 62
     7
370
    25
100
AcDbLine
 10
6262.8585611183
 20
5034.2485706043
 30
0.0
 11
6262.8585611183
 21
5034.4823368381
 31
0.0
  0
LINE
  5
186
330
1F
100
AcDbEntity
  8
0
  6
Continuous
 62
     7
370
    25
100
AcDbLine
 10
6263.4040156638
 20
5034.2485706043
 30
0.0
 11
6262.8585611183
 21
5034.2485706043
 31
0.0
  0
LINE
  5
187
330
1F
100
AcDbEntity
  8
0
  6
Continuous
 62
     7
370
    25
100
AcDbLine
 10
6263.4040156638
 20
5032.4823368381
 30
0.0
 11
6263.4040156638
 21
5034.2485706043
 31
0.0
  0
LINE
  5
188
330
1F
100
AcDbEntity
  8
0
  6
Continuous
 62
     7
370
    25
100
AcDbLine
 10
6263.6118078716
 20
5032.4823368381
 30
0.0
 11
6263.4040156638
 21
5032.4823368381
 31
0.0
  0
ARC
  5
189
330
1F
100
AcDbEntity
  8
0
  6
Continuous
 62
     7
370
    25
100
AcDbCircle
 10
6266.5566825333
 20
5037.7744612043
 30
0.0
 40
0.620158784916343
100
AcDbArc
 50
275.9661406429
 51
8.3613526381
  0
LWPOLYLINE
  5
18A
330
1F
100
AcDbEntity
  8
0
  6
Continuous
 62
     7
370
    25
100
AcDbPolyline
 90
        4
 70
   128
 43
0.0
 10
6266.6824247547
 20
5038.5083108641
 10
6266.9185819557
 20
5038.433261049
 10
6267.0844777245
 20
5038.2465908866
 10
6267.17024943
 20
5037.8646420329
  0
LWPOLYLINE
  5
18B
330
1F
100
AcDbEntity
  8
0
  6
Continuous
 62
     7
370
    25
100
AcDbPolyline
 90
        3
 70
   128
 43
0.0
 10
6266.3861585209
 20
5038.429982942
 10
6266.5472356382
 20
5038.4930970888
 10
6266.6824247547
 20
5038.5083108641
  0
LINE
  5
18C
330
1F
100
AcDbEntity
  8
0
  6
Continuous
 62
     7
370
    25
100
AcDbLine
 10
6266.4612396897
 20
5038.9238952797
 30
0.0
 11
6266.3861585209
 21
5038.429982942
 31
0.0
  0
LINE
  5
18D
330
1F
100
AcDbEntity
  8
0
  6
Continuous
 62
     7
370
    25
100
AcDbLine
 10
6267.0923273521
 20
5038.9238952797
 30
0.0
 11
6266.4612396897
 21
5038.9238952797
 31
0.0
  0
LINE
  5
18E
330
1F
100
AcDbEntity
  8
0
  6
Continuous
 62
     7
370
    25
100
AcDbLine
 10
6267.0923273521
 20
5039.1576615134
 30
0.0
 11
6267.0923273521
 21
5038.9238952797
 31
0.0
  0
LINE
  5
18F
330
1F
100
AcDbEntity
  8
0
  6
Continuous
 62
     7
370
    25
100
AcDbLine
 10
6266.2871325469
 20
5039.1576615134
 30
0.0
 11
6267.0923273521
 21
5039.1576615134
 31
0.0
  0
LINE
  5
190
330
1F
100
AcDbEntity
  8
0
  6
Continuous
 62
     7
370
    25
100
AcDbLine
 10
6266.131288391
 20
5038.1329050199
 30
0.0
 11
6266.2871325469
 21
5039.1576615134
 31
0.0
  0
LINE
  5
191
330
1F
100
AcDbEntity
  8
0
  6
Continuous
 62
     7
370
    25
100
AcDbLine
 10
6266.3390805988
 20
5038.1032783965
 30
0.0
 11
6266.131288391
 21
5038.1329050199
 31
0.0
  0
ARC
  5
192
330
1F
100
AcDbEntity
  8
0
  6
Continuous
 62
     7
370
    25
100
AcDbCircle
 10
6266.6344366787
 20
5037.981014973
 30
0.0
 40
0.3196616315438205
100
AcDbArc
 50
91.8012237043
 51
157.512762491
  0
ARC
  5
193
330
1F
100
AcDbEntity
  8
0
  6
Continuous
 62
     7
370
    25
100
AcDbCircle
 10
6266.5866805347
 20
5037.9206221354
 30
0.0
 40
0.3817634058120348
100
AcDbArc
 50
349.8397574749
 51
84.3313924516
  0
LWPOLYLINE
  5
194
330
1F
100
AcDbEntity
  8
0
  6
Continuous
 62
     7
370
    25
100
AcDbPolyline
 90
        5
 70
   128
 43
0.0
 10
6266.6191130664
 20
5037.3654537212
 10
6266.7388558816
 20
5037.3926124178
 10
6266.8366406133
 20
5037.4674519706
 10
6266.9061140716
 20
5037.5693978593
 10
6266.9624572222
 20
5037.8532783965
  0
ARC
  5
195
330
1F
100
AcDbEntity
  8
0
  6
Continuous
 62
     7
370
    25
100
AcDbCircle
 10
6266.6801911442
 20
5037.7284019564
 30
0.0
 40
0.3680515629578016
100
AcDbArc
 50
175.8457772106
 51
260.4475861402
  0
LINE
  5
196
330
1F
100
AcDbEntity
  8
0
  6
Continuous
 62
     7
370
    25
100
AcDbLine
 10
6266.1053143651
 20
5037.7290900849
 30
0.0
 11
6266.3131065729
 21
5037.7550641108
 31
0.0
  0
LWPOLYLINE
  5
197
330
1F
100
AcDbEntity
  8
0
  6
Continuous
 62
     7
370
    25
100
AcDbPolyline
 90
        4
 70
   128
 43
0.0
 10
6266.6211422871
 20
5037.1576615134
 10
6266.3911485063
 20
5037.2139092716
 10
6266.2164112474
 20
5037.3742755004
 10
6266.1053143651
 20
5037.7290900849
  0
LINE
  5
198
330
1F
100
AcDbEntity
  8
0
  6
Continuous
 62
     7
370
    25
100
AcDbLine
 10
6269.209210469
 20
5039.2096095654
 30
0.0
 11
6268.7096163131
 21
5037.1576615134
 31
0.0
  0
LINE
  5
199
330
1F
100
AcDbEntity
  8
0
  6
Continuous
 62
     7
370
    25
100
AcDbLine
 10
6269.0497137157
 20
5039.2096095654
 30
0.0
 11
6269.209210469
 21
5039.2096095654
 31
0.0
  0
LINE
  5
19A
330
1F
100
AcDbEntity
  8
0
  6
Continuous
 62
     7
370
    25
100
AcDbLine
 10
6268.5501195599
 20
5037.1576615134
 30
0.0
 11
6269.0497137157
 21
5039.2096095654
 31
0.0
  0
LINE
  5
19B
330
1F
100
AcDbEntity
  8
0
  6
Continuous
 62
     7
370
    25
100
AcDbLine
 10
6268.7096163131
 20
5037.1576615134
 30
0.0
 11
6268.5501195599
 21
5037.1576615134
 31
0.0
  0
ARC
  5
19C
330
1F
100
AcDbEntity
  8
0
  6
Continuous
 62
     7
370
    25
100
AcDbCircle
 10
6260.2638670581
 20
5033.1481197568
 30
0.0
 40
0.6918333018311505
100
AcDbArc
 50
213.1225321514
 51
270.8512671292
  0
LWPOLYLINE
  5
19D
330
1F
100
AcDbEntity
  8
0
  6
Continuous
 62
     7
370
    25
100
AcDbPolyline
 90
        3
 70
   128
 43
0.0
 10
6260.8626195599
 20
5032.7619634615
 10
6260.5695985891
 20
5032.5164489052
 10
6260.2741455339
 20
5032.4563628121
  0
LWPOLYLINE
  5
19E
330
1F
100
AcDbEntity
  8
0
  6
Continuous
 62
     7
370
    25
100
AcDbPolyline
 90
        3
 70
   128
 43
0.0
 10
6261.0663533261
 20
5033.4803076173
 10
6261.0098045498
 20
5033.0602586228
 10
6260.8626195599
 20
5032.7619634615
  0
ARC
  5
19F
330
1F
100
AcDbEntity
  8
0
  6
Continuous
 62
     7
370
    25
100
AcDbCircle
 10
6260.1692034944
 20
5033.6083143675
 30
0.0
 40
0.9062359232748243
100
AcDbArc
 50
351.879756053
 51
83.2727304886
  0
ARC
  5
1A0
330
1F
100
AcDbEntity
  8
0
  6
Continuous
 62
     7
370
    25
100
AcDbCircle
 10
6260.3650498834
 20
5033.6154115935
 30
0.0
 40
0.8973922400334212
100
AcDbArc
 50
95.7358076048
 51
190.2350429164
  0
LWPOLYLINE
  5
1A1
330
1F
100
AcDbEntity
  8
0
  6
Continuous
 62
     7
370
    25
100
AcDbPolyline
 90
        3
 70
   128
 43
0.0
 10
6259.6844539754
 20
5032.7700803446
 10
6259.517754577
 20
5033.1388423465
 10
6259.4819377417
 20
5033.455956968
  0
LINE
  5
1A2
330
1F
100
AcDbEntity
  8
0
  6
Continuous
 62
     7
370
    25
100
AcDbLine
 10
6272.131288391
 20
5038.1187004745
 30
0.0
 11
6272.131288391
 21
5037.1836355394
 31
0.0
  0
LINE
  5
1A3
330
1F
100
AcDbEntity
  8
0
  6
Continuous
 62
     7
370
    25
100
AcDbLine
 10
6272.9884312482
 20
5038.1187004745
 30
0.0
 11
6272.131288391
 21
5038.1187004745
 31
0.0
  0
LINE
  5
1A4
330
1F
100
AcDbEntity
  8
0
  6
Continuous
 62
     7
370
    25
100
AcDbLine
 10
6272.9884312482
 20
5037.1836355394
 30
0.0
 11
6272.9884312482
 21
5038.1187004745
 31
0.0
  0
LINE
  5
1A5
330
1F
100
AcDbEntity
  8
0
  6
Continuous
 62
     7
370
    25
100
AcDbLine
 10
6273.196223456
 20
5037.1836355394
 30
0.0
 11
6272.9884312482
 21
5037.1836355394
 31
0.0
  0
LINE
  5
1A6
330
1F
100
AcDbEntity
  8
0
  6
Continuous
 62
     7
370
    25
100
AcDbLine
 10
6273.196223456
 20
5039.1836355394
 30
0.0
 11
6273.196223456
 21
5037.1836355394
 31
0.0
  0
LINE
  5
1A7
330
1F
100
AcDbEntity
  8
0
  6
Continuous
 62
     7
370
    25
100
AcDbLine
 10
6272.9884312482
 20
5039.1836355394
 30
0.0
 11
6273.196223456
 21
5039.1836355394
 31
0.0
  0
LINE
  5
1A8
330
1F
100
AcDbEntity
  8
0
  6
Continuous
 62
     7
370
    25
100
AcDbLine
 10
6272.9884312482
 20
5038.3524667082
 30
0.0
 11
6272.9884312482
 21
5039.1836355394
 31
0.0
  0
LINE
  5
1A9
330
1F
100
AcDbEntity
  8
0
  6
Continuous
 62
     7
370
    25
100
AcDbLine
 10
6272.131288391
 20
5038.3524667082
 30
0.0
 11
6272.9884312482
 21
5038.3524667082
 31
0.0
  0
LINE
  5
1AA
330
1F
100
AcDbEntity
  8
0
  6
Continuous
 62
     7
370
    25
100
AcDbLine
 10
6272.131288391
 20
5039.1836355394
 30
0.0
 11
6272.131288391
 21
5038.3524667082
 31
0.0
  0
LINE
  5
1AB
330
1F
100
AcDbEntity
  8
0
  6
Continuous
 62
     7
370
    25
100
AcDbLine
 10
6271.9234961832
 20
5039.1836355394
 30
0.0
 11
6272.131288391
 21
5039.1836355394
 31
0.0
  0
LINE
  5
1AC
330
1F
100
AcDbEntity
  8
0
  6
Continuous
 62
     7
370
    25
100
AcDbLine
 10
6271.9234961832
 20
5037.1836355394
 30
0.0
 11
6271.9234961832
 21
5039.1836355394
 31
0.0
  0
LINE
  5
1AD
330
1F
100
AcDbEntity
  8
0
  6
Continuous
 62
     7
370
    25
100
AcDbLine
 10
6272.131288391
 20
5037.1836355394
 30
0.0
 11
6271.9234961832
 21
5037.1836355394
 31
0.0
  0
LINE
  5
1AE
330
1F
100
AcDbEntity
  8
0
  6
Continuous
 62
     7
370
    25
100
AcDbLine
 10
6271.6637559235
 20
5032.9758433316
 30
0.0
 11
6271.6637559235
 21
5032.4823368381
 31
0.0
  0
LINE
  5
1AF
330
1F
100
AcDbEntity
  8
0
  6
Continuous
 62
     7
370
    25
100
AcDbLine
 10
6271.8975221573
 20
5032.9758433316
 30
0.0
 11
6271.6637559235
 21
5032.9758433316
 31
0.0
  0
LINE
  5
1B0
330
1F
100
AcDbEntity
  8
0
  6
Continuous
 62
     7
370
    25
100
AcDbLine
 10
6271.8975221573
 20
5033.2096095654
 30
0.0
 11
6271.8975221573
 21
5032.9758433316
 31
0.0
  0
LINE
  5
1B1
330
1F
100
AcDbEntity
  8
0
  6
Continuous
 62
     7
370
    25
100
AcDbLine
 10
6271.6637559235
 20
5033.2096095654
 30
0.0
 11
6271.8975221573
 21
5033.2096095654
 31
0.0
  0
LINE
  5
1B2
330
1F
100
AcDbEntity
  8
0
  6
Continuous
 62
     7
370
    25
100
AcDbLine
 10
6271.6637559235
 20
5034.5083108641
 30
0.0
 11
6271.6637559235
 21
5033.2096095654
 31
0.0
  0
LINE
  5
1B3
330
1F
100
AcDbEntity
  8
0
  6
Continuous
 62
     7
370
    25
100
AcDbLine
 10
6271.4677331962
 20
5034.5083108641
 30
0.0
 11
6271.6637559235
 21
5034.5083108641
 31
0.0
  0
LINE
  5
1B4
330
1F
100
AcDbEntity
  8
0
  6
Continuous
 62
     7
370
    25
100
AcDbLine
 10
6270.7546650144
 20
5033.2096095654
 30
0.0
 11
6271.4677331962
 21
5034.5083108641
 31
0.0
  0
LINE
  5
1B5
330
1F
100
AcDbEntity
  8
0
  6
Continuous
 62
     7
370
    25
100
AcDbLine
 10
6270.7546650144
 20
5032.9758433316
 30
0.0
 11
6270.7546650144
 21
5033.2096095654
 31
0.0
  0
LINE
  5
1B6
330
1F
100
AcDbEntity
  8
0
  6
Continuous
 62
     7
370
    25
100
AcDbLine
 10
6271.4559637157
 20
5032.9758433316
 30
0.0
 11
6270.7546650144
 21
5032.9758433316
 31
0.0
  0
LINE
  5
1B7
330
1F
100
AcDbEntity
  8
0
  6
Continuous
 62
     7
370
    25
100
AcDbLine
 10
6271.4559637157
 20
5032.4823368381
 30
0.0
 11
6271.4559637157
 21
5032.9758433316
 31
0.0
  0
LINE
  5
1B8
330
1F
100
AcDbEntity
  8
0
  6
Continuous
 62
     7
370
    25
100
AcDbLine
 10
6271.6637559235
 20
5032.4823368381
 30
0.0
 11
6271.4559637157
 21
5032.4823368381
 31
0.0
  0
LINE
  5
1B9
330
1F
100
AcDbEntity
  8
0
  6
Continuous
 62
     7
370
    25
100
AcDbLine
 10
6274.1053143651
 20
5033.3135056693
 30
0.0
 11
6274.1053143651
 21
5033.0797394355
 31
0.0
  0
LINE
  5
1BA
330
1F
100
AcDbEntity
  8
0
  6
Continuous
 62
     7
370
    25
100
AcDbLine
 10
6273.4819377417
 20
5033.3135056693
 30
0.0
 11
6274.1053143651
 21
5033.3135056693
 31
0.0
  0
LINE
  5
1BB
330
1F
100
AcDbEntity
  8
0
  6
Continuous
 62
     7
370
    25
100
AcDbLine
 10
6273.4819377417
 20
5033.0797394355
 30
0.0
 11
6273.4819377417
 21
5033.3135056693
 31
0.0
  0
LINE
  5
1BC
330
1F
100
AcDbEntity
  8
0
  6
Continuous
 62
     7
370
    25
100
AcDbLine
 10
6274.1053143651
 20
5033.0797394355
 30
0.0
 11
6273.4819377417
 21
5033.0797394355
 31
0.0
  0
LINE
  5
1BD
330
1F
100
AcDbEntity
  8
0
  6
Continuous
 62
     7
370
    25
100
AcDbLine
 10
6276.282262417
 20
5034.5083108641
 30
0.0
 11
6276.4170026767
 21
5034.5083108641
 31
0.0
  0
LWPOLYLINE
  5
1BE
330
1F
100
AcDbEntity
  8
0
  6
Continuous
 62
     7
370
    25
100
AcDbPolyline
 90
        3
 70
   128
 43
0.0
 10
6275.7936260534
 20
5033.9888303446
 10
6276.1084083223
 20
5034.2426783353
 10
6276.282262417
 20
5034.5083108641
  0
LINE
  5
1BF
330
1F
100
AcDbEntity
  8
0
  6
Continuous
 62
     7
370
    25
100
AcDbLine
 10
6275.7936260534
 20
5033.7550641108
 30
0.0
 11
6275.7936260534
 21
5033.9888303446
 31
0.0
  0
LWPOLYLINE
  5
1C0
330
1F
100
AcDbEntity
  8
0
  6
Continuous
 62
     7
370
    25
100
AcDbPolyline
 90
        3
 70
   128
 43
0.0
 10
6276.209210469
 20
5034.0667524225
 10
6275.9911284076
 20
5033.8724204535
 10
6275.7936260534
 20
5033.7550641108
  0
LINE
  5
1C1
330
1F
100
AcDbEntity
  8
0
  6
Continuous
 62
     7
370
    25
100
AcDbLine
 10
6276.209210469
 20
5032.4823368381
 30
0.0
 11
6276.209210469
 21
5034.0667524225
 31
0.0
  0
LINE
  5
1C2
330
1F
100
AcDbEntity
  8
0
  6
Continuous
 62
     7
370
    25
100
AcDbLine
 10
6276.4170026767
 20
5032.4823368381
 30
0.0
 11
6276.209210469
 21
5032.4823368381
 31
0.0
  0
LINE
  5
1C3
330
1F
100
AcDbEntity
  8
0
  6
Continuous
 62
     7
370
    25
100
AcDbLine
 10
6276.4170026767
 20
5034.5083108641
 30
0.0
 11
6276.4170026767
 21
5032.4823368381
 31
0.0
  0
ARC
  5
1C4
330
1F
100
AcDbEntity
  8
0
  6
Continuous
 62
     7
370
    25
100
AcDbCircle
 10
6278.0372020139
 20
5033.073162503
 30
0.0
 40
0.620158784916343
100
AcDbArc
 50
275.9661406429
 51
8.3613526381
  0
LWPOLYLINE
  5
1C5
330
1F
100
AcDbEntity
  8
0
  6
Continuous
 62
     7
370
    25
100
AcDbPolyline
 90
        4
 70
   128
 43
0.0
 10
6278.1629442352
 20
5033.8070121628
 10
6278.3991014363
 20
5033.7319623477
 10
6278.5649972051
 20
5033.5452921853
 10
6278.6507689105
 20
5033.1633433316
  0
LWPOLYLINE
  5
1C6
330
1F
100
AcDbEntity
  8
0
  6
Continuous
 62
     7
370
    25
100
AcDbPolyline
 90
        3
 70
   128
 43
0.0
 10
6277.8666780014
 20
5033.7286842407
 10
6278.0277551187
 20
5033.7917983875
 10
6278.1629442352
 20
5033.8070121628
  0
LINE
  5
1C7
330
1F
100
AcDbEntity
  8
0
  6
Continuous
 62
     7
370
    25
100
AcDbLine
 10
6277.9417591703
 20
5034.2225965784
 30
0.0
 11
6277.8666780014
 21
5033.7286842407
 31
0.0
  0
LINE
  5
1C8
330
1F
100
AcDbEntity
  8
0
  6
Continuous
 62
     7
370
    25
100
AcDbLine
 10
6278.5728468326
 20
5034.2225965784
 30
0.0
 11
6277.9417591703
 21
5034.2225965784
 31
0.0
  0
LINE
  5
1C9
330
1F
100
AcDbEntity
  8
0
  6
Continuous
 62
     7
370
    25
100
AcDbLine
 10
6278.5728468326
 20
5034.4563628121
 30
0.0
 11
6278.5728468326
 21
5034.2225965784
 31
0.0
  0
LINE
  5
1CA
330
1F
100
AcDbEntity
  8
0
  6
Continuous
 62
     7
370
    25
100
AcDbLine
 10
6277.7676520274
 20
5034.4563628121
 30
0.0
 11
6278.5728468326
 21
5034.4563628121
 31
0.0
  0
LINE
  5
1CB
330
1F
100
AcDbEntity
  8
0
  6
Continuous
 62
     7
370
    25
100
AcDbLine
 10
6277.6118078716
 20
5033.4316063186
 30
0.0
 11
6277.7676520274
 21
5034.4563628121
 31
0.0
  0
LINE
  5
1CC
330
1F
100
AcDbEntity
  8
0
  6
Continuous
 62
     7
370
    25
100
AcDbLine
 10
6277.8196000793
 20
5033.4019796952
 30
0.0
 11
6277.6118078716
 21
5033.4316063186
 31
0.0
  0
ARC
  5
1CD
330
1F
100
AcDbEntity
  8
0
  6
Continuous
 62
     7
370
    25
100
AcDbCircle
 10
6278.1149561593
 20
5033.2797162717
 30
0.0
 40
0.3196616315459755
100
AcDbArc
 50
91.8012237046
 51
157.5127624907
  0
ARC
  5
1CE
330
1F
100
AcDbEntity
  8
0
  6
Continuous
 62
     7
370
    25
100
AcDbCircle
 10
6278.0672000152
 20
5033.2193234341
 30
0.0
 40
0.3817634058111298
100
AcDbArc
 50
349.8397574749
 51
84.3313924516
  0
LWPOLYLINE
  5
1CF
330
1F
100
AcDbEntity
  8
0
  6
Continuous
 62
     7
370
    25
100
AcDbPolyline
 90
        5
 70
   128
 43
0.0
 10
6278.0996325469
 20
5032.6641550199
 10
6278.2193753622
 20
5032.6913137165
 10
6278.3171600938
 20
5032.7661532693
 10
6278.3866335521
 20
5032.868099158
 10
6278.4429767027
 20
5033.1519796952
  0
ARC
  5
1D0
330
1F
100
AcDbEntity
  8
0
  6
Continuous
 62
     7
370
    25
100
AcDbCircle
 10
6278.1607106247
 20
5033.0271032551
 30
0.0
 40
0.3680515629552645
100
AcDbArc
 50
175.8457772103
 51
260.4475861404
  0
LINE
  5
1D1
330
1F
100
AcDbEntity
  8
0
  6
Continuous
 62
     7
370
    25
100
AcDbLine
 10
6277.5858338456
 20
5033.0277913836
 30
0.0
 11
6277.7936260534
 21
5033.0537654095
 31
0.0
  0
LWPOLYLINE
  5
1D2
330
1F
100
AcDbEntity
  8
0
  6
Continuous
 62
     7
370
    25
100
AcDbPolyline
 90
        4
 70
   128
 43
0.0
 10
6278.1016617677
 20
5032.4563628121
 10
6277.8716679868
 20
5032.5126105703
 10
6277.6969307279
 20
5032.6729767991
 10
6277.5858338456
 20
5033.0277913836
  0
LWPOLYLINE
  5
1D3
330
1F
100
AcDbEntity
  8
0
  6
Continuous
 62
     7
370
    25
100
AcDbPolyline
 90
        6
 70
   128
 43
0.0
 10
6270.5203367562
 20
5049.3805426189
 10
6270.4817426101
 20
5049.0533275958
 10
6270.4459422279
 20
5048.979012341
 10
6270.3883886362
 20
5048.9200727389
 10
6270.3140061347
 20
5048.8847961115
 10
6270.2321874055
 20
5048.8744549565
  0
LINE
  5
1D4
330
1F
100
AcDbEntity
  8
0
  6
Continuous
 62
     7
370
    25
100
AcDbLine
 10
6270.5203367562
 20
5050.9004289825
 30
0.0
 11
6270.5203367562
 21
5049.3805426189
 31
0.0
  0
LINE
  5
1D5
330
1F
100
AcDbEntity
  8
0
  6
Continuous
 62
     7
370
    25
100
AcDbLine
 10
6270.3125445484
 20
5050.9004289825
 30
0.0
 11
6270.5203367562
 21
5050.9004289825
 31
0.0
  0
LINE
  5
1D6
330
1F
100
AcDbEntity
  8
0
  6
Continuous
 62
     7
370
    25
100
AcDbLine
 10
6270.3125445484
 20
5049.3805426189
 30
0.0
 11
6270.3125445484
 21
5050.9004289825
 31
0.0
  0
LWPOLYLINE
  5
1D7
330
1F
100
AcDbEntity
  8
0
  6
Continuous
 62
     7
370
    25
100
AcDbPolyline
 90
        6
 70
   128
 43
0.0
 10
6270.1948497432
 20
5049.0822471643
 10
6270.2388537764
 20
5049.0903225765
 10
6270.2743443505
 20
5049.1173759332
 10
6270.2941573857
 20
5049.1573626179
 10
6270.3032416028
 20
5049.2013142577
 10
6270.3125445484
 20
5049.3805426189
  0
LWPOLYLINE
  5
1D8
330
1F
100
AcDbEntity
  8
0
  6
Continuous
 62
     7
370
    25
100
AcDbPolyline
 90
        3
 70
   128
 43
0.0
 10
6270.1047523406
 20
5049.1013218396
 10
6270.1545827728
 20
5049.0874782262
 10
6270.1948497432
 20
5049.0822471643
  0
LINE
  5
1D9
330
1F
100
AcDbEntity
  8
0
  6
Continuous
 62
     7
370
    25
100
AcDbLine
 10
6270.0787783146
 20
5048.8744549565
 30
0.0
 11
6270.1047523406
 21
5049.1013218396
 31
0.0
  0
LINE
  5
1DA
330
1F
100
AcDbEntity
  8
0
  6
Continuous
 62
     7
370
    25
100
AcDbLine
 10
6270.2321874055
 20
5048.8744549565
 30
0.0
 11
6270.0787783146
 21
5048.8744549565
 31
0.0
  0
LINE
  5
1DB
330
1F
100
AcDbEntity
  8
0
  6
Continuous
 62
     7
370
    25
100
AcDbLine
 10
6259.7936260534
 20
5043.4823368381
 30
0.0
 11
6259.7936260534
 21
5041.4823368381
 31
0.0
  0
LINE
  5
1DC
330
1F
100
AcDbEntity
  8
0
  6
Continuous
 62
     7
370
    25
100
AcDbLine
 10
6259.5858338456
 20
5043.4823368381
 30
0.0
 11
6259.7936260534
 21
5043.4823368381
 31
0.0
  0
LINE
  5
1DD
330
1F
100
AcDbEntity
  8
0
  6
Continuous
 62
     7
370
    25
100
AcDbLine
 10
6259.5858338456
 20
5041.4823368381
 30
0.0
 11
6259.5858338456
 21
5043.4823368381
 31
0.0
  0
LINE
  5
1DE
330
1F
100
AcDbEntity
  8
0
  6
Continuous
 62
     7
370
    25
100
AcDbLine
 10
6259.7936260534
 20
5041.4823368381
 30
0.0
 11
6259.5858338456
 21
5041.4823368381
 31
0.0
  0
LINE
  5
1DF
330
1F
100
AcDbEntity
  8
0
  6
Continuous
 62
     7
370
    25
100
AcDbLine
 10
6262.0533663131
 20
5042.2875316433
 30
0.0
 11
6262.0533663131
 21
5041.4823368381
 31
0.0
  0
LINE
  5
1E0
330
1F
100
AcDbEntity
  8
0
  6
Continuous
 62
     7
370
    25
100
AcDbLine
 10
6262.4754442352
 20
5042.2875316433
 30
0.0
 11
6262.0533663131
 21
5042.2875316433
 31
0.0
  0
ARC
  5
1E1
330
1F
100
AcDbEntity
  8
0
  6
Continuous
 62
     7
370
    25
100
AcDbCircle
 10
6262.5374115692
 20
5042.8422860657
 30
0.0
 40
0.5582046395570448
100
AcDbArc
 50
263.6263519983
 51
6.2226710681
  0
ARC
  5
1E2
330
1F
100
AcDbEntity
  8
0
  6
Continuous
 62
     7
370
    25
100
AcDbCircle
 10
6262.5674765629
 20
5042.9613276254
 30
0.0
 40
0.5281049540503829
100
AcDbArc
 50
353.6361410048
 51
66.0016367602
  0
LWPOLYLINE
  5
1E3
330
1F
100
AcDbEntity
  8
0
  6
Continuous
 62
     7
370
    25
100
AcDbPolyline
 90
        3
 70
   128
 43
0.0
 10
6262.4616455339
 20
5043.4823368381
 10
6262.6429958641
 20
5043.4735327122
 10
6262.782262417
 20
5043.4437816433
  0
LINE
  5
1E4
330
1F
100
AcDbEntity
  8
0
  6
Continuous
 62
     7
370
    25
100
AcDbLine
 10
6261.8455741053
 20
5043.4823368381
 30
0.0
 11
6262.4616455339
 21
5043.4823368381
 31
0.0
  0
LINE
  5
1E5
330
1F
100
AcDbEntity
  8
0
  6
Continuous
 62
     7
370
    25
100
AcDbLine
 10
6261.8455741053
 20
5041.4823368381
 30
0.0
 11
6261.8455741053
 21
5043.4823368381
 31
0.0
  0
LINE
  5
1E6
330
1F
100
AcDbEntity
  8
0
  6
Continuous
 62
     7
370
    25
100
AcDbLine
 10
6262.0533663131
 20
5041.4823368381
 30
0.0
 11
6261.8455741053
 21
5041.4823368381
 31
0.0
  0
LINE
  5
1E7
330
1F
100
AcDbEntity
  8
0
  6
Continuous
 62
     7
370
    25
100
AcDbLine
 10
6265.6637559235
 20
5043.2485706043
 30
0.0
 11
6265.6637559235
 21
5041.4823368381
 31
0.0
  0
LINE
  5
1E8
330
1F
100
AcDbEntity
  8
0
  6
Continuous
 62
     7
370
    25
100
AcDbLine
 10
6266.209210469
 20
5043.2485706043
 30
0.0
 11
6265.6637559235
 21
5043.2485706043
 31
0.0
  0
LINE
  5
1E9
330
1F
100
AcDbEntity
  8
0
  6
Continuous
 62
     7
370
    25
100
AcDbLine
 10
6266.209210469
 20
5043.4823368381
 30
0.0
 11
6266.209210469
 21
5043.2485706043
 31
0.0
  0
LINE
  5
1EA
330
1F
100
AcDbEntity
  8
0
  6
Continuous
 62
     7
370
    25
100
AcDbLine
 10
6264.9105091703
 20
5043.4823368381
 30
0.0
 11
6266.209210469
 21
5043.4823368381
 31
0.0
  0
LINE
  5
1EB
330
1F
100
AcDbEntity
  8
0
  6
Continuous
 62
     7
370
    25
100
AcDbLine
 10
6264.9105091703
 20
5043.2485706043
 30
0.0
 11
6264.9105091703
 21
5043.4823368381
 31
0.0
  0
LINE
  5
1EC
330
1F
100
AcDbEntity
  8
0
  6
Continuous
 62
     7
370
    25
100
AcDbLine
 10
6265.4559637157
 20
5043.2485706043
 30
0.0
 11
6264.9105091703
 21
5043.2485706043
 31
0.0
  0
LINE
  5
1ED
330
1F
100
AcDbEntity
  8
0
  6
Continuous
 62
     7
370
    25
100
AcDbLine
 10
6265.4559637157
 20
5041.4823368381
 30
0.0
 11
6265.4559637157
 21
5043.2485706043
 31
0.0
  0
LINE
  5
1EE
330
1F
100
AcDbEntity
  8
0
  6
Continuous
 62
     7
370
    25
100
AcDbLine
 10
6265.6637559235
 20
5041.4823368381
 30
0.0
 11
6265.4559637157
 21
5041.4823368381
 31
0.0
  0
LINE
  5
1EF
330
1F
100
AcDbEntity
  8
0
  6
Continuous
 62
     7
370
    25
100
AcDbLine
 10
6269.1994392718
 20
5054.2464176037
 30
0.0
 11
6268.5695691419
 21
5052.2464176037
 31
0.0
  0
LINE
  5
1F0
330
1F
100
AcDbEntity
  8
0
  6
Continuous
 62
     7
370
    25
100
AcDbLine
 10
6268.9835301809
 20
5054.2464176037
 30
0.0
 11
6269.1994392718
 21
5054.2464176037
 31
0.0
  0
LINE
  5
1F1
330
1F
100
AcDbEntity
  8
0
  6
Continuous
 62
     7
370
    25
100
AcDbLine
 10
6268.5387249861
 20
5052.7955247465
 30
0.0
 11
6268.9835301809
 21
5054.2464176037
 31
0.0
  0
LWPOLYLINE
  5
1F2
330
1F
100
AcDbEntity
  8
0
  6
Continuous
 62
     7
370
    25
100
AcDbPolyline
 90
        3
 70
   128
 43
0.0
 10
6268.4510626484
 20
5052.4801838374
 10
6268.4982410171
 20
5052.657305902
 10
6268.5387249861
 20
5052.7955247465
  0
LWPOLYLINE
  5
1F3
330
1F
100
AcDbEntity
  8
0
  6
Continuous
 62
     7
370
    25
100
AcDbPolyline
 90
        3
 70
   128
 43
0.0
 10
6268.3707055055
 20
5052.7955247465
 10
6268.416959436
 20
5052.6192520839
 10
6268.4510626484
 20
5052.4801838374
  0
LINE
  5
1F4
330
1F
100
AcDbEntity
  8
0
  6
Continuous
 62
     7
370
    25
100
AcDbLine
 10
6267.9705431679
 20
5054.2464176037
 30
0.0
 11
6268.3707055055
 21
5052.7955247465
 31
0.0
  0
LINE
  5
1F5
330
1F
100
AcDbEntity
  8
0
  6
Continuous
 62
     7
370
    25
100
AcDbLine
 10
6267.7566632978
 20
5054.2464176037
 30
0.0
 11
6267.9705431679
 21
5054.2464176037
 31
0.0
  0
LINE
  5
1F6
330
1F
100
AcDbEntity
  8
0
  6
Continuous
 62
     7
370
    25
100
AcDbLine
 10
6268.3548775835
 20
5052.2464176037
 30
0.0
 11
6267.7566632978
 21
5054.2464176037
 31
0.0
  0
LINE
  5
1F7
330
1F
100
AcDbEntity
  8
0
  6
Continuous
 62
     7
370
    25
100
AcDbLine
 10
6268.5695691419
 20
5052.2464176037
 30
0.0
 11
6268.3548775835
 21
5052.2464176037
 31
0.0
  0
LINE
  5
1F8
330
1F
100
AcDbEntity
  8
0
  6
Continuous
 62
     7
370
    25
100
AcDbLine
 10
6270.0008562367
 20
5051.445883528
 30
0.0
 11
6270.0008562367
 21
5049.445883528
 31
0.0
  0
LINE
  5
1F9
330
1F
100
AcDbEntity
  8
0
  6
Continuous
 62
     7
370
    25
100
AcDbLine
 10
6269.7670900029
 20
5051.445883528
 30
0.0
 11
6270.0008562367
 21
5051.445883528
 31
0.0
  0
LINE
  5
1FA
330
1F
100
AcDbEntity
  8
0
  6
Continuous
 62
     7
370
    25
100
AcDbLine
 10
6269.7670900029
 20
5050.7214517098
 30
0.0
 11
6269.7670900029
 21
5051.445883528
 31
0.0
  0
ARC
  5
1FB
330
1F
100
AcDbEntity
  8
0
  6
Continuous
 62
     7
370
    25
100
AcDbCircle
 10
6269.4407537521
 20
5050.5643541246
 30
0.0
 40
0.3621808937999383
100
AcDbArc
 50
25.7060659333
 51
88.4529960399
  0
LWPOLYLINE
  5
1FC
330
1F
100
AcDbEntity
  8
0
  6
Continuous
 62
     7
370
    25
100
AcDbPolyline
 90
        6
 70
   128
 43
0.0
 10
6268.9618951977
 20
5050.1731562552
 10
6268.9823353602
 20
5050.422307262
 10
6269.0587678281
 20
5050.6597911162
 10
6269.2156035878
 20
5050.8516045159
 10
6269.3271614942
 20
5050.9075884947
 10
6269.4505315614
 20
5050.9264030085
  0
LWPOLYLINE
  5
1FD
330
1F
100
AcDbEntity
  8
0
  6
Continuous
 62
     7
370
    25
100
AcDbPolyline
 90
        5
 70
   128
 43
0.0
 10
6269.4716354575
 20
5049.419909502
 10
6269.2897230573
 20
5049.4633892303
 10
6269.1431065279
 20
5049.5805935405
 10
6269.041191655
 20
5049.7386966272
 10
6268.9618951977
 20
5050.1731562552
  0
LWPOLYLINE
  5
1FE
330
1F
100
AcDbEntity
  8
0
  6
Continuous
 62
     7
370
    25
100
AcDbPolyline
 90
        3
 70
   128
 43
0.0
 10
6269.7930640289
 20
5049.6410945669
 10
6269.6435519152
 20
5049.4693803881
 10
6269.4716354575
 20
5049.419909502
  0
LINE
  5
1FF
330
1F
100
AcDbEntity
  8
0
  6
Continuous
 62
     7
370
    25
100
AcDbLine
 10
6269.7930640289
 20
5049.445883528
 30
0.0
 11
6269.7930640289
 21
5049.6410945669
 31
0.0
  0
LINE
  5
200
330
1F
100
AcDbEntity
  8
0
  6
Continuous
 62
     7
370
    25
100
AcDbLine
 10
6270.0008562367
 20
5049.445883528
 30
0.0
 11
6269.7930640289
 21
5049.445883528
 31
0.0
  0
LWPOLYLINE
  5
201
330
1F
100
AcDbEntity
  8
0
  6
Continuous
 62
     7
370
    25
100
AcDbPolyline
 90
        5
 70
   128
 43
0.0
 10
6270.4121016094
 20
5052.9887065647
 10
6270.3828247505
 20
5052.6910129244
 10
6270.2618857761
 20
5052.4194414872
 10
6270.0816438065
 20
5052.2708222979
 10
6269.853660051
 20
5052.2204435777
  0
ARC
  5
202
330
1F
100
AcDbEntity
  8
0
  6
Continuous
 62
     7
370
    25
100
AcDbCircle
 10
6269.7807118403
 20
5053.0914202136
 30
0.0
 40
0.6396898734749288
100
AcDbArc
 50
350.7601402792
 51
83.4519255124
  0
ARC
  5
203
330
1F
100
AcDbEntity
  8
0
  6
Continuous
 62
     7
370
    25
100
AcDbCircle
 10
6269.9158420737
 20
5053.0972047337
 30
0.0
 40
0.632794940835505
100
AcDbArc
 50
95.6393091275
 51
191.2557453684
  0
ARC
  5
204
330
1F
100
AcDbEntity
  8
0
  6
Continuous
 62
     7
370
    25
100
AcDbCircle
 10
6269.932934985
 20
5052.8628482589
 30
0.0
 40
0.647277598587328
100
AcDbArc
 50
170.1398742098
 51
262.9650712942
  0
LWPOLYLINE
  5
205
330
1F
100
AcDbEntity
  8
0
  6
Continuous
 62
     7
370
    25
100
AcDbPolyline
 90
        6
 70
   128
 43
0.0
 10
6278.7027169625
 20
5042.4957296952
 10
6278.7223857161
 20
5042.2255009639
 10
6278.8019495004
 20
5041.967239733
 10
6278.9774846655
 20
5041.764140904
 10
6279.1002804558
 20
5041.7077937605
 10
6279.2343728066
 20
5041.6901290459
  0
LWPOLYLINE
  5
206
330
1F
100
AcDbEntity
  8
0
  6
Continuous
 62
     7
370
    25
100
AcDbPolyline
 90
        6
 70
   128
 43
0.0
 10
6279.251012417
 20
5043.2745446303
 10
6278.9935702271
 20
5043.209382343
 10
6278.8898860308
 20
5043.1248657559
 10
6278.812722559
 20
5043.0154009325
 10
6278.7247629214
 20
5042.7629454324
 10
6278.7027169625
 20
5042.4957296952
  0
ARC
  5
207
330
1F
100
AcDbEntity
  8
0
  6
Continuous
 62
     7
370
    25
100
AcDbCircle
 10
6279.2283301824
 20
5042.8112384362
 30
0.0
 40
0.4638610926131616
100
AcDbArc
 50
5.9050068496
 51
87.1971894116
  0
LINE
  5
208
330
1F
100
AcDbEntity
  8
0
  6
Continuous
 62
     7
370
    25
100
AcDbLine
 10
6279.8975221573
 20
5042.9109082667
 30
0.0
 11
6279.6897299495
 21
5042.8589602147
 31
0.0
  0
LWPOLYLINE
  5
209
330
1F
100
AcDbEntity
  8
0
  6
Continuous
 62
     7
370
    25
100
AcDbPolyline
 90
        4
 70
   128
 43
0.0
 10
6279.2595351443
 20
5043.5083108641
 10
6279.5182378138
 20
5043.4530941888
 10
6279.7258895439
 20
5043.2891715284
 10
6279.8975221573
 20
5042.9109082667
  0
ARC
  5
20A
330
1F
100
AcDbEntity
  8
0
  6
Continuous
 62
     7
370
    25
100
AcDbCircle
 10
6279.3459828326
 20
5042.6480601867
 30
0.0
 40
0.86458338562369
100
AcDbArc
 50
95.7384611344
 51
190.1478855406
  0
LWPOLYLINE
  5
20B
330
1F
100
AcDbEntity
  8
0
  6
Continuous
 62
     7
370
    25
100
AcDbPolyline
 90
        6
 70
   128
 43
0.0
 10
6279.2408663131
 20
5041.4563628121
 10
6278.8957934724
 20
5041.5420090454
 10
6278.7570779016
 20
5041.655410129
 10
6278.6536760689
 20
5041.8021121197
 10
6278.5297455013
 20
5042.1383501922
 10
6278.4949247547
 20
5042.4957296952
  0
ARC
  5
20C
330
1F
100
AcDbEntity
  8
0
  6
Continuous
 62
     7
370
    25
100
AcDbCircle
 10
6279.2059582895
 20
5042.174317828
 30
0.0
 40
0.7188031544777505
100
AcDbArc
 50
272.7836125044
 51
356.5999415405
  0
LINE
  5
20D
330
1F
100
AcDbEntity
  8
0
  6
Continuous
 62
     7
370
    25
100
AcDbLine
 10
6279.7157039754
 20
5042.1836355394
 30
0.0
 11
6279.9234961832
 21
5042.1316874875
 31
0.0
  0
LWPOLYLINE
  5
20E
330
1F
100
AcDbEntity
  8
0
  6
Continuous
 62
     7
370
    25
100
AcDbPolyline
 90
        4
 70
   128
 43
0.0
 10
6279.2343728066
 20
5041.6901290459
 10
6279.438640042
 20
5041.7380845798
 10
6279.5974553429
 20
5041.875422301
 10
6279.7157039754
 20
5042.1836355394
  0
LINE
  5
20F
330
1F
100
AcDbEntity
  8
0
  6
Continuous
 62
     7
370
    25
100
AcDbLine
 10
6276.8147299495
 20
5043.4823368381
 30
0.0
 11
6276.1848598196
 21
5041.4823368381
 31
0.0
  0
LINE
  5
210
330
1F
100
AcDbEntity
  8
0
  6
Continuous
 62
     7
370
    25
100
AcDbLine
 10
6276.5988208586
 20
5043.4823368381
 30
0.0
 11
6276.8147299495
 21
5043.4823368381
 31
0.0
  0
LINE
  5
211
330
1F
100
AcDbEntity
  8
0
  6
Continuous
 62
     7
370
    25
100
AcDbLine
 10
6276.1540156638
 20
5042.031443981
 30
0.0
 11
6276.5988208586
 21
5043.4823368381
 31
0.0
  0
LWPOLYLINE
  5
212
330
1F
100
AcDbEntity
  8
0
  6
Continuous
 62
     7
370
    25
100
AcDbPolyline
 90
        3
 70
   128
 43
0.0
 10
6276.0663533261
 20
5041.7161030719
 10
6276.1135316948
 20
5041.8932251364
 10
6276.1540156638
 20
5042.031443981
  0
LWPOLYLINE
  5
213
330
1F
100
AcDbEntity
  8
0
  6
Continuous
 62
     7
370
    25
100
AcDbPolyline
 90
        3
 70
   128
 43
0.0
 10
6275.9859961832
 20
5042.031443981
 10
6276.0322501137
 20
5041.8551713183
 10
6276.0663533261
 20
5041.7161030719
  0
LINE
  5
214
330
1F
100
AcDbEntity
  8
0
  6
Continuous
 62
     7
370
    25
100
AcDbLine
 10
6275.5858338456
 20
5043.4823368381
 30
0.0
 11
6275.9859961832
 21
5042.031443981
 31
0.0
  0
LINE
  5
215
330
1F
100
AcDbEntity
  8
0
  6
Continuous
 62
     7
370
    25
100
AcDbLine
 10
6275.3719539754
 20
5043.4823368381
 30
0.0
 11
6275.5858338456
 21
5043.4823368381
 31
0.0
  0
LINE
  5
216
330
1F
100
AcDbEntity
  8
0
  6
Continuous
 62
     7
370
    25
100
AcDbLine
 10
6275.9701682612
 20
5041.4823368381
 30
0.0
 11
6275.3719539754
 21
5043.4823368381
 31
0.0
  0
LINE
  5
217
330
1F
100
AcDbEntity
  8
0
  6
Continuous
 62
     7
370
    25
100
AcDbLine
 10
6276.1848598196
 20
5041.4823368381
 30
0.0
 11
6275.9701682612
 21
5041.4823368381
 31
0.0
  0
ARC
  5
218
330
1F
100
AcDbEntity
  8
0
  6
Continuous
 62
     7
370
    25
100
AcDbCircle
 10
6261.9369980343
 20
5037.7185337503
 30
0.0
 40
0.5614412759100653
100
AcDbArc
 50
174.6073972857
 51
267.4201575802
  0
ARC
  5
219
330
1F
100
AcDbEntity
  8
0
  6
Continuous
 62
     7
370
    25
100
AcDbCircle
 10
6261.8924310042
 20
5037.7105023907
 30
0.0
 40
0.5531775118453569
100
AcDbArc
 50
271.9989720869
 51
5.5912028201
  0
ARC
  5
21A
330
1F
100
AcDbEntity
  8
0
  6
Continuous
 62
     7
370
    25
100
AcDbCircle
 10
6261.9424120578
 20
5037.8122724645
 30
0.0
 40
0.5028487622760663
100
AcDbArc
 50
354.5368556988
 51
68.7835595458
  0
ARC
  5
21B
330
1F
100
AcDbEntity
  8
0
  6
Continuous
 62
     7
370
    25
100
AcDbCircle
 10
6261.9517127909
 20
5038.6575458631
 30
0.0
 40
0.4142163143760966
100
AcDbArc
 50
294.6374229152
 51
3.7237071358
  0
ARC
  5
21C
330
1F
100
AcDbEntity
  8
0
  6
Continuous
 62
     7
370
    25
100
AcDbCircle
 10
6261.8848412417
 20
5038.7280045935
 30
0.0
 40
0.4821847544434655
100
AcDbArc
 50
354.8172150507
 51
87.1899955709
  0
ARC
  5
21D
330
1F
100
AcDbEntity
  8
0
  6
Continuous
 62
     7
370
    25
100
AcDbCircle
 10
6261.9232497776
 20
5038.7401400887
 30
0.0
 40
0.4697017536001998
100
AcDbArc
 50
91.8019697264
 51
185.8134454244
  0
ARC
  5
21E
330
1F
100
AcDbEntity
  8
0
  6
Continuous
 62
     7
370
    25
100
AcDbCircle
 10
6261.8650738191
 20
5038.6566712495
 30
0.0
 40
0.4106815970685005
100
AcDbArc
 50
174.986050951
 51
246.1571721496
  0
ARC
  5
21F
330
1F
100
AcDbEntity
  8
0
  6
Continuous
 62
     7
370
    25
100
AcDbCircle
 10
6261.8615798831
 20
5037.8227330838
 30
0.0
 40
0.4862661978552769
100
AcDbArc
 50
109.5245671354
 51
186.0718668133
  0
LINE
  5
220
330
1F
100
AcDbEntity
  8
0
  6
Continuous
 62
     7
370
    25
100
AcDbLine
 10
6264.2104280014
 20
5037.7810381368
 30
0.0
 11
6264.0359150144
 21
5037.1836355394
 31
0.0
  0
LINE
  5
221
330
1F
100
AcDbEntity
  8
0
  6
Continuous
 62
     7
370
    25
100
AcDbLine
 10
6264.9092916378
 20
5037.7810381368
 30
0.0
 11
6264.2104280014
 21
5037.7810381368
 31
0.0
  0
LINE
  5
222
330
1F
100
AcDbEntity
  8
0
  6
Continuous
 62
     7
370
    25
100
AcDbLine
 10
6265.084210469
 20
5037.1836355394
 30
0.0
 11
6264.9092916378
 21
5037.7810381368
 31
0.0
  0
LINE
  5
223
330
1F
100
AcDbEntity
  8
0
  6
Continuous
 62
     7
370
    25
100
AcDbLine
 10
6265.3001195599
 20
5037.1836355394
 30
0.0
 11
6265.084210469
 21
5037.1836355394
 31
0.0
  0
LINE
  5
224
330
1F
100
AcDbEntity
  8
0
  6
Continuous
 62
     7
370
    25
100
AcDbLine
 10
6264.6609150144
 20
5039.1836355394
 30
0.0
 11
6265.3001195599
 21
5037.1836355394
 31
0.0
  0
LINE
  5
225
330
1F
100
AcDbEntity
  8
0
  6
Continuous
 62
     7
370
    25
100
AcDbLine
 10
6264.4583987806
 20
5039.1836355394
 30
0.0
 11
6264.6609150144
 21
5039.1836355394
 31
0.0
  0
LINE
  5
226
330
1F
100
AcDbEntity
  8
0
  6
Continuous
 62
     7
370
    25
100
AcDbLine
 10
6263.8196000793
 20
5037.1836355394
 30
0.0
 11
6264.4583987806
 21
5039.1836355394
 31
0.0
  0
LINE
  5
227
330
1F
100
AcDbEntity
  8
0
  6
Continuous
 62
     7
370
    25
100
AcDbLine
 10
6264.0359150144
 20
5037.1836355394
 30
0.0
 11
6263.8196000793
 21
5037.1836355394
 31
0.0
  0
LINE
  5
228
330
1F
100
AcDbEntity
  8
0
  6
Continuous
 62
     7
370
    25
100
AcDbLine
 10
6273.6897299495
 20
5041.9758433316
 30
0.0
 11
6273.6897299495
 21
5041.4823368381
 31
0.0
  0
LINE
  5
229
330
1F
100
AcDbEntity
  8
0
  6
Continuous
 62
     7
370
    25
100
AcDbLine
 10
6273.9234961832
 20
5041.9758433316
 30
0.0
 11
6273.6897299495
 21
5041.9758433316
 31
0.0
  0
LINE
  5
22A
330
1F
100
AcDbEntity
  8
0
  6
Continuous
 62
     7
370
    25
100
AcDbLine
 10
6273.9234961832
 20
5042.2096095654
 30
0.0
 11
6273.9234961832
 21
5041.9758433316
 31
0.0
  0
LINE
  5
22B
330
1F
100
AcDbEntity
  8
0
  6
Continuous
 62
     7
370
    25
100
AcDbLine
 10
6273.6897299495
 20
5042.2096095654
 30
0.0
 11
6273.9234961832
 21
5042.2096095654
 31
0.0
  0
LINE
  5
22C
330
1F
100
AcDbEntity
  8
0
  6
Continuous
 62
     7
370
    25
100
AcDbLine
 10
6273.6897299495
 20
5043.5083108641
 30
0.0
 11
6273.6897299495
 21
5042.2096095654
 31
0.0
  0
LINE
  5
22D
330
1F
100
AcDbEntity
  8
0
  6
Continuous
 62
     7
370
    25
100
AcDbLine
 10
6273.4937072222
 20
5043.5083108641
 30
0.0
 11
6273.6897299495
 21
5043.5083108641
 31
0.0
  0
LINE
  5
22E
330
1F
100
AcDbEntity
  8
0
  6
Continuous
 62
     7
370
    25
100
AcDbLine
 10
6272.7806390404
 20
5042.2096095654
 30
0.0
 11
6273.4937072222
 21
5043.5083108641
 31
0.0
  0
LINE
  5
22F
330
1F
100
AcDbEntity
  8
0
  6
Continuous
 62
     7
370
    25
100
AcDbLine
 10
6272.7806390404
 20
5041.9758433316
 30
0.0
 11
6272.7806390404
 21
5042.2096095654
 31
0.0
  0
LINE
  5
230
330
1F
100
AcDbEntity
  8
0
  6
Continuous
 62
     7
370
    25
100
AcDbLine
 10
6273.4819377417
 20
5041.9758433316
 30
0.0
 11
6272.7806390404
 21
5041.9758433316
 31
0.0
  0
LINE
  5
231
330
1F
100
AcDbEntity
  8
0
  6
Continuous
 62
     7
370
    25
100
AcDbLine
 10
6273.4819377417
 20
5041.4823368381
 30
0.0
 11
6273.4819377417
 21
5041.9758433316
 31
0.0
  0
LINE
  5
232
330
1F
100
AcDbEntity
  8
0
  6
Continuous
 62
     7
370
    25
100
AcDbLine
 10
6273.6897299495
 20
5041.4823368381
 30
0.0
 11
6273.4819377417
 21
5041.4823368381
 31
0.0
  0
LINE
  5
233
330
1F
100
AcDbEntity
  8
0
  6
Continuous
 62
     7
370
    25
100
AcDbLine
 10
6271.4299896897
 20
5042.3135056693
 30
0.0
 11
6271.4299896897
 21
5042.0797394355
 31
0.0
  0
LINE
  5
234
330
1F
100
AcDbEntity
  8
0
  6
Continuous
 62
     7
370
    25
100
AcDbLine
 10
6270.8066130664
 20
5042.3135056693
 30
0.0
 11
6271.4299896897
 21
5042.3135056693
 31
0.0
  0
LINE
  5
235
330
1F
100
AcDbEntity
  8
0
  6
Continuous
 62
     7
370
    25
100
AcDbLine
 10
6270.8066130664
 20
5042.0797394355
 30
0.0
 11
6270.8066130664
 21
5042.3135056693
 31
0.0
  0
LINE
  5
236
330
1F
100
AcDbEntity
  8
0
  6
Continuous
 62
     7
370
    25
100
AcDbLine
 10
6271.4299896897
 20
5042.0797394355
 30
0.0
 11
6270.8066130664
 21
5042.0797394355
 31
0.0
  0
LWPOLYLINE
  5
237
330
1F
100
AcDbEntity
  8
0
  6
Continuous
 62
     7
370
    25
100
AcDbPolyline
 90
        6
 70
   128
 43
0.0
 10
6269.3520676118
 20
5042.4815251498
 10
6269.3355695871
 20
5042.1603524705
 10
6269.2706534526
 20
5041.8457577106
 10
6269.1108388546
 20
5041.5698401772
 10
6268.9761884345
 20
5041.483596288
 10
6268.8183825469
 20
5041.4563628121
  0
LWPOLYLINE
  5
238
330
1F
100
AcDbEntity
  8
0
  6
Continuous
 62
     7
370
    25
100
AcDbPolyline
 90
        3
 70
   128
 43
0.0
 10
6269.1889182612
 20
5043.297271903
 10
6269.3299885369
 20
5042.851060329
 10
6269.3520676118
 20
5042.4815251498
  0
ARC
  5
239
330
1F
100
AcDbEntity
  8
0
  6
Continuous
 62
     7
370
    25
100
AcDbCircle
 10
6268.8269828597
 20
5043.0925187593
 30
0.0
 40
0.4158378105592084
100
AcDbArc
 50
29.4975951225
 51
90.8495033849
  0
LWPOLYLINE
  5
23A
330
1F
100
AcDbEntity
  8
0
  6
Continuous
 62
     7
370
    25
100
AcDbPolyline
 90
        6
 70
   128
 43
0.0
 10
6268.2871325469
 20
5042.4815251498
 10
6268.303503684
 20
5042.8030572558
 10
6268.3680991073
 20
5043.1180599024
 10
6268.528305509
 20
5043.394143768
 10
6268.6629341437
 20
5043.4807352918
 10
6268.8208176118
 20
5043.5083108641
  0
LWPOLYLINE
  5
23B
330
1F
100
AcDbEntity
  8
0
  6
Continuous
 62
     7
370
    25
100
AcDbPolyline
 90
        6
 70
   128
 43
0.0
 10
6268.8183825469
 20
5041.4563628121
 10
6268.6614090633
 20
5041.4860590939
 10
6268.5278225283
 20
5041.573792113
 10
6268.362838949
 20
5041.84570869
 10
6268.3015647015
 20
5042.1606097344
 10
6268.2871325469
 20
5042.4815251498
  0
LINE
  5
23C
330
1F
100
AcDbEntity
  8
0
  6
Continuous
 62
     7
370
    25
100
AcDbLine
 10
6266.6767429365
 20
5041.7680511238
 30
0.0
 11
6266.6767429365
 21
5041.4823368381
 31
0.0
  0
LINE
  5
23D
330
1F
100
AcDbEntity
  8
0
  6
Continuous
 62
     7
370
    25
100
AcDbLine
 10
6266.4689507287
 20
5041.7680511238
 30
0.0
 11
6266.6767429365
 21
5041.7680511238
 31
0.0
  0
LINE
  5
23E
330
1F
100
AcDbEntity
  8
0
  6
Continuous
 62
     7
370
    25
100
AcDbLine
 10
6266.4689507287
 20
5041.4823368381
 30
0.0
 11
6266.4689507287
 21
5041.7680511238
 31
0.0
  0
LINE
  5
23F
330
1F
100
AcDbEntity
  8
0
  6
Continuous
 62
     7
370
    25
100
AcDbLine
 10
6266.6767429365
 20
5041.4823368381
 30
0.0
 11
6266.4689507287
 21
5041.4823368381
 31
0.0
  0
LINE
  5
240
330
1F
100
AcDbEntity
  8
0
  6
Continuous
 62
     7
370
    25
100
AcDbLine
 10
6279.7460280634
 20
5018.8080883068
 30
0.0
 11
6279.7460280634
 21
5016.0218667159
 31
0.0
  0
LINE
  5
241
330
1F
100
AcDbEntity
  8
0
  6
Continuous
 62
     7
370
    25
100
AcDbLine
 10
6281.2204598816
 20
5016.0218667159
 30
0.0
 11
6279.7460280634
 21
5018.8080883068
 31
0.0
  0
LINE
  5
242
330
1F
100
AcDbEntity
  8
0
  6
Continuous
 62
     7
370
    25
100
AcDbLine
 10
6281.609664427
 20
5016.0218667159
 30
0.0
 11
6281.2204598816
 21
5016.0218667159
 31
0.0
  0
LINE
  5
243
330
1F
100
AcDbEntity
  8
0
  6
Continuous
 62
     7
370
    25
100
AcDbLine
 10
6281.609664427
 20
5019.5218667159
 30
0.0
 11
6281.609664427
 21
5016.0218667159
 31
0.0
  0
LINE
  5
244
330
1F
100
AcDbEntity
  8
0
  6
Continuous
 62
     7
370
    25
100
AcDbLine
 10
6281.2460280634
 20
5019.5218667159
 30
0.0
 11
6281.609664427
 21
5019.5218667159
 31
0.0
  0
LINE
  5
245
330
1F
100
AcDbEntity
  8
0
  6
Continuous
 62
     7
370
    25
100
AcDbLine
 10
6281.2460280634
 20
5016.7320939886
 30
0.0
 11
6281.2460280634
 21
5019.5218667159
 31
0.0
  0
LINE
  5
246
330
1F
100
AcDbEntity
  8
0
  6
Continuous
 62
     7
370
    25
100
AcDbLine
 10
6279.7694655634
 20
5019.5218667159
 30
0.0
 11
6281.2460280634
 21
5016.7320939886
 31
0.0
  0
LINE
  5
247
330
1F
100
AcDbEntity
  8
0
  6
Continuous
 62
     7
370
    25
100
AcDbLine
 10
6279.3823916997
 20
5019.5218667159
 30
0.0
 11
6279.7694655634
 21
5019.5218667159
 31
0.0
  0
LINE
  5
248
330
1F
100
AcDbEntity
  8
0
  6
Continuous
 62
     7
370
    25
100
AcDbLine
 10
6279.3823916997
 20
5016.0218667159
 30
0.0
 11
6279.3823916997
 21
5019.5218667159
 31
0.0
  0
LINE
  5
249
330
1F
100
AcDbEntity
  8
0
  6
Continuous
 62
     7
370
    25
100
AcDbLine
 10
6279.7460280634
 20
5016.0218667159
 30
0.0
 11
6279.3823916997
 21
5016.0218667159
 31
0.0
  0
LINE
  5
24A
330
1F
100
AcDbEntity
  8
0
  6
Continuous
 62
     7
370
    25
100
AcDbLine
 10
6291.0187553361
 20
5056.0218667159
 30
0.0
 11
6257.0187553361
 21
5056.0218667159
 31
0.0
  0
LINE
  5
24B
330
1F
100
AcDbEntity
  8
0
  6
Continuous
 62
     7
370
    25
100
AcDbLine
 10
6291.0187553361
 20
5015.0218667159
 30
0.0
 11
6257.0187553361
 21
5015.0218667159
 31
0.0
  0
LINE
  5
24C
330
1F
100
AcDbEntity
  8
0
  6
Continuous
 62
     7
370
    25
100
AcDbLine
 10
6271.5414826088
 20
5016.430957625
 30
0.0
 11
6271.5414826088
 21
5016.0218667159
 31
0.0
  0
LINE
  5
24D
330
1F
100
AcDbEntity
  8
0
  6
Continuous
 62
     7
370
    25
100
AcDbLine
 10
6270.0869371543
 20
5016.430957625
 30
0.0
 11
6271.5414826088
 21
5016.430957625
 31
0.0
  0
LINE
  5
24E
330
1F
100
AcDbEntity
  8
0
  6
Continuous
 62
     7
370
    25
100
AcDbLine
 10
6270.0869371543
 20
5019.5218667159
 30
0.0
 11
6270.0869371543
 21
5016.430957625
 31
0.0
  0
LINE
  5
24F
330
1F
100
AcDbEntity
  8
0
  6
Continuous
 62
     7
370
    25
100
AcDbLine
 10
6269.7233007906
 20
5019.5218667159
 30
0.0
 11
6270.0869371543
 21
5019.5218667159
 31
0.0
  0
LINE
  5
250
330
1F
100
AcDbEntity
  8
0
  6
Continuous
 62
     7
370
    25
100
AcDbLine
 10
6269.7233007906
 20
5016.0218667159
 30
0.0
 11
6269.7233007906
 21
5019.5218667159
 31
0.0
  0
LINE
  5
251
330
1F
100
AcDbEntity
  8
0
  6
Continuous
 62
     7
370
    25
100
AcDbLine
 10
6271.5414826088
 20
5016.0218667159
 30
0.0
 11
6269.7233007906
 21
5016.0218667159
 31
0.0
  0
LINE
  5
252
330
1F
100
AcDbEntity
  8
0
  6
Continuous
 62
     7
370
    25
100
AcDbLine
 10
6267.6329117677
 20
5043.5083108641
 30
0.0
 11
6267.7676520274
 21
5043.5083108641
 31
0.0
  0
LWPOLYLINE
  5
253
330
1F
100
AcDbEntity
  8
0
  6
Continuous
 62
     7
370
    25
100
AcDbPolyline
 90
        3
 70
   128
 43
0.0
 10
6267.144275404
 20
5042.9888303446
 10
6267.459057673
 20
5043.2426783353
 10
6267.6329117677
 20
5043.5083108641
  0
LINE
  5
254
330
1F
100
AcDbEntity
  8
0
  6
Continuous
 62
     7
370
    25
100
AcDbLine
 10
6267.144275404
 20
5042.7550641108
 30
0.0
 11
6267.144275404
 21
5042.9888303446
 31
0.0
  0
LWPOLYLINE
  5
255
330
1F
100
AcDbEntity
  8
0
  6
Continuous
 62
     7
370
    25
100
AcDbPolyline
 90
        3
 70
   128
 43
0.0
 10
6267.5598598196
 20
5043.0667524225
 10
6267.3417777583
 20
5042.8724204535
 10
6267.144275404
 20
5042.7550641108
  0
LINE
  5
256
330
1F
100
AcDbEntity
  8
0
  6
Continuous
 62
     7
370
    25
100
AcDbLine
 10
6267.5598598196
 20
5041.4823368381
 30
0.0
 11
6267.5598598196
 21
5043.0667524225
 31
0.0
  0
LINE
  5
257
330
1F
100
AcDbEntity
  8
0
  6
Continuous
 62
     7
370
    25
100
AcDbLine
 10
6267.7676520274
 20
5041.4823368381
 30
0.0
 11
6267.5598598196
 21
5041.4823368381
 31
0.0
  0
LINE
  5
258
330
1F
100
AcDbEntity
  8
0
  6
Continuous
 62
     7
370
    25
100
AcDbLine
 10
6267.7676520274
 20
5043.5083108641
 30
0.0
 11
6267.7676520274
 21
5041.4823368381
 31
0.0
  0
LWPOLYLINE
  5
259
330
1F
100
AcDbEntity
  8
0
  6
Continuous
 62
     7
370
    25
100
AcDbPolyline
 90
        6
 70
   128
 43
0.0
 10
6270.6247948845
 20
5042.4815251498
 10
6270.6082968599
 20
5042.1603524705
 10
6270.5433807253
 20
5041.8457577106
 10
6270.3835661273
 20
5041.5698401772
 10
6270.2489157072
 20
5041.483596288
 10
6270.0911098196
 20
5041.4563628121
  0
LWPOLYLINE
  5
25A
330
1F
100
AcDbEntity
  8
0
  6
Continuous
 62
     7
370
    25
100
AcDbPolyline
 90
        3
 70
   128
 43
0.0
 10
6270.4616455339
 20
5043.297271903
 10
6270.6027158096
 20
5042.851060329
 10
6270.6247948845
 20
5042.4815251498
  0
ARC
  5
25B
330
1F
100
AcDbEntity
  8
0
  6
Continuous
 62
     7
370
    25
100
AcDbCircle
 10
6270.0997101325
 20
5043.0925187593
 30
0.0
 40
0.4158378105563362
100
AcDbArc
 50
29.4975951223
 51
90.8495033853
  0
LWPOLYLINE
  5
25C
330
1F
100
AcDbEntity
  8
0
  6
Continuous
 62
     7
370
    25
100
AcDbPolyline
 90
        6
 70
   128
 43
0.0
 10
6269.5598598196
 20
5042.4815251498
 10
6269.5762309568
 20
5042.8030572558
 10
6269.6408263801
 20
5043.1180599024
 10
6269.8010327817
 20
5043.394143768
 10
6269.9356614165
 20
5043.4807352918
 10
6270.0935448845
 20
5043.5083108641
  0
LWPOLYLINE
  5
25D
330
1F
100
AcDbEntity
  8
0
  6
Continuous
 62
     7
370
    25
100
AcDbPolyline
 90
        6
 70
   128
 43
0.0
 10
6270.0911098196
 20
5041.4563628121
 10
6269.934136336
 20
5041.4860590939
 10
6269.800549801
 20
5041.573792113
 10
6269.6355662217
 20
5041.84570869
 10
6269.5742919743
 20
5042.1606097344
 10
6269.5598598196
 20
5042.4815251498
  0
LWPOLYLINE
  5
25E
330
1F
100
AcDbEntity
  8
0
  6
Continuous
 62
     7
370
    25
100
AcDbPolyline
 90
        3
 70
   128
 43
0.0
 10
6272.1803955339
 20
5042.104495929
 10
6271.9926280337
 20
5041.8981477412
 10
6271.8715481313
 20
5041.7161030719
  0
ARC
  5
25F
330
1F
100
AcDbEntity
  8
0
  6
Continuous
 62
     7
370
    25
100
AcDbCircle
 10
6271.3917870947
 20
5043.0971875222
 30
0.0
 40
1.267809082480146
100
AcDbArc
 50
308.4641328
 51
353.2348702306
  0
ARC
  5
260
330
1F
100
AcDbEntity
  8
0
  6
Continuous
 62
     7
370
    25
100
AcDbCircle
 10
6272.1346487315
 20
5042.990518606
 30
0.0
 40
0.5178817387516768
100
AcDbArc
 50
355.2729063973
 51
88.9348929823
  0
ARC
  5
261
330
1F
100
AcDbEntity
  8
0
  6
Continuous
 62
     7
370
    25
100
AcDbCircle
 10
6272.1567303275
 20
5042.9612131245
 30
0.0
 40
0.5472394921106764
100
AcDbArc
 50
91.3041386499
 51
185.2743467068
  0
LINE
  5
262
330
1F
100
AcDbEntity
  8
0
  6
Continuous
 62
     7
370
    25
100
AcDbLine
 10
6271.8196000793
 20
5042.8849342407
 30
0.0
 11
6271.6118078716
 21
5042.9109082667
 31
0.0
  0
LWPOLYLINE
  5
263
330
1F
100
AcDbEntity
  8
0
  6
Continuous
 62
     7
370
    25
100
AcDbPolyline
 90
        5
 70
   128
 43
0.0
 10
6272.1365643651
 20
5043.3005186563
 10
6272.028979498
 20
5043.2817465883
 10
6271.9368882282
 20
5043.2231942207
 10
6271.870781839
 20
5043.1361376256
 10
6271.8196000793
 20
5042.8849342407
  0
ARC
  5
264
330
1F
100
AcDbEntity
  8
0
  6
Continuous
 62
     7
370
    25
100
AcDbCircle
 10
6272.1255515703
 20
5042.981871784
 30
0.0
 40
0.3188371228102216
100
AcDbArc
 50
354.6057699976
 51
88.0205811979
  0
ARC
  5
265
330
1F
100
AcDbEntity
  8
0
  6
Continuous
 62
     7
370
    25
100
AcDbCircle
 10
6271.366617641
 20
5043.1126585372
 30
0.0
 40
1.088298034033408
100
AcDbArc
 50
305.3153210852
 51
351.5053593861
  0
ARC
  5
266
330
1F
100
AcDbEntity
  8
0
  6
Continuous
 62
     7
370
    25
100
AcDbCircle
 10
6272.695979852
 20
5041.3536198343
 30
0.0
 40
1.117583206155849
100
AcDbArc
 50
128.7974682056
 51
173.3863142527
  0
LINE
  5
267
330
1F
100
AcDbEntity
  8
0
  6
Continuous
 62
     7
370
    25
100
AcDbLine
 10
6272.6507689105
 20
5041.4823368381
 30
0.0
 11
6271.5858338456
 21
5041.4823368381
 31
0.0
  0
LINE
  5
268
330
1F
100
AcDbEntity
  8
0
  6
Continuous
 62
     7
370
    25
100
AcDbLine
 10
6272.6507689105
 20
5041.7161030719
 30
0.0
 11
6272.6507689105
 21
5041.4823368381
 31
0.0
  0
LINE
  5
269
330
1F
100
AcDbEntity
  8
0
  6
Continuous
 62
     7
370
    25
100
AcDbLine
 10
6271.8715481313
 20
5041.7161030719
 30
0.0
 11
6272.6507689105
 21
5041.7161030719
 31
0.0
  0
LWPOLYLINE
  5
26A
330
1F
100
AcDbEntity
  8
0
  6
Continuous
 62
     7
370
    25
100
AcDbPolyline
 90
        6
 70
   128
 43
0.0
 10
6275.196223456
 20
5042.4815251498
 10
6275.1797254313
 20
5042.1603524705
 10
6275.1148092968
 20
5041.8457577106
 10
6274.9549946988
 20
5041.5698401772
 10
6274.8203442787
 20
5041.483596288
 10
6274.662538391
 20
5041.4563628121
  0
LWPOLYLINE
  5
26B
330
1F
100
AcDbEntity
  8
0
  6
Continuous
 62
     7
370
    25
100
AcDbPolyline
 90
        3
 70
   128
 43
0.0
 10
6275.0330741053
 20
5043.297271903
 10
6275.174144381
 20
5042.851060329
 10
6275.196223456
 20
5042.4815251498
  0
ARC
  5
26C
330
1F
100
AcDbEntity
  8
0
  6
Continuous
 62
     7
370
    25
100
AcDbCircle
 10
6274.6711387039
 20
5043.0925187593
 30
0.0
 40
0.4158378105572321
100
AcDbArc
 50
29.4975951224
 51
90.8495033852
  0
LWPOLYLINE
  5
26D
330
1F
100
AcDbEntity
  8
0
  6
Continuous
 62
     7
370
    25
100
AcDbPolyline
 90
        6
 70
   128
 43
0.0
 10
6274.131288391
 20
5042.4815251498
 10
6274.1476595282
 20
5042.8030572558
 10
6274.2122549515
 20
5043.1180599024
 10
6274.3724613531
 20
5043.394143768
 10
6274.5070899879
 20
5043.4807352918
 10
6274.664973456
 20
5043.5083108641
  0
LWPOLYLINE
  5
26E
330
1F
100
AcDbEntity
  8
0
  6
Continuous
 62
     7
370
    25
100
AcDbPolyline
 90
        6
 70
   128
 43
0.0
 10
6274.662538391
 20
5041.4563628121
 10
6274.5055649075
 20
5041.4860590939
 10
6274.3719783724
 20
5041.573792113
 10
6274.2069947931
 20
5041.84570869
 10
6274.1457205457
 20
5042.1606097344
 10
6274.131288391
 20
5042.4815251498
  0
ARC
  5
26F
330
1F
100
AcDbEntity
  8
0
  6
Continuous
 62
     7
370
    25
100
AcDbCircle
 10
6263.209725307
 20
5037.7185337503
 30
0.0
 40
0.5614412759082543
100
AcDbArc
 50
174.6073972857
 51
267.4201575804
  0
ARC
  5
270
330
1F
100
AcDbEntity
  8
0
  6
Continuous
 62
     7
370
    25
100
AcDbCircle
 10
6263.1651582769
 20
5037.7105023907
 30
0.0
 40
0.5531775118453887
100
AcDbArc
 50
271.998972087
 51
5.5912028201
  0
ARC
  5
271
330
1F
100
AcDbEntity
  8
0
  6
Continuous
 62
     7
370
    25
100
AcDbCircle
 10
6263.2151393305
 20
5037.8122724645
 30
0.0
 40
0.5028487622774234
100
AcDbArc
 50
354.5368556989
 51
68.7835595456
  0
ARC
  5
272
330
1F
100
AcDbEntity
  8
0
  6
Continuous
 62
     7
370
    25
100
AcDbCircle
 10
6263.2244400636
 20
5038.6575458631
 30
0.0
 40
0.4142163143729378
100
AcDbArc
 50
294.6374229152
 51
3.7237071361
  0
ARC
  5
273
330
1F
100
AcDbEntity
  8
0
  6
Continuous
 62
     7
370
    25
100
AcDbCircle
 10
6263.1575685144
 20
5038.7280045935
 30
0.0
 40
0.4821847544409946
100
AcDbArc
 50
354.8172150503
 51
87.1899955708
  0
ARC
  5
274
330
1F
100
AcDbEntity
  8
0
  6
Continuous
 62
     7
370
    25
100
AcDbCircle
 10
6263.1959770504
 20
5038.7401400887
 30
0.0
 40
0.469701753600674
100
AcDbArc
 50
91.8019697264
 51
185.8134454243
  0
ARC
  5
275
330
1F
100
AcDbEntity
  8
0
  6
Continuous
 62
     7
370
    25
100
AcDbCircle
 10
6263.1378010918
 20
5038.6566712495
 30
0.0
 40
0.4106815970694686
100
AcDbArc
 50
174.9860509513
 51
246.1571721497
  0
ARC
  5
276
330
1F
100
AcDbEntity
  8
0
  6
Continuous
 62
     7
370
    25
100
AcDbCircle
 10
6263.1343071558
 20
5037.8227330838
 30
0.0
 40
0.4862661978509034
100
AcDbArc
 50
109.524567135
 51
186.0718668138
  0
LINE
  5
277
330
1F
100
AcDbEntity
  8
0
  6
Continuous
 62
     7
370
    25
100
AcDbLine
 10
6261.0403793001
 20
5037.4693498251
 30
0.0
 11
6261.0403793001
 21
5037.1836355394
 31
0.0
  0
LINE
  5
278
330
1F
100
AcDbEntity
  8
0
  6
Continuous
 62
     7
370
    25
100
AcDbLine
 10
6260.8325870923
 20
5037.4693498251
 30
0.0
 11
6261.0403793001
 21
5037.4693498251
 31
0.0
  0
LINE
  5
279
330
1F
100
AcDbEntity
  8
0
  6
Continuous
 62
     7
370
    25
100
AcDbLine
 10
6260.8325870923
 20
5037.1836355394
 30
0.0
 11
6260.8325870923
 21
5037.4693498251
 31
0.0
  0
LINE
  5
27A
330
1F
100
AcDbEntity
  8
0
  6
Continuous
 62
     7
370
    25
100
AcDbLine
 10
6261.0403793001
 20
5037.1836355394
 30
0.0
 11
6260.8325870923
 21
5037.1836355394
 31
0.0
  0
LINE
  5
27B
330
1F
100
AcDbEntity
  8
0
  6
Continuous
 62
     7
370
    25
100
AcDbLine
 10
6277.2234150144
 20
5042.0797394355
 30
0.0
 11
6277.0489020274
 21
5041.4823368381
 31
0.0
  0
LINE
  5
27C
330
1F
100
AcDbEntity
  8
0
  6
Continuous
 62
     7
370
    25
100
AcDbLine
 10
6277.9222786508
 20
5042.0797394355
 30
0.0
 11
6277.2234150144
 21
5042.0797394355
 31
0.0
  0
LINE
  5
27D
330
1F
100
AcDbEntity
  8
0
  6
Continuous
 62
     7
370
    25
100
AcDbLine
 10
6278.0971974819
 20
5041.4823368381
 30
0.0
 11
6277.9222786508
 21
5042.0797394355
 31
0.0
  0
LINE
  5
27E
330
1F
100
AcDbEntity
  8
0
  6
Continuous
 62
     7
370
    25
100
AcDbLine
 10
6278.3131065729
 20
5041.4823368381
 30
0.0
 11
6278.0971974819
 21
5041.4823368381
 31
0.0
  0
LINE
  5
27F
330
1F
100
AcDbEntity
  8
0
  6
Continuous
 62
     7
370
    25
100
AcDbLine
 10
6277.6739020274
 20
5043.4823368381
 30
0.0
 11
6278.3131065729
 21
5041.4823368381
 31
0.0
  0
LINE
  5
280
330
1F
100
AcDbEntity
  8
0
  6
Continuous
 62
     7
370
    25
100
AcDbLine
 10
6277.4713857936
 20
5043.4823368381
 30
0.0
 11
6277.6739020274
 21
5043.4823368381
 31
0.0
  0
LINE
  5
281
330
1F
100
AcDbEntity
  8
0
  6
Continuous
 62
     7
370
    25
100
AcDbLine
 10
6276.8325870923
 20
5041.4823368381
 30
0.0
 11
6277.4713857936
 21
5043.4823368381
 31
0.0
  0
LINE
  5
282
330
1F
100
AcDbEntity
  8
0
  6
Continuous
 62
     7
370
    25
100
AcDbLine
 10
6277.0489020274
 20
5041.4823368381
 30
0.0
 11
6276.8325870923
 21
5041.4823368381
 31
0.0
  0
LWPOLYLINE
  5
283
330
1F
100
AcDbEntity
  8
0
  6
Continuous
 62
     7
370
    25
100
AcDbPolyline
 90
        6
 70
   128
 43
0.0
 10
6260.5208987806
 20
5038.1828238511
 10
6260.504400756
 20
5037.8616511718
 10
6260.4394846214
 20
5037.5470564119
 10
6260.2796700234
 20
5037.2711388785
 10
6260.1450196033
 20
5037.1848949893
 10
6259.9872137157
 20
5037.1576615134
  0
LWPOLYLINE
  5
284
330
1F
100
AcDbEntity
  8
0
  6
Continuous
 62
     7
370
    25
100
AcDbPolyline
 90
        3
 70
   128
 43
0.0
 10
6260.35774943
 20
5038.9985706043
 10
6260.4988197057
 20
5038.5523590303
 10
6260.5208987806
 20
5038.1828238511
  0
ARC
  5
285
330
1F
100
AcDbEntity
  8
0
  6
Continuous
 62
     7
370
    25
100
AcDbCircle
 10
6259.9958140286
 20
5038.7938174606
 30
0.0
 40
0.4158378105662316
100
AcDbArc
 50
29.4975951227
 51
90.8495033843
  0
LWPOLYLINE
  5
286
330
1F
100
AcDbEntity
  8
0
  6
Continuous
 62
     7
370
    25
100
AcDbPolyline
 90
        6
 70
   128
 43
0.0
 10
6259.4559637157
 20
5038.1828238511
 10
6259.4723348529
 20
5038.5043559571
 10
6259.5369302762
 20
5038.8193586037
 10
6259.6971366778
 20
5039.0954424693
 10
6259.8317653126
 20
5039.1820339931
 10
6259.9896487806
 20
5039.2096095654
  0
LWPOLYLINE
  5
287
330
1F
100
AcDbEntity
  8
0
  6
Continuous
 62
     7
370
    25
100
AcDbPolyline
 90
        6
 70
   128
 43
0.0
 10
6259.9872137157
 20
5037.1576615134
 10
6259.8302402321
 20
5037.1873577952
 10
6259.6966536971
 20
5037.2750908143
 10
6259.5316701178
 20
5037.5470073913
 10
6259.4703958704
 20
5037.8619084357
 10
6259.4559637157
 20
5038.1828238511
  0
LINE
  5
288
330
1F
100
AcDbEntity
  8
0
  6
Continuous
 62
     7
370
    25
100
AcDbLine
 10
6267.7423335094
 20
5050.0432861254
 30
0.0
 11
6267.5678205224
 21
5049.445883528
 31
0.0
  0
LINE
  5
289
330
1F
100
AcDbEntity
  8
0
  6
Continuous
 62
     7
370
    25
100
AcDbLine
 10
6268.4411971458
 20
5050.0432861254
 30
0.0
 11
6267.7423335094
 21
5050.0432861254
 31
0.0
  0
LINE
  5
28A
330
1F
100
AcDbEntity
  8
0
  6
Continuous
 62
     7
370
    25
100
AcDbLine
 10
6268.616115977
 20
5049.445883528
 30
0.0
 11
6268.4411971458
 21
5050.0432861254
 31
0.0
  0
LINE
  5
28B
330
1F
100
AcDbEntity
  8
0
  6
Continuous
 62
     7
370
    25
100
AcDbLine
 10
6268.8320250679
 20
5049.445883528
 30
0.0
 11
6268.616115977
 21
5049.445883528
 31
0.0
  0
LINE
  5
28C
330
1F
100
AcDbEntity
  8
0
  6
Continuous
 62
     7
370
    25
100
AcDbLine
 10
6268.1928205224
 20
5051.445883528
 30
0.0
 11
6268.8320250679
 21
5049.445883528
 31
0.0
  0
LINE
  5
28D
330
1F
100
AcDbEntity
  8
0
  6
Continuous
 62
     7
370
    25
100
AcDbLine
 10
6267.9903042887
 20
5051.445883528
 30
0.0
 11
6268.1928205224
 21
5051.445883528
 31
0.0
  0
LINE
  5
28E
330
1F
100
AcDbEntity
  8
0
  6
Continuous
 62
     7
370
    25
100
AcDbLine
 10
6267.3515055874
 20
5049.445883528
 30
0.0
 11
6267.9903042887
 21
5051.445883528
 31
0.0
  0
LINE
  5
28F
330
1F
100
AcDbEntity
  8
0
  6
Continuous
 62
     7
370
    25
100
AcDbLine
 10
6267.5678205224
 20
5049.445883528
 30
0.0
 11
6267.3515055874
 21
5049.445883528
 31
0.0
  0
LINE
  5
290
330
1F
100
AcDbEntity
  8
0
  6
Continuous
 62
     7
370
    25
100
AcDbLine
 10
6270.5203367562
 20
5051.445883528
 30
0.0
 11
6270.5203367562
 21
5051.1601692422
 31
0.0
  0
LINE
  5
291
330
1F
100
AcDbEntity
  8
0
  6
Continuous
 62
     7
370
    25
100
AcDbLine
 10
6270.3125445484
 20
5051.445883528
 30
0.0
 11
6270.5203367562
 21
5051.445883528
 31
0.0
  0
LINE
  5
292
330
1F
100
AcDbEntity
  8
0
  6
Continuous
 62
     7
370
    25
100
AcDbLine
 10
6270.3125445484
 20
5051.1601692422
 30
0.0
 11
6270.3125445484
 21
5051.445883528
 31
0.0
  0
LINE
  5
293
330
1F
100
AcDbEntity
  8
0
  6
Continuous
 62
     7
370
    25
100
AcDbLine
 10
6270.5203367562
 20
5051.1601692422
 30
0.0
 11
6270.3125445484
 21
5051.1601692422
 31
0.0
  0
LINE
  5
294
330
1F
100
AcDbEntity
  8
0
  6
Continuous
 62
     7
370
    25
100
AcDbLine
 10
6277.8174566348
 20
5052.2686199626
 30
0.0
 11
6276.8823916997
 21
5052.2686199626
 31
0.0
  0
LINE
  5
295
330
1F
100
AcDbEntity
  8
0
  6
Continuous
 62
     7
370
    25
100
AcDbLine
 10
6276.8823916997
 20
5052.2686199626
 30
0.0
 11
6276.8823916997
 21
5051.917970612
 31
0.0
  0
LINE
  5
296
330
1F
100
AcDbEntity
  8
0
  6
Continuous
 62
     7
370
    25
100
AcDbLine
 10
6276.8823916997
 20
5051.917970612
 30
0.0
 11
6277.8174566348
 21
5051.917970612
 31
0.0
  0
LINE
  5
297
330
1F
100
AcDbEntity
  8
0
  6
Continuous
 62
     7
370
    25
100
AcDbLine
 10
6277.8174566348
 20
5051.917970612
 30
0.0
 11
6277.8174566348
 21
5052.2686199626
 31
0.0
  0
LINE
  5
298
330
1F
100
AcDbEntity
  8
0
  6
Continuous
 62
     7
370
    25
100
AcDbLine
 10
6280.125289427
 20
5054.0218667159
 30
0.0
 11
6279.8044696218
 21
5054.0218667159
 31
0.0
  0
LINE
  5
299
330
1F
100
AcDbEntity
  8
0
  6
Continuous
 62
     7
370
    25
100
AcDbLine
 10
6279.8044696218
 20
5054.0218667159
 30
0.0
 11
6279.2042261153
 21
5051.8455274302
 31
0.0
  0
LWPOLYLINE
  5
29A
330
1F
100
AcDbEntity
  8
0
  6
Continuous
 62
     7
370
    25
100
AcDbPolyline
 90
        3
 70
   128
 43
0.0
 10
6279.2042261153
 20
5051.8455274302
 10
6279.1348452196
 20
5051.5811184362
 10
6279.083690401
 20
5051.3725160665
  0
LWPOLYLINE
  5
29B
330
1F
100
AcDbEntity
  8
0
  6
Continuous
 62
     7
370
    25
100
AcDbPolyline
 90
        3
 70
   128
 43
0.0
 10
6279.083690401
 20
5051.3725160665
 10
6279.012922848
 20
5051.6381991634
 10
6278.9521968945
 20
5051.8455274302
  0
LINE
  5
29C
330
1F
100
AcDbEntity
  8
0
  6
Continuous
 62
     7
370
    25
100
AcDbLine
 10
6278.9521968945
 20
5051.8455274302
 30
0.0
 11
6278.2849891023
 21
5054.0218667159
 31
0.0
  0
LINE
  5
29D
330
1F
100
AcDbEntity
  8
0
  6
Continuous
 62
     7
370
    25
100
AcDbLine
 10
6278.2849891023
 20
5054.0218667159
 30
0.0
 11
6277.961125466
 21
5054.0218667159
 31
0.0
  0
LINE
  5
29E
330
1F
100
AcDbEntity
  8
0
  6
Continuous
 62
     7
370
    25
100
AcDbLine
 10
6277.961125466
 20
5054.0218667159
 30
0.0
 11
6278.9059306608
 21
5051.0218667159
 31
0.0
  0
LINE
  5
29F
330
1F
100
AcDbEntity
  8
0
  6
Continuous
 62
     7
370
    25
100
AcDbLine
 10
6278.9059306608
 20
5051.0218667159
 30
0.0
 11
6279.2279679984
 21
5051.0218667159
 31
0.0
  0
LINE
  5
2A0
330
1F
100
AcDbEntity
  8
0
  6
Continuous
 62
     7
370
    25
100
AcDbLine
 10
6279.2279679984
 20
5051.0218667159
 30
0.0
 11
6280.125289427
 21
5054.0218667159
 31
0.0
  0
LINE
  5
2A1
330
1F
100
AcDbEntity
  8
0
  6
Continuous
 62
     7
370
    25
100
AcDbLine
 10
6283.0252488426
 20
5052.3465420406
 30
0.0
 11
6283.6875865049
 21
5052.3465420406
 31
0.0
  0
LINE
  5
2A2
330
1F
100
AcDbEntity
  8
0
  6
Continuous
 62
     7
370
    25
100
AcDbLine
 10
6283.6875865049
 20
5052.3465420406
 30
0.0
 11
6283.6875865049
 21
5052.6971913912
 31
0.0
  0
LINE
  5
2A3
330
1F
100
AcDbEntity
  8
0
  6
Continuous
 62
     7
370
    25
100
AcDbLine
 10
6283.6875865049
 20
5052.6971913912
 30
0.0
 11
6283.0252488426
 21
5052.6971913912
 31
0.0
  0
LINE
  5
2A4
330
1F
100
AcDbEntity
  8
0
  6
Continuous
 62
     7
370
    25
100
AcDbLine
 10
6283.0252488426
 20
5052.6971913912
 30
0.0
 11
6283.0252488426
 21
5053.5153732094
 31
0.0
  0
LINE
  5
2A5
330
1F
100
AcDbEntity
  8
0
  6
Continuous
 62
     7
370
    25
100
AcDbLine
 10
6283.0252488426
 20
5053.5153732094
 30
0.0
 11
6282.7135605309
 21
5053.5153732094
 31
0.0
  0
LINE
  5
2A6
330
1F
100
AcDbEntity
  8
0
  6
Continuous
 62
     7
370
    25
100
AcDbLine
 10
6282.7135605309
 20
5053.5153732094
 30
0.0
 11
6282.7135605309
 21
5052.6971913912
 31
0.0
  0
LINE
  5
2A7
330
1F
100
AcDbEntity
  8
0
  6
Continuous
 62
     7
370
    25
100
AcDbLine
 10
6282.7135605309
 20
5052.6971913912
 30
0.0
 11
6282.0512228686
 21
5052.6971913912
 31
0.0
  0
LINE
  5
2A8
330
1F
100
AcDbEntity
  8
0
  6
Continuous
 62
     7
370
    25
100
AcDbLine
 10
6282.0512228686
 20
5052.6971913912
 30
0.0
 11
6282.0512228686
 21
5052.3465420406
 31
0.0
  0
LINE
  5
2A9
330
1F
100
AcDbEntity
  8
0
  6
Continuous
 62
     7
370
    25
100
AcDbLine
 10
6282.0512228686
 20
5052.3465420406
 30
0.0
 11
6282.7135605309
 21
5052.3465420406
 31
0.0
  0
LINE
  5
2AA
330
1F
100
AcDbEntity
  8
0
  6
Continuous
 62
     7
370
    25
100
AcDbLine
 10
6282.7135605309
 20
5052.3465420406
 30
0.0
 11
6282.7135605309
 21
5051.5283602224
 31
0.0
  0
LINE
  5
2AB
330
1F
100
AcDbEntity
  8
0
  6
Continuous
 62
     7
370
    25
100
AcDbLine
 10
6282.7135605309
 20
5051.5283602224
 30
0.0
 11
6283.0252488426
 21
5051.5283602224
 31
0.0
  0
LINE
  5
2AC
330
1F
100
AcDbEntity
  8
0
  6
Continuous
 62
     7
370
    25
100
AcDbLine
 10
6283.0252488426
 20
5051.5283602224
 30
0.0
 11
6283.0252488426
 21
5052.3465420406
 31
0.0
  0
LINE
  5
2AD
330
1F
100
AcDbEntity
  8
0
  6
Continuous
 62
     7
370
    25
100
AcDbLine
 10
6266.6767429365
 20
5042.9368822926
 30
0.0
 11
6266.6767429365
 21
5042.6511680069
 31
0.0
  0
LINE
  5
2AE
330
1F
100
AcDbEntity
  8
0
  6
Continuous
 62
     7
370
    25
100
AcDbLine
 10
6266.4689507287
 20
5042.9368822926
 30
0.0
 11
6266.6767429365
 21
5042.9368822926
 31
0.0
  0
LINE
  5
2AF
330
1F
100
AcDbEntity
  8
0
  6
Continuous
 62
     7
370
    25
100
AcDbLine
 10
6266.4689507287
 20
5042.6511680069
 30
0.0
 11
6266.4689507287
 21
5042.9368822926
 31
0.0
  0
LINE
  5
2B0
330
1F
100
AcDbEntity
  8
0
  6
Continuous
 62
     7
370
    25
100
AcDbLine
 10
6266.6767429365
 20
5042.6511680069
 30
0.0
 11
6266.4689507287
 21
5042.6511680069
 31
0.0
  0
LWPOLYLINE
  5
2B1
330
1F
100
AcDbEntity
  8
0
  6
Continuous
 62
     7
370
    25
100
AcDbPolyline
 90
        6
 70
   128
 43
0.0
 10
6264.0014182612
 20
5041.6901290459
 10
6264.2214874352
 20
5041.7312166935
 10
6264.314305089
 20
5041.794276152
 10
6264.377727486
 20
5041.8868168306
 10
6264.4313952173
 20
5042.1050369988
 10
6264.4429767027
 20
5042.3301452797
  0
LWPOLYLINE
  5
2B2
330
1F
100
AcDbEntity
  8
0
  6
Continuous
 62
     7
370
    25
100
AcDbPolyline
 90
        6
 70
   128
 43
0.0
 10
6263.5858338456
 20
5042.3301452797
 10
6263.5949009102
 20
5042.1111286303
 10
6263.6439948007
 20
5041.8984433131
 10
6263.7041300524
 20
5041.8071124745
 10
6263.7899690817
 20
5041.7394960535
 10
6264.0014182612
 20
5041.6901290459
  0
LINE
  5
2B3
330
1F
100
AcDbEntity
  8
0
  6
Continuous
 62
     7
370
    25
100
AcDbLine
 10
6263.5858338456
 20
5043.4823368381
 30
0.0
 11
6263.5858338456
 21
5042.3301452797
 31
0.0
  0
LINE
  5
2B4
330
1F
100
AcDbEntity
  8
0
  6
Continuous
 62
     7
370
    25
100
AcDbLine
 10
6263.3780416378
 20
5043.4823368381
 30
0.0
 11
6263.5858338456
 21
5043.4823368381
 31
0.0
  0
LINE
  5
2B5
330
1F
100
AcDbEntity
  8
0
  6
Continuous
 62
     7
370
    25
100
AcDbLine
 10
6263.3780416378
 20
5042.3313628121
 30
0.0
 11
6263.3780416378
 21
5043.4823368381
 31
0.0
  0
LWPOLYLINE
  5
2B6
330
1F
100
AcDbEntity
  8
0
  6
Continuous
 62
     7
370
    25
100
AcDbPolyline
 90
        6
 70
   128
 43
0.0
 10
6264.0172461832
 20
5041.4563628121
 10
6263.7132198183
 20
5041.5149892813
 10
6263.5835193858
 20
5041.6005747026
 10
6263.4880090945
 20
5041.7230943521
 10
6263.3982607201
 20
5042.0203390447
 10
6263.3780416378
 20
5042.3313628121
  0
LWPOLYLINE
  5
2B7
330
1F
100
AcDbEntity
  8
0
  6
Continuous
 62
     7
370
    25
100
AcDbPolyline
 90
        6
 70
   128
 43
0.0
 10
6264.6507689105
 20
5042.3313628121
 10
6264.6307669267
 20
5042.0225947435
 10
6264.5400162002
 20
5041.7283538135
 10
6264.4443885792
 20
5041.6072308371
 10
6264.3177730731
 20
5041.5190978365
 10
6264.0172461832
 20
5041.4563628121
  0
LINE
  5
2B8
330
1F
100
AcDbEntity
  8
0
  6
Continuous
 62
     7
370
    25
100
AcDbLine
 10
6264.6507689105
 20
5043.4823368381
 30
0.0
 11
6264.6507689105
 21
5042.3313628121
 31
0.0
  0
LINE
  5
2B9
330
1F
100
AcDbEntity
  8
0
  6
Continuous
 62
     7
370
    25
100
AcDbLine
 10
6264.4429767027
 20
5043.4823368381
 30
0.0
 11
6264.6507689105
 21
5043.4823368381
 31
0.0
  0
LINE
  5
2BA
330
1F
100
AcDbEntity
  8
0
  6
Continuous
 62
     7
370
    25
100
AcDbLine
 10
6264.4429767027
 20
5042.3301452797
 30
0.0
 11
6264.4429767027
 21
5043.4823368381
 31
0.0
  0
LINE
  5
2BB
330
1F
100
AcDbEntity
  8
0
  6
Continuous
 62
     7
370
    25
100
AcDbLine
 10
6260.3910286508
 20
5043.0744634615
 30
0.0
 11
6260.3910286508
 21
5041.4823368381
 31
0.0
  0
LINE
  5
2BC
330
1F
100
AcDbEntity
  8
0
  6
Continuous
 62
     7
370
    25
100
AcDbLine
 10
6261.2335611183
 20
5041.4823368381
 30
0.0
 11
6260.3910286508
 21
5043.0744634615
 31
0.0
  0
LINE
  5
2BD
330
1F
100
AcDbEntity
  8
0
  6
Continuous
 62
     7
370
    25
100
AcDbLine
 10
6261.4559637157
 20
5041.4823368381
 30
0.0
 11
6261.2335611183
 21
5041.4823368381
 31
0.0
  0
LINE
  5
2BE
330
1F
100
AcDbEntity
  8
0
  6
Continuous
 62
     7
370
    25
100
AcDbLine
 10
6261.4559637157
 20
5043.4823368381
 30
0.0
 11
6261.4559637157
 21
5041.4823368381
 31
0.0
  0
LINE
  5
2BF
330
1F
100
AcDbEntity
  8
0
  6
Continuous
 62
     7
370
    25
100
AcDbLine
 10
6261.2481715079
 20
5043.4823368381
 30
0.0
 11
6261.4559637157
 21
5043.4823368381
 31
0.0
  0
LINE
  5
2C0
330
1F
100
AcDbEntity
  8
0
  6
Continuous
 62
     7
370
    25
100
AcDbLine
 10
6261.2481715079
 20
5041.8881809939
 30
0.0
 11
6261.2481715079
 21
5043.4823368381
 31
0.0
  0
LINE
  5
2C1
330
1F
100
AcDbEntity
  8
0
  6
Continuous
 62
     7
370
    25
100
AcDbLine
 10
6260.4044215079
 20
5043.4823368381
 30
0.0
 11
6261.2481715079
 21
5041.8881809939
 31
0.0
  0
LINE
  5
2C2
330
1F
100
AcDbEntity
  8
0
  6
Continuous
 62
     7
370
    25
100
AcDbLine
 10
6260.183236443
 20
5043.4823368381
 30
0.0
 11
6260.4044215079
 21
5043.4823368381
 31
0.0
  0
LINE
  5
2C3
330
1F
100
AcDbEntity
  8
0
  6
Continuous
 62
     7
370
    25
100
AcDbLine
 10
6260.183236443
 20
5041.4823368381
 30
0.0
 11
6260.183236443
 21
5043.4823368381
 31
0.0
  0
LINE
  5
2C4
330
1F
100
AcDbEntity
  8
0
  6
Continuous
 62
     7
370
    25
100
AcDbLine
 10
6260.3910286508
 20
5041.4823368381
 30
0.0
 11
6260.183236443
 21
5041.4823368381
 31
0.0
  0
LINE
  5
2C5
330
1F
100
AcDbEntity
  8
0
  6
Continuous
 62
     7
370
    25
100
AcDbLine
 10
6271.0917653276
 20
5049.7315978137
 30
0.0
 11
6271.0917653276
 21
5049.445883528
 31
0.0
  0
LINE
  5
2C6
330
1F
100
AcDbEntity
  8
0
  6
Continuous
 62
     7
370
    25
100
AcDbLine
 10
6270.8839731198
 20
5049.7315978137
 30
0.0
 11
6271.0917653276
 21
5049.7315978137
 31
0.0
  0
LINE
  5
2C7
330
1F
100
AcDbEntity
  8
0
  6
Continuous
 62
     7
370
    25
100
AcDbLine
 10
6270.8839731198
 20
5049.445883528
 30
0.0
 11
6270.8839731198
 21
5049.7315978137
 31
0.0
  0
LINE
  5
2C8
330
1F
100
AcDbEntity
  8
0
  6
Continuous
 62
     7
370
    25
100
AcDbLine
 10
6271.0917653276
 20
5049.445883528
 30
0.0
 11
6270.8839731198
 21
5049.445883528
 31
0.0
  0
CIRCLE
  5
2C9
330
1F
100
AcDbEntity
  8
0
  6
Continuous
 62
     7
370
    25
100
AcDbCircle
 10
6265.3286614259
 20
5051.0218667159
 30
0.0
 40
1.5
  0
LINE
  5
2CA
330
1F
100
AcDbEntity
  8
0
  6
Continuous
 62
     7
370
    25
100
AcDbLine
 10
6279.1454929365
 20
5033.0797394355
 30
0.0
 11
6278.9709799495
 21
5032.4823368381
 31
0.0
  0
LINE
  5
2CB
330
1F
100
AcDbEntity
  8
0
  6
Continuous
 62
     7
370
    25
100
AcDbLine
 10
6279.8443565729
 20
5033.0797394355
 30
0.0
 11
6279.1454929365
 21
5033.0797394355
 31
0.0
  0
LINE
  5
2CC
330
1F
100
AcDbEntity
  8
0
  6
Continuous
 62
     7
370
    25
100
AcDbLine
 10
6280.019275404
 20
5032.4823368381
 30
0.0
 11
6279.8443565729
 21
5033.0797394355
 31
0.0
  0
LINE
  5
2CD
330
1F
100
AcDbEntity
  8
0
  6
Continuous
 62
     7
370
    25
100
AcDbLine
 10
6280.2351844949
 20
5032.4823368381
 30
0.0
 11
6280.019275404
 21
5032.4823368381
 31
0.0
  0
LINE
  5
2CE
330
1F
100
AcDbEntity
  8
0
  6
Continuous
 62
     7
370
    25
100
AcDbLine
 10
6279.5959799495
 20
5034.4823368381
 30
0.0
 11
6280.2351844949
 21
5032.4823368381
 31
0.0
  0
LINE
  5
2CF
330
1F
100
AcDbEntity
  8
0
  6
Continuous
 62
     7
370
    25
100
AcDbLine
 10
6279.3934637157
 20
5034.4823368381
 30
0.0
 11
6279.5959799495
 21
5034.4823368381
 31
0.0
  0
LINE
  5
2D0
330
1F
100
AcDbEntity
  8
0
  6
Continuous
 62
     7
370
    25
100
AcDbLine
 10
6278.7546650144
 20
5032.4823368381
 30
0.0
 11
6279.3934637157
 21
5034.4823368381
 31
0.0
  0
LINE
  5
2D1
330
1F
100
AcDbEntity
  8
0
  6
Continuous
 62
     7
370
    25
100
AcDbLine
 10
6278.9709799495
 20
5032.4823368381
 30
0.0
 11
6278.7546650144
 21
5032.4823368381
 31
0.0
  0
LINE
  5
2D2
330
1F
100
AcDbEntity
  8
0
  6
Continuous
 62
     7
370
    25
100
AcDbLine
 10
6277.2481715079
 20
5032.7680511238
 30
0.0
 11
6277.2481715079
 21
5032.4823368381
 31
0.0
  0
LINE
  5
2D3
330
1F
100
AcDbEntity
  8
0
  6
Continuous
 62
     7
370
    25
100
AcDbLine
 10
6277.0403793001
 20
5032.7680511238
 30
0.0
 11
6277.2481715079
 21
5032.7680511238
 31
0.0
  0
LINE
  5
2D4
330
1F
100
AcDbEntity
  8
0
  6
Continuous
 62
     7
370
    25
100
AcDbLine
 10
6277.0403793001
 20
5032.4823368381
 30
0.0
 11
6277.0403793001
 21
5032.7680511238
 31
0.0
  0
LINE
  5
2D5
330
1F
100
AcDbEntity
  8
0
  6
Continuous
 62
     7
370
    25
100
AcDbLine
 10
6277.2481715079
 20
5032.4823368381
 30
0.0
 11
6277.0403793001
 21
5032.4823368381
 31
0.0
  0
LINE
  5
2D6
330
1F
100
AcDbEntity
  8
0
  6
Continuous
 62
     7
370
    25
100
AcDbLine
 10
6274.8585611183
 20
5033.3135056693
 30
0.0
 11
6274.8585611183
 21
5033.0797394355
 31
0.0
  0
LINE
  5
2D7
330
1F
100
AcDbEntity
  8
0
  6
Continuous
 62
     7
370
    25
100
AcDbLine
 10
6274.2351844949
 20
5033.3135056693
 30
0.0
 11
6274.8585611183
 21
5033.3135056693
 31
0.0
  0
LINE
  5
2D8
330
1F
100
AcDbEntity
  8
0
  6
Continuous
 62
     7
370
    25
100
AcDbLine
 10
6274.2351844949
 20
5033.0797394355
 30
0.0
 11
6274.2351844949
 21
5033.3135056693
 31
0.0
  0
LINE
  5
2D9
330
1F
100
AcDbEntity
  8
0
  6
Continuous
 62
     7
370
    25
100
AcDbLine
 10
6274.8585611183
 20
5033.0797394355
 30
0.0
 11
6274.2351844949
 21
5033.0797394355
 31
0.0
  0
LINE
  5
2DA
330
1F
100
AcDbEntity
  8
0
  6
Continuous
 62
     7
370
    25
100
AcDbLine
 10
6273.3520676118
 20
5033.3135056693
 30
0.0
 11
6273.3520676118
 21
5033.0797394355
 31
0.0
  0
LINE
  5
2DB
330
1F
100
AcDbEntity
  8
0
  6
Continuous
 62
     7
370
    25
100
AcDbLine
 10
6272.7286909884
 20
5033.3135056693
 30
0.0
 11
6273.3520676118
 21
5033.3135056693
 31
0.0
  0
LINE
  5
2DC
330
1F
100
AcDbEntity
  8
0
  6
Continuous
 62
     7
370
    25
100
AcDbLine
 10
6272.7286909884
 20
5033.0797394355
 30
0.0
 11
6272.7286909884
 21
5033.3135056693
 31
0.0
  0
LINE
  5
2DD
330
1F
100
AcDbEntity
  8
0
  6
Continuous
 62
     7
370
    25
100
AcDbLine
 10
6273.3520676118
 20
5033.0797394355
 30
0.0
 11
6272.7286909884
 21
5033.0797394355
 31
0.0
  0
LWPOLYLINE
  5
2DE
330
1F
100
AcDbEntity
  8
0
  6
Continuous
 62
     7
370
    25
100
AcDbPolyline
 90
        6
 70
   128
 43
0.0
 10
6271.6377818975
 20
5038.1828238511
 10
6271.6212838729
 20
5037.8616511718
 10
6271.5563677383
 20
5037.5470564119
 10
6271.3965531403
 20
5037.2711388785
 10
6271.2619027202
 20
5037.1848949893
 10
6271.1040968326
 20
5037.1576615134
  0
LWPOLYLINE
  5
2DF
330
1F
100
AcDbEntity
  8
0
  6
Continuous
 62
     7
370
    25
100
AcDbPolyline
 90
        3
 70
   128
 43
0.0
 10
6271.4746325469
 20
5038.9985706043
 10
6271.6157028226
 20
5038.5523590303
 10
6271.6377818975
 20
5038.1828238511
  0
ARC
  5
2E0
330
1F
100
AcDbEntity
  8
0
  6
Continuous
 62
     7
370
    25
100
AcDbCircle
 10
6271.1126971454
 20
5038.7938174606
 30
0.0
 40
0.415837810567141
100
AcDbArc
 50
29.4975951227
 51
90.8495033843
  0
LWPOLYLINE
  5
2E1
330
1F
100
AcDbEntity
  8
0
  6
Continuous
 62
     7
370
    25
100
AcDbPolyline
 90
        6
 70
   128
 43
0.0
 10
6270.5728468326
 20
5038.1828238511
 10
6270.5892179698
 20
5038.5043559571
 10
6270.6538133931
 20
5038.8193586037
 10
6270.8140197947
 20
5039.0954424693
 10
6270.9486484294
 20
5039.1820339931
 10
6271.1065318975
 20
5039.2096095654
  0
LWPOLYLINE
  5
2E2
330
1F
100
AcDbEntity
  8
0
  6
Continuous
 62
     7
370
    25
100
AcDbPolyline
 90
        6
 70
   128
 43
0.0
 10
6271.1040968326
 20
5037.1576615134
 10
6270.947123349
 20
5037.1873577952
 10
6270.813536814
 20
5037.2750908143
 10
6270.6485532347
 20
5037.5470073913
 10
6270.5872789873
 20
5037.8619084357
 10
6270.5728468326
 20
5038.1828238511
  0
LINE
  5
2E3
330
1F
100
AcDbEntity
  8
0
  6
Continuous
 62
     7
370
    25
100
AcDbLine
 10
6274.4949247547
 20
5037.3914277472
 30
0.0
 11
6274.4949247547
 21
5037.1836355394
 31
0.0
  0
LINE
  5
2E4
330
1F
100
AcDbEntity
  8
0
  6
Continuous
 62
     7
370
    25
100
AcDbLine
 10
6273.7055578716
 20
5037.3914277472
 30
0.0
 11
6274.4949247547
 21
5037.3914277472
 31
0.0
  0
LINE
  5
2E5
330
1F
100
AcDbEntity
  8
0
  6
Continuous
 62
     7
370
    25
100
AcDbLine
 10
6273.8289344949
 20
5037.5566063186
 30
0.0
 11
6273.7055578716
 21
5037.3914277472
 31
0.0
  0
LINE
  5
2E6
330
1F
100
AcDbEntity
  8
0
  6
Continuous
 62
     7
370
    25
100
AcDbLine
 10
6274.4689507287
 20
5038.4616387862
 30
0.0
 11
6273.8289344949
 21
5037.5566063186
 31
0.0
  0
LINE
  5
2E7
330
1F
100
AcDbEntity
  8
0
  6
Continuous
 62
     7
370
    25
100
AcDbLine
 10
6274.4689507287
 20
5038.6381809939
 30
0.0
 11
6274.4689507287
 21
5038.4616387862
 31
0.0
  0
LINE
  5
2E8
330
1F
100
AcDbEntity
  8
0
  6
Continuous
 62
     7
370
    25
100
AcDbLine
 10
6273.4819377417
 20
5038.6381809939
 30
0.0
 11
6274.4689507287
 21
5038.6381809939
 31
0.0
  0
LINE
  5
2E9
330
1F
100
AcDbEntity
  8
0
  6
Continuous
 62
     7
370
    25
100
AcDbLine
 10
6273.4819377417
 20
5038.4303887862
 30
0.0
 11
6273.4819377417
 21
5038.6381809939
 31
0.0
  0
LINE
  5
2EA
330
1F
100
AcDbEntity
  8
0
  6
Continuous
 62
     7
370
    25
100
AcDbLine
 10
6274.1970351443
 20
5038.4303887862
 30
0.0
 11
6273.4819377417
 21
5038.4303887862
 31
0.0
  0
LINE
  5
2EB
330
1F
100
AcDbEntity
  8
0
  6
Continuous
 62
     7
370
    25
100
AcDbLine
 10
6273.4559637157
 20
5037.3914277472
 30
0.0
 11
6274.1970351443
 21
5038.4303887862
 31
0.0
  0
LINE
  5
2EC
330
1F
100
AcDbEntity
  8
0
  6
Continuous
 62
     7
370
    25
100
AcDbLine
 10
6273.4559637157
 20
5037.1836355394
 30
0.0
 11
6273.4559637157
 21
5037.3914277472
 31
0.0
  0
LINE
  5
2ED
330
1F
100
AcDbEntity
  8
0
  6
Continuous
 62
     7
370
    25
100
AcDbLine
 10
6274.4949247547
 20
5037.1836355394
 30
0.0
 11
6273.4559637157
 21
5037.1836355394
 31
0.0
  0
LWPOLYLINE
  5
2EE
330
1F
100
AcDbEntity
  8
0
  6
Continuous
 62
     7
370
    25
100
AcDbPolyline
 90
        6
 70
   128
 43
0.0
 10
6269.3001195599
 20
5038.1320933316
 10
6269.3168409417
 20
5038.4722573632
 10
6269.3869182157
 20
5038.8050037695
 10
6269.5690486821
 20
5039.0889847869
 10
6269.7125202209
 20
5039.1791821986
 10
6269.8792591703
 20
5039.2096095654
  0
LWPOLYLINE
  5
2EF
330
1F
100
AcDbEntity
  8
0
  6
Continuous
 62
     7
370
    25
100
AcDbPolyline
 90
        6
 70
   128
 43
0.0
 10
6269.8605903391
 20
5037.1576615134
 10
6269.7061745222
 20
5037.1831779898
 10
6269.5700007223
 20
5037.260187278
 10
6269.3891079954
 20
5037.5133154031
 10
6269.3173053455
 20
5037.8184866314
 10
6269.3001195599
 20
5038.1320933316
  0
ARC
  5
2F0
330
1F
100
AcDbEntity
  8
0
  6
Continuous
 62
     7
370
    25
100
AcDbCircle
 10
6269.7795630189
 20
5037.7446993285
 30
0.0
 40
0.592603428096782
100
AcDbArc
 50
277.8587331034
 51
8.8854879832
  0
LWPOLYLINE
  5
2F1
330
1F
100
AcDbEntity
  8
0
  6
Continuous
 62
     7
370
    25
100
AcDbPolyline
 90
        4
 70
   128
 43
0.0
 10
6269.8780416378
 20
5038.4823368381
 10
6270.1139454575
 20
5038.4061121406
 10
6270.2791445687
 20
5038.2184602002
 10
6270.3650546248
 20
5037.836232942
  0
ARC
  5
2F2
330
1F
100
AcDbEntity
  8
0
  6
Continuous
 62
     7
370
    25
100
AcDbCircle
 10
6269.8946706884
 20
5038.0196100815
 30
0.0
 40
0.4630254600239723
100
AcDbArc
 50
92.0581575614
 51
153.6069076023
  0
LWPOLYLINE
  5
2F3
330
1F
100
AcDbEntity
  8
0
  6
Continuous
 62
     7
370
    25
100
AcDbPolyline
 90
        3
 70
   128
 43
0.0
 10
6269.5724409884
 20
5038.7830673576
 10
6269.4931707409
 20
5038.4755668632
 10
6269.4799085209
 20
5038.2254374875
  0
ARC
  5
2F4
330
1F
100
AcDbEntity
  8
0
  6
Continuous
 62
     7
370
    25
100
AcDbCircle
 10
6269.8747832547
 20
5038.6845201582
 30
0.0
 40
0.3179974786998255
100
AcDbArc
 50
93.8031298905
 51
161.9468374122
  0
LWPOLYLINE
  5
2F5
330
1F
100
AcDbEntity
  8
0
  6
Continuous
 62
     7
370
    25
100
AcDbPolyline
 90
        3
 70
   128
 43
0.0
 10
6270.0468728066
 20
5038.9072556693
 10
6269.9490799096
 20
5038.9826968558
 10
6269.8536909884
 20
5039.0018173576
  0
LWPOLYLINE
  5
2F6
330
1F
100
AcDbEntity
  8
0
  6
Continuous
 62
     7
370
    25
100
AcDbPolyline
 90
        3
 70
   128
 43
0.0
 10
6270.131288391
 20
5038.6901290459
 10
6270.0973102979
 20
5038.8173015704
 10
6270.0468728066
 20
5038.9072556693
  0
LINE
  5
2F7
330
1F
100
AcDbEntity
  8
0
  6
Continuous
 62
     7
370
    25
100
AcDbLine
 10
6270.3390805988
 20
5038.7161030719
 30
0.0
 11
6270.131288391
 21
5038.6901290459
 31
0.0
  0
LWPOLYLINE
  5
2F8
330
1F
100
AcDbEntity
  8
0
  6
Continuous
 62
     7
370
    25
100
AcDbPolyline
 90
        4
 70
   128
 43
0.0
 10
6269.8792591703
 20
5039.2096095654
 10
6270.0811321398
 20
5039.1627841671
 10
6270.2357599444
 20
5039.0247618906
 10
6270.3390805988
 20
5038.7161030719
  0
LWPOLYLINE
  5
2F9
330
1F
100
AcDbEntity
  8
0
  6
Continuous
 62
     7
370
    25
100
AcDbPolyline
 90
        6
 70
   128
 43
0.0
 10
6268.4429767027
 20
5038.1828238511
 10
6268.4264786781
 20
5037.8616511718
 10
6268.3615625435
 20
5037.5470564119
 10
6268.2017479455
 20
5037.2711388785
 10
6268.0670975254
 20
5037.1848949893
 10
6267.9092916378
 20
5037.1576615134
  0
LWPOLYLINE
  5
2FA
330
1F
100
AcDbEntity
  8
0
  6
Continuous
 62
     7
370
    25
100
AcDbPolyline
 90
        3
 70
   128
 43
0.0
 10
6268.2798273521
 20
5038.9985706043
 10
6268.4208976278
 20
5038.5523590303
 10
6268.4429767027
 20
5038.1828238511
  0
ARC
  5
2FB
330
1F
100
AcDbEntity
  8
0
  6
Continuous
 62
     7
370
    25
100
AcDbCircle
 10
6267.9178919506
 20
5038.7938174606
 30
0.0
 40
0.4158378105644128
100
AcDbArc
 50
29.4975951225
 51
90.8495033843
  0
LWPOLYLINE
  5
2FC
330
1F
100
AcDbEntity
  8
0
  6
Continuous
 62
     7
370
    25
100
AcDbPolyline
 90
        6
 70
   128
 43
0.0
 10
6267.3780416378
 20
5038.1828238511
 10
6267.3944127749
 20
5038.5043559571
 10
6267.4590081983
 20
5038.8193586037
 10
6267.6192145999
 20
5039.0954424693
 10
6267.7538432346
 20
5039.1820339931
 10
6267.9117267027
 20
5039.2096095654
  0
LWPOLYLINE
  5
2FD
330
1F
100
AcDbEntity
  8
0
  6
Continuous
 62
     7
370
    25
100
AcDbPolyline
 90
        6
 70
   128
 43
0.0
 10
6267.9092916378
 20
5037.1576615134
 10
6267.7523181542
 20
5037.1873577952
 10
6267.6187316192
 20
5037.2750908143
 10
6267.4537480399
 20
5037.5470073913
 10
6267.3924737925
 20
5037.8619084357
 10
6267.3780416378
 20
5038.1828238511
  0
LWPOLYLINE
  5
2FE
330
1F
100
AcDbEntity
  8
0
  6
Continuous
 62
     7
370
    25
100
AcDbPolyline
 90
        6
 70
   128
 43
0.0
 10
6261.9494702092
 20
5032.6901290459
 10
6262.1695393832
 20
5032.7312166935
 10
6262.262357037
 20
5032.794276152
 10
6262.325779434
 20
5032.8868168306
 10
6262.3794471654
 20
5033.1050369988
 10
6262.3910286508
 20
5033.3301452797
  0
LWPOLYLINE
  5
2FF
330
1F
100
AcDbEntity
  8
0
  6
Continuous
 62
     7
370
    25
100
AcDbPolyline
 90
        6
 70
   128
 43
0.0
 10
6261.5338857936
 20
5033.3301452797
 10
6261.5429528582
 20
5033.1111286303
 10
6261.5920467488
 20
5032.8984433131
 10
6261.6521820004
 20
5032.8071124745
 10
6261.7380210298
 20
5032.7394960535
 10
6261.9494702092
 20
5032.6901290459
  0
LINE
  5
300
330
1F
100
AcDbEntity
  8
0
  6
Continuous
 62
     7
370
    25
100
AcDbLine
 10
6261.5338857936
 20
5034.4823368381
 30
0.0
 11
6261.5338857936
 21
5033.3301452797
 31
0.0
  0
LINE
  5
301
330
1F
100
AcDbEntity
  8
0
  6
Continuous
 62
     7
370
    25
100
AcDbLine
 10
6261.3260935858
 20
5034.4823368381
 30
0.0
 11
6261.5338857936
 21
5034.4823368381
 31
0.0
  0
LINE
  5
302
330
1F
100
AcDbEntity
  8
0
  6
Continuous
 62
     7
370
    25
100
AcDbLine
 10
6261.3260935858
 20
5033.3313628121
 30
0.0
 11
6261.3260935858
 21
5034.4823368381
 31
0.0
  0
LWPOLYLINE
  5
303
330
1F
100
AcDbEntity
  8
0
  6
Continuous
 62
     7
370
    25
100
AcDbPolyline
 90
        6
 70
   128
 43
0.0
 10
6261.9652981313
 20
5032.4563628121
 10
6261.6612717664
 20
5032.5149892813
 10
6261.5315713338
 20
5032.6005747026
 10
6261.4360610426
 20
5032.7230943521
 10
6261.3463126682
 20
5033.0203390447
 10
6261.3260935858
 20
5033.3313628121
  0
LWPOLYLINE
  5
304
330
1F
100
AcDbEntity
  8
0
  6
Continuous
 62
     7
370
    25
100
AcDbPolyline
 90
        6
 70
   128
 43
0.0
 10
6262.5988208586
 20
5033.3313628121
 10
6262.5788188748
 20
5033.0225947435
 10
6262.4880681483
 20
5032.7283538135
 10
6262.3924405272
 20
5032.6072308371
 10
6262.2658250211
 20
5032.5190978365
 10
6261.9652981313
 20
5032.4563628121
  0
LINE
  5
305
330
1F
100
AcDbEntity
  8
0
  6
Continuous
 62
     7
370
    25
100
AcDbLine
 10
6262.5988208586
 20
5034.4823368381
 30
0.0
 11
6262.5988208586
 21
5033.3313628121
 31
0.0
  0
LINE
  5
306
330
1F
100
AcDbEntity
  8
0
  6
Continuous
 62
     7
370
    25
100
AcDbLine
 10
6262.3910286508
 20
5034.4823368381
 30
0.0
 11
6262.5988208586
 21
5034.4823368381
 31
0.0
  0
LINE
  5
307
330
1F
100
AcDbEntity
  8
0
  6
Continuous
 62
     7
370
    25
100
AcDbLine
 10
6262.3910286508
 20
5033.3301452797
 30
0.0
 11
6262.3910286508
 21
5034.4823368381
 31
0.0
  0
LINE
  5
308
330
1F
100
AcDbEntity
  8
0
  6
Continuous
 62
     7
370
    25
100
AcDbLine
 10
6264.5988208586
 20
5033.2875316433
 30
0.0
 11
6264.5988208586
 21
5032.4823368381
 31
0.0
  0
LINE
  5
309
330
1F
100
AcDbEntity
  8
0
  6
Continuous
 62
     7
370
    25
100
AcDbLine
 10
6265.0208987806
 20
5033.2875316433
 30
0.0
 11
6264.5988208586
 21
5033.2875316433
 31
0.0
  0
ARC
  5
30A
330
1F
100
AcDbEntity
  8
0
  6
Continuous
 62
     7
370
    25
100
AcDbCircle
 10
6265.0828661146
 20
5033.8422860657
 30
0.0
 40
0.5582046395570448
100
AcDbArc
 50
263.6263519983
 51
6.2226710679
  0
ARC
  5
30B
330
1F
100
AcDbEntity
  8
0
  6
Continuous
 62
     7
370
    25
100
AcDbCircle
 10
6265.1129311084
 20
5033.9613276254
 30
0.0
 40
0.5281049540530947
100
AcDbArc
 50
353.6361410048
 51
66.0016367601
  0
LWPOLYLINE
  5
30C
330
1F
100
AcDbEntity
  8
0
  6
Continuous
 62
     7
370
    25
100
AcDbPolyline
 90
        3
 70
   128
 43
0.0
 10
6265.0071000793
 20
5034.4823368381
 10
6265.1884504096
 20
5034.4735327122
 10
6265.3277169625
 20
5034.4437816433
  0
LINE
  5
30D
330
1F
100
AcDbEntity
  8
0
  6
Continuous
 62
     7
370
    25
100
AcDbLine
 10
6264.3910286508
 20
5034.4823368381
 30
0.0
 11
6265.0071000793
 21
5034.4823368381
 31
0.0
  0
LINE
  5
30E
330
1F
100
AcDbEntity
  8
0
  6
Continuous
 62
     7
370
    25
100
AcDbLine
 10
6264.3910286508
 20
5032.4823368381
 30
0.0
 11
6264.3910286508
 21
5034.4823368381
 31
0.0
  0
LINE
  5
30F
330
1F
100
AcDbEntity
  8
0
  6
Continuous
 62
     7
370
    25
100
AcDbLine
 10
6264.5988208586
 20
5032.4823368381
 30
0.0
 11
6264.3910286508
 21
5032.4823368381
 31
0.0
  0
LWPOLYLINE
  5
310
330
1F
100
AcDbEntity
  8
0
  6
Continuous
 62
     7
370
    25
100
AcDbPolyline
 90
        3
 70
   128
 43
0.0
 10
6270.1544215079
 20
5033.104495929
 10
6269.9666540077
 20
5032.8981477412
 10
6269.8455741053
 20
5032.7161030719
  0
ARC
  5
311
330
1F
100
AcDbEntity
  8
0
  6
Continuous
 62
     7
370
    25
100
AcDbCircle
 10
6269.3658130687
 20
5034.0971875222
 30
0.0
 40
1.267809082489656
100
AcDbArc
 50
308.4641328001
 51
353.2348702304
  0
ARC
  5
312
330
1F
100
AcDbEntity
  8
0
  6
Continuous
 62
     7
370
    25
100
AcDbCircle
 10
6270.1086747055
 20
5033.990518606
 30
0.0
 40
0.5178817387550775
100
AcDbArc
 50
355.2729063977
 51
88.9348929821
  0
ARC
  5
313
330
1F
100
AcDbEntity
  8
0
  6
Continuous
 62
     7
370
    25
100
AcDbCircle
 10
6270.1307563015
 20
5033.9612131245
 30
0.0
 40
0.5472394921137061
100
AcDbArc
 50
91.3041386504
 51
185.2743467065
  0
LINE
  5
314
330
1F
100
AcDbEntity
  8
0
  6
Continuous
 62
     7
370
    25
100
AcDbLine
 10
6269.7936260534
 20
5033.8849342407
 30
0.0
 11
6269.5858338456
 21
5033.9109082667
 31
0.0
  0
LWPOLYLINE
  5
315
330
1F
100
AcDbEntity
  8
0
  6
Continuous
 62
     7
370
    25
100
AcDbPolyline
 90
        5
 70
   128
 43
0.0
 10
6270.1105903391
 20
5034.3005186563
 10
6270.003005472
 20
5034.2817465883
 10
6269.9109142023
 20
5034.2231942207
 10
6269.844807813
 20
5034.1361376256
 10
6269.7936260534
 20
5033.8849342407
  0
ARC
  5
316
330
1F
100
AcDbEntity
  8
0
  6
Continuous
 62
     7
370
    25
100
AcDbCircle
 10
6270.0995775443
 20
5033.981871784
 30
0.0
 40
0.3188371228101588
100
AcDbArc
 50
354.6057699976
 51
88.0205811983
  0
ARC
  5
317
330
1F
100
AcDbEntity
  8
0
  6
Continuous
 62
     7
370
    25
100
AcDbCircle
 10
6269.340643615
 20
5034.1126585372
 30
0.0
 40
1.08829803404321
100
AcDbArc
 50
305.3153210854
 51
351.5053593859
  0
ARC
  5
318
330
1F
100
AcDbEntity
  8
0
  6
Continuous
 62
     7
370
    25
100
AcDbCircle
 10
6270.6700058261
 20
5032.3536198343
 30
0.0
 40
1.117583206167423
100
AcDbArc
 50
128.7974682059
 51
173.3863142525
  0
LINE
  5
319
330
1F
100
AcDbEntity
  8
0
  6
Continuous
 62
     7
370
    25
100
AcDbLine
 10
6270.6247948845
 20
5032.4823368381
 30
0.0
 11
6269.5598598196
 21
5032.4823368381
 31
0.0
  0
LINE
  5
31A
330
1F
100
AcDbEntity
  8
0
  6
Continuous
 62
     7
370
    25
100
AcDbLine
 10
6270.6247948845
 20
5032.7161030719
 30
0.0
 11
6270.6247948845
 21
5032.4823368381
 31
0.0
  0
LINE
  5
31B
330
1F
100
AcDbEntity
  8
0
  6
Continuous
 62
     7
370
    25
100
AcDbLine
 10
6269.8455741053
 20
5032.7161030719
 30
0.0
 11
6270.6247948845
 21
5032.7161030719
 31
0.0
  0
LINE
  5
31C
330
1F
100
AcDbEntity
  8
0
  6
Continuous
 62
     7
370
    25
100
AcDbLine
 10
6269.2221974819
 20
5033.9368822926
 30
0.0
 11
6269.2221974819
 21
5033.6511680069
 31
0.0
  0
LINE
  5
31D
330
1F
100
AcDbEntity
  8
0
  6
Continuous
 62
     7
370
    25
100
AcDbLine
 10
6269.0144052741
 20
5033.9368822926
 30
0.0
 11
6269.2221974819
 21
5033.9368822926
 31
0.0
  0
LINE
  5
31E
330
1F
100
AcDbEntity
  8
0
  6
Continuous
 62
     7
370
    25
100
AcDbLine
 10
6269.0144052741
 20
5033.6511680069
 30
0.0
 11
6269.0144052741
 21
5033.9368822926
 31
0.0
  0
LINE
  5
31F
330
1F
100
AcDbEntity
  8
0
  6
Continuous
 62
     7
370
    25
100
AcDbLine
 10
6269.2221974819
 20
5033.6511680069
 30
0.0
 11
6269.0144052741
 21
5033.6511680069
 31
0.0
  0
LINE
  5
320
330
1F
100
AcDbEntity
  8
0
  6
Continuous
 62
     7
370
    25
100
AcDbLine
 10
6286.0733413751
 20
5054.0218667159
 30
0.0
 11
6285.7525215699
 21
5054.0218667159
 31
0.0
  0
LINE
  5
321
330
1F
100
AcDbEntity
  8
0
  6
Continuous
 62
     7
370
    25
100
AcDbLine
 10
6285.7525215699
 20
5054.0218667159
 30
0.0
 11
6285.1522780634
 21
5051.8455274302
 31
0.0
  0
LWPOLYLINE
  5
322
330
1F
100
AcDbEntity
  8
0
  6
Continuous
 62
     7
370
    25
100
AcDbPolyline
 90
        3
 70
   128
 43
0.0
 10
6285.1522780634
 20
5051.8455274302
 10
6285.0828971677
 20
5051.5811184362
 10
6285.0317423491
 20
5051.3725160665
  0
LWPOLYLINE
  5
323
330
1F
100
AcDbEntity
  8
0
  6
Continuous
 62
     7
370
    25
100
AcDbPolyline
 90
        3
 70
   128
 43
0.0
 10
6285.0317423491
 20
5051.3725160665
 10
6284.960974796
 20
5051.6381991634
 10
6284.9002488426
 20
5051.8455274302
  0
LINE
  5
324
330
1F
100
AcDbEntity
  8
0
  6
Continuous
 62
     7
370
    25
100
AcDbLine
 10
6284.9002488426
 20
5051.8455274302
 30
0.0
 11
6284.2330410504
 21
5054.0218667159
 31
0.0
  0
LINE
  5
325
330
1F
100
AcDbEntity
  8
0
  6
Continuous
 62
     7
370
    25
100
AcDbLine
 10
6284.2330410504
 20
5054.0218667159
 30
0.0
 11
6283.909177414
 21
5054.0218667159
 31
0.0
  0
LINE
  5
326
330
1F
100
AcDbEntity
  8
0
  6
Continuous
 62
     7
370
    25
100
AcDbLine
 10
6283.909177414
 20
5054.0218667159
 30
0.0
 11
6284.8539826088
 21
5051.0218667159
 31
0.0
  0
LINE
  5
327
330
1F
100
AcDbEntity
  8
0
  6
Continuous
 62
     7
370
    25
100
AcDbLine
 10
6284.8539826088
 20
5051.0218667159
 30
0.0
 11
6285.1760199465
 21
5051.0218667159
 31
0.0
  0
LINE
  5
328
330
1F
100
AcDbEntity
  8
0
  6
Continuous
 62
     7
370
    25
100
AcDbLine
 10
6285.1760199465
 20
5051.0218667159
 30
0.0
 11
6286.0733413751
 21
5054.0218667159
 31
0.0
  0
LINE
  5
329
330
1F
100
AcDbEntity
  8
0
  6
Continuous
 62
     7
370
    25
100
AcDbLine
 10
6291.0187553361
 20
5056.0218667159
 30
0.0
 11
6291.0187553361
 21
5015.0218667159
 31
0.0
  0
LINE
  5
32A
330
1F
100
AcDbEntity
  8
0
  6
Continuous
 62
     7
370
    25
100
AcDbLine
 10
6257.0187553361
 20
5056.0218667159
 30
0.0
 11
6257.0187553361
 21
5015.0218667159
 31
0.0
  0
LWPOLYLINE
  5
32B
330
1F
100
AcDbEntity
  8
0
  6
Continuous
 62
     7
370
    25
100
AcDbPolyline
 90
        5
 70
   128
 43
0.0
 10
6270.2043094016
 20
5052.9745020192
 10
6270.1366258819
 20
5053.3287430451
 10
6270.0193319003
 20
5053.4657493289
 10
6269.9380804734
 20
5053.5058869195
 10
6269.848384077
 20
5053.5191448764
  0
LWPOLYLINE
  5
32C
330
1F
100
AcDbEntity
  8
0
  6
Continuous
 62
     7
370
    25
100
AcDbPolyline
 90
        5
 70
   128
 43
0.0
 10
6269.858936025
 20
5052.4282357855
 10
6269.9473298211
 20
5052.4427515591
 10
6270.0260842082
 20
5052.4855269672
 10
6270.1390030579
 20
5052.6237026011
 10
6270.2043094016
 20
5052.9745020192
  0
LWPOLYLINE
  5
32D
330
1F
100
AcDbEntity
  8
0
  6
Continuous
 62
     7
370
    25
100
AcDbPolyline
 90
        5
 70
   128
 43
0.0
 10
6269.5030107003
 20
5052.9745020192
 10
6269.5702735957
 20
5052.6193046685
 10
6269.6876484263
 20
5052.4818749426
 10
6269.7690395271
 20
5052.4415551058
 10
6269.858936025
 20
5052.4282357855
  0
LWPOLYLINE
  5
32E
330
1F
100
AcDbEntity
  8
0
  6
Continuous
 62
     7
370
    25
100
AcDbPolyline
 90
        5
 70
   128
 43
0.0
 10
6269.848384077
 20
5053.5191448764
 10
6269.7600530079
 20
5053.5048527095
 10
6269.6809969548
 20
5053.462916943
 10
6269.5682204578
 20
5053.3248140234
 10
6269.5030107003
 20
5052.9745020192
  0
LWPOLYLINE
  5
32F
330
1F
100
AcDbEntity
  8
0
  6
Continuous
 62
     7
370
    25
100
AcDbPolyline
 90
        3
 70
   128
 43
0.0
 10
6268.0917653276
 20
5051.237685476
 10
6268.0461185995
 20
5051.0240457639
 10
6267.9988270159
 20
5050.8590328786
  0
LWPOLYLINE
  5
330
330
1F
100
AcDbEntity
  8
0
  6
Continuous
 62
     7
370
    25
100
AcDbPolyline
 90
        3
 70
   128
 43
0.0
 10
6268.2054016913
 20
5050.8265653461
 10
6268.1384328214
 20
5051.0558839387
 10
6268.0917653276
 20
5051.237685476
  0
LINE
  5
331
330
1F
100
AcDbEntity
  8
0
  6
Continuous
 62
     7
370
    25
100
AcDbLine
 10
6268.3726094835
 20
5050.2770523591
 30
0.0
 11
6268.2054016913
 21
5050.8265653461
 31
0.0
  0
LINE
  5
332
330
1F
100
AcDbEntity
  8
0
  6
Continuous
 62
     7
370
    25
100
AcDbLine
 10
6267.8105153276
 20
5050.2770523591
 30
0.0
 11
6268.3726094835
 21
5050.2770523591
 31
0.0
  0
LINE
  5
333
330
1F
100
AcDbEntity
  8
0
  6
Continuous
 62
     7
370
    25
100
AcDbLine
 10
6267.9988270159
 20
5050.8590328786
 30
0.0
 11
6267.8105153276
 21
5050.2770523591
 31
0.0
  0
LWPOLYLINE
  5
334
330
1F
100
AcDbEntity
  8
0
  6
Continuous
 62
     7
370
    25
100
AcDbPolyline
 90
        5
 70
   128
 43
0.0
 10
6269.8007750679
 20
5050.1451530085
 10
6269.7468171224
 20
5050.5063281525
 10
6269.6429013935
 20
5050.6557914865
 10
6269.5644595688
 20
5050.7027636017
 10
6269.4744763666
 20
5050.7186108007
  0
LWPOLYLINE
  5
335
330
1F
100
AcDbEntity
  8
0
  6
Continuous
 62
     7
370
    25
100
AcDbPolyline
 90
        5
 70
   128
 43
0.0
 10
6269.4890867562
 20
5049.6277017098
 10
6269.5710696102
 20
5049.6427260503
 10
6269.6428100991
 20
5049.6852970836
 10
6269.7433911333
 20
5049.8176228584
 10
6269.8007750679
 20
5050.1451530085
  0
LWPOLYLINE
  5
336
330
1F
100
AcDbEntity
  8
0
  6
Continuous
 62
     7
370
    25
100
AcDbPolyline
 90
        5
 70
   128
 43
0.0
 10
6269.1696874055
 20
5050.1719387228
 10
6269.2270878349
 20
5049.8296858561
 10
6269.3298671975
 20
5049.6900392281
 10
6269.4036898876
 20
5049.6439518323
 10
6269.4890867562
 20
5049.6277017098
  0
LWPOLYLINE
  5
337
330
1F
100
AcDbEntity
  8
0
  6
Continuous
 62
     7
370
    25
100
AcDbPolyline
 90
        5
 70
   128
 43
0.0
 10
6269.4744763666
 20
5050.7186108007
 10
6269.39001313
 20
5050.7018640319
 10
6269.3175971719
 20
5050.6549195254
 10
6269.2207977717
 20
5050.512788045
 10
6269.1696874055
 20
5050.1719387228
  0
LINE
  5
338
330
1F
100
AcDbEntity
  8
0
  6
Continuous
 62
     7
370
    25
100
AcDbLine
 10
6259.0187553361
 20
5058.0218667159
 30
0.0
 11
6257.0187553361
 21
5058.0218667159
 31
0.0
  0
LINE
  5
339
330
1F
100
AcDbEntity
  8
0
  6
Continuous
 62
     7
370
    25
100
AcDbLine
 10
6260.7752807008
 20
5058.0218667159
 30
0.0
 11
6259.0187553361
 21
5058.0218667159
 31
0.0
  0
LINE
  5
33A
330
1F
100
AcDbEntity
  8
0
  6
Continuous
 62
     7
370
    25
100
AcDbLine
 10
6262.2752807008
 20
5058.0218667159
 30
0.0
 11
6260.7752807008
 21
5058.0218667159
 31
0.0
  0
LINE
  5
33B
330
1F
100
AcDbEntity
  8
0
  6
Continuous
 62
     7
370
    25
100
AcDbLine
 10
6264.7752807008
 20
5058.0218667159
 30
0.0
 11
6262.2752807008
 21
5058.0218667159
 31
0.0
  0
LINE
  5
33C
330
1F
100
AcDbEntity
  8
0
  6
Continuous
 62
     7
370
    25
100
AcDbLine
 10
6266.2752807008
 20
5058.0218667159
 30
0.0
 11
6264.7752807008
 21
5058.0218667159
 31
0.0
  0
LINE
  5
33D
330
1F
100
AcDbEntity
  8
0
  6
Continuous
 62
     7
370
    25
100
AcDbLine
 10
6268.7752807008
 20
5058.0218667159
 30
0.0
 11
6266.2752807008
 21
5058.0218667159
 31
0.0
  0
LINE
  5
33E
330
1F
100
AcDbEntity
  8
0
  6
Continuous
 62
     7
370
    25
100
AcDbLine
 10
6270.2752807008
 20
5058.0218667159
 30
0.0
 11
6268.7752807008
 21
5058.0218667159
 31
0.0
  0
LINE
  5
33F
330
1F
100
AcDbEntity
  8
0
  6
Continuous
 62
     7
370
    25
100
AcDbLine
 10
6272.7752807008
 20
5058.0218667159
 30
0.0
 11
6270.2752807008
 21
5058.0218667159
 31
0.0
  0
LINE
  5
340
330
1F
100
AcDbEntity
  8
0
  6
Continuous
 62
     7
370
    25
100
AcDbLine
 10
6274.2752807008
 20
5058.0218667159
 30
0.0
 11
6272.7752807008
 21
5058.0218667159
 31
0.0
  0
LINE
  5
341
330
1F
100
AcDbEntity
  8
0
  6
Continuous
 62
     7
370
    25
100
AcDbLine
 10
6276.7752807008
 20
5058.0218667159
 30
0.0
 11
6274.2752807008
 21
5058.0218667159
 31
0.0
  0
LINE
  5
342
330
1F
100
AcDbEntity
  8
0
  6
Continuous
 62
     7
370
    25
100
AcDbLine
 10
6278.2752807008
 20
5058.0218667159
 30
0.0
 11
6276.7752807008
 21
5058.0218667159
 31
0.0
  0
LINE
  5
343
330
1F
100
AcDbEntity
  8
0
  6
Continuous
 62
     7
370
    25
100
AcDbLine
 10
6280.7752807008
 20
5058.0218667159
 30
0.0
 11
6278.2752807008
 21
5058.0218667159
 31
0.0
  0
LINE
  5
344
330
1F
100
AcDbEntity
  8
0
  6
Continuous
 62
     7
370
    25
100
AcDbLine
 10
6282.2752807008
 20
5058.0218667159
 30
0.0
 11
6280.7752807008
 21
5058.0218667159
 31
0.0
  0
LINE
  5
345
330
1F
100
AcDbEntity
  8
0
  6
Continuous
 62
     7
370
    25
100
AcDbLine
 10
6284.7752807008
 20
5058.0218667159
 30
0.0
 11
6282.2752807008
 21
5058.0218667159
 31
0.0
  0
LINE
  5
346
330
1F
100
AcDbEntity
  8
0
  6
Continuous
 62
     7
370
    25
100
AcDbLine
 10
6286.2752807008
 20
5058.0218667159
 30
0.0
 11
6284.7752807008
 21
5058.0218667159
 31
0.0
  0
LINE
  5
347
330
1F
100
AcDbEntity
  8
0
  6
Continuous
 62
     7
370
    25
100
AcDbLine
 10
6288.7752807008
 20
5058.0218667159
 30
0.0
 11
6286.2752807008
 21
5058.0218667159
 31
0.0
  0
LINE
  5
348
330
1F
100
AcDbEntity
  8
0
  6
Continuous
 62
     7
370
    25
100
AcDbLine
 10
6291.0187553361
 20
5058.0218667159
 30
0.0
 11
6288.7752807008
 21
5058.0218667159
 31
0.0
  0
LINE
  5
349
330
1F
100
AcDbEntity
  8
0
  6
Continuous
 62
     7
370
    25
100
AcDbLine
 10
6291.0187553361
 20
5058.0218667159
 30
0.0
 11
6291.0187553361
 21
5056.0218667159
 31
0.0
  0
LINE
  5
34A
330
1F
100
AcDbEntity
  8
0
  6
Continuous
 62
     7
370
    25
100
AcDbLine
 10
6257.0187553361
 20
5058.0218667159
 30
0.0
 11
6257.0187553361
 21
5056.0218667159
 31
0.0
  0
LWPOLYLINE
  5
34B
330
1F
100
AcDbEntity
  8
0
  6
Continuous
 62
     7
370
    25
100
AcDbPolyline
 90
        5
 70
   128
 43
0.0
 10
6270.4170026767
 20
5042.4823368381
 10
6270.3809452861
 20
5042.9657898953
 10
6270.2900286565
 20
5043.1886078005
 10
6270.2011665973
 20
5043.2701815289
 10
6270.0850221573
 20
5043.3005186563
  0
LWPOLYLINE
  5
34C
330
1F
100
AcDbEntity
  8
0
  6
Continuous
 62
     7
370
    25
100
AcDbPolyline
 90
        5
 70
   128
 43
0.0
 10
6270.0971974819
 20
5041.6641550199
 10
6270.2107771813
 20
5041.6977827243
 10
6270.2949172808
 20
5041.7824516337
 10
6270.3817789875
 20
5042.0042628558
 10
6270.4170026767
 20
5042.4823368381
  0
LWPOLYLINE
  5
34D
330
1F
100
AcDbEntity
  8
0
  6
Continuous
 62
     7
370
    25
100
AcDbPolyline
 90
        5
 70
   128
 43
0.0
 10
6269.7676520274
 20
5042.4823368381
 10
6269.8035569305
 20
5042.0000469035
 10
6269.893715009
 20
5041.7775195675
 10
6269.9815702309
 20
5041.6952219523
 10
6270.0971974819
 20
5041.6641550199
  0
LWPOLYLINE
  5
34E
330
1F
100
AcDbEntity
  8
0
  6
Continuous
 62
     7
370
    25
100
AcDbPolyline
 90
        5
 70
   128
 43
0.0
 10
6270.0850221573
 20
5043.3005186563
 10
6269.9718526217
 20
5043.2664811331
 10
6269.8884866837
 20
5043.1813306617
 10
6269.802793467
 20
5042.9595466153
 10
6269.7676520274
 20
5042.4823368381
  0
LWPOLYLINE
  5
34F
330
1F
100
AcDbEntity
  8
0
  6
Continuous
 62
     7
370
    25
100
AcDbPolyline
 90
        5
 70
   128
 43
0.0
 10
6269.144275404
 20
5042.4823368381
 10
6269.1082180133
 20
5042.9657898953
 10
6269.0173013838
 20
5043.1886078005
 10
6268.9284393245
 20
5043.2701815289
 10
6268.8122948845
 20
5043.3005186563
  0
LWPOLYLINE
  5
350
330
1F
100
AcDbEntity
  8
0
  6
Continuous
 62
     7
370
    25
100
AcDbPolyline
 90
        5
 70
   128
 43
0.0
 10
6268.4949247547
 20
5042.4823368381
 10
6268.5308296578
 20
5042.0000469035
 10
6268.6209877362
 20
5041.7775195675
 10
6268.7088429581
 20
5041.6952219523
 10
6268.8244702092
 20
5041.6641550199
  0
LWPOLYLINE
  5
351
330
1F
100
AcDbEntity
  8
0
  6
Continuous
 62
     7
370
    25
100
AcDbPolyline
 90
        5
 70
   128
 43
0.0
 10
6268.8122948845
 20
5043.3005186563
 10
6268.699125349
 20
5043.2664811331
 10
6268.615759411
 20
5043.1813306617
 10
6268.5300661943
 20
5042.9595466153
 10
6268.4949247547
 20
5042.4823368381
  0
LWPOLYLINE
  5
352
330
1F
100
AcDbEntity
  8
0
  6
Continuous
 62
     7
370
    25
100
AcDbPolyline
 90
        5
 70
   128
 43
0.0
 10
6268.8244702092
 20
5041.6641550199
 10
6268.9380499086
 20
5041.6977827243
 10
6269.0221900081
 20
5041.7824516337
 10
6269.1090517148
 20
5042.0042628558
 10
6269.144275404
 20
5042.4823368381
  0
CIRCLE
  5
353
330
1F
100
AcDbEntity
  8
0
  6
Continuous
 62
     7
370
    25
100
AcDbCircle
 10
6265.3286614259
 20
5051.0218667159
 30
0.0
 40
0.9999999999990905
  0
LWPOLYLINE
  5
354
330
1F
100
AcDbEntity
  8
0
  6
Continuous
 62
     7
370
    25
100
AcDbPolyline
 90
        5
 70
   128
 43
0.0
 10
6274.9884312482
 20
5042.4823368381
 10
6274.9523738575
 20
5042.9657898953
 10
6274.8614572279
 20
5043.1886078005
 10
6274.7725951687
 20
5043.2701815289
 10
6274.6564507287
 20
5043.3005186563
  0
LWPOLYLINE
  5
355
330
1F
100
AcDbEntity
  8
0
  6
Continuous
 62
     7
370
    25
100
AcDbPolyline
 90
        5
 70
   128
 43
0.0
 10
6274.6686260534
 20
5041.6641550199
 10
6274.7822057528
 20
5041.6977827243
 10
6274.8663458522
 20
5041.7824516337
 10
6274.9532075589
 20
5042.0042628558
 10
6274.9884312482
 20
5042.4823368381
  0
LWPOLYLINE
  5
356
330
1F
100
AcDbEntity
  8
0
  6
Continuous
 62
     7
370
    25
100
AcDbPolyline
 90
        5
 70
   128
 43
0.0
 10
6274.3390805988
 20
5042.4823368381
 10
6274.374985502
 20
5042.0000469035
 10
6274.4651435804
 20
5041.7775195675
 10
6274.5529988023
 20
5041.6952219523
 10
6274.6686260534
 20
5041.6641550199
  0
LWPOLYLINE
  5
357
330
1F
100
AcDbEntity
  8
0
  6
Continuous
 62
     7
370
    25
100
AcDbPolyline
 90
        5
 70
   128
 43
0.0
 10
6274.6564507287
 20
5043.3005186563
 10
6274.5432811931
 20
5043.2664811331
 10
6274.4599152551
 20
5043.1813306617
 10
6274.3742220385
 20
5042.9595466153
 10
6274.3390805988
 20
5042.4823368381
  0
LWPOLYLINE
  5
358
330
1F
100
AcDbEntity
  8
0
  6
Continuous
 62
     7
370
    25
100
AcDbPolyline
 90
        5
 70
   128
 43
0.0
 10
6268.2351844949
 20
5038.1836355394
 10
6268.1991271042
 20
5038.6670885966
 10
6268.1082104747
 20
5038.8899065018
 10
6268.0193484155
 20
5038.9714802302
 10
6267.9032039754
 20
5039.0018173576
  0
LWPOLYLINE
  5
359
330
1F
100
AcDbEntity
  8
0
  6
Continuous
 62
     7
370
    25
100
AcDbPolyline
 90
        5
 70
   128
 43
0.0
 10
6267.9153793001
 20
5037.3654537212
 10
6268.0289589995
 20
5037.3990814256
 10
6268.113099099
 20
5037.483750335
 10
6268.1999608057
 20
5037.7055615571
 10
6268.2351844949
 20
5038.1836355394
  0
LWPOLYLINE
  5
35A
330
1F
100
AcDbEntity
  8
0
  6
Continuous
 62
     7
370
    25
100
AcDbPolyline
 90
        5
 70
   128
 43
0.0
 10
6267.5858338456
 20
5038.1836355394
 10
6267.6217387487
 20
5037.7013456048
 10
6267.7118968272
 20
5037.4788182688
 10
6267.799752049
 20
5037.3965206536
 10
6267.9153793001
 20
5037.3654537212
  0
LWPOLYLINE
  5
35B
330
1F
100
AcDbEntity
  8
0
  6
Continuous
 62
     7
370
    25
100
AcDbPolyline
 90
        5
 70
   128
 43
0.0
 10
6267.9032039754
 20
5039.0018173576
 10
6267.7900344399
 20
5038.9677798344
 10
6267.7066685019
 20
5038.882629363
 10
6267.6209752852
 20
5038.6608453166
 10
6267.5858338456
 20
5038.1836355394
  0
LWPOLYLINE
  5
35C
330
1F
100
AcDbEntity
  8
0
  6
Continuous
 62
     7
370
    25
100
AcDbPolyline
 90
        3
 70
   128
 43
0.0
 10
6277.5728468326
 20
5043.2741387862
 10
6277.5272001045
 20
5043.0604990741
 10
6277.4799085209
 20
5042.8954861888
  0
LWPOLYLINE
  5
35D
330
1F
100
AcDbEntity
  8
0
  6
Continuous
 62
     7
370
    25
100
AcDbPolyline
 90
        3
 70
   128
 43
0.0
 10
6277.6864831962
 20
5042.8630186563
 10
6277.6195143263
 20
5043.0923372488
 10
6277.5728468326
 20
5043.2741387862
  0
LINE
  5
35E
330
1F
100
AcDbEntity
  8
0
  6
Continuous
 62
     7
370
    25
100
AcDbLine
 10
6277.8536909884
 20
5042.3135056693
 30
0.0
 11
6277.6864831962
 21
5042.8630186563
 31
0.0
  0
LINE
  5
35F
330
1F
100
AcDbEntity
  8
0
  6
Continuous
 62
     7
370
    25
100
AcDbLine
 10
6277.2915968326
 20
5042.3135056693
 30
0.0
 11
6277.8536909884
 21
5042.3135056693
 31
0.0
  0
LINE
  5
360
330
1F
100
AcDbEntity
  8
0
  6
Continuous
 62
     7
370
    25
100
AcDbLine
 10
6277.4799085209
 20
5042.8954861888
 30
0.0
 11
6277.2915968326
 21
5042.3135056693
 31
0.0
  0
ARC
  5
361
330
1F
100
AcDbEntity
  8
0
  6
Continuous
 62
     7
370
    25
100
AcDbCircle
 10
6263.1474995312
 20
5037.8088408277
 30
0.0
 40
0.3631918726337073
100
AcDbArc
 50
352.9068210034
 51
84.996165675
  0
ARC
  5
362
330
1F
100
AcDbEntity
  8
0
  6
Continuous
 62
     7
370
    25
100
AcDbCircle
 10
6263.1514062538
 20
5037.7228056502
 30
0.0
 40
0.3588767936562083
100
AcDbArc
 50
275.2836555278
 51
6.5901570828
  0
ARC
  5
363
330
1F
100
AcDbEntity
  8
0
  6
Continuous
 62
     7
370
    25
100
AcDbCircle
 10
6263.2171765813
 20
5037.7255902607
 30
0.0
 40
0.3616200990305126
100
AcDbArc
 50
172.6089107075
 51
264.8082660926
  0
LWPOLYLINE
  5
364
330
1F
100
AcDbEntity
  8
0
  6
Continuous
 62
     7
370
    25
100
AcDbPolyline
 90
        4
 70
   128
 43
0.0
 10
6263.1791780014
 20
5038.1706485264
 10
6263.0277831555
 20
5038.1272135464
 10
6262.918367
 20
5038.01268993
 10
6262.8585611183
 20
5037.7721095654
  0
LINE
  5
365
330
1F
100
AcDbEntity
  8
0
  6
Continuous
 62
     7
370
    25
100
AcDbLine
 10
6262.4843728066
 20
5043.2485706043
 30
0.0
 11
6262.0533663131
 21
5043.2485706043
 31
0.0
  0
ARC
  5
366
330
1F
100
AcDbEntity
  8
0
  6
Continuous
 62
     7
370
    25
100
AcDbCircle
 10
6262.551518289
 20
5042.9210842516
 30
0.0
 40
0.3342990084219501
100
AcDbArc
 50
354.9802864074
 51
101.5869361879
  0
ARC
  5
367
330
1F
100
AcDbEntity
  8
0
  6
Continuous
 62
     7
370
    25
100
AcDbCircle
 10
6262.5416306854
 20
5042.8614135442
 30
0.0
 40
0.3442511396724101
100
AcDbArc
 50
261.1100722671
 51
5.0696030273
  0
LINE
  5
368
330
1F
100
AcDbEntity
  8
0
  6
Continuous
 62
     7
370
    25
100
AcDbLine
 10
6262.0533663131
 20
5042.5212978771
 30
0.0
 11
6262.4884312482
 21
5042.5212978771
 31
0.0
  0
LINE
  5
369
330
1F
100
AcDbEntity
  8
0
  6
Continuous
 62
     7
370
    25
100
AcDbLine
 10
6262.0533663131
 20
5043.2485706043
 30
0.0
 11
6262.0533663131
 21
5042.5212978771
 31
0.0
  0
ARC
  5
36A
330
1F
100
AcDbEntity
  8
0
  6
Continuous
 62
     7
370
    25
100
AcDbCircle
 10
6263.1490717085
 20
5038.7205620861
 30
0.0
 40
0.2831784699781766
100
AcDbArc
 50
352.7556735183
 51
83.318627774
  0
LWPOLYLINE
  5
36B
330
1F
100
AcDbEntity
  8
0
  6
Continuous
 62
     7
370
    25
100
AcDbPolyline
 90
        4
 70
   128
 43
0.0
 10
6263.1844539754
 20
5038.3784407342
 10
6263.3005787592
 20
5038.4121462121
 10
6263.3841232059
 20
5038.5003426899
 10
6263.4299896897
 20
5038.6848530719
  0
ARC
  5
36C
330
1F
100
AcDbEntity
  8
0
  6
Continuous
 62
     7
370
    25
100
AcDbCircle
 10
6263.2121241167
 20
5038.6559341049
 30
0.0
 40
0.2788695170141339
100
AcDbArc
 50
171.2730218719
 51
264.3055974623
  0
LWPOLYLINE
  5
36D
330
1F
100
AcDbEntity
  8
0
  6
Continuous
 62
     7
370
    25
100
AcDbPolyline
 90
        4
 70
   128
 43
0.0
 10
6263.1820189105
 20
5039.0018173576
 10
6263.0670647331
 20
5038.9679840658
 10
6262.983841102
 20
5038.8806568476
 10
6262.9364831962
 20
5038.698245929
  0
LWPOLYLINE
  5
36E
330
1F
100
AcDbEntity
  8
0
  6
Continuous
 62
     7
370
    25
100
AcDbPolyline
 90
        5
 70
   128
 43
0.0
 10
6271.4299896897
 20
5038.1836355394
 10
6271.393932299
 20
5038.6670885966
 10
6271.3030156695
 20
5038.8899065018
 10
6271.2141536103
 20
5038.9714802302
 10
6271.0980091703
 20
5039.0018173576
  0
LWPOLYLINE
  5
36F
330
1F
100
AcDbEntity
  8
0
  6
Continuous
 62
     7
370
    25
100
AcDbPolyline
 90
        5
 70
   128
 43
0.0
 10
6271.1101844949
 20
5037.3654537212
 10
6271.2237641943
 20
5037.3990814256
 10
6271.3079042938
 20
5037.483750335
 10
6271.3947660005
 20
5037.7055615571
 10
6271.4299896897
 20
5038.1836355394
  0
LWPOLYLINE
  5
370
330
1F
100
AcDbEntity
  8
0
  6
Continuous
 62
     7
370
    25
100
AcDbPolyline
 90
        5
 70
   128
 43
0.0
 10
6270.7806390404
 20
5038.1836355394
 10
6270.8165439435
 20
5037.7013456048
 10
6270.906702022
 20
5037.4788182688
 10
6270.9945572438
 20
5037.3965206536
 10
6271.1101844949
 20
5037.3654537212
  0
LWPOLYLINE
  5
371
330
1F
100
AcDbEntity
  8
0
  6
Continuous
 62
     7
370
    25
100
AcDbPolyline
 90
        5
 70
   128
 43
0.0
 10
6271.0980091703
 20
5039.0018173576
 10
6270.9848396347
 20
5038.9677798344
 10
6270.9014736967
 20
5038.882629363
 10
6270.81578048
 20
5038.6608453166
 10
6270.7806390404
 20
5038.1836355394
  0
LWPOLYLINE
  5
372
330
1F
100
AcDbEntity
  8
0
  6
Continuous
 62
     7
370
    25
100
AcDbPolyline
 90
        5
 70
   128
 43
0.0
 10
6260.3131065729
 20
5038.1836355394
 10
6260.2770491822
 20
5038.6670885966
 10
6260.1861325526
 20
5038.8899065018
 10
6260.0972704934
 20
5038.9714802302
 10
6259.9811260534
 20
5039.0018173576
  0
LWPOLYLINE
  5
373
330
1F
100
AcDbEntity
  8
0
  6
Continuous
 62
     7
370
    25
100
AcDbPolyline
 90
        5
 70
   128
 43
0.0
 10
6259.993301378
 20
5037.3654537212
 10
6260.1068810774
 20
5037.3990814256
 10
6260.1910211769
 20
5037.483750335
 10
6260.2778828836
 20
5037.7055615571
 10
6260.3131065729
 20
5038.1836355394
  0
LWPOLYLINE
  5
374
330
1F
100
AcDbEntity
  8
0
  6
Continuous
 62
     7
370
    25
100
AcDbPolyline
 90
        5
 70
   128
 43
0.0
 10
6259.6637559235
 20
5038.1836355394
 10
6259.6996608266
 20
5037.7013456048
 10
6259.7898189051
 20
5037.4788182688
 10
6259.877674127
 20
5037.3965206536
 10
6259.993301378
 20
5037.3654537212
  0
LWPOLYLINE
  5
375
330
1F
100
AcDbEntity
  8
0
  6
Continuous
 62
     7
370
    25
100
AcDbPolyline
 90
        5
 70
   128
 43
0.0
 10
6259.9811260534
 20
5039.0018173576
 10
6259.8679565178
 20
5038.9677798344
 10
6259.7845905798
 20
5038.882629363
 10
6259.6988973631
 20
5038.6608453166
 10
6259.6637559235
 20
5038.1836355394
  0
ARC
  5
376
330
1F
100
AcDbEntity
  8
0
  6
Continuous
 62
     7
370
    25
100
AcDbCircle
 10
6261.8747722585
 20
5037.8088408277
 30
0.0
 40
0.3631918726327883
100
AcDbArc
 50
352.9068210032
 51
84.9961656748
  0
ARC
  5
377
330
1F
100
AcDbEntity
  8
0
  6
Continuous
 62
     7
370
    25
100
AcDbCircle
 10
6261.8786789811
 20
5037.7228056502
 30
0.0
 40
0.3588767936540621
100
AcDbArc
 50
275.2836555273
 51
6.5901570832
  0
ARC
  5
378
330
1F
100
AcDbEntity
  8
0
  6
Continuous
 62
     7
370
    25
100
AcDbCircle
 10
6261.9444493086
 20
5037.7255902607
 30
0.0
 40
0.3616200990333224
100
AcDbArc
 50
172.6089107077
 51
264.808266092
  0
LWPOLYLINE
  5
379
330
1F
100
AcDbEntity
  8
0
  6
Continuous
 62
     7
370
    25
100
AcDbPolyline
 90
        4
 70
   128
 43
0.0
 10
6261.9064507287
 20
5038.1706485264
 10
6261.7550558827
 20
5038.1272135464
 10
6261.6456397273
 20
5038.01268993
 10
6261.5858338456
 20
5037.7721095654
  0
ARC
  5
37A
330
1F
100
AcDbEntity
  8
0
  6
Continuous
 62
     7
370
    25
100
AcDbCircle
 10
6260.2669477074
 20
5033.7275740478
 30
0.0
 40
0.547062696911093
100
AcDbArc
 50
22.6792057407
 51
88.9485492863
  0
LWPOLYLINE
  5
37B
330
1F
100
AcDbEntity
  8
0
  6
Continuous
 62
     7
370
    25
100
AcDbPolyline
 90
        3
 70
   128
 43
0.0
 10
6260.8585611183
 20
5033.4863952797
 10
6260.8332115013
 20
5033.7443281035
 10
6260.771710469
 20
5033.9385056693
  0
ARC
  5
37C
330
1F
100
AcDbEntity
  8
0
  6
Continuous
 62
     7
370
    25
100
AcDbCircle
 10
6260.1839472342
 20
5033.3691094201
 30
0.0
 40
0.6847334266154709
100
AcDbArc
 50
277.4324256866
 51
9.8626500241
  0
ARC
  5
37D
330
1F
100
AcDbEntity
  8
0
  6
Continuous
 62
     7
370
    25
100
AcDbCircle
 10
6260.3391181628
 20
5033.3450101939
 30
0.0
 40
0.6582585707954365
100
AcDbArc
 50
170.5832978339
 51
264.1934529833
  0
LWPOLYLINE
  5
37E
330
1F
100
AcDbEntity
  8
0
  6
Continuous
 62
     7
370
    25
100
AcDbPolyline
 90
        5
 70
   128
 43
0.0
 10
6260.276986443
 20
5034.2745446303
 10
6260.0046160846
 20
5034.2037806631
 10
6259.8062840183
 20
5034.0035007037
 10
6259.7126609593
 20
5033.7360903732
 10
6259.6897299495
 20
5033.4527102147
  0
ARC
  5
37F
330
1F
100
AcDbEntity
  8
0
  6
Continuous
 62
     7
370
    25
100
AcDbCircle
 10
6269.7838810866
 20
5037.898337009
 30
0.0
 40
0.3797779133827778
100
AcDbArc
 50
349.4692753709
 51
82.1374128457
  0
LWPOLYLINE
  5
380
330
1F
100
AcDbEntity
  8
0
  6
Continuous
 62
     7
370
    25
100
AcDbPolyline
 90
        5
 70
   128
 43
0.0
 10
6269.8496325469
 20
5037.3654537212
 10
6269.959512962
 20
5037.3944113858
 10
6270.0465353202
 20
5037.468398957
 10
6270.1082786234
 20
5037.5647607875
 10
6270.157262417
 20
5037.8289277472
  0
ARC
  5
381
330
1F
100
AcDbEntity
  8
0
  6
Continuous
 62
     7
370
    25
100
AcDbCircle
 10
6269.9216839032
 20
5037.7781778079
 30
0.0
 40
0.4189660721901953
100
AcDbArc
 50
170.968784303
 51
260.0973767403
  0
LWPOLYLINE
  5
382
330
1F
100
AcDbEntity
  8
0
  6
Continuous
 62
     7
370
    25
100
AcDbPolyline
 90
        4
 70
   128
 43
0.0
 10
6269.8358338456
 20
5038.2745446303
 10
6269.677483336
 20
5038.2244588362
 10
6269.5658265501
 20
5038.0997502436
 10
6269.5079117677
 20
5037.843943981
  0
LINE
  5
383
330
1F
100
AcDbEntity
  8
0
  6
Continuous
 62
     7
370
    25
100
AcDbLine
 10
6272.9855903391
 20
5042.2096095654
 30
0.0
 11
6273.4819377417
 21
5042.2096095654
 31
0.0
  0
LINE
  5
384
330
1F
100
AcDbEntity
  8
0
  6
Continuous
 62
     7
370
    25
100
AcDbLine
 10
6273.4819377417
 20
5043.1134245004
 30
0.0
 11
6272.9855903391
 21
5042.2096095654
 31
0.0
  0
LINE
  5
385
330
1F
100
AcDbEntity
  8
0
  6
Continuous
 62
     7
370
    25
100
AcDbLine
 10
6273.4819377417
 20
5042.2096095654
 30
0.0
 11
6273.4819377417
 21
5043.1134245004
 31
0.0
  0
LWPOLYLINE
  5
386
330
1F
100
AcDbEntity
  8
0
  6
Continuous
 62
     7
370
    25
100
AcDbPolyline
 90
        3
 70
   128
 43
0.0
 10
6264.6734961832
 20
5038.5643173576
 10
6264.6065273133
 20
5038.7936359501
 10
6264.5598598196
 20
5038.9754374875
  0
LINE
  5
387
330
1F
100
AcDbEntity
  8
0
  6
Continuous
 62
     7
370
    25
100
AcDbLine
 10
6264.8407039754
 20
5038.0148043706
 30
0.0
 11
6264.6734961832
 21
5038.5643173576
 31
0.0
  0
LINE
  5
388
330
1F
100
AcDbEntity
  8
0
  6
Continuous
 62
     7
370
    25
100
AcDbLine
 10
6264.2786098196
 20
5038.0148043706
 30
0.0
 11
6264.8407039754
 21
5038.0148043706
 31
0.0
  0
LINE
  5
389
330
1F
100
AcDbEntity
  8
0
  6
Continuous
 62
     7
370
    25
100
AcDbLine
 10
6264.4669215079
 20
5038.5967848901
 30
0.0
 11
6264.2786098196
 21
5038.0148043706
 31
0.0
  0
LWPOLYLINE
  5
38A
330
1F
100
AcDbEntity
  8
0
  6
Continuous
 62
     7
370
    25
100
AcDbPolyline
 90
        3
 70
   128
 43
0.0
 10
6264.5598598196
 20
5038.9754374875
 10
6264.5142130915
 20
5038.7617977754
 10
6264.4669215079
 20
5038.5967848901
  0
ARC
  5
38B
330
1F
100
AcDbEntity
  8
0
  6
Continuous
 62
     7
370
    25
100
AcDbCircle
 10
6261.8763444358
 20
5038.7205620861
 30
0.0
 40
0.2831784699774708
100
AcDbArc
 50
352.7556735182
 51
83.3186277745
  0
ARC
  5
38C
330
1F
100
AcDbEntity
  8
0
  6
Continuous
 62
     7
370
    25
100
AcDbCircle
 10
6261.939396844
 20
5038.6559341049
 30
0.0
 40
0.2788695170124936
100
AcDbArc
 50
171.2730218715
 51
264.3055974623
  0
LWPOLYLINE
  5
38D
330
1F
100
AcDbEntity
  8
0
  6
Continuous
 62
     7
370
    25
100
AcDbPolyline
 90
        4
 70
   128
 43
0.0
 10
6261.9117267027
 20
5038.3784407342
 10
6262.0278514865
 20
5038.4121462121
 10
6262.1113959332
 20
5038.5003426899
 10
6262.157262417
 20
5038.6848530719
  0
LWPOLYLINE
  5
38E
330
1F
100
AcDbEntity
  8
0
  6
Continuous
 62
     7
370
    25
100
AcDbPolyline
 90
        4
 70
   128
 43
0.0
 10
6261.9092916378
 20
5039.0018173576
 10
6261.7943374604
 20
5038.9679840658
 10
6261.7111138293
 20
5038.8806568476
 10
6261.6637559235
 20
5038.698245929
  0
LWPOLYLINE
  5
38F
330
1F
100
AcDbEntity
  8
0
  6
Continuous
 62
     7
370
    25
100
AcDbPolyline
 90
        3
 70
   128
 43
0.0
 10
6279.4949247547
 20
5034.2741387862
 10
6279.4492780266
 20
5034.0604990741
 10
6279.401986443
 20
5033.8954861888
  0
LWPOLYLINE
  5
390
330
1F
100
AcDbEntity
  8
0
  6
Continuous
 62
     7
370
    25
100
AcDbPolyline
 90
        3
 70
   128
 43
0.0
 10
6279.6085611183
 20
5033.8630186563
 10
6279.5415922484
 20
5034.0923372488
 10
6279.4949247547
 20
5034.2741387862
  0
LINE
  5
391
330
1F
100
AcDbEntity
  8
0
  6
Continuous
 62
     7
370
    25
100
AcDbLine
 10
6279.7757689105
 20
5033.3135056693
 30
0.0
 11
6279.6085611183
 21
5033.8630186563
 31
0.0
  0
LINE
  5
392
330
1F
100
AcDbEntity
  8
0
  6
Continuous
 62
     7
370
    25
100
AcDbLine
 10
6279.2136747547
 20
5033.3135056693
 30
0.0
 11
6279.7757689105
 21
5033.3135056693
 31
0.0
  0
LINE
  5
393
330
1F
100
AcDbEntity
  8
0
  6
Continuous
 62
     7
370
    25
100
AcDbLine
 10
6279.401986443
 20
5033.8954861888
 30
0.0
 11
6279.2136747547
 21
5033.3135056693
 31
0.0
  0
LINE
  5
394
330
1F
100
AcDbEntity
  8
0
  6
Continuous
 62
     7
370
    25
100
AcDbLine
 10
6271.4559637157
 20
5034.1134245004
 30
0.0
 11
6270.9596163131
 21
5033.2096095654
 31
0.0
  0
LINE
  5
395
330
1F
100
AcDbEntity
  8
0
  6
Continuous
 62
     7
370
    25
100
AcDbLine
 10
6271.4559637157
 20
5033.2096095654
 30
0.0
 11
6271.4559637157
 21
5034.1134245004
 31
0.0
  0
LINE
  5
396
330
1F
100
AcDbEntity
  8
0
  6
Continuous
 62
     7
370
    25
100
AcDbLine
 10
6270.9596163131
 20
5033.2096095654
 30
0.0
 11
6271.4559637157
 21
5033.2096095654
 31
0.0
  0
LINE
  5
397
330
1F
100
AcDbEntity
  8
0
  6
Continuous
 62
     7
370
    25
100
AcDbLine
 10
6291.0187553361
 20
5013.0218667159
 30
0.0
 11
6288.7752807008
 21
5013.0218667159
 31
0.0
  0
LINE
  5
398
330
1F
100
AcDbEntity
  8
0
  6
Continuous
 62
     7
370
    25
100
AcDbLine
 10
6288.7752807008
 20
5013.0218667159
 30
0.0
 11
6286.2752807008
 21
5013.0218667159
 31
0.0
  0
LINE
  5
399
330
1F
100
AcDbEntity
  8
0
  6
Continuous
 62
     7
370
    25
100
AcDbLine
 10
6286.2752807008
 20
5013.0218667159
 30
0.0
 11
6284.7752807008
 21
5013.0218667159
 31
0.0
  0
LINE
  5
39A
330
1F
100
AcDbEntity
  8
0
  6
Continuous
 62
     7
370
    25
100
AcDbLine
 10
6284.7752807008
 20
5013.0218667159
 30
0.0
 11
6282.2752807008
 21
5013.0218667159
 31
0.0
  0
LINE
  5
39B
330
1F
100
AcDbEntity
  8
0
  6
Continuous
 62
     7
370
    25
100
AcDbLine
 10
6282.2752807008
 20
5013.0218667159
 30
0.0
 11
6280.7752807008
 21
5013.0218667159
 31
0.0
  0
LINE
  5
39C
330
1F
100
AcDbEntity
  8
0
  6
Continuous
 62
     7
370
    25
100
AcDbLine
 10
6280.7752807008
 20
5013.0218667159
 30
0.0
 11
6278.2752807008
 21
5013.0218667159
 31
0.0
  0
LINE
  5
39D
330
1F
100
AcDbEntity
  8
0
  6
Continuous
 62
     7
370
    25
100
AcDbLine
 10
6278.2752807008
 20
5013.0218667159
 30
0.0
 11
6276.7752807008
 21
5013.0218667159
 31
0.0
  0
LINE
  5
39E
330
1F
100
AcDbEntity
  8
0
  6
Continuous
 62
     7
370
    25
100
AcDbLine
 10
6276.7752807008
 20
5013.0218667159
 30
0.0
 11
6274.2752807008
 21
5013.0218667159
 31
0.0
  0
LINE
  5
39F
330
1F
100
AcDbEntity
  8
0
  6
Continuous
 62
     7
370
    25
100
AcDbLine
 10
6274.2752807008
 20
5013.0218667159
 30
0.0
 11
6272.7752807008
 21
5013.0218667159
 31
0.0
  0
LINE
  5
3A0
330
1F
100
AcDbEntity
  8
0
  6
Continuous
 62
     7
370
    25
100
AcDbLine
 10
6272.7752807008
 20
5013.0218667159
 30
0.0
 11
6270.2752807008
 21
5013.0218667159
 31
0.0
  0
LINE
  5
3A1
330
1F
100
AcDbEntity
  8
0
  6
Continuous
 62
     7
370
    25
100
AcDbLine
 10
6270.2752807008
 20
5013.0218667159
 30
0.0
 11
6268.7752807008
 21
5013.0218667159
 31
0.0
  0
LINE
  5
3A2
330
1F
100
AcDbEntity
  8
0
  6
Continuous
 62
     7
370
    25
100
AcDbLine
 10
6268.7752807008
 20
5013.0218667159
 30
0.0
 11
6266.2752807008
 21
5013.0218667159
 31
0.0
  0
LINE
  5
3A3
330
1F
100
AcDbEntity
  8
0
  6
Continuous
 62
     7
370
    25
100
AcDbLine
 10
6266.2752807008
 20
5013.0218667159
 30
0.0
 11
6264.7752807008
 21
5013.0218667159
 31
0.0
  0
LINE
  5
3A4
330
1F
100
AcDbEntity
  8
0
  6
Continuous
 62
     7
370
    25
100
AcDbLine
 10
6264.7752807008
 20
5013.0218667159
 30
0.0
 11
6262.2752807008
 21
5013.0218667159
 31
0.0
  0
LINE
  5
3A5
330
1F
100
AcDbEntity
  8
0
  6
Continuous
 62
     7
370
    25
100
AcDbLine
 10
6262.2752807008
 20
5013.0218667159
 30
0.0
 11
6260.7752807008
 21
5013.0218667159
 31
0.0
  0
LINE
  5
3A6
330
1F
100
AcDbEntity
  8
0
  6
Continuous
 62
     7
370
    25
100
AcDbLine
 10
6260.7752807008
 20
5013.0218667159
 30
0.0
 11
6259.0187553361
 21
5013.0218667159
 31
0.0
  0
LINE
  5
3A7
330
1F
100
AcDbEntity
  8
0
  6
Continuous
 62
     7
370
    25
100
AcDbLine
 10
6259.0187553361
 20
5013.0218667159
 30
0.0
 11
6257.0187553361
 21
5013.0218667159
 31
0.0
  0
LINE
  5
3A8
330
1F
100
AcDbEntity
  8
0
  6
Continuous
 62
     7
370
    25
100
AcDbLine
 10
6291.0187553361
 20
5015.0218667159
 30
0.0
 11
6291.0187553361
 21
5013.0218667159
 31
0.0
  0
LINE
  5
3A9
330
1F
100
AcDbEntity
  8
0
  6
Continuous
 62
     7
370
    25
100
AcDbLine
 10
6257.0187553361
 20
5015.0218667159
 30
0.0
 11
6257.0187553361
 21
5013.0218667159
 31
0.0
  0
LINE
  5
3AA
330
1F
100
AcDbEntity
  8
0
  6
Continuous
 62
     7
370
    25
100
AcDbLine
 10
6291.0187553361
 20
5067.0218667159
 30
0.0
 11
6257.0187553361
 21
5067.0218667159
 31
0.0
  0
LINE
  5
3AB
330
1F
100
AcDbEntity
  8
0
  6
Continuous
 62
     7
370
    25
100
AcDbLine
 10
6291.0187553361
 20
5067.0218667159
 30
0.0
 11
6291.0187553361
 21
5058.0218667159
 31
0.0
  0
LINE
  5
3AC
330
1F
100
AcDbEntity
  8
0
  6
Continuous
 62
     7
370
    25
100
AcDbLine
 10
6257.0187553361
 20
5067.0218667159
 30
0.0
 11
6257.0187553361
 21
5058.0218667159
 31
0.0
  0
LINE
  5
3AD
330
1F
100
AcDbEntity
  8
0
  6
Continuous
 62
     7
370
    25
100
AcDbLine
 10
6291.0187553361
 20
5004.0218667159
 30
0.0
 11
6257.0187553361
 21
5004.0218667159
 31
0.0
  0
LINE
  5
3AE
330
1F
100
AcDbEntity
  8
0
  6
Continuous
 62
     7
370
    25
100
AcDbLine
 10
6291.0187553361
 20
5013.0218667159
 30
0.0
 11
6291.0187553361
 21
5004.0218667159
 31
0.0
  0
LINE
  5
3AF
330
1F
100
AcDbEntity
  8
0
  6
Continuous
 62
     7
370
    25
100
AcDbLine
 10
6257.0187553361
 20
5013.0218667159
 30
0.0
 11
6257.0187553361
 21
5004.0218667159
 31
0.0
  0
LINE
  5
3B0
330
1F
100
AcDbEntity
  8
0
  6
Continuous
 62
     7
370
    25
100
AcDbLine
 10
6286.0187553361
 20
5080.2819262343
 30
0.0
 11
6282.0187553361
 21
5080.2819262343
 31
0.0
  0
LINE
  5
3B1
330
1F
100
AcDbEntity
  8
0
  6
Continuous
 62
     7
370
    25
100
AcDbLine
 10
6282.0187553361
 20
5080.2819262343
 30
0.0
 11
6282.0187553361
 21
5080.1390690915
 31
0.0
  0
LINE
  5
3B2
330
1F
100
AcDbEntity
  8
0
  6
Continuous
 62
     7
370
    25
100
AcDbLine
 10
6282.0187553361
 20
5080.1390690915
 30
0.0
 11
6286.0187553361
 21
5080.1390690915
 31
0.0
  0
LINE
  5
3B3
330
1F
100
AcDbEntity
  8
0
  6
Continuous
 62
     7
370
    25
100
AcDbLine
 10
6286.0187553361
 20
5080.1390690915
 30
0.0
 11
6286.0187553361
 21
5080.2819262343
 31
0.0
  0
LINE
  5
3B4
330
1F
100
AcDbEntity
  8
0
  6
Continuous
 62
     7
370
    25
100
AcDbLine
 10
6291.0187553361
 20
5080.5218667159
 30
0.0
 11
6257.0187553361
 21
5080.5218667159
 31
0.0
  0
LINE
  5
3B5
330
1F
100
AcDbEntity
  8
0
  6
Continuous
 62
     7
370
    25
100
AcDbLine
 10
6291.0187553361
 20
5079.5218667159
 30
0.0
 11
6257.0187553361
 21
5079.5218667159
 31
0.0
  0
LINE
  5
3B6
330
1F
100
AcDbEntity
  8
0
  6
Continuous
 62
     7
370
    25
100
AcDbLine
 10
6286.5187553361
 20
5079.579009573
 30
0.0
 11
6284.0187553361
 21
5079.579009573
 31
0.0
  0
LINE
  5
3B7
330
1F
100
AcDbEntity
  8
0
  6
Continuous
 62
     7
370
    25
100
AcDbLine
 10
6289.0187553361
 20
5079.7056264904
 30
0.0
 11
6286.5187553361
 21
5079.579009573
 31
0.0
  0
LINE
  5
3B8
330
1F
100
AcDbEntity
  8
0
  6
Continuous
 62
     7
370
    25
100
AcDbLine
 10
6284.0187553361
 20
5079.579009573
 30
0.0
 11
6289.0187553361
 21
5079.8322434078
 31
0.0
  0
LINE
  5
3B9
330
1F
100
AcDbEntity
  8
0
  6
Continuous
 62
     7
370
    25
100
AcDbLine
 10
6262.5187553361
 20
5079.579009573
 30
0.0
 11
6260.0187553361
 21
5079.579009573
 31
0.0
  0
LINE
  5
3BA
330
1F
100
AcDbEntity
  8
0
  6
Continuous
 62
     7
370
    25
100
AcDbLine
 10
6270.134528442
 20
5079.9647238587
 30
0.0
 11
6262.5187553361
 21
5079.579009573
 31
0.0
  0
LINE
  5
3BB
330
1F
100
AcDbEntity
  8
0
  6
Continuous
 62
     7
370
    25
100
AcDbLine
 10
6267.634528442
 20
5079.9647238587
 30
0.0
 11
6270.134528442
 21
5079.9647238587
 31
0.0
  0
LINE
  5
3BC
330
1F
100
AcDbEntity
  8
0
  6
Continuous
 62
     7
370
    25
100
AcDbLine
 10
6260.0187553361
 20
5079.579009573
 30
0.0
 11
6267.634528442
 21
5079.9647238587
 31
0.0
  0
LINE
  5
3BD
330
1F
100
AcDbEntity
  8
0
  6
Continuous
 62
     7
370
    25
100
AcDbLine
 10
6282.5187553361
 20
5079.579009573
 30
0.0
 11
6280.0187553361
 21
5079.579009573
 31
0.0
  0
LINE
  5
3BE
330
1F
100
AcDbEntity
  8
0
  6
Continuous
 62
     7
370
    25
100
AcDbLine
 10
6289.0187553361
 20
5079.9082135583
 30
0.0
 11
6282.5187553361
 21
5079.579009573
 31
0.0
  0
LINE
  5
3BF
330
1F
100
AcDbEntity
  8
0
  6
Continuous
 62
     7
370
    25
100
AcDbLine
 10
6287.634528442
 20
5079.9647238587
 30
0.0
 11
6289.0187553361
 21
5079.9647238587
 31
0.0
  0
LINE
  5
3C0
330
1F
100
AcDbEntity
  8
0
  6
Continuous
 62
     7
370
    25
100
AcDbLine
 10
6280.0187553361
 20
5079.579009573
 30
0.0
 11
6287.634528442
 21
5079.9647238587
 31
0.0
  0
LINE
  5
3C1
330
1F
100
AcDbEntity
  8
0
  6
Continuous
 62
     7
370
    25
100
AcDbLine
 10
6289.0187553361
 20
5079.579009573
 30
0.0
 11
6288.0187553361
 21
5079.579009573
 31
0.0
  0
LINE
  5
3C2
330
1F
100
AcDbEntity
  8
0
  6
Continuous
 62
     7
370
    25
100
AcDbLine
 10
6288.0187553361
 20
5079.579009573
 30
0.0
 11
6289.0187553361
 21
5079.62965634
 31
0.0
  0
LINE
  5
3C3
330
1F
100
AcDbEntity
  8
0
  6
Continuous
 62
     7
370
    25
100
AcDbLine
 10
6259.0187553361
 20
5079.9335369418
 30
0.0
 11
6259.634528442
 21
5079.9647238587
 31
0.0
  0
LINE
  5
3C4
330
1F
100
AcDbEntity
  8
0
  6
Continuous
 62
     7
370
    25
100
AcDbLine
 10
6262.134528442
 20
5079.9647238587
 30
0.0
 11
6259.0187553361
 21
5079.8069200244
 31
0.0
  0
LINE
  5
3C5
330
1F
100
AcDbEntity
  8
0
  6
Continuous
 62
     7
370
    25
100
AcDbLine
 10
6259.634528442
 20
5079.9647238587
 30
0.0
 11
6262.134528442
 21
5079.9647238587
 31
0.0
  0
LINE
  5
3C6
330
1F
100
AcDbEntity
  8
0
  6
Continuous
 62
     7
370
    25
100
AcDbLine
 10
6263.634528442
 20
5079.9647238587
 30
0.0
 11
6266.134528442
 21
5079.9647238587
 31
0.0
  0
LINE
  5
3C7
330
1F
100
AcDbEntity
  8
0
  6
Continuous
 62
     7
370
    25
100
AcDbLine
 10
6259.0187553361
 20
5079.7309498739
 30
0.0
 11
6263.634528442
 21
5079.9647238587
 31
0.0
  0
LINE
  5
3C8
330
1F
100
AcDbEntity
  8
0
  6
Continuous
 62
     7
370
    25
100
AcDbLine
 10
6266.134528442
 20
5079.9647238587
 30
0.0
 11
6259.0187553361
 21
5079.6043329565
 31
0.0
  0
LINE
  5
3C9
330
1F
100
AcDbEntity
  8
0
  6
Continuous
 62
     7
370
    25
100
AcDbLine
 10
6270.5187553361
 20
5079.579009573
 30
0.0
 11
6268.0187553361
 21
5079.579009573
 31
0.0
  0
LINE
  5
3CA
330
1F
100
AcDbEntity
  8
0
  6
Continuous
 62
     7
370
    25
100
AcDbLine
 10
6278.134528442
 20
5079.9647238587
 30
0.0
 11
6270.5187553361
 21
5079.579009573
 31
0.0
  0
LINE
  5
3CB
330
1F
100
AcDbEntity
  8
0
  6
Continuous
 62
     7
370
    25
100
AcDbLine
 10
6275.634528442
 20
5079.9647238587
 30
0.0
 11
6278.134528442
 21
5079.9647238587
 31
0.0
  0
LINE
  5
3CC
330
1F
100
AcDbEntity
  8
0
  6
Continuous
 62
     7
370
    25
100
AcDbLine
 10
6268.0187553361
 20
5079.579009573
 30
0.0
 11
6275.634528442
 21
5079.9647238587
 31
0.0
  0
LINE
  5
3CD
330
1F
100
AcDbEntity
  8
0
  6
Continuous
 62
     7
370
    25
100
AcDbLine
 10
6266.5187553361
 20
5079.579009573
 30
0.0
 11
6264.0187553361
 21
5079.579009573
 31
0.0
  0
LINE
  5
3CE
330
1F
100
AcDbEntity
  8
0
  6
Continuous
 62
     7
370
    25
100
AcDbLine
 10
6274.134528442
 20
5079.9647238587
 30
0.0
 11
6266.5187553361
 21
5079.579009573
 31
0.0
  0
LINE
  5
3CF
330
1F
100
AcDbEntity
  8
0
  6
Continuous
 62
     7
370
    25
100
AcDbLine
 10
6271.634528442
 20
5079.9647238587
 30
0.0
 11
6274.134528442
 21
5079.9647238587
 31
0.0
  0
LINE
  5
3D0
330
1F
100
AcDbEntity
  8
0
  6
Continuous
 62
     7
370
    25
100
AcDbLine
 10
6264.0187553361
 20
5079.579009573
 30
0.0
 11
6271.634528442
 21
5079.9647238587
 31
0.0
  0
LINE
  5
3D1
330
1F
100
AcDbEntity
  8
0
  6
Continuous
 62
     7
370
    25
100
AcDbLine
 10
6278.5187553361
 20
5079.579009573
 30
0.0
 11
6276.0187553361
 21
5079.579009573
 31
0.0
  0
LINE
  5
3D2
330
1F
100
AcDbEntity
  8
0
  6
Continuous
 62
     7
370
    25
100
AcDbLine
 10
6286.134528442
 20
5079.9647238587
 30
0.0
 11
6278.5187553361
 21
5079.579009573
 31
0.0
  0
LINE
  5
3D3
330
1F
100
AcDbEntity
  8
0
  6
Continuous
 62
     7
370
    25
100
AcDbLine
 10
6283.634528442
 20
5079.9647238587
 30
0.0
 11
6286.134528442
 21
5079.9647238587
 31
0.0
  0
LINE
  5
3D4
330
1F
100
AcDbEntity
  8
0
  6
Continuous
 62
     7
370
    25
100
AcDbLine
 10
6276.0187553361
 20
5079.579009573
 30
0.0
 11
6283.634528442
 21
5079.9647238587
 31
0.0
  0
LINE
  5
3D5
330
1F
100
AcDbEntity
  8
0
  6
Continuous
 62
     7
370
    25
100
AcDbLine
 10
6274.5187553361
 20
5079.579009573
 30
0.0
 11
6272.0187553361
 21
5079.579009573
 31
0.0
  0
LINE
  5
3D6
330
1F
100
AcDbEntity
  8
0
  6
Continuous
 62
     7
370
    25
100
AcDbLine
 10
6282.134528442
 20
5079.9647238587
 30
0.0
 11
6274.5187553361
 21
5079.579009573
 31
0.0
  0
LINE
  5
3D7
330
1F
100
AcDbEntity
  8
0
  6
Continuous
 62
     7
370
    25
100
AcDbLine
 10
6279.634528442
 20
5079.9647238587
 30
0.0
 11
6282.134528442
 21
5079.9647238587
 31
0.0
  0
LINE
  5
3D8
330
1F
100
AcDbEntity
  8
0
  6
Continuous
 62
     7
370
    25
100
AcDbLine
 10
6272.0187553361
 20
5079.579009573
 30
0.0
 11
6279.634528442
 21
5079.9647238587
 31
0.0
  0
LINE
  5
3D9
330
1F
100
AcDbEntity
  8
0
  6
Continuous
 62
     7
370
    25
100
AcDbLine
 10
6280.5187553361
 20
5080.2819262343
 30
0.0
 11
6276.5187553361
 21
5080.2819262343
 31
0.0
  0
LINE
  5
3DA
330
1F
100
AcDbEntity
  8
0
  6
Continuous
 62
     7
370
    25
100
AcDbLine
 10
6276.5187553361
 20
5080.2819262343
 30
0.0
 11
6276.5187553361
 21
5080.1390690915
 31
0.0
  0
LINE
  5
3DB
330
1F
100
AcDbEntity
  8
0
  6
Continuous
 62
     7
370
    25
100
AcDbLine
 10
6276.5187553361
 20
5080.1390690915
 30
0.0
 11
6280.5187553361
 21
5080.1390690915
 31
0.0
  0
LINE
  5
3DC
330
1F
100
AcDbEntity
  8
0
  6
Continuous
 62
     7
370
    25
100
AcDbLine
 10
6280.5187553361
 20
5080.1390690915
 30
0.0
 11
6280.5187553361
 21
5080.2819262343
 31
0.0
  0
LINE
  5
3DD
330
1F
100
AcDbEntity
  8
0
  6
Continuous
 62
     7
370
    25
100
AcDbLine
 10
6259.0187553361
 20
5079.6043329565
 30
0.0
 11
6259.0187553361
 21
5079.7309498739
 31
0.0
  0
LINE
  5
3DE
330
1F
100
AcDbEntity
  8
0
  6
Continuous
 62
     7
370
    25
100
AcDbLine
 10
6259.0187553361
 20
5079.8069200244
 30
0.0
 11
6259.0187553361
 21
5079.9335369418
 31
0.0
  0
LINE
  5
3DF
330
1F
100
AcDbEntity
  8
0
  6
Continuous
 62
     7
370
    25
100
AcDbLine
 10
6289.0187553361
 20
5079.9647238587
 30
0.0
 11
6289.0187553361
 21
5079.9082135583
 31
0.0
  0
LINE
  5
3E0
330
1F
100
AcDbEntity
  8
0
  6
Continuous
 62
     7
370
    25
100
AcDbLine
 10
6289.0187553361
 20
5079.8322434078
 30
0.0
 11
6289.0187553361
 21
5079.7056264904
 31
0.0
  0
LINE
  5
3E1
330
1F
100
AcDbEntity
  8
0
  6
Continuous
 62
     7
370
    25
100
AcDbLine
 10
6289.0187553361
 20
5079.62965634
 30
0.0
 11
6289.0187553361
 21
5079.579009573
 31
0.0
  0
LINE
  5
3E2
330
1F
100
AcDbEntity
  8
0
  6
Continuous
 62
     7
370
    25
100
AcDbLine
 10
6291.0187553361
 20
5080.5218667159
 30
0.0
 11
6291.0187553361
 21
5079.5218667159
 31
0.0
  0
LINE
  5
3E3
330
1F
100
AcDbEntity
  8
0
  6
Continuous
 62
     7
370
    25
100
AcDbLine
 10
6257.0187553361
 20
5080.5218667159
 30
0.0
 11
6257.0187553361
 21
5079.5218667159
 31
0.0
  0
CIRCLE
  5
3E4
330
1F
100
AcDbEntity
  8
0
  6
Continuous
 62
     7
370
    25
100
AcDbCircle
 10
6266.0187553361
 20
5072.0218667159
 30
0.0
 40
2.5
  0
ARC
  5
3E5
330
1F
100
AcDbEntity
  8
0
  6
Continuous
 62
     7
370
    25
100
AcDbCircle
 10
6281.2687553361
 20
5072.1803507554
 30
0.0
 40
0.4587002369254828
100
AcDbArc
 50
21.6488652276
 51
158.3511347725
  0
ARC
  5
3E6
330
1F
100
AcDbEntity
  8
0
  6
Continuous
 62
     7
370
    25
100
AcDbCircle
 10
6284.0187553361
 20
5073.2718667159
 30
0.0
 40
2.50000000000084
100
AcDbArc
 50
201.6488652275
 51
154.4637148845
  0
ARC
  5
3E7
330
1F
100
AcDbEntity
  8
0
  6
Continuous
 62
     7
370
    25
100
AcDbCircle
 10
6281.2687553361
 20
5074.5856878524
 30
0.0
 40
0.5477247216294103
100
AcDbArc
 50
205.5362851154
 51
334.4637148846
  0
ARC
  5
3E8
330
1F
100
AcDbEntity
  8
0
  6
Continuous
 62
     7
370
    25
100
AcDbCircle
 10
6278.5187553361
 20
5073.2718667159
 30
0.0
 40
2.50000000000084
100
AcDbArc
 50
25.5362851155
 51
338.3511347725
  0
LINE
  5
3E9
330
1F
100
AcDbEntity
  8
0
  6
Continuous
 62
     7
370
    25
100
AcDbLine
 10
6291.0187553361
 20
5079.5218667159
 30
0.0
 11
6291.0187553361
 21
5067.0218667159
 31
0.0
  0
LINE
  5
3EA
330
1F
100
AcDbEntity
  8
0
  6
Continuous
 62
     7
370
    25
100
AcDbLine
 10
6257.0187553361
 20
5079.5218667159
 30
0.0
 11
6257.0187553361
 21
5067.0218667159
 31
0.0
  0
CIRCLE
  5
3EB
330
1F
100
AcDbEntity
  8
0
  6
Continuous
 62
     7
370
    25
100
AcDbCircle
 10
6280.5187553361
 20
4998.8958802228
 30
0.0
 40
2.499999999999091
  0
CIRCLE
  5
3EC
330
1F
100
AcDbEntity
  8
0
  6
Continuous
 62
     7
370
    25
100
AcDbCircle
 10
6270.5187553361
 20
4998.8958802228
 30
0.0
 40
2.499999999999091
  0
LINE
  5
3ED
330
1F
100
AcDbEntity
  8
0
  6
Continuous
 62
     7
370
    25
100
AcDbLine
 10
6291.0187553361
 20
4991.5218667159
 30
0.0
 11
6257.0187553361
 21
4991.5218667159
 31
0.0
  0
LINE
  5
3EE
330
1F
100
AcDbEntity
  8
0
  6
Continuous
 62
     7
370
    25
100
AcDbLine
 10
6291.0187553361
 20
5004.0218667159
 30
0.0
 11
6291.0187553361
 21
4991.5218667159
 31
0.0
  0
LINE
  5
3EF
330
1F
100
AcDbEntity
  8
0
  6
Continuous
 62
     7
370
    25
100
AcDbLine
 10
6257.0187553361
 20
5004.0218667159
 30
0.0
 11
6257.0187553361
 21
4991.5218667159
 31
0.0
  0
LINE
  5
3F0
330
1F
100
AcDbEntity
  8
0
  6
Continuous
 62
     7
370
    25
100
AcDbLine
 10
6263.2687553361
 20
4990.5218667159
 30
0.0
 11
6263.2687553361
 21
4990.629009573
 31
0.0
  0
LINE
  5
3F1
330
1F
100
AcDbEntity
  8
0
  6
Continuous
 62
     7
370
    25
100
AcDbLine
 10
6263.2687553361
 20
4990.5218667159
 30
0.0
 11
6257.0187553361
 21
4990.5218667159
 31
0.0
  0
LINE
  5
3F2
330
1F
100
AcDbEntity
  8
0
  6
Continuous
 62
     7
370
    25
100
AcDbLine
 10
6291.0187553361
 20
4990.5218667159
 30
0.0
 11
6284.7687553361
 21
4990.5218667159
 31
0.0
  0
LINE
  5
3F3
330
1F
100
AcDbEntity
  8
0
  6
Continuous
 62
     7
370
    25
100
AcDbLine
 10
6284.7687553361
 20
4990.629009573
 30
0.0
 11
6284.7687553361
 21
4990.5218667159
 31
0.0
  0
LINE
  5
3F4
330
1F
100
AcDbEntity
  8
0
  6
Continuous
 62
     7
370
    25
100
AcDbLine
 10
6284.2687553361
 20
4990.629009573
 30
0.0
 11
6284.7687553361
 21
4990.629009573
 31
0.0
  0
LINE
  5
3F5
330
1F
100
AcDbEntity
  8
0
  6
Continuous
 62
     7
370
    25
100
AcDbLine
 10
6263.7687553361
 20
4990.629009573
 30
0.0
 11
6284.2687553361
 21
4990.629009573
 31
0.0
  0
LINE
  5
3F6
330
1F
100
AcDbEntity
  8
0
  6
Continuous
 62
     7
370
    25
100
AcDbLine
 10
6263.2687553361
 20
4990.629009573
 30
0.0
 11
6263.7687553361
 21
4990.629009573
 31
0.0
  0
LINE
  5
3F7
330
1F
100
AcDbEntity
  8
0
  6
Continuous
 62
     7
370
    25
100
AcDbLine
 10
6284.0187553361
 20
4991.4647238587
 30
0.0
 11
6286.5187553361
 21
4991.4647238587
 31
0.0
  0
LINE
  5
3F8
330
1F
100
AcDbEntity
  8
0
  6
Continuous
 62
     7
370
    25
100
AcDbLine
 10
6289.0187553361
 20
4991.2114900239
 30
0.0
 11
6284.0187553361
 21
4991.4647238587
 31
0.0
  0
LINE
  5
3F9
330
1F
100
AcDbEntity
  8
0
  6
Continuous
 62
     7
370
    25
100
AcDbLine
 10
6286.5187553361
 20
4991.4647238587
 30
0.0
 11
6289.0187553361
 21
4991.3381069413
 31
0.0
  0
LINE
  5
3FA
330
1F
100
AcDbEntity
  8
0
  6
Continuous
 62
     7
370
    25
100
AcDbLine
 10
6260.0187553361
 20
4991.4647238587
 30
0.0
 11
6262.5187553361
 21
4991.4647238587
 31
0.0
  0
LINE
  5
3FB
330
1F
100
AcDbEntity
  8
0
  6
Continuous
 62
     7
370
    25
100
AcDbLine
 10
6267.634528442
 20
4991.079009573
 30
0.0
 11
6260.0187553361
 21
4991.4647238587
 31
0.0
  0
LINE
  5
3FC
330
1F
100
AcDbEntity
  8
0
  6
Continuous
 62
     7
370
    25
100
AcDbLine
 10
6270.134528442
 20
4991.079009573
 30
0.0
 11
6267.634528442
 21
4991.079009573
 31
0.0
  0
LINE
  5
3FD
330
1F
100
AcDbEntity
  8
0
  6
Continuous
 62
     7
370
    25
100
AcDbLine
 10
6262.5187553361
 20
4991.4647238587
 30
0.0
 11
6270.134528442
 21
4991.079009573
 31
0.0
  0
LINE
  5
3FE
330
1F
100
AcDbEntity
  8
0
  6
Continuous
 62
     7
370
    25
100
AcDbLine
 10
6282.5187553361
 20
4991.4647238587
 30
0.0
 11
6289.0187553361
 21
4991.1355198735
 31
0.0
  0
LINE
  5
3FF
330
1F
100
AcDbEntity
  8
0
  6
Continuous
 62
     7
370
    25
100
AcDbLine
 10
6280.0187553361
 20
4991.4647238587
 30
0.0
 11
6282.5187553361
 21
4991.4647238587
 31
0.0
  0
LINE
  5
400
330
1F
100
AcDbEntity
  8
0
  6
Continuous
 62
     7
370
    25
100
AcDbLine
 10
6287.634528442
 20
4991.079009573
 30
0.0
 11
6280.0187553361
 21
4991.4647238587
 31
0.0
  0
LINE
  5
401
330
1F
100
AcDbEntity
  8
0
  6
Continuous
 62
     7
370
    25
100
AcDbLine
 10
6289.0187553361
 20
4991.079009573
 30
0.0
 11
6287.634528442
 21
4991.079009573
 31
0.0
  0
LINE
  5
402
330
1F
100
AcDbEntity
  8
0
  6
Continuous
 62
     7
370
    25
100
AcDbLine
 10
6289.0187553361
 20
4991.4140770918
 30
0.0
 11
6288.0187553361
 21
4991.4647238587
 31
0.0
  0
LINE
  5
403
330
1F
100
AcDbEntity
  8
0
  6
Continuous
 62
     7
370
    25
100
AcDbLine
 10
6288.0187553361
 20
4991.4647238587
 30
0.0
 11
6289.0187553361
 21
4991.4647238587
 31
0.0
  0
LINE
  5
404
330
1F
100
AcDbEntity
  8
0
  6
Continuous
 62
     7
370
    25
100
AcDbLine
 10
6259.634528442
 20
4991.079009573
 30
0.0
 11
6259.0187553361
 21
4991.11019649
 31
0.0
  0
LINE
  5
405
330
1F
100
AcDbEntity
  8
0
  6
Continuous
 62
     7
370
    25
100
AcDbLine
 10
6262.134528442
 20
4991.079009573
 30
0.0
 11
6259.634528442
 21
4991.079009573
 31
0.0
  0
LINE
  5
406
330
1F
100
AcDbEntity
  8
0
  6
Continuous
 62
     7
370
    25
100
AcDbLine
 10
6259.0187553361
 20
4991.2368134074
 30
0.0
 11
6262.134528442
 21
4991.079009573
 31
0.0
  0
LINE
  5
407
330
1F
100
AcDbEntity
  8
0
  6
Continuous
 62
     7
370
    25
100
AcDbLine
 10
6266.134528442
 20
4991.079009573
 30
0.0
 11
6263.634528442
 21
4991.079009573
 31
0.0
  0
LINE
  5
408
330
1F
100
AcDbEntity
  8
0
  6
Continuous
 62
     7
370
    25
100
AcDbLine
 10
6259.0187553361
 20
4991.4394004753
 30
0.0
 11
6266.134528442
 21
4991.079009573
 31
0.0
  0
LINE
  5
409
330
1F
100
AcDbEntity
  8
0
  6
Continuous
 62
     7
370
    25
100
AcDbLine
 10
6263.634528442
 20
4991.079009573
 30
0.0
 11
6259.0187553361
 21
4991.3127835579
 31
0.0
  0
LINE
  5
40A
330
1F
100
AcDbEntity
  8
0
  6
Continuous
 62
     7
370
    25
100
AcDbLine
 10
6268.0187553361
 20
4991.4647238587
 30
0.0
 11
6270.5187553361
 21
4991.4647238587
 31
0.0
  0
LINE
  5
40B
330
1F
100
AcDbEntity
  8
0
  6
Continuous
 62
     7
370
    25
100
AcDbLine
 10
6275.634528442
 20
4991.079009573
 30
0.0
 11
6268.0187553361
 21
4991.4647238587
 31
0.0
  0
LINE
  5
40C
330
1F
100
AcDbEntity
  8
0
  6
Continuous
 62
     7
370
    25
100
AcDbLine
 10
6278.134528442
 20
4991.079009573
 30
0.0
 11
6275.634528442
 21
4991.079009573
 31
0.0
  0
LINE
  5
40D
330
1F
100
AcDbEntity
  8
0
  6
Continuous
 62
     7
370
    25
100
AcDbLine
 10
6270.5187553361
 20
4991.4647238587
 30
0.0
 11
6278.134528442
 21
4991.079009573
 31
0.0
  0
LINE
  5
40E
330
1F
100
AcDbEntity
  8
0
  6
Continuous
 62
     7
370
    25
100
AcDbLine
 10
6264.0187553361
 20
4991.4647238587
 30
0.0
 11
6266.5187553361
 21
4991.4647238587
 31
0.0
  0
LINE
  5
40F
330
1F
100
AcDbEntity
  8
0
  6
Continuous
 62
     7
370
    25
100
AcDbLine
 10
6271.634528442
 20
4991.079009573
 30
0.0
 11
6264.0187553361
 21
4991.4647238587
 31
0.0
  0
LINE
  5
410
330
1F
100
AcDbEntity
  8
0
  6
Continuous
 62
     7
370
    25
100
AcDbLine
 10
6274.134528442
 20
4991.079009573
 30
0.0
 11
6271.634528442
 21
4991.079009573
 31
0.0
  0
LINE
  5
411
330
1F
100
AcDbEntity
  8
0
  6
Continuous
 62
     7
370
    25
100
AcDbLine
 10
6266.5187553361
 20
4991.4647238587
 30
0.0
 11
6274.134528442
 21
4991.079009573
 31
0.0
  0
LINE
  5
412
330
1F
100
AcDbEntity
  8
0
  6
Continuous
 62
     7
370
    25
100
AcDbLine
 10
6276.0187553361
 20
4991.4647238587
 30
0.0
 11
6278.5187553361
 21
4991.4647238587
 31
0.0
  0
LINE
  5
413
330
1F
100
AcDbEntity
  8
0
  6
Continuous
 62
     7
370
    25
100
AcDbLine
 10
6283.634528442
 20
4991.079009573
 30
0.0
 11
6276.0187553361
 21
4991.4647238587
 31
0.0
  0
LINE
  5
414
330
1F
100
AcDbEntity
  8
0
  6
Continuous
 62
     7
370
    25
100
AcDbLine
 10
6286.134528442
 20
4991.079009573
 30
0.0
 11
6283.634528442
 21
4991.079009573
 31
0.0
  0
LINE
  5
415
330
1F
100
AcDbEntity
  8
0
  6
Continuous
 62
     7
370
    25
100
AcDbLine
 10
6278.5187553361
 20
4991.4647238587
 30
0.0
 11
6286.134528442
 21
4991.079009573
 31
0.0
  0
LINE
  5
416
330
1F
100
AcDbEntity
  8
0
  6
Continuous
 62
     7
370
    25
100
AcDbLine
 10
6272.0187553361
 20
4991.4647238587
 30
0.0
 11
6274.5187553361
 21
4991.4647238587
 31
0.0
  0
LINE
  5
417
330
1F
100
AcDbEntity
  8
0
  6
Continuous
 62
     7
370
    25
100
AcDbLine
 10
6279.634528442
 20
4991.079009573
 30
0.0
 11
6272.0187553361
 21
4991.4647238587
 31
0.0
  0
LINE
  5
418
330
1F
100
AcDbEntity
  8
0
  6
Continuous
 62
     7
370
    25
100
AcDbLine
 10
6282.134528442
 20
4991.079009573
 30
0.0
 11
6279.634528442
 21
4991.079009573
 31
0.0
  0
LINE
  5
419
330
1F
100
AcDbEntity
  8
0
  6
Continuous
 62
     7
370
    25
100
AcDbLine
 10
6274.5187553361
 20
4991.4647238587
 30
0.0
 11
6282.134528442
 21
4991.079009573
 31
0.0
  0
LINE
  5
41A
330
1F
100
AcDbEntity
  8
0
  6
Continuous
 62
     7
370
    25
100
AcDbLine
 10
6282.5187553361
 20
4990.9031988533
 30
0.0
 11
6282.5187553361
 21
4990.7603417104
 31
0.0
  0
LINE
  5
41B
330
1F
100
AcDbEntity
  8
0
  6
Continuous
 62
     7
370
    25
100
AcDbLine
 10
6278.5187553361
 20
4990.9031988533
 30
0.0
 11
6282.5187553361
 21
4990.9031988533
 31
0.0
  0
LINE
  5
41C
330
1F
100
AcDbEntity
  8
0
  6
Continuous
 62
     7
370
    25
100
AcDbLine
 10
6278.5187553361
 20
4990.7603417104
 30
0.0
 11
6278.5187553361
 21
4990.9031988533
 31
0.0
  0
LINE
  5
41D
330
1F
100
AcDbEntity
  8
0
  6
Continuous
 62
     7
370
    25
100
AcDbLine
 10
6282.5187553361
 20
4990.7603417104
 30
0.0
 11
6278.5187553361
 21
4990.7603417104
 31
0.0
  0
LINE
  5
41E
330
1F
100
AcDbEntity
  8
0
  6
Continuous
 62
     7
370
    25
100
AcDbLine
 10
6272.5187553361
 20
4990.9031988533
 30
0.0
 11
6272.5187553361
 21
4990.7603417104
 31
0.0
  0
LINE
  5
41F
330
1F
100
AcDbEntity
  8
0
  6
Continuous
 62
     7
370
    25
100
AcDbLine
 10
6268.5187553361
 20
4990.9031988533
 30
0.0
 11
6272.5187553361
 21
4990.9031988533
 31
0.0
  0
LINE
  5
420
330
1F
100
AcDbEntity
  8
0
  6
Continuous
 62
     7
370
    25
100
AcDbLine
 10
6268.5187553361
 20
4990.7603417104
 30
0.0
 11
6268.5187553361
 21
4990.9031988533
 31
0.0
  0
LINE
  5
421
330
1F
100
AcDbEntity
  8
0
  6
Continuous
 62
     7
370
    25
100
AcDbLine
 10
6272.5187553361
 20
4990.7603417104
 30
0.0
 11
6268.5187553361
 21
4990.7603417104
 31
0.0
  0
LINE
  5
422
330
1F
100
AcDbEntity
  8
0
  6
Continuous
 62
     7
370
    25
100
AcDbLine
 10
6259.0187553361
 20
4991.11019649
 30
0.0
 11
6259.0187553361
 21
4991.2368134074
 31
0.0
  0
LINE
  5
423
330
1F
100
AcDbEntity
  8
0
  6
Continuous
 62
     7
370
    25
100
AcDbLine
 10
6259.0187553361
 20
4991.3127835579
 30
0.0
 11
6259.0187553361
 21
4991.4394004753
 31
0.0
  0
LINE
  5
424
330
1F
100
AcDbEntity
  8
0
  6
Continuous
 62
     7
370
    25
100
AcDbLine
 10
6289.0187553361
 20
4991.4647238587
 30
0.0
 11
6289.0187553361
 21
4991.4140770918
 31
0.0
  0
LINE
  5
425
330
1F
100
AcDbEntity
  8
0
  6
Continuous
 62
     7
370
    25
100
AcDbLine
 10
6289.0187553361
 20
4991.3381069413
 30
0.0
 11
6289.0187553361
 21
4991.2114900239
 31
0.0
  0
LINE
  5
426
330
1F
100
AcDbEntity
  8
0
  6
Continuous
 62
     7
370
    25
100
AcDbLine
 10
6289.0187553361
 20
4991.1355198735
 30
0.0
 11
6289.0187553361
 21
4991.079009573
 31
0.0
  0
LINE
  5
427
330
1F
100
AcDbEntity
  8
0
  6
Continuous
 62
     7
370
    25
100
AcDbLine
 10
6291.0187553361
 20
4991.5218667159
 30
0.0
 11
6291.0187553361
 21
4990.5218667159
 31
0.0
  0
LINE
  5
428
330
1F
100
AcDbEntity
  8
0
  6
Continuous
 62
     7
370
    25
100
AcDbLine
 10
6257.0187553361
 20
4991.5218667159
 30
0.0
 11
6257.0187553361
 21
4990.5218667159
 31
0.0
  0
LINE
  5
429
330
1F
100
AcDbEntity
  8
0
  6
Continuous
 62
     7
370
    25
100
AcDbLine
 10
6275.634528442
 20
5079.9647238587
 30
0.0
 11
6275.634528442
 21
5079.8381069413
 31
0.0
  0
LINE
  5
42A
330
1F
100
AcDbEntity
  8
0
  6
Continuous
 62
     7
370
    25
100
AcDbLine
 10
6283.634528442
 20
5079.9647238587
 30
0.0
 11
6283.634528442
 21
5079.8381069413
 31
0.0
  0
LINE
  5
42B
330
1F
100
AcDbEntity
  8
0
  6
Continuous
 62
     7
370
    25
100
AcDbLine
 10
6279.634528442
 20
5079.9647238587
 30
0.0
 11
6279.634528442
 21
5079.8381069413
 31
0.0
  0
LINE
  5
42C
330
1F
100
AcDbEntity
  8
0
  6
Continuous
 62
     7
370
    25
100
AcDbLine
 10
6271.634528442
 20
5079.9647238587
 30
0.0
 11
6271.634528442
 21
5079.8381069413
 31
0.0
  0
LINE
  5
42D
330
1F
100
AcDbEntity
  8
0
  6
Continuous
 62
     7
370
    25
100
AcDbLine
 10
6287.634528442
 20
5079.9647238587
 30
0.0
 11
6287.634528442
 21
5079.8381069413
 31
0.0
  0
LINE
  5
42E
330
1F
100
AcDbEntity
  8
0
  6
Continuous
 62
     7
370
    25
100
AcDbLine
 10
6267.634528442
 20
5079.9647238587
 30
0.0
 11
6267.634528442
 21
5079.8381069413
 31
0.0
  0
LINE
  5
42F
330
1F
100
AcDbEntity
  8
0
  6
Continuous
 62
     7
370
    25
100
AcDbLine
 10
6283.634528442
 20
4991.2056264904
 30
0.0
 11
6283.634528442
 21
4991.079009573
 31
0.0
  0
LINE
  5
430
330
1F
100
AcDbEntity
  8
0
  6
Continuous
 62
     7
370
    25
100
AcDbLine
 10
6271.634528442
 20
4991.2056264904
 30
0.0
 11
6271.634528442
 21
4991.079009573
 31
0.0
  0
LINE
  5
431
330
1F
100
AcDbEntity
  8
0
  6
Continuous
 62
     7
370
    25
100
AcDbLine
 10
6267.634528442
 20
4991.2056264904
 30
0.0
 11
6267.634528442
 21
4991.079009573
 31
0.0
  0
LINE
  5
432
330
1F
100
AcDbEntity
  8
0
  6
Continuous
 62
     7
370
    25
100
AcDbLine
 10
6279.634528442
 20
4991.2056264904
 30
0.0
 11
6279.634528442
 21
4991.079009573
 31
0.0
  0
LINE
  5
433
330
1F
100
AcDbEntity
  8
0
  6
Continuous
 62
     7
370
    25
100
AcDbLine
 10
6275.634528442
 20
4991.2056264904
 30
0.0
 11
6275.634528442
 21
4991.079009573
 31
0.0
  0
LINE
  5
434
330
1F
100
AcDbEntity
  8
0
  6
Continuous
 62
     7
370
    25
100
AcDbLine
 10
6287.634528442
 20
4991.2056264904
 30
0.0
 11
6287.634528442
 21
4991.079009573
 31
0.0
  0
LINE
  5
435
330
1F
100
AcDbEntity
  8
0
  6
Continuous
 62
     7
370
    25
100
AcDbLine
 10
6263.634528442
 20
5079.9647238587
 30
0.0
 11
6263.634528442
 21
5079.8381069413
 31
0.0
  0
LINE
  5
436
330
1F
100
AcDbEntity
  8
0
  6
Continuous
 62
     7
370
    25
100
AcDbLine
 10
6263.634528442
 20
4991.2056264904
 30
0.0
 11
6263.634528442
 21
4991.079009573
 31
0.0
  0
LINE
  5
437
330
1F
100
AcDbEntity
  8
0
  6
Continuous
 62
     7
370
    25
100
AcDbLine
 10
6259.634528442
 20
5079.9647238587
 30
0.0
 11
6259.634528442
 21
5079.8381069413
 31
0.0
  0
LINE
  5
438
330
1F
100
AcDbEntity
  8
0
  6
Continuous
 62
     7
370
    25
100
AcDbLine
 10
6259.634528442
 20
4991.2056264904
 30
0.0
 11
6259.634528442
 21
4991.079009573
 31
0.0
  0
ARC
  5
439
330
1F
100
AcDbEntity
  8
0
  6
Continuous
 62
     7
370
    25
100
AcDbCircle
 10
6283.2687553361
 20
4990.3041455929
 30
0.0
 40
1.000000000000113
100
AcDbArc
 50
286.3052124994
 51
0.0
  0
ARC
  5
43A
330
1F
100
AcDbEntity
  8
0
  6
Continuous
 62
     7
370
    25
100
AcDbCircle
 10
6274.0187553361
 20
5021.9259992262
 30
0.0
 40
33.94698965320326
100
AcDbArc
 50
253.6947875006
 51
286.3052124994
  0
ARC
  5
43B
330
1F
100
AcDbEntity
  8
0
  6
Continuous
 62
     7
370
    25
100
AcDbCircle
 10
6264.7687553361
 20
4990.3041455929
 30
0.0
 40
1.000000000000113
100
AcDbArc
 50
180.0
 51
253.6947875006
  0
LINE
  5
43C
330
1F
100
AcDbEntity
  8
0
  6
Continuous
 62
     7
370
    25
100
AcDbLine
 10
6279.0187553361
 20
4990.129009573
 30
0.0
 11
6279.0187553361
 21
4989.129009573
 31
0.0
  0
LINE
  5
43D
330
1F
100
AcDbEntity
  8
0
  6
Continuous
 62
     7
370
    25
100
AcDbLine
 10
6269.0187553361
 20
4990.129009573
 30
0.0
 11
6279.0187553361
 21
4990.129009573
 31
0.0
  0
LINE
  5
43E
330
1F
100
AcDbEntity
  8
0
  6
Continuous
 62
     7
370
    25
100
AcDbLine
 10
6269.0187553361
 20
4989.129009573
 30
0.0
 11
6269.0187553361
 21
4990.129009573
 31
0.0
  0
LINE
  5
43F
330
1F
100
AcDbEntity
  8
0
  6
Continuous
 62
     7
370
    25
100
AcDbLine
 10
6279.0187553361
 20
4989.129009573
 30
0.0
 11
6269.0187553361
 21
4989.129009573
 31
0.0
  0
LINE
  5
440
330
1F
100
AcDbEntity
  8
0
  6
Continuous
 62
     7
370
    25
100
AcDbLine
 10
6284.2687553361
 20
4990.629009573
 30
0.0
 11
6284.2687553361
 21
4990.3041455929
 31
0.0
  0
LINE
  5
441
330
1F
100
AcDbEntity
  8
0
  6
Continuous
 62
     7
370
    25
100
AcDbLine
 10
6263.7687553361
 20
4990.3041455929
 30
0.0
 11
6263.7687553361
 21
4990.629009573
 31
0.0
  0
ENDSEC
  0
SECTION
  2
OBJECTS
  0
DICTIONARY
  5
C
330
0
100
AcDbDictionary
281
     1
  3
ACAD_GROUP
350
D
  3
ACAD_LAYOUT
350
1A
  3
ACAD_MLINESTYLE
350
17
  3
ACAD_PLOTSETTINGS
350
19
  3
ACAD_PLOTSTYLENAME
350
E
  3
ACAD_SCALELIST
350
47
  3
DWGPROPS
350
442
  0
DICTIONARY
  5
D
102
{ACAD_REACTORS
330
C
102
}
330
C
100
AcDbDictionary
281
     1
  0
DICTIONARY
  5
1A
102
{ACAD_REACTORS
330
C
102
}
330
C
100
AcDbDictionary
281
     1
  3
Layout1
350
1E
  3
Layout2
350
26
  3
Model
350
22
  0
DICTIONARY
  5
17
102
{ACAD_REACTORS
330
C
102
}
330
C
100
AcDbDictionary
281
     1
  3
Standard
350
18
  0
DICTIONARY
  5
19
102
{ACAD_REACTORS
330
C
102
}
330
C
100
AcDbDictionary
281
     1
  0
ACDBDICTIONARYWDFLT
  5
E
102
{ACAD_REACTORS
330
C
102
}
330
C
100
AcDbDictionary
281
     1
  3
Normal
350
F
100
AcDbDictionaryWithDefault
340
F
  0
DICTIONARY
  5
47
102
{ACAD_REACTORS
330
C
102
}
330
C
100
AcDbDictionary
281
     1
  3
A0
350
48
  3
A1
350
49
  3
A2
350
4A
  3
A3
350
4B
  3
A4
350
4C
  3
A5
350
4D
  3
A6
350
4E
  3
A7
350
4F
  3
A8
350
50
  3
A9
350
51
  3
B0
350
52
  3
B1
350
53
  3
B2
350
54
  3
B3
350
55
  3
B4
350
56
  3
B5
350
57
  3
B6
350
58
  3
B7
350
59
  3
B8
350
5A
  3
B9
350
5B
  3
C0
350
5C
  3
C1
350
5D
  3
C2
350
5E
  3
C3
350
5F
  3
C4
350
60
  3
C5
350
61
  3
C6
350
62
  3
C7
350
63
  3
C8
350
64
  3
C9
350
65
  3
D0
350
66
  3
D1
350
67
  3
D2
350
68
  0
XRECORD
  5
442
102
{ACAD_REACTORS
330
C
102
}
330
C
100
AcDbXrecord
280
     1
  1
DWGPROPS COOKIE
  2

  3

  4

  6

  7

  8
radek.stransky
  9

300
=
301
=
302
=
303
=
304
=
305
=
306
=
307
=
308
=
309
=
 40
0.0
 41
2459744.198232674
 42
2459744.198232998
  1

 90
        0
  0
LAYOUT
  5
1E
102
{ACAD_REACTORS
330
1A
102
}
330
1A
100
AcDbPlotSettings
  1

  2
none_device
  4

  6

 40
0.0
 41
0.0
 42
0.0
 43
0.0
 44
0.0
 45
0.0
 46
0.0
 47
0.0
 48
0.0
 49
0.0
140
0.0
141
0.0
142
1.0
143
1.0
 70
   688
 72
     1
 73
     0
 74
     5
  7

 75
    16
147
1.0
148
0.0
149
0.0
100
AcDbLayout
  1
Layout1
 70
     1
 71
     1
 10
0.0
 20
0.0
 11
420.0
 21
297.0
 12
0.0
 22
0.0
 32
0.0
 14
1.0000000000E+20
 24
1.0000000000E+20
 34
1.0000000000E+20
 15
-1.0000000000E+20
 25
-1.0000000000E+20
 35
-1.0000000000E+20
146
0.0
 13
0.0
 23
0.0
 33
0.0
 16
1.0
 26
0.0
 36
0.0
 17
0.0
 27
1.0
 37
0.0
 76
     0
330
1B
  0
LAYOUT
  5
26
102
{ACAD_REACTORS
330
1A
102
}
330
1A
100
AcDbPlotSettings
  1

  2
none_device
  4

  6

 40
0.0
 41
0.0
 42
0.0
 43
0.0
 44
0.0
 45
0.0
 46
0.0
 47
0.0
 48
0.0
 49
0.0
140
0.0
141
0.0
142
1.0
143
1.0
 70
   688
 72
     1
 73
     0
 74
     5
  7

 75
    16
147
1.0
148
0.0
149
0.0
100
AcDbLayout
  1
Layout2
 70
     1
 71
     2
 10
0.0
 20
0.0
 11
0.0
 21
0.0
 12
0.0
 22
0.0
 32
0.0
 14
0.0
 24
0.0
 34
0.0
 15
0.0
 25
0.0
 35
0.0
146
0.0
 13
0.0
 23
0.0
 33
0.0
 16
1.0
 26
0.0
 36
0.0
 17
0.0
 27
1.0
 37
0.0
 76
     0
330
23
  0
LAYOUT
  5
22
102
{ACAD_REACTORS
330
1A
102
}
330
1A
100
AcDbPlotSettings
  1

  2
none_device
  4
Letter_(8.50_x_11.00_Inches)
  6

 40
6.35
 41
6.35
 42
6.35000508
 43
6.35000508
 44
215.9
 45
279.4
 46
0.0
 47
0.0
 48
0.0
 49
0.0
140
0.0
141
0.0
142
1.0
143
1.0
 70
  1712
 72
     1
 73
     0
 74
     0
  7

 75
     0
147
1.0
148
0.0
149
0.0
100
AcDbLayout
  1
Model
 70
     1
 71
     0
 10
0.0
 20
0.0
 11
20000.0
 21
10000.0
 12
0.0
 22
0.0
 32
0.0
 14
0.0
 24
0.0
 34
0.0
 15
20000.0
 25
10000.0
 35
0.0
146
0.0
 13
0.0
 23
0.0
 33
0.0
 16
1.0
 26
0.0
 36
0.0
 17
0.0
 27
1.0
 37
0.0
 76
     0
330
1F
331
29
  0
MLINESTYLE
  5
18
102
{ACAD_REACTORS
330
17
102
}
330
17
100
AcDbMlineStyle
  2
Standard
 70
     0
  3

 62
   256
 51
90.0
 52
90.0
 71
     2
 49
0.5
 62
   256
  6
BYLAYER
 49
-0.5
 62
   256
  6
BYLAYER
  0
ACDBPLACEHOLDER
  5
F
102
{ACAD_REACTORS
330
E
102
}
330
E
  0
SCALE
  5
48
102
{ACAD_REACTORS
330
47
102
}
330
47
100
AcDbScale
 70
     0
300
1:1
140
1.0
141
1.0
290
     1
  0
SCALE
  5
49
102
{ACAD_REACTORS
330
47
102
}
330
47
100
AcDbScale
 70
     0
300
1:2
140
1.0
141
2.0
290
     0
  0
SCALE
  5
4A
102
{ACAD_REACTORS
330
47
102
}
330
47
100
AcDbScale
 70
     0
300
1:4
140
1.0
141
4.0
290
     0
  0
SCALE
  5
4B
102
{ACAD_REACTORS
330
47
102
}
330
47
100
AcDbScale
 70
     0
300
1:5
140
1.0
141
5.0
290
     0
  0
SCALE
  5
4C
102
{ACAD_REACTORS
330
47
102
}
330
47
100
AcDbScale
 70
     0
300
1:8
140
1.0
141
8.0
290
     0
  0
SCALE
  5
4D
102
{ACAD_REACTORS
330
47
102
}
330
47
100
AcDbScale
 70
     0
300
1:10
140
1.0
141
10.0
290
     0
  0
SCALE
  5
4E
102
{ACAD_REACTORS
330
47
102
}
330
47
100
AcDbScale
 70
     0
300
1:16
140
1.0
141
16.0
290
     0
  0
SCALE
  5
4F
102
{ACAD_REACTORS
330
47
102
}
330
47
100
AcDbScale
 70
     0
300
1:20
140
1.0
141
20.0
290
     0
  0
SCALE
  5
50
102
{ACAD_REACTORS
330
47
102
}
330
47
100
AcDbScale
 70
     0
300
1:30
140
1.0
141
30.0
290
     0
  0
SCALE
  5
51
102
{ACAD_REACTORS
330
47
102
}
330
47
100
AcDbScale
 70
     0
300
1:40
140
1.0
141
40.0
290
     0
  0
SCALE
  5
52
102
{ACAD_REACTORS
330
47
102
}
330
47
100
AcDbScale
 70
     0
300
1:50
140
1.0
141
50.0
290
     0
  0
SCALE
  5
53
102
{ACAD_REACTORS
330
47
102
}
330
47
100
AcDbScale
 70
     0
300
1:100
140
1.0
141
100.0
290
     0
  0
SCALE
  5
54
102
{ACAD_REACTORS
330
47
102
}
330
47
100
AcDbScale
 70
     0
300
2:1
140
2.0
141
1.0
290
     0
  0
SCALE
  5
55
102
{ACAD_REACTORS
330
47
102
}
330
47
100
AcDbScale
 70
     0
300
4:1
140
4.0
141
1.0
290
     0
  0
SCALE
  5
56
102
{ACAD_REACTORS
330
47
102
}
330
47
100
AcDbScale
 70
     0
300
8:1
140
8.0
141
1.0
290
     0
  0
SCALE
  5
57
102
{ACAD_REACTORS
330
47
102
}
330
47
100
AcDbScale
 70
     0
300
10:1
140
10.0
141
1.0
290
     0
  0
SCALE
  5
58
102
{ACAD_REACTORS
330
47
102
}
330
47
100
AcDbScale
 70
     0
300
100:1
140
100.0
141
1.0
290
     0
  0
SCALE
  5
59
102
{ACAD_REACTORS
330
47
102
}
330
47
100
AcDbScale
 70
     0
300
1/128" = 1'-0"
140
0.0078125
141
12.0
290
     0
  0
SCALE
  5
5A
102
{ACAD_REACTORS
330
47
102
}
330
47
100
AcDbScale
 70
     0
300
1/64" = 1'-0"
140
0.015625
141
12.0
290
     0
  0
SCALE
  5
5B
102
{ACAD_REACTORS
330
47
102
}
330
47
100
AcDbScale
 70
     0
300
1/32" = 1'-0"
140
0.03125
141
12.0
290
     0
  0
SCALE
  5
5C
102
{ACAD_REACTORS
330
47
102
}
330
47
100
AcDbScale
 70
     0
300
1/16" = 1'-0"
140
0.0625
141
12.0
290
     0
  0
SCALE
  5
5D
102
{ACAD_REACTORS
330
47
102
}
330
47
100
AcDbScale
 70
     0
300
3/32" = 1'-0"
140
0.09375
141
12.0
290
     0
  0
SCALE
  5
5E
102
{ACAD_REACTORS
330
47
102
}
330
47
100
AcDbScale
 70
     0
300
1/8" = 1'-0"
140
0.125
141
12.0
290
     0
  0
SCALE
  5
5F
102
{ACAD_REACTORS
330
47
102
}
330
47
100
AcDbScale
 70
     0
300
3/16" = 1'-0"
140
0.1875
141
12.0
290
     0
  0
SCALE
  5
60
102
{ACAD_REACTORS
330
47
102
}
330
47
100
AcDbScale
 70
     0
300
1/4" = 1'-0"
140
0.25
141
12.0
290
     0
  0
SCALE
  5
61
102
{ACAD_REACTORS
330
47
102
}
330
47
100
AcDbScale
 70
     0
300
3/8" = 1'-0"
140
0.375
141
12.0
290
     0
  0
SCALE
  5
62
102
{ACAD_REACTORS
330
47
102
}
330
47
100
AcDbScale
 70
     0
300
1/2" = 1'-0"
140
0.5
141
12.0
290
     0
  0
SCALE
  5
63
102
{ACAD_REACTORS
330
47
102
}
330
47
100
AcDbScale
 70
     0
300
3/4" = 1'-0"
140
0.75
141
12.0
290
     0
  0
SCALE
  5
64
102
{ACAD_REACTORS
330
47
102
}
330
47
100
AcDbScale
 70
     0
300
1" = 1'-0"
140
1.0
141
12.0
290
     0
  0
SCALE
  5
65
102
{ACAD_REACTORS
330
47
102
}
330
47
100
AcDbScale
 70
     0
300
1-1/2" = 1'-0"
140
1.5
141
12.0
290
     0
  0
SCALE
  5
66
102
{ACAD_REACTORS
330
47
102
}
330
47
100
AcDbScale
 70
     0
300
3" = 1'-0"
140
3.0
141
12.0
290
     0
  0
SCALE
  5
67
102
{ACAD_REACTORS
330
47
102
}
330
47
100
AcDbScale
 70
     0
300
6" = 1'-0"
140
6.0
141
12.0
290
     0
  0
SCALE
  5
68
102
{ACAD_REACTORS
330
47
102
}
330
47
100
AcDbScale
 70
     0
300
1'-0" = 1'-0"
140
12.0
141
12.0
290
     0
  0
ENDSEC
  0
EOF
