  0
SECTION
  2
HEADER
  9
$ACADVER
  1
AC1015
  9
$ACADMAINTVER
 70
     6
  9
$DWGCODEPAGE
  3
ANSI_1250
  9
$INSBASE
 10
0.0
 20
0.0
 30
0.0
  9
$EXTMIN
 10
0.0
 20
0.0
 30
0.0
  9
$EXTMAX
 10
20000.0
 20
10000.0
 30
0.0
  9
$LIMMIN
 10
0.0
 20
0.0
  9
$LIMMAX
 10
20000.0
 20
10000.0
  9
$ORTHOMODE
 70
     0
  9
$REGENMODE
 70
     1
  9
$FILLMODE
 70
     1
  9
$QTEXTMODE
 70
     0
  9
$MIRRTEXT
 70
     1
  9
$LTSCALE
 40
1.0
  9
$ATTMODE
 70
     1
  9
$TEXTSIZE
 40
2.0
  9
$TRACEWID
 40
1.0
  9
$TEXTSTYLE
  7
Standard
  9
$CLAYER
  8
0
  9
$CELTYPE
  6
ByLayer
  9
$CECOLOR
 62
   256
  9
$CELTSCALE
 40
1.0
  9
$DISPSILH
 70
     0
  9
$DIMSCALE
 40
1.0
  9
$DIMASZ
 40
2.0
  9
$DIMEXO
 40
1.0
  9
$DIMDLI
 40
3.75
  9
$DIMRND
 40
0.0
  9
$DIMDLE
 40
0.0
  9
$DIMEXE
 40
1.0
  9
$DIMTP
 40
0.0
  9
$DIMTM
 40
0.0
  9
$DIMTXT
 40
2.0
  9
$DIMCEN
 40
2.5
  9
$DIMTSZ
 40
0.0
  9
$DIMTOL
 70
     0
  9
$DIMLIM
 70
     0
  9
$DIMTIH
 70
     1
  9
$DIMTOH
 70
     1
  9
$DIMSE1
 70
     0
  9
$DIMSE2
 70
     0
  9
$DIMTAD
 70
     1
  9
$DIMZIN
 70
     0
  9
$DIMBLK
  1

  9
$DIMASO
 70
     1
  9
$DIMSHO
 70
     1
  9
$DIMPOST
  1

  9
$DIMAPOST
  1

  9
$DIMALT
 70
     0
  9
$DIMALTD
 70
     3
  9
$DIMALTF
 40
0.0393700787
  9
$DIMLFAC
 40
1.0
  9
$DIMTOFL
 70
     1
  9
$DIMTVP
 40
0.0
  9
$DIMTIX
 70
     0
  9
$DIMSOXD
 70
     0
  9
$DIMSAH
 70
     0
  9
$DIMBLK1
  1

  9
$DIMBLK2
  1

  9
$DIMSTYLE
  2
ISO-25
  9
$DIMCLRD
 70
     0
  9
$DIMCLRE
 70
     0
  9
$DIMCLRT
 70
     0
  9
$DIMTFAC
 40
1.0
  9
$DIMGAP
 40
1.524
  9
$DIMJUST
 70
     0
  9
$DIMSD1
 70
     0
  9
$DIMSD2
 70
     0
  9
$DIMTOLJ
 70
     0
  9
$DIMTZIN
 70
     0
  9
$DIMALTZ
 70
     0
  9
$DIMALTTZ
 70
     0
  9
$DIMUPT
 70
     0
  9
$DIMDEC
 70
     2
  9
$DIMTDEC
 70
     0
  9
$DIMALTU
 70
     2
  9
$DIMALTTD
 70
     3
  9
$DIMTXSTY
  7
Standard
  9
$DIMAUNIT
 70
     0
  9
$DIMADEC
 70
     2
  9
$DIMALTRND
 40
0.0
  9
$DIMAZIN
 70
     0
  9
$DIMDSEP
 70
    44
  9
$DIMATFIT
 70
     3
  9
$DIMFRAC
 70
     0
  9
$DIMLDRBLK
  1

  9
$DIMLUNIT
 70
     2
  9
$DIMLWD
 70
    -2
  9
$DIMLWE
 70
    -2
  9
$DIMTMOVE
 70
     0
  9
$LUNITS
 70
     2
  9
$LUPREC
 70
     3
  9
$SKETCHINC
 40
1.0
  9
$FILLETRAD
 40
10.0
  9
$AUNITS
 70
     0
  9
$AUPREC
 70
     2
  9
$MENU
  1
.
  9
$ELEVATION
 40
0.0
  9
$PELEVATION
 40
0.0
  9
$THICKNESS
 40
0.0
  9
$LIMCHECK
 70
     0
  9
$CHAMFERA
 40
0.0
  9
$CHAMFERB
 40
0.0
  9
$CHAMFERC
 40
0.0
  9
$CHAMFERD
 40
0.0
  9
$SKPOLY
 70
     0
  9
$TDCREATE
 40
2459741.388323935
  9
$TDUCREATE
 40
2459741.304990602
  9
$TDUPDATE
 40
2459741.388324224
  9
$TDUUPDATE
 40
2459741.304990891
  9
$TDINDWG
 40
0.0000000116
  9
$TDUSRTIMER
 40
0.0000000116
  9
$USRTIMER
 70
     1
  9
$ANGBASE
 50
0.0
  9
$ANGDIR
 70
     0
  9
$PDMODE
 70
     0
  9
$PDSIZE
 40
-1.0
  9
$PLINEWID
 40
0.0
  9
$SPLFRAME
 70
     0
  9
$SPLINETYPE
 70
     6
  9
$SPLINESEGS
 70
     8
  9
$HANDSEED
  5
1A8
  9
$SURFTAB1
 70
     6
  9
$SURFTAB2
 70
     6
  9
$SURFTYPE
 70
     6
  9
$SURFU
 70
     6
  9
$SURFV
 70
     6
  9
$UCSBASE
  2

  9
$UCSNAME
  2

  9
$UCSORG
 10
0.0
 20
0.0
 30
0.0
  9
$UCSXDIR
 10
1.0
 20
0.0
 30
0.0
  9
$UCSYDIR
 10
0.0
 20
1.0
 30
0.0
  9
$UCSORTHOREF
  2

  9
$UCSORTHOVIEW
 70
     0
  9
$UCSORGTOP
 10
0.0
 20
0.0
 30
0.0
  9
$UCSORGBOTTOM
 10
0.0
 20
0.0
 30
0.0
  9
$UCSORGLEFT
 10
0.0
 20
0.0
 30
0.0
  9
$UCSORGRIGHT
 10
0.0
 20
0.0
 30
0.0
  9
$UCSORGFRONT
 10
0.0
 20
0.0
 30
0.0
  9
$UCSORGBACK
 10
0.0
 20
0.0
 30
0.0
  9
$PUCSBASE
  2

  9
$PUCSNAME
  2

  9
$PUCSORG
 10
0.0
 20
0.0
 30
0.0
  9
$PUCSXDIR
 10
1.0
 20
0.0
 30
0.0
  9
$PUCSYDIR
 10
0.0
 20
1.0
 30
0.0
  9
$PUCSORTHOREF
  2

  9
$PUCSORTHOVIEW
 70
     0
  9
$PUCSORGTOP
 10
0.0
 20
0.0
 30
0.0
  9
$PUCSORGBOTTOM
 10
0.0
 20
0.0
 30
0.0
  9
$PUCSORGLEFT
 10
0.0
 20
0.0
 30
0.0
  9
$PUCSORGRIGHT
 10
0.0
 20
0.0
 30
0.0
  9
$PUCSORGFRONT
 10
0.0
 20
0.0
 30
0.0
  9
$PUCSORGBACK
 10
0.0
 20
0.0
 30
0.0
  9
$USERI1
 70
     0
  9
$USERI2
 70
     0
  9
$USERI3
 70
     0
  9
$USERI4
 70
     0
  9
$USERI5
 70
     0
  9
$USERR1
 40
0.0
  9
$USERR2
 40
0.0
  9
$USERR3
 40
0.0
  9
$USERR4
 40
0.0
  9
$USERR5
 40
0.0
  9
$WORLDVIEW
 70
     1
  9
$SHADEDGE
 70
     3
  9
$SHADEDIF
 70
    70
  9
$TILEMODE
 70
     1
  9
$MAXACTVP
 70
    64
  9
$PINSBASE
 10
0.0
 20
0.0
 30
0.0
  9
$PLIMCHECK
 70
     0
  9
$PEXTMIN
 10
1.0000000000E+20
 20
1.0000000000E+20
 30
1.0000000000E+20
  9
$PEXTMAX
 10
-1.0000000000E+20
 20
-1.0000000000E+20
 30
-1.0000000000E+20
  9
$PLIMMIN
 10
0.0
 20
0.0
  9
$PLIMMAX
 10
420.0
 20
297.0
  9
$UNITMODE
 70
     0
  9
$VISRETAIN
 70
     1
  9
$PLINEGEN
 70
     0
  9
$PSLTSCALE
 70
     1
  9
$TREEDEPTH
 70
  3020
  9
$CMLSTYLE
  2
Standard
  9
$CMLJUST
 70
     0
  9
$CMLSCALE
 40
20.0
  9
$PROXYGRAPHICS
 70
     1
  9
$MEASUREMENT
 70
     1
  9
$CELWEIGHT
370
    -1
  9
$ENDCAPS
280
     0
  9
$JOINSTYLE
280
     0
  9
$LWDISPLAY
290
     1
  9
$INSUNITS
 70
     4
  9
$HYPERLINKBASE
  1

  9
$STYLESHEET
  1

  9
$XEDIT
290
     1
  9
$CEPSNTYPE
380
     0
  9
$PSTYLEMODE
290
     1
  9
$FINGERPRINTGUID
  2
{c8a14c63-d262-48c6-b230-1900692a77e9}
  9
$VERSIONGUID
  2
{FAEB1C32-E019-11D5-929B-00C0DF256EC4}
  9
$EXTNAMES
290
     1
  9
$PSVPSCALE
 40
0.0
  9
$OLESTARTUP
290
     0
  0
ENDSEC
  0
SECTION
  2
CLASSES
  0
CLASS
  1
ACDBDICTIONARYWDFLT
  2
AcDbDictionaryWithDefault
  3
ObjectDBX Classes
 90
        0
280
     0
281
     0
  0
CLASS
  1
VISUALSTYLE
  2
AcDbVisualStyle
  3
ObjectDBX Classes
 90
     4095
280
     0
281
     0
  0
CLASS
  1
MATERIAL
  2
AcDbMaterial
  3
ObjectDBX Classes
 90
     1153
280
     0
281
     0
  0
CLASS
  1
SCALE
  2
AcDbScale
  3
ObjectDBX Classes
 90
     1153
280
     0
281
     0
  0
CLASS
  1
TABLESTYLE
  2
AcDbTableStyle
  3
ObjectDBX Classes
 90
     4095
280
     0
281
     0
  0
CLASS
  1
MLEADERSTYLE
  2
AcDbMLeaderStyle
  3
ACDB_MLEADERSTYLE_CLASS
 90
     4095
280
     0
281
     0
  0
CLASS
  1
SUN
  2
AcDbSun
  3
SCENEOE
 90
     1153
280
     0
281
     0
  0
CLASS
  1
ACDBPLACEHOLDER
  2
AcDbPlaceHolder
  3
ObjectDBX Classes
 90
        0
280
     0
281
     0
  0
CLASS
  1
LAYOUT
  2
AcDbLayout
  3
ObjectDBX Classes
 90
        0
280
     0
281
     0
  0
ENDSEC
  0
SECTION
  2
TABLES
  0
TABLE
  2
VPORT
  5
8
330
0
100
AcDbSymbolTable
 70
     1
  0
VPORT
  5
29
330
8
100
AcDbSymbolTableRecord
100
AcDbViewportTableRecord
  2
*Active
 70
     0
 10
0.0
 20
0.0
 11
1.0
 21
1.0
 12
10000.0
 22
5000.0
 13
0.0
 23
0.0
 14
10.0
 24
10.0
 15
10.0
 25
10.0
 16
0.0
 26
0.0
 36
1.0
 17
0.0
 27
0.0
 37
0.0
 40
10000.0
 41
2.0
 42
50.0
 43
0.0
 44
0.0
 50
0.0
 51
0.0
 71
     0
 72
  2000
 73
     1
 74
     3
 75
     0
 76
     0
 77
     0
 78
     0
281
     0
 65
     1
110
0.0
120
0.0
130
0.0
111
1.0
121
0.0
131
0.0
112
0.0
122
1.0
132
0.0
 79
     0
146
0.0
  0
ENDTAB
  0
TABLE
  2
LTYPE
  5
5
330
0
100
AcDbSymbolTable
 70
     6
  0
LTYPE
  5
14
330
5
100
AcDbSymbolTableRecord
100
AcDbLinetypeTableRecord
  2
ByBlock
 70
     0
  3

 72
    65
 73
     0
 40
0.0
  0
LTYPE
  5
15
330
5
100
AcDbSymbolTableRecord
100
AcDbLinetypeTableRecord
  2
ByLayer
 70
     0
  3

 72
    65
 73
     0
 40
0.0
  0
LTYPE
  5
16
330
5
100
AcDbSymbolTableRecord
100
AcDbLinetypeTableRecord
  2
Continuous
 70
     0
  3
Solid line
 72
    65
 73
     0
 40
0.0
  0
LTYPE
  5
6E
330
5
100
AcDbSymbolTableRecord
100
AcDbLinetypeTableRecord
  2
HIDDEN
 70
     0
  3
Hidden __ __ __ __ __ __ __ __ __ __ __ __ __ __
 72
    65
 73
     2
 40
1.905
 49
1.27
 74
     0
 49
-0.635
 74
     0
  0
LTYPE
  5
6F
330
5
100
AcDbSymbolTableRecord
100
AcDbLinetypeTableRecord
  2
PHANTOM
 70
     0
  3
Phantom ______  __  __  ______  __  __  ______
 72
    65
 73
     6
 40
12.7
 49
6.35
 74
     0
 49
-1.27
 74
     0
 49
1.27
 74
     0
 49
-1.27
 74
     0
 49
1.27
 74
     0
 49
-1.27
 74
     0
  0
LTYPE
  5
70
330
5
100
AcDbSymbolTableRecord
100
AcDbLinetypeTableRecord
  2
CENTER
 70
     0
  3
Center ____ _ ____ _ ____ _ ____ _ ____ _ ____
 72
    65
 73
     4
 40
10.16
 49
6.35
 74
     0
 49
-1.27
 74
     0
 49
1.27
 74
     0
 49
-1.27
 74
     0
  0
LTYPE
  5
71
330
5
100
AcDbSymbolTableRecord
100
AcDbLinetypeTableRecord
  2
CENTERX2
 70
     0
  3
Center (2x) ________  __  ________  __  _____
 72
    65
 73
     4
 40
20.32
 49
12.7
 74
     0
 49
-2.54
 74
     0
 49
2.54
 74
     0
 49
-2.54
 74
     0
  0
LTYPE
  5
72
330
5
100
AcDbSymbolTableRecord
100
AcDbLinetypeTableRecord
  2
DOT2
 70
     0
  3
Dot (.5x) ........................................
 72
    65
 73
     2
 40
0.635
 49
0.0
 74
     0
 49
-0.635
 74
     0
  0
ENDTAB
  0
TABLE
  2
LAYER
  5
2
330
0
100
AcDbSymbolTable
 70
    13
  0
LAYER
  5
10
330
2
100
AcDbSymbolTableRecord
100
AcDbLayerTableRecord
  2
0
 70
     0
 62
     7
  6
Continuous
370
    -3
390
F
  0
LAYER
  5
73
330
2
100
AcDbSymbolTableRecord
100
AcDbLayerTableRecord
  2
FORMAT
 70
     0
 62
     7
  6
Continuous
370
    -3
390
F
  0
LAYER
  5
74
330
2
100
AcDbSymbolTableRecord
100
AcDbLayerTableRecord
  2
OSA
 70
     0
 62
     7
  6
CENTER
370
    -3
390
F
  0
LAYER
  5
75
330
2
100
AcDbSymbolTableRecord
100
AcDbLayerTableRecord
  2
0_35
 70
     0
 62
     7
  6
Continuous
370
    35
390
F
  0
LAYER
  5
76
330
2
100
AcDbSymbolTableRecord
100
AcDbLayerTableRecord
  2
0_5
 70
     0
 62
     7
  6
Continuous
370
    50
390
F
  0
LAYER
  5
77
330
2
100
AcDbSymbolTableRecord
100
AcDbLayerTableRecord
  2
0_25
 70
     0
 62
     7
  6
Continuous
370
    25
390
F
  0
LAYER
  5
78
330
2
100
AcDbSymbolTableRecord
100
AcDbLayerTableRecord
  2
0_18
 70
     0
 62
     7
  6
Continuous
370
    -3
390
F
  0
LAYER
  5
79
330
2
100
AcDbSymbolTableRecord
100
AcDbLayerTableRecord
  2
SLD-0
 70
     0
 62
   179
  6
Continuous
370
    -3
390
F
  0
LAYER
  5
7A
330
2
100
AcDbSymbolTableRecord
100
AcDbLayerTableRecord
  2
KOTY
 70
     0
 62
     7
  6
Continuous
370
    -3
390
F
  0
LAYER
  5
7B
330
2
100
AcDbSymbolTableRecord
100
AcDbLayerTableRecord
  2
SILNA
 70
     0
 62
   179
  6
Continuous
370
    -3
390
F
  0
LAYER
  5
7C
330
2
100
AcDbSymbolTableRecord
100
AcDbLayerTableRecord
  2
0_18_1
 70
     0
 62
   179
  6
Continuous
370
    -3
390
F
  0
LAYER
  5
7D
330
2
100
AcDbSymbolTableRecord
100
AcDbLayerTableRecord
  2
0_35_1
 70
     0
 62
   179
  6
Continuous
370
    35
390
F
  0
LAYER
  5
7E
330
2
100
AcDbSymbolTableRecord
100
AcDbLayerTableRecord
  2
0_5_1
 70
     0
 62
   179
  6
Continuous
370
    50
390
F
  0
ENDTAB
  0
TABLE
  2
STYLE
  5
3
330
0
100
AcDbSymbolTable
 70
     1
  0
STYLE
  5
11
330
3
100
AcDbSymbolTableRecord
100
AcDbTextStyleTableRecord
  2
Standard
 70
     0
 40
0.0
 41
1.0
 50
0.0
 71
     0
 42
2.0
  3
txt
  4

  0
ENDTAB
  0
TABLE
  2
VIEW
  5
6
330
0
100
AcDbSymbolTable
 70
     0
  0
ENDTAB
  0
TABLE
  2
UCS
  5
7
330
0
100
AcDbSymbolTable
 70
     0
  0
ENDTAB
  0
TABLE
  2
APPID
  5
9
330
0
100
AcDbSymbolTable
 70
     1
  0
APPID
  5
12
330
9
100
AcDbSymbolTableRecord
100
AcDbRegAppTableRecord
  2
ACAD
 70
     0
  0
ENDTAB
  0
TABLE
  2
DIMSTYLE
  5
A
330
0
100
AcDbSymbolTable
 70
     1
100
AcDbDimStyleTable
  0
DIMSTYLE
105
27
330
A
100
AcDbSymbolTableRecord
100
AcDbDimStyleTableRecord
  2
ISO-25
 70
     0
 41
2.5
 42
0.625
 43
3.75
 44
1.25
 73
     0
 74
     0
 77
     1
 78
     8
140
2.5
141
2.5
143
0.0393700787
147
0.625
171
     3
172
     1
178
     0
271
     2
272
     2
274
     3
278
    44
283
     0
284
     8
340
11
  0
ENDTAB
  0
TABLE
  2
BLOCK_RECORD
  5
1
330
0
100
AcDbSymbolTable
 70
     1
  0
BLOCK_RECORD
  5
1F
330
1
100
AcDbSymbolTableRecord
100
AcDbBlockTableRecord
  2
*Model_Space
340
22
  0
BLOCK_RECORD
  5
1B
330
1
100
AcDbSymbolTableRecord
100
AcDbBlockTableRecord
  2
*Paper_Space
340
1E
  0
BLOCK_RECORD
  5
23
330
1
100
AcDbSymbolTableRecord
100
AcDbBlockTableRecord
  2
*Paper_Space0
340
26
  0
ENDTAB
  0
ENDSEC
  0
SECTION
  2
BLOCKS
  0
BLOCK
  5
20
330
1F
100
AcDbEntity
  8
0
100
AcDbBlockBegin
  2
*Model_Space
 70
     0
 10
0.0
 20
0.0
 30
0.0
  3
*Model_Space
  1

  0
ENDBLK
  5
21
330
1F
100
AcDbEntity
  8
0
100
AcDbBlockEnd
  0
BLOCK
  5
1C
330
1B
100
AcDbEntity
 67
     1
  8
0
100
AcDbBlockBegin
  2
*Paper_Space
 70
     0
 10
0.0
 20
0.0
 30
0.0
  3
*Paper_Space
  1

  0
ENDBLK
  5
1D
330
1B
100
AcDbEntity
 67
     1
  8
0
100
AcDbBlockEnd
  0
BLOCK
  5
24
330
23
100
AcDbEntity
  8
0
100
AcDbBlockBegin
  2
*Paper_Space0
 70
     0
 10
0.0
 20
0.0
 30
0.0
  3
*Paper_Space0
  1

  0
ENDBLK
  5
25
330
23
100
AcDbEntity
  8
0
100
AcDbBlockEnd
  0
ENDSEC
  0
SECTION
  2
ENTITIES
  0
LINE
  5
7F
330
1F
100
AcDbEntity
  8
0
  6
Continuous
 62
     7
370
    25
100
AcDbLine
 10
6244.0187553361
 20
5270.5389738244
 30
0.0
 11
6246.0187553361
 21
5266.5389738244
 31
0.0
  0
LINE
  5
80
330
1F
100
AcDbEntity
  8
0
  6
Continuous
 62
     7
370
    25
100
AcDbLine
 10
6302.0187553361
 20
5266.5389738244
 30
0.0
 11
6304.0187553361
 21
5270.5389738244
 31
0.0
  0
ARC
  5
81
330
1F
100
AcDbEntity
  8
0
  6
Continuous
 62
     7
370
    25
100
AcDbCircle
 10
6249.0187553361
 20
5259.5389738244
 30
0.0
 40
3.000000000000909
100
AcDbArc
 50
180.0
 51
270.0
  0
ARC
  5
82
330
1F
100
AcDbEntity
  8
0
  6
Continuous
 62
     7
370
    25
100
AcDbCircle
 10
6299.0187553361
 20
5259.5389738244
 30
0.0
 40
3.000000000000909
100
AcDbArc
 50
270.0
 51
0.0
  0
LINE
  5
83
330
1F
100
AcDbEntity
  8
0
  6
Continuous
 62
     7
370
    25
100
AcDbLine
 10
6246.0187553361
 20
5266.5389738244
 30
0.0
 11
6246.0187553361
 21
5259.5389738244
 31
0.0
  0
LINE
  5
84
330
1F
100
AcDbEntity
  8
0
  6
Continuous
 62
     7
370
    25
100
AcDbLine
 10
6302.0187553361
 20
5259.5389738244
 30
0.0
 11
6302.0187553361
 21
5266.5389738244
 31
0.0
  0
LINE
  5
85
330
1F
100
AcDbEntity
  8
0
  6
Continuous
 62
     7
370
    25
100
AcDbLine
 10
6258.0187553361
 20
5256.5389738244
 30
0.0
 11
6258.0187553361
 21
5186.3955824721
 31
0.0
  0
LINE
  5
86
330
1F
100
AcDbEntity
  8
0
  6
Continuous
 62
     7
370
    25
100
AcDbLine
 10
6258.0187553361
 20
5172.3955824721
 30
0.0
 11
6258.0187553361
 21
5169.8955824721
 31
0.0
  0
LINE
  5
87
330
1F
100
AcDbEntity
  8
0
  6
Continuous
 62
     7
370
    25
100
AcDbLine
 10
6290.0187553361
 20
5169.8955824721
 30
0.0
 11
6290.0187553361
 21
5172.3955824721
 31
0.0
  0
LINE
  5
88
330
1F
100
AcDbEntity
  8
0
  6
Continuous
 62
     7
370
    25
100
AcDbLine
 10
6290.0187553361
 20
5186.3955824721
 30
0.0
 11
6290.0187553361
 21
5256.5389738244
 31
0.0
  0
LINE
  5
89
330
1F
100
AcDbEntity
  8
0
  6
Continuous
 62
     7
370
    25
100
AcDbLine
 10
6240.0187553361
 20
5109.8955824721
 30
0.0
 11
6246.912541056
 21
5042.5899066107
 31
0.0
  0
LINE
  5
8A
330
1F
100
AcDbEntity
  8
0
  6
Continuous
 62
     7
370
    25
100
AcDbLine
 10
6301.1249696162
 20
5042.5899066107
 30
0.0
 11
6308.0187553361
 21
5109.8955824721
 31
0.0
  0
LINE
  5
8B
330
1F
100
AcDbEntity
  8
0
  6
Continuous
 62
     7
370
    25
100
AcDbLine
 10
6308.0187553361
 20
5109.8955824721
 30
0.0
 11
6301.3281970913
 21
5167.2432245708
 31
0.0
  0
LINE
  5
8C
330
1F
100
AcDbEntity
  8
0
  6
Continuous
 62
     7
370
    25
100
AcDbLine
 10
6246.7093135809
 20
5167.2432245708
 30
0.0
 11
6240.0187553361
 21
5109.8955824721
 31
0.0
  0
ARC
  5
8D
330
1F
100
AcDbEntity
  8
0
  6
Continuous
 62
     7
370
    25
100
AcDbCircle
 10
6249.6891029982
 20
5166.8955824721
 30
0.0
 40
3.0
100
AcDbArc
 50
90.0
 51
173.345574954
  0
ARC
  5
8E
330
1F
100
AcDbEntity
  8
0
  6
Continuous
 62
     7
370
    25
100
AcDbCircle
 10
6298.348407674
 20
5166.8955824721
 30
0.0
 40
3.0
100
AcDbArc
 50
6.654425046
 51
90.0
  0
ARC
  5
8F
330
1F
100
AcDbEntity
  8
0
  6
Continuous
 62
     7
370
    25
100
AcDbCircle
 10
6249.8969274699
 20
5042.8955824721
 30
0.0
 40
3.000000000000517
100
AcDbArc
 50
185.8481280262
 51
270.0
  0
ARC
  5
90
330
1F
100
AcDbEntity
  8
0
  6
Continuous
 62
     7
370
    25
100
AcDbCircle
 10
6298.1405832023
 20
5042.8955824721
 30
0.0
 40
3.0
100
AcDbArc
 50
270.0
 51
354.1518719738
  0
LINE
  5
91
330
1F
100
AcDbEntity
  8
0
  6
Continuous
 62
     7
370
    25
100
AcDbLine
 10
6299.0187553361
 20
5172.3955824721
 30
0.0
 11
6297.0187553361
 21
5176.3955824721
 31
0.0
  0
LINE
  5
92
330
1F
100
AcDbEntity
  8
0
  6
Continuous
 62
     7
370
    25
100
AcDbLine
 10
6251.0187553361
 20
5176.3955824721
 30
0.0
 11
6249.0187553361
 21
5172.3955824721
 31
0.0
  0
ARC
  5
93
330
1F
100
AcDbEntity
  8
0
  6
Continuous
 62
     7
370
    25
100
AcDbCircle
 10
6254.0187553361
 20
5183.3955824721
 30
0.0
 40
3.0
100
AcDbArc
 50
90.0
 51
180.0
  0
ARC
  5
94
330
1F
100
AcDbEntity
  8
0
  6
Continuous
 62
     7
370
    25
100
AcDbCircle
 10
6294.0187553361
 20
5183.3955824721
 30
0.0
 40
3.0
100
AcDbArc
 50
0.0
 51
90.0
  0
LINE
  5
95
330
1F
100
AcDbEntity
  8
0
  6
Continuous
 62
     7
370
    25
100
AcDbLine
 10
6251.0187553361
 20
5183.3955824721
 30
0.0
 11
6251.0187553361
 21
5176.3955824721
 31
0.0
  0
LINE
  5
96
330
1F
100
AcDbEntity
  8
0
  6
Continuous
 62
     7
370
    25
100
AcDbLine
 10
6297.0187553361
 20
5176.3955824721
 30
0.0
 11
6297.0187553361
 21
5183.3955824721
 31
0.0
  0
LINE
  5
97
330
1F
100
AcDbEntity
  8
0
  6
Continuous
 62
     7
370
    25
100
AcDbLine
 10
6242.0187553361
 20
5308.3409723332
 30
0.0
 11
6242.0187553361
 21
5305.2385081191
 31
0.0
  0
LINE
  5
98
330
1F
100
AcDbEntity
  8
0
  6
Continuous
 62
     7
370
    25
100
AcDbLine
 10
6306.0187553361
 20
5305.2385081191
 30
0.0
 11
6306.0187553361
 21
5308.3409723332
 31
0.0
  0
LWPOLYLINE
  5
99
330
1F
100
AcDbEntity
  8
0
  6
Continuous
 62
     7
370
    25
100
AcDbPolyline
 90
        3
 70
   128
 43
0.0
 10
6295.0147440898
 20
5271.1586882818
 10
6294.6757530961
 20
5271.3461303255
 10
6294.3087596641
 20
5271.5346143033
  0
LWPOLYLINE
  5
9A
330
1F
100
AcDbEntity
  8
0
  6
Continuous
 62
     7
370
    25
100
AcDbPolyline
 90
        3
 70
   128
 43
0.0
 10
6253.7022073603
 20
5270.9255656888
 10
6253.3604221675
 20
5270.7287161431
 10
6253.0210643279
 20
5270.5327749783
  0
LWPOLYLINE
  5
9B
330
1F
100
AcDbEntity
  8
0
  6
Continuous
 62
     7
370
    25
100
AcDbPolyline
 90
        3
 70
   128
 43
0.0
 10
6294.3339951226
 20
5270.6026047911
 10
6294.6738673129
 20
5270.7985080119
 10
6295.0155293951
 20
5270.9952992862
  0
LWPOLYLINE
  5
9C
330
1F
100
AcDbEntity
  8
0
  6
Continuous
 62
     7
370
    25
100
AcDbPolyline
 90
        3
 70
   128
 43
0.0
 10
6294.3339951226
 20
5271.8526047911
 10
6294.6737321493
 20
5272.0484588866
 10
6295.0037370892
 20
5272.2385081191
  0
LWPOLYLINE
  5
9D
330
1F
100
AcDbEntity
  8
0
  6
Continuous
 62
     7
370
    25
100
AcDbPolyline
 90
        3
 70
   128
 43
0.0
 10
6253.26604801
 20
5271.5590516931
 10
6253.7722207685
 20
5271.3896223698
 10
6254.5674154034
 20
5271.1756632542
  0
LINE
  5
9E
330
1F
100
AcDbEntity
  8
0
  6
Continuous
 62
     7
370
    25
100
AcDbLine
 10
6253.1322297194
 20
5271.6038441914
 30
0.0
 11
6253.26604801
 21
5271.5590516931
 31
0.0
  0
LINE
  5
9F
330
1F
100
AcDbEntity
  8
0
  6
Continuous
 62
     7
370
    25
100
AcDbLine
 10
6253.0187553361
 20
5272.2385081191
 30
0.0
 11
6253.0187553361
 21
5271.6239176316
 31
0.0
  0
LINE
  5
A0
330
1F
100
AcDbEntity
  8
0
  6
Continuous
 62
     7
370
    25
100
AcDbLine
 10
6295.0187553361
 20
5270.9988087803
 30
0.0
 11
6295.0187553361
 21
5271.1549889559
 31
0.0
  0
LWPOLYLINE
  5
A1
330
1F
100
AcDbEntity
  8
0
  6
Continuous
 62
     7
370
    25
100
AcDbPolyline
 90
        3
 70
   128
 43
0.0
 10
6294.3421568945
 20
5271.545295684
 10
6294.3420227599
 20
5271.7010482471
 10
6294.3421568945
 20
5271.857795684
  0
LWPOLYLINE
  5
A2
330
1F
100
AcDbEntity
  8
0
  6
Continuous
 62
     7
370
    25
100
AcDbPolyline
 90
        3
 70
   128
 43
0.0
 10
6253.695353753
 20
5271.2327958698
 10
6253.6954683145
 20
5271.0760981457
 10
6253.6953547258
 20
5270.9216189468
  0
LINE
  5
A3
330
1F
100
AcDbEntity
  8
0
  6
Continuous
 62
     7
370
    25
100
AcDbLine
 10
6287.5569948815
 20
5270.5389738244
 30
0.0
 11
6304.0187553361
 21
5270.5389738244
 31
0.0
  0
LINE
  5
A4
330
1F
100
AcDbEntity
  8
0
  6
Continuous
 62
     7
370
    25
100
AcDbLine
 10
6244.0187553361
 20
5270.5389738244
 30
0.0
 11
6287.5569948815
 21
5270.5389738244
 31
0.0
  0
LINE
  5
A5
330
1F
100
AcDbEntity
  8
0
  6
Continuous
 62
     7
370
    25
100
AcDbLine
 10
6286.6544455785
 20
5266.5389738244
 30
0.0
 11
6302.0187553361
 21
5266.5389738244
 31
0.0
  0
LINE
  5
A6
330
1F
100
AcDbEntity
  8
0
  6
Continuous
 62
     7
370
    25
100
AcDbLine
 10
6246.0187553361
 20
5266.5389738244
 30
0.0
 11
6286.6544455785
 21
5266.5389738244
 31
0.0
  0
LINE
  5
A7
330
1F
100
AcDbEntity
  8
0
  6
Continuous
 62
     7
370
    25
100
AcDbLine
 10
6285.3006216239
 20
5256.5389738244
 30
0.0
 11
6299.0187553361
 21
5256.5389738244
 31
0.0
  0
LINE
  5
A8
330
1F
100
AcDbEntity
  8
0
  6
Continuous
 62
     7
370
    25
100
AcDbLine
 10
6249.0187553361
 20
5256.5389738244
 30
0.0
 11
6285.3006216239
 21
5256.5389738244
 31
0.0
  0
ARC
  5
A9
330
1F
100
AcDbEntity
  8
0
  6
Continuous
 62
     7
370
    25
100
AcDbCircle
 10
6274.0187553361
 20
5147.8955824721
 30
0.0
 40
40.00000000000078
100
AcDbArc
 50
323.8929885942
 51
54.9003678046
  0
ARC
  5
AA
330
1F
100
AcDbEntity
  8
0
  6
Continuous
 62
     7
370
    25
100
AcDbCircle
 10
6274.0187553361
 20
5147.8955824721
 30
0.0
 40
40.00000000000026
100
AcDbArc
 50
125.0996321954
 51
216.1070114058
  0
LINE
  5
AB
330
1F
100
AcDbEntity
  8
0
  6
Continuous
 62
     7
370
    25
100
AcDbLine
 10
6240.0187553361
 20
5109.8955824721
 30
0.0
 11
6308.0187553361
 21
5109.8955824721
 31
0.0
  0
LINE
  5
AC
330
1F
100
AcDbEntity
  8
0
  6
Continuous
 62
     7
370
    25
100
AcDbLine
 10
6249.6891029982
 20
5169.8955824721
 30
0.0
 11
6298.348407674
 21
5169.8955824721
 31
0.0
  0
LINE
  5
AD
330
1F
100
AcDbEntity
  8
0
  6
Continuous
 62
     7
370
    25
100
AcDbLine
 10
6249.8969274699
 20
5039.8955824721
 30
0.0
 11
6298.1405832023
 21
5039.8955824721
 31
0.0
  0
LINE
  5
AE
330
1F
100
AcDbEntity
  8
0
  6
Continuous
 62
     7
370
    25
100
AcDbLine
 10
6251.0187553361
 20
5176.3955824721
 30
0.0
 11
6297.0187553361
 21
5176.3955824721
 31
0.0
  0
LINE
  5
AF
330
1F
100
AcDbEntity
  8
0
  6
Continuous
 62
     7
370
    25
100
AcDbLine
 10
6249.0187553361
 20
5172.3955824721
 30
0.0
 11
6299.0187553361
 21
5172.3955824721
 31
0.0
  0
LINE
  5
B0
330
1F
100
AcDbEntity
  8
0
  6
Continuous
 62
     7
370
    25
100
AcDbLine
 10
6254.0187553361
 20
5186.3955824721
 30
0.0
 11
6294.0187553361
 21
5186.3955824721
 31
0.0
  0
LINE
  5
B1
330
1F
100
AcDbEntity
  8
0
  6
Continuous
 62
     7
370
    25
100
AcDbLine
 10
6290.5187553361
 20
5169.8955824721
 30
0.0
 11
6290.0187553361
 21
5170.2618517184
 31
0.0
  0
LINE
  5
B2
330
1F
100
AcDbEntity
  8
0
  6
Continuous
 62
     7
370
    25
100
AcDbLine
 10
6258.0187553361
 20
5170.2618517184
 30
0.0
 11
6257.5187553361
 21
5169.8955824721
 31
0.0
  0
LINE
  5
B3
330
1F
100
AcDbEntity
  8
0
  6
Continuous
 62
     7
370
    25
100
AcDbLine
 10
6306.0187553361
 20
5305.2385081191
 30
0.0
 11
6242.0187553361
 21
5305.2385081191
 31
0.0
  0
LINE
  5
B4
330
1F
100
AcDbEntity
  8
0
  6
Continuous
 62
     7
370
    25
100
AcDbLine
 10
6291.7714817357
 20
5272.2385081191
 30
0.0
 11
6291.7714817357
 21
5305.2385081191
 31
0.0
  0
LINE
  5
B5
330
1F
100
AcDbEntity
  8
0
  6
Continuous
 62
     7
370
    25
100
AcDbLine
 10
6265.7886715337
 20
5272.2385081191
 30
0.0
 11
6265.7886715337
 21
5305.2385081191
 31
0.0
  0
LINE
  5
B6
330
1F
100
AcDbEntity
  8
0
  6
Continuous
 62
     7
370
    25
100
AcDbLine
 10
6291.7714817357
 20
5272.2385081191
 30
0.0
 11
6265.7886715337
 21
5272.2385081191
 31
0.0
  0
LWPOLYLINE
  5
B7
330
1F
100
AcDbEntity
  8
0
  6
Continuous
 62
     7
370
    25
100
AcDbPolyline
 90
       15
 70
   128
 43
0.0
 10
6253.8259063642
 20
5270.9257887973
 10
6253.994652727
 20
5270.9544554707
 10
6255.3505229354
 20
5271.0021675342
 10
6257.7065592955
 20
5271.0487767642
 10
6260.8749911097
 20
5271.0928053704
 10
6264.8189905041
 20
5271.1399041307
 10
6269.2752422577
 20
5271.1873956572
 10
6273.8848277493
 20
5271.231770837
 10
6278.5531010285
 20
5271.2777004831
 10
6283.0357420736
 20
5271.3255028345
 10
6286.9730883447
 20
5271.3713386262
 10
6290.1909236776
 20
5271.4157816889
 10
6292.6061834307
 20
5271.4633108896
 10
6294.0032316539
 20
5271.5103504093
 10
6294.1821908875
 20
5271.5351244099
  0
LWPOLYLINE
  5
B8
330
1F
100
AcDbEntity
  8
0
  6
Continuous
 62
     7
370
    25
100
AcDbPolyline
 90
       15
 70
   128
 43
0.0
 10
6253.1768451063
 20
5270.5389738244
 10
6253.3280347366
 20
5270.5638304681
 10
6254.7290428106
 20
5270.6115425314
 10
6257.1635133563
 20
5270.6581517616
 10
6260.4374246377
 20
5270.7021803677
 10
6264.5127227551
 20
5270.7492791276
 10
6269.1173265432
 20
5270.7967706542
 10
6273.8803686985
 20
5270.8411458341
 10
6278.7040524071
 20
5270.8870754798
 10
6283.3359240831
 20
5270.9348778311
 10
6287.404347737
 20
5270.9807136231
 10
6290.7293073791
 20
5271.0251566854
 10
6293.2249731072
 20
5271.0726858858
 10
6294.6685302751
 20
5271.1197254057
 10
6294.9317429044
 20
5271.1549889559
  0
LWPOLYLINE
  5
B9
330
1F
100
AcDbEntity
  8
0
  6
Continuous
 62
     7
370
    25
100
AcDbPolyline
 90
       12
 70
   128
 43
0.0
 10
6259.9334985919
 20
5270.5389738244
 10
6260.7751269393
 20
5270.550067721
 10
6264.9122012731
 20
5270.5973609363
 10
6269.5464584329
 20
5270.6446964176
 10
6274.313579276
 20
5270.6888722157
 10
6279.1362267127
 20
5270.735122913
 10
6283.7315021517
 20
5270.7829048173
 10
6287.7337681991
 20
5270.8283839792
 10
6290.9929696513
 20
5270.8731178162
 10
6293.400790428
 20
5270.9207629934
 10
6294.7435915919
 20
5270.9675692254
 10
6294.9062374534
 20
5270.9988087803
  0
LWPOLYLINE
  5
BA
330
1F
100
AcDbEntity
  8
0
  6
Continuous
 62
     7
370
    25
100
AcDbPolyline
 90
       17
 70
   128
 43
0.0
 10
6253.1095334768
 20
5271.6239176316
 10
6253.2509910706
 20
5271.6529644325
 10
6254.3654819694
 20
5271.6958493733
 10
6256.3512946253
 20
5271.7385081191
 10
6257.4265996256
 20
5271.7559292174
 10
6260.7751269393
 20
5271.800067721
 10
6264.9122012731
 20
5271.8473609363
 10
6269.5464584329
 20
5271.8946964176
 10
6274.313579276
 20
5271.9388722157
 10
6279.1362267127
 20
5271.985122913
 10
6283.7315021517
 20
5272.0329048173
 10
6287.7337681991
 20
5272.0783839792
 10
6290.9929696513
 20
5272.1231178162
 10
6293.400790428
 20
5272.1707629934
 10
6294.7435915919
 20
5272.2175692254
 10
6294.9889581667
 20
5272.2385081191
 10
6294.9889581667
 20
5272.2385081191
  0
LWPOLYLINE
  5
BB
330
1F
100
AcDbEntity
  8
0
  6
Continuous
 62
     7
370
    25
100
AcDbPolyline
 90
        3
 70
   128
 43
0.0
 10
6293.0583914351
 20
5270.5389738244
 10
6294.122014604
 20
5270.5798256357
 10
6294.2110435753
 20
5270.6027894568
  0
LWPOLYLINE
  5
BC
330
1F
100
AcDbEntity
  8
0
  6
Continuous
 62
     7
370
    25
100
AcDbPolyline
 90
       15
 70
   128
 43
0.0
 10
6253.7951861438
 20
5271.2330700351
 10
6253.9946526574
 20
5271.2669554667
 10
6255.3505227699
 20
5271.31466753
 10
6257.7065590458
 20
5271.3612767602
 10
6260.8749907816
 20
5271.4053053662
 10
6264.818990106
 20
5271.4524041262
 10
6269.2752418195
 20
5271.4998956528
 10
6273.8848272983
 20
5271.5442708327
 10
6278.5531005681
 20
5271.5902004784
 10
6283.3431415489
 20
5271.6414343805
 10
6287.4811679389
 20
5271.6901045572
 10
6290.7963630429
 20
5271.7385081191
 10
6292.9479986253
 20
5271.7847338395
 10
6294.122014604
 20
5271.8298256357
 10
6294.211028945
 20
5271.8527856831
  0
LINE
  5
BD
330
1F
100
AcDbEntity
  8
0
  6
Continuous
 62
     7
370
    25
100
AcDbLine
 10
6248.0359451342
 20
5272.2385081191
 30
0.0
 11
6248.0359451342
 21
5305.2385081191
 31
0.0
  0
LINE
  5
BE
330
1F
100
AcDbEntity
  8
0
  6
Continuous
 62
     7
370
    25
100
AcDbLine
 10
6265.7886715337
 20
5272.2385081191
 30
0.0
 11
6248.0359451342
 21
5272.2385081191
 31
0.0
  0
LINE
  5
BF
330
1F
100
AcDbEntity
  8
0
  6
Continuous
 62
     7
370
    25
100
AcDbLine
 10
6300.001565538
 20
5272.2385081191
 30
0.0
 11
6300.001565538
 21
5305.2385081191
 31
0.0
  0
LINE
  5
C0
330
1F
100
AcDbEntity
  8
0
  6
Continuous
 62
     7
370
    25
100
AcDbLine
 10
6300.001565538
 20
5272.2385081191
 30
0.0
 11
6291.7714817357
 21
5272.2385081191
 31
0.0
  0
ARC
  5
C1
330
1F
100
AcDbEntity
  8
0
  6
Continuous
 62
     7
370
    25
100
AcDbCircle
 10
6079.0187553361
 20
5385.8409723332
 30
0.0
 40
2.5
100
AcDbArc
 50
90.0
 51
180.0
  0
LINE
  5
C2
330
1F
100
AcDbEntity
  8
0
  6
Continuous
 62
     7
370
    25
100
AcDbLine
 10
6079.0187553361
 20
5385.8409723332
 30
0.0
 11
6079.0187553361
 21
5388.3409723332
 31
0.0
  0
LINE
  5
C3
330
1F
100
AcDbEntity
  8
0
  6
Continuous
 62
     7
370
    25
100
AcDbLine
 10
6076.5187553361
 20
5385.8409723332
 30
0.0
 11
6079.0187553361
 21
5385.8409723332
 31
0.0
  0
LINE
  5
C4
330
1F
100
AcDbEntity
  8
0
  6
Continuous
 62
     7
370
    25
100
AcDbLine
 10
6469.0187553361
 20
5308.3409723332
 30
0.0
 11
6079.0187553361
 21
5308.3409723332
 31
0.0
  0
LINE
  5
C5
330
1F
100
AcDbEntity
  8
0
  6
Continuous
 62
     7
370
    25
100
AcDbLine
 10
6079.0187553361
 20
5308.3409723332
 30
0.0
 11
6079.0187553361
 21
5310.8409723332
 31
0.0
  0
LINE
  5
C6
330
1F
100
AcDbEntity
  8
0
  6
Continuous
 62
     7
370
    25
100
AcDbLine
 10
6079.0187553361
 20
5310.8409723332
 30
0.0
 11
6469.0187553361
 21
5310.8409723332
 31
0.0
  0
LINE
  5
C7
330
1F
100
AcDbEntity
  8
0
  6
Continuous
 62
     7
370
    25
100
AcDbLine
 10
6469.0187553361
 20
5308.3409723332
 30
0.0
 11
6469.0187553361
 21
5310.8409723332
 31
0.0
  0
LINE
  5
C8
330
1F
100
AcDbEntity
  8
0
  6
Continuous
 62
     7
370
    25
100
AcDbLine
 10
6469.0187553361
 20
5310.8409723332
 30
0.0
 11
6471.5187553361
 21
5310.8409723332
 31
0.0
  0
ARC
  5
C9
330
1F
100
AcDbEntity
  8
0
  6
Continuous
 62
     7
370
    25
100
AcDbCircle
 10
6469.0187553361
 20
5310.8409723332
 30
0.0
 40
2.500000000000909
100
AcDbArc
 50
270.0
 51
0.0
  0
LINE
  5
CA
330
1F
100
AcDbEntity
  8
0
  6
Continuous
 62
     7
370
    25
100
AcDbLine
 10
6469.0187553361
 20
5310.8409723332
 30
0.0
 11
6469.0187553361
 21
5385.8409723332
 31
0.0
  0
LINE
  5
CB
330
1F
100
AcDbEntity
  8
0
  6
Continuous
 62
     7
370
    25
100
AcDbLine
 10
6079.0187553361
 20
5385.8409723332
 30
0.0
 11
6079.0187553361
 21
5310.8409723332
 31
0.0
  0
LINE
  5
CC
330
1F
100
AcDbEntity
  8
0
  6
Continuous
 62
     7
370
    25
100
AcDbLine
 10
6469.0187553361
 20
5385.8409723332
 30
0.0
 11
6079.0187553361
 21
5385.8409723332
 31
0.0
  0
LINE
  5
CD
330
1F
100
AcDbEntity
  8
0
  6
Continuous
 62
     7
370
    25
100
AcDbLine
 10
6079.0187553361
 20
5388.3409723332
 30
0.0
 11
6469.0187553361
 21
5388.3409723332
 31
0.0
  0
LINE
  5
CE
330
1F
100
AcDbEntity
  8
0
  6
Continuous
 62
     7
370
    25
100
AcDbLine
 10
6469.0187553361
 20
5385.8409723332
 30
0.0
 11
6469.0187553361
 21
5388.3409723332
 31
0.0
  0
LINE
  5
CF
330
1F
100
AcDbEntity
  8
0
  6
Continuous
 62
     7
370
    25
100
AcDbLine
 10
6469.0187553361
 20
5385.8409723332
 30
0.0
 11
6471.5187553361
 21
5385.8409723332
 31
0.0
  0
LINE
  5
D0
330
1F
100
AcDbEntity
  8
0
  6
Continuous
 62
     7
370
    25
100
AcDbLine
 10
6471.5187553361
 20
5385.8409723332
 30
0.0
 11
6471.5187553361
 21
5310.8409723332
 31
0.0
  0
LINE
  5
D1
330
1F
100
AcDbEntity
  8
0
  6
Continuous
 62
     7
370
    25
100
AcDbLine
 10
6076.5187553361
 20
5310.8409723332
 30
0.0
 11
6079.0187553361
 21
5310.8409723332
 31
0.0
  0
ARC
  5
D2
330
1F
100
AcDbEntity
  8
0
  6
Continuous
 62
     7
370
    25
100
AcDbCircle
 10
6079.0187553361
 20
5310.8409723332
 30
0.0
 40
2.500000000000909
100
AcDbArc
 50
180.0
 51
270.0
  0
LINE
  5
D3
330
1F
100
AcDbEntity
  8
0
  6
Continuous
 62
     7
370
    25
100
AcDbLine
 10
6076.5187553361
 20
5310.8409723332
 30
0.0
 11
6076.5187553361
 21
5385.8409723332
 31
0.0
  0
ARC
  5
D4
330
1F
100
AcDbEntity
  8
0
  6
Continuous
 62
     7
370
    25
100
AcDbCircle
 10
6469.0187553361
 20
5385.8409723332
 30
0.0
 40
2.5
100
AcDbArc
 50
0.0
 51
90.0
  0
LINE
  5
D5
330
1F
100
AcDbEntity
  8
0
  6
Continuous
 62
     8
370
    25
100
AcDbLine
 10
6286.6544455785
 20
5259.5389738244
 30
0.0
 11
6302.0187553361
 21
5259.5389738244
 31
0.0
  0
LINE
  5
D6
330
1F
100
AcDbEntity
  8
0
  6
Continuous
 62
     8
370
    25
100
AcDbLine
 10
6246.0187553361
 20
5259.5389738244
 30
0.0
 11
6286.6544455785
 21
5259.5389738244
 31
0.0
  0
LINE
  5
D7
330
1F
100
AcDbEntity
  8
0
  6
Continuous
 62
     8
370
    25
100
AcDbLine
 10
6246.912541056
 20
5042.5899066107
 30
0.0
 11
6301.1249696162
 21
5042.5899066107
 31
0.0
  0
LINE
  5
D8
330
1F
100
AcDbEntity
  8
0
  6
Continuous
 62
     8
370
    25
100
AcDbLine
 10
6301.3281970913
 20
5167.2432245708
 30
0.0
 11
6246.7093135809
 21
5167.2432245708
 31
0.0
  0
LINE
  5
D9
330
1F
100
AcDbEntity
  8
0
  6
Continuous
 62
     8
370
    25
100
AcDbLine
 10
6251.0187553361
 20
5183.3955824721
 30
0.0
 11
6297.0187553361
 21
5183.3955824721
 31
0.0
  0
LINE
  5
DA
330
1F
100
AcDbEntity
  8
0
  6
Continuous
 62
     7
370
    25
100
AcDbLine
 10
6754.9997691276
 20
5270.5389738244
 30
0.0
 11
6756.9997691276
 21
5266.5389738244
 31
0.0
  0
LINE
  5
DB
330
1F
100
AcDbEntity
  8
0
  6
Continuous
 62
     7
370
    25
100
AcDbLine
 10
6812.9997691276
 20
5266.5389738244
 30
0.0
 11
6814.9997691276
 21
5270.5389738244
 31
0.0
  0
LINE
  5
DC
330
1F
100
AcDbEntity
  8
0
  6
Continuous
 62
     7
370
    25
100
AcDbLine
 10
6756.9997691276
 20
5266.5389738244
 30
0.0
 11
6756.9997691276
 21
5259.5389738244
 31
0.0
  0
LINE
  5
DD
330
1F
100
AcDbEntity
  8
0
  6
Continuous
 62
     7
370
    25
100
AcDbLine
 10
6812.9997691276
 20
5259.5389738244
 30
0.0
 11
6812.9997691276
 21
5266.5389738244
 31
0.0
  0
ARC
  5
DE
330
1F
100
AcDbEntity
  8
0
  6
Continuous
 62
     7
370
    25
100
AcDbCircle
 10
6759.9997691276
 20
5259.5389738244
 30
0.0
 40
3.000000000000909
100
AcDbArc
 50
180.0
 51
270.0
  0
ARC
  5
DF
330
1F
100
AcDbEntity
  8
0
  6
Continuous
 62
     7
370
    25
100
AcDbCircle
 10
6809.9997691276
 20
5259.5389738244
 30
0.0
 40
3.0
100
AcDbArc
 50
270.0
 51
0.0
  0
LINE
  5
E0
330
1F
100
AcDbEntity
  8
0
  6
Continuous
 62
     7
370
    25
100
AcDbLine
 10
6768.9997691276
 20
5256.5389738244
 30
0.0
 11
6768.9997691276
 21
5186.3955824721
 31
0.0
  0
LINE
  5
E1
330
1F
100
AcDbEntity
  8
0
  6
Continuous
 62
     7
370
    25
100
AcDbLine
 10
6768.9997691276
 20
5172.3955824721
 30
0.0
 11
6768.9997691276
 21
5169.8955824721
 31
0.0
  0
LINE
  5
E2
330
1F
100
AcDbEntity
  8
0
  6
Continuous
 62
     7
370
    25
100
AcDbLine
 10
6800.9997691276
 20
5169.8955824721
 30
0.0
 11
6800.9997691276
 21
5172.3955824721
 31
0.0
  0
LINE
  5
E3
330
1F
100
AcDbEntity
  8
0
  6
Continuous
 62
     7
370
    25
100
AcDbLine
 10
6800.9997691276
 20
5186.3955824721
 30
0.0
 11
6800.9997691276
 21
5256.5389738244
 31
0.0
  0
LINE
  5
E4
330
1F
100
AcDbEntity
  8
0
  6
Continuous
 62
     7
370
    25
100
AcDbLine
 10
6677.4997691276
 20
5187.8955824721
 30
0.0
 11
6662.4997691276
 21
5187.8955824721
 31
0.0
  0
LINE
  5
E5
330
1F
100
AcDbEntity
  8
0
  6
Continuous
 62
     7
370
    25
100
AcDbLine
 10
6662.4997691276
 20
5107.8955824721
 30
0.0
 11
6677.4997691276
 21
5107.8955824721
 31
0.0
  0
ARC
  5
E6
330
1F
100
AcDbEntity
  8
0
  6
Continuous
 62
     7
370
    25
100
AcDbCircle
 10
6677.4997691276
 20
5167.8955824721
 30
0.0
 40
20.00000000000091
100
AcDbArc
 50
0.0
 51
90.0
  0
ARC
  5
E7
330
1F
100
AcDbEntity
  8
0
  6
Continuous
 62
     7
370
    25
100
AcDbCircle
 10
6677.4997691276
 20
5127.8955824721
 30
0.0
 40
20.00000000000091
100
AcDbArc
 50
270.0
 51
0.0
  0
LINE
  5
E8
330
1F
100
AcDbEntity
  8
0
  6
Continuous
 62
     7
370
    25
100
AcDbLine
 10
6662.4997691276
 20
5167.8955824721
 30
0.0
 11
6652.4997691276
 21
5167.8955824721
 31
0.0
  0
LINE
  5
E9
330
1F
100
AcDbEntity
  8
0
  6
Continuous
 62
     7
370
    25
100
AcDbLine
 10
6652.4997691276
 20
5127.8955824721
 30
0.0
 11
6662.4997691276
 21
5127.8955824721
 31
0.0
  0
LINE
  5
EA
330
1F
100
AcDbEntity
  8
0
  6
Continuous
 62
     7
370
    25
100
AcDbLine
 10
6724.9997691276
 20
5167.8955824721
 30
0.0
 11
6697.4997691276
 21
5167.8955824721
 31
0.0
  0
LINE
  5
EB
330
1F
100
AcDbEntity
  8
0
  6
Continuous
 62
     7
370
    25
100
AcDbLine
 10
6697.4997691276
 20
5127.8955824721
 30
0.0
 11
6724.9997691276
 21
5127.8955824721
 31
0.0
  0
LINE
  5
EC
330
1F
100
AcDbEntity
  8
0
  6
Continuous
 62
     7
370
    25
100
AcDbLine
 10
6750.9997691276
 20
5109.8955824721
 30
0.0
 11
6757.8935548474
 21
5042.5899066107
 31
0.0
  0
LINE
  5
ED
330
1F
100
AcDbEntity
  8
0
  6
Continuous
 62
     7
370
    25
100
AcDbLine
 10
6812.1059834077
 20
5042.5899066107
 30
0.0
 11
6818.9997691276
 21
5109.8955824721
 31
0.0
  0
LINE
  5
EE
330
1F
100
AcDbEntity
  8
0
  6
Continuous
 62
     7
370
    25
100
AcDbLine
 10
6818.9997691276
 20
5109.8955824721
 30
0.0
 11
6812.3092108827
 21
5167.2432245708
 31
0.0
  0
LINE
  5
EF
330
1F
100
AcDbEntity
  8
0
  6
Continuous
 62
     7
370
    25
100
AcDbLine
 10
6752.8727264877
 20
5125.9495027017
 30
0.0
 11
6750.9997691276
 21
5109.8955824721
 31
0.0
  0
LINE
  5
F0
330
1F
100
AcDbEntity
  8
0
  6
Continuous
 62
     7
370
    25
100
AcDbLine
 10
6740.9997691276
 20
5175.3955824721
 30
0.0
 11
6736.9997691276
 21
5173.8955824721
 31
0.0
  0
LINE
  5
F1
330
1F
100
AcDbEntity
  8
0
  6
Continuous
 62
     7
370
    25
100
AcDbLine
 10
6736.9997691276
 20
5121.8955824721
 30
0.0
 11
6740.9997691276
 21
5120.3955824721
 31
0.0
  0
ARC
  5
F2
330
1F
100
AcDbEntity
  8
0
  6
Continuous
 62
     7
370
    25
100
AcDbCircle
 10
6809.3294214655
 20
5166.8955824721
 30
0.0
 40
3.0
100
AcDbArc
 50
6.654425046
 51
90.0
  0
ARC
  5
F3
330
1F
100
AcDbEntity
  8
0
  6
Continuous
 62
     7
370
    25
100
AcDbCircle
 10
6760.8779412614
 20
5042.8955824721
 30
0.0
 40
3.0
100
AcDbArc
 50
185.8481280262
 51
270.0
  0
ARC
  5
F4
330
1F
100
AcDbEntity
  8
0
  6
Continuous
 62
     7
370
    25
100
AcDbCircle
 10
6809.1215969938
 20
5042.8955824721
 30
0.0
 40
3.0
100
AcDbArc
 50
270.0
 51
354.1518719738
  0
ARC
  5
F5
330
1F
100
AcDbEntity
  8
0
  6
Continuous
 62
     7
370
    25
100
AcDbCircle
 10
6727.9997691276
 20
5170.8955824721
 30
0.0
 40
3.000000000000909
100
AcDbArc
 50
90.0
 51
180.0
  0
ARC
  5
F6
330
1F
100
AcDbEntity
  8
0
  6
Continuous
 62
     7
370
    25
100
AcDbCircle
 10
6727.9997691276
 20
5124.8955824721
 30
0.0
 40
3.000000000000909
100
AcDbArc
 50
180.0
 51
270.0
  0
LINE
  5
F7
330
1F
100
AcDbEntity
  8
0
  6
Continuous
 62
     7
370
    25
100
AcDbLine
 10
6736.9997691276
 20
5173.8955824721
 30
0.0
 11
6727.9997691276
 21
5173.8955824721
 31
0.0
  0
LINE
  5
F8
330
1F
100
AcDbEntity
  8
0
  6
Continuous
 62
     7
370
    25
100
AcDbLine
 10
6727.9997691276
 20
5121.8955824721
 30
0.0
 11
6736.9997691276
 21
5121.8955824721
 31
0.0
  0
LINE
  5
F9
330
1F
100
AcDbEntity
  8
0
  6
Continuous
 62
     7
370
    25
100
AcDbLine
 10
6809.9997691276
 20
5172.3955824721
 30
0.0
 11
6807.9997691276
 21
5176.3955824721
 31
0.0
  0
LINE
  5
FA
330
1F
100
AcDbEntity
  8
0
  6
Continuous
 62
     7
370
    25
100
AcDbLine
 10
6761.9997691276
 20
5176.3955824721
 30
0.0
 11
6759.9997691276
 21
5172.3955824721
 31
0.0
  0
LINE
  5
FB
330
1F
100
AcDbEntity
  8
0
  6
Continuous
 62
     7
370
    25
100
AcDbLine
 10
6761.9997691276
 20
5183.3955824721
 30
0.0
 11
6761.9997691276
 21
5176.3955824721
 31
0.0
  0
LINE
  5
FC
330
1F
100
AcDbEntity
  8
0
  6
Continuous
 62
     7
370
    25
100
AcDbLine
 10
6807.9997691276
 20
5176.3955824721
 30
0.0
 11
6807.9997691276
 21
5183.3955824721
 31
0.0
  0
ARC
  5
FD
330
1F
100
AcDbEntity
  8
0
  6
Continuous
 62
     7
370
    25
100
AcDbCircle
 10
6764.9997691276
 20
5183.3955824721
 30
0.0
 40
3.0
100
AcDbArc
 50
90.0
 51
180.0
  0
ARC
  5
FE
330
1F
100
AcDbEntity
  8
0
  6
Continuous
 62
     7
370
    25
100
AcDbCircle
 10
6804.9997691276
 20
5183.3955824721
 30
0.0
 40
3.000000000000909
100
AcDbArc
 50
0.0
 51
90.0
  0
LINE
  5
FF
330
1F
100
AcDbEntity
  8
0
  6
Continuous
 62
     7
370
    25
100
AcDbLine
 10
6740.9997691276
 20
5125.8955824721
 30
0.0
 11
6752.9064514921
 21
5125.8955824721
 31
0.0
  0
LINE
  5
100
330
1F
100
AcDbEntity
  8
0
  6
Continuous
 62
     7
370
    25
100
AcDbLine
 10
6757.9997691276
 20
5169.8955824721
 30
0.0
 11
6740.9997691276
 21
5169.8955824721
 31
0.0
  0
LINE
  5
101
330
1F
100
AcDbEntity
  8
0
  6
Continuous
 62
     7
370
    25
100
AcDbLine
 10
6752.9997691276
 20
5308.3409723332
 30
0.0
 11
6752.9997691276
 21
5305.2385081191
 31
0.0
  0
LINE
  5
102
330
1F
100
AcDbEntity
  8
0
  6
Continuous
 62
     7
370
    25
100
AcDbLine
 10
6816.9997691276
 20
5305.2385081191
 30
0.0
 11
6816.9997691276
 21
5308.3409723332
 31
0.0
  0
LINE
  5
103
330
1F
100
AcDbEntity
  8
0
  6
Continuous
 62
     7
370
    25
100
AcDbLine
 10
6805.7468384507
 20
5270.5389738244
 30
0.0
 11
6805.9965436126
 21
5270.6827995076
 31
0.0
  0
LWPOLYLINE
  5
104
330
1F
100
AcDbEntity
  8
0
  6
Continuous
 62
     7
370
    25
100
AcDbPolyline
 90
        3
 70
   128
 43
0.0
 10
6805.3150078861
 20
5271.5401044515
 10
6805.6547457751
 20
5271.7359588267
 10
6805.9965436126
 20
5271.9327995076
  0
LWPOLYLINE
  5
105
330
1F
100
AcDbEntity
  8
0
  6
Continuous
 62
     7
370
    25
100
AcDbPolyline
 90
        3
 70
   128
 43
0.0
 10
6764.0029954936
 20
5271.3077990653
 10
6764.3446569854
 20
5271.1110080724
 10
6764.6763679129
 20
5270.9198088118
  0
LWPOLYLINE
  5
106
330
1F
100
AcDbEntity
  8
0
  6
Continuous
 62
     7
370
    25
100
AcDbPolyline
 90
        3
 70
   128
 43
0.0
 10
6805.9974604479
 20
5270.8452747843
 10
6805.6581023536
 20
5271.0412161133
 10
6805.3231697505
 20
5271.2341188644
  0
LINE
  5
107
330
1F
100
AcDbEntity
  8
0
  6
Continuous
 62
     7
370
    25
100
AcDbLine
 10
6763.9997691276
 20
5272.2385081191
 30
0.0
 11
6763.9997691276
 21
5271.3114707398
 31
0.0
  0
LINE
  5
108
330
1F
100
AcDbEntity
  8
0
  6
Continuous
 62
     7
370
    25
100
AcDbLine
 10
6805.9997691276
 20
5271.9361694462
 30
0.0
 11
6805.9997691276
 21
5272.2385081191
 31
0.0
  0
LINE
  5
109
330
1F
100
AcDbEntity
  8
0
  6
Continuous
 62
     7
370
    25
100
AcDbLine
 10
6805.9997691276
 20
5270.6861694462
 30
0.0
 11
6805.9997691276
 21
5270.8424473868
 31
0.0
  0
LWPOLYLINE
  5
10A
330
1F
100
AcDbEntity
  8
0
  6
Continuous
 62
     7
370
    25
100
AcDbPolyline
 90
        3
 70
   128
 43
0.0
 10
6805.323170723
 20
5271.2327959627
 10
6805.3230561844
 20
5271.3885982385
 10
6805.323170723
 20
5271.5452959627
  0
LWPOLYLINE
  5
10B
330
1F
100
AcDbEntity
  8
0
  6
Continuous
 62
     7
370
    25
100
AcDbPolyline
 90
        3
 70
   128
 43
0.0
 10
6764.6763675568
 20
5270.9202957769
 10
6764.6764821411
 20
5270.763598053
 10
6764.6763675568
 20
5270.6077957769
  0
LINE
  5
10C
330
1F
100
AcDbEntity
  8
0
  6
Continuous
 62
     7
370
    25
100
AcDbLine
 10
6756.9997691276
 20
5266.5389738244
 30
0.0
 11
6812.9997691276
 21
5266.5389738244
 31
0.0
  0
LINE
  5
10D
330
1F
100
AcDbEntity
  8
0
  6
Continuous
 62
     7
370
    25
100
AcDbLine
 10
6754.9997691276
 20
5270.5389738244
 30
0.0
 11
6814.9997691276
 21
5270.5389738244
 31
0.0
  0
LINE
  5
10E
330
1F
100
AcDbEntity
  8
0
  6
Continuous
 62
     7
370
    25
100
AcDbLine
 10
6759.9997691276
 20
5256.5389738244
 30
0.0
 11
6809.9997691276
 21
5256.5389738244
 31
0.0
  0
LINE
  5
10F
330
1F
100
AcDbEntity
  8
0
  6
Continuous
 62
     7
370
    25
100
AcDbLine
 10
6662.4997691276
 20
5187.8955824721
 30
0.0
 11
6662.4997691276
 21
5107.8955824721
 31
0.0
  0
LINE
  5
110
330
1F
100
AcDbEntity
  8
0
  6
Continuous
 62
     7
370
    25
100
AcDbLine
 10
6697.4997691276
 20
5167.8955824721
 30
0.0
 11
6697.4997691276
 21
5127.8955824721
 31
0.0
  0
LINE
  5
111
330
1F
100
AcDbEntity
  8
0
  6
Continuous
 62
     7
370
    25
100
AcDbLine
 10
6652.4997691276
 20
5167.8955824721
 30
0.0
 11
6652.4997691276
 21
5127.8955824721
 31
0.0
  0
LINE
  5
112
330
1F
100
AcDbEntity
  8
0
  6
Continuous
 62
     7
370
    25
100
AcDbLine
 10
6750.9997691276
 20
5109.8955824721
 30
0.0
 11
6818.9997691276
 21
5109.8955824721
 31
0.0
  0
LWPOLYLINE
  5
113
330
1F
100
AcDbEntity
  8
0
  6
Continuous
 62
     7
370
    25
100
AcDbPolyline
 90
       32
 70
   128
 43
0.0
 10
6759.7780153472
 20
5167.2432245708
 10
6760.783413375
 20
5165.6231657737
 10
6761.4096294711
 20
5164.5521944585
 10
6762.0577619272
 20
5163.3776523685
 10
6762.7192482779
 20
5162.0870587536
 10
6763.3683539745
 20
5160.6938015312
 10
6763.8949216503
 20
5159.4268342611
 10
6764.8134163363
 20
5156.6512752234
 10
6765.1651415398
 20
5155.1409228643
 10
6765.3631310672
 20
5153.9543928809
 10
6765.5453103709
 20
5151.4621441597
 10
6765.512797924
 20
5150.169197146
 10
6765.3988005951
 20
5148.9171363857
 10
6764.9296060668
 20
5146.3961147918
 10
6764.5829849704
 20
5145.1439858002
 10
6764.029352912
 20
5143.5214203277
 10
6763.3848603552
 20
5141.9411666681
 10
6762.6592187839
 20
5140.3885666855
 10
6761.8799809305
 20
5138.8898436973
 10
6760.8379660051
 20
5137.0654211962
 10
6759.7643637797
 20
5135.3328924355
 10
6758.6695031435
 20
5133.6746798467
 10
6757.593515008
 20
5132.1245116359
 10
6756.7675315957
 20
5130.9765732299
 10
6755.9826570925
 20
5129.9136820131
 10
6755.2431073218
 20
5128.933516467
 10
6754.5742930544
 20
5128.0627021556
 10
6754.1099134917
 20
5127.4658902214
 10
6753.3711472953
 20
5126.5283722071
 10
6753.1147269128
 20
5126.2061386284
 10
6752.950784486
 20
5126.0009257128
 10
6752.9064657528
 20
5125.9455664541
  0
LINE
  5
114
330
1F
100
AcDbEntity
  8
0
  6
Continuous
 62
     7
370
    25
100
AcDbLine
 10
6740.9997691276
 20
5175.3955824721
 30
0.0
 11
6740.9997691276
 21
5120.3955824721
 31
0.0
  0
LINE
  5
115
330
1F
100
AcDbEntity
  8
0
  6
Continuous
 62
     7
370
    25
100
AcDbLine
 10
6736.9997691276
 20
5173.8955824721
 30
0.0
 11
6736.9997691276
 21
5121.8955824721
 31
0.0
  0
ARC
  5
116
330
1F
100
AcDbEntity
  8
0
  6
Continuous
 62
     7
370
    25
100
AcDbCircle
 10
6762.6310240113
 20
5167.0369076289
 30
0.0
 40
2.860458899832163
100
AcDbArc
 50
92.0237024967
 51
175.8638232391
  0
LINE
  5
117
330
1F
100
AcDbEntity
  8
0
  6
Continuous
 62
     7
370
    25
100
AcDbLine
 10
6762.5300128312
 20
5169.8955824721
 30
0.0
 11
6809.3294214655
 21
5169.8955824721
 31
0.0
  0
LINE
  5
118
330
1F
100
AcDbEntity
  8
0
  6
Continuous
 62
     7
370
    25
100
AcDbLine
 10
6760.8779412614
 20
5039.8955824721
 30
0.0
 11
6809.1215969795
 21
5039.8955824721
 31
0.0
  0
LINE
  5
119
330
1F
100
AcDbEntity
  8
0
  6
Continuous
 62
     7
370
    25
100
AcDbLine
 10
6724.9997691276
 20
5170.8955824721
 30
0.0
 11
6724.9997691276
 21
5124.8955824721
 31
0.0
  0
LINE
  5
11A
330
1F
100
AcDbEntity
  8
0
  6
Continuous
 62
     7
370
    25
100
AcDbLine
 10
6761.9997691276
 20
5176.3955824721
 30
0.0
 11
6807.9997691276
 21
5176.3955824721
 31
0.0
  0
LINE
  5
11B
330
1F
100
AcDbEntity
  8
0
  6
Continuous
 62
     7
370
    25
100
AcDbLine
 10
6759.9997691276
 20
5172.3955824721
 30
0.0
 11
6809.9997691276
 21
5172.3955824721
 31
0.0
  0
LINE
  5
11C
330
1F
100
AcDbEntity
  8
0
  6
Continuous
 62
     7
370
    25
100
AcDbLine
 10
6764.9997691276
 20
5186.3955824721
 30
0.0
 11
6804.9997689537
 21
5186.3955824721
 31
0.0
  0
ARC
  5
11D
330
1F
100
AcDbEntity
  8
0
  6
Continuous
 62
     7
370
    25
100
AcDbCircle
 10
6690.210419181
 20
5122.5246238848
 30
0.0
 40
82.70068732278278
100
AcDbArc
 50
32.733230019
 51
34.9457141135
  0
LINE
  5
11E
330
1F
100
AcDbEntity
  8
0
  6
Continuous
 62
     7
370
    25
100
AcDbLine
 10
6757.9997691276
 20
5169.8955824721
 30
0.0
 11
6762.5300128312
 21
5169.8955824721
 31
0.0
  0
LINE
  5
11F
330
1F
100
AcDbEntity
  8
0
  6
Continuous
 62
     7
370
    25
100
AcDbLine
 10
6761.1994950377
 20
5305.2385081191
 30
0.0
 11
6752.9997691276
 21
5305.2385081191
 31
0.0
  0
LINE
  5
120
330
1F
100
AcDbEntity
  8
0
  6
Continuous
 62
     7
370
    25
100
AcDbLine
 10
6816.9997691276
 20
5305.2385081191
 30
0.0
 11
6761.1994950377
 21
5305.2385081191
 31
0.0
  0
LINE
  5
121
330
1F
100
AcDbEntity
  8
0
  6
Continuous
 62
     7
370
    25
100
AcDbLine
 10
6790.4976693945
 20
5272.2385081191
 30
0.0
 11
6790.4976693945
 21
5305.2385081191
 31
0.0
  0
LINE
  5
122
330
1F
100
AcDbEntity
  8
0
  6
Continuous
 62
     7
370
    25
100
AcDbLine
 10
6765.2469455645
 20
5272.2385081191
 30
0.0
 11
6765.2469455645
 21
5305.2385081191
 31
0.0
  0
LINE
  5
123
330
1F
100
AcDbEntity
  8
0
  6
Continuous
 62
     7
370
    25
100
AcDbLine
 10
6790.4976693945
 20
5272.2385081191
 30
0.0
 11
6765.2469455645
 21
5272.2385081191
 31
0.0
  0
ARC
  5
124
330
1F
100
AcDbEntity
  8
0
  6
Continuous
 62
     7
370
    25
100
AcDbCircle
 10
6800.4264219796
 20
5374.939332461
 30
0.0
 40
104.4003591096665
100
AcDbArc
 50
270.0054544734
 51
273.042886952
  0
LWPOLYLINE
  5
125
330
1F
100
AcDbEntity
  8
0
  6
Continuous
 62
     7
370
    25
100
AcDbPolyline
 90
       16
 70
   128
 43
0.0
 10
6764.1368319452
 20
5271.3114707398
 10
6764.1480502431
 20
5271.3344787574
 10
6765.2944151851
 20
5271.3818989467
 10
6767.5111460404
 20
5271.4290952873
 10
6770.5986974842
 20
5271.4731678509
 10
6774.5078736615
 20
5271.5196431228
 10
6779.0238476691
 20
5271.5673881559
 10
6783.7782400551
 20
5271.6125785797
 10
6788.1142461966
 20
5271.6529644325
 10
6792.3990154389
 20
5271.6958493733
 10
6796.3514576378
 20
5271.7385081191
 10
6797.8722346599
 20
5271.7559292174
 10
6801.297201652
 20
5271.800067721
 10
6803.9225245585
 20
5271.8473609363
 10
6805.5180185756
 20
5271.8946964176
 10
6805.968351574
 20
5271.9361694462
  0
LWPOLYLINE
  5
126
330
1F
100
AcDbEntity
  8
0
  6
Continuous
 62
     7
370
    25
100
AcDbPolyline
 90
       15
 70
   128
 43
0.0
 10
6764.8088028784
 20
5270.9204314524
 10
6764.8198552488
 20
5270.9438537602
 10
6765.9292863953
 20
5270.9912739496
 10
6768.0745981826
 20
5271.0384702901
 10
6771.0626742777
 20
5271.0825428538
 10
6774.8459038302
 20
5271.1290181258
 10
6779.2163812672
 20
5271.1767631589
 10
6783.8175956599
 20
5271.2219535826
 10
6788.4749118789
 20
5271.2669554667
 10
6793.0333485344
 20
5271.31466753
 10
6797.1222093694
 20
5271.3612767602
 10
6800.5008258195
 20
5271.4053053662
 10
6803.1217343892
 20
5271.4524041262
 10
6804.7618637723
 20
5271.4998956528
 10
6805.2715076436
 20
5271.5402170566
  0
LWPOLYLINE
  5
127
330
1F
100
AcDbEntity
  8
0
  6
Continuous
 62
     7
370
    25
100
AcDbPolyline
 90
       16
 70
   128
 43
0.0
 10
6764.8088824683
 20
5270.6081001225
 10
6764.8198552893
 20
5270.6313537636
 10
6765.9292865182
 20
5270.6787739532
 10
6768.0745983814
 20
5270.7259702936
 10
6771.0626745432
 20
5270.7700428573
 10
6774.8459041612
 20
5270.8165181296
 10
6779.2163816405
 20
5270.8642631628
 10
6783.8175960453
 20
5270.9094535861
 10
6788.4749122801
 20
5270.9544554707
 10
6793.033348919
 20
5271.0021675342
 10
6797.1222097055
 20
5271.0487767642
 10
6800.5008260977
 20
5271.0928053704
 10
6803.1217345913
 20
5271.1399041307
 10
6804.7618638775
 20
5271.1873956572
 10
6805.3227455
 20
5271.231770837
 10
6805.31102291
 20
5271.2328227506
  0
LINE
  5
128
330
1F
100
AcDbEntity
  8
0
  6
Continuous
 62
     7
370
    25
100
AcDbLine
 10
6805.984325702
 20
5270.8424473868
 30
0.0
 11
6805.9494012381
 21
5270.8454803268
 31
0.0
  0
LINE
  5
129
330
1F
100
AcDbEntity
  8
0
  6
Continuous
 62
     7
370
    25
100
AcDbLine
 10
6810.2504929576
 20
5272.2385081191
 30
0.0
 11
6810.2504929576
 21
5305.2385081191
 31
0.0
  0
LINE
  5
12A
330
1F
100
AcDbEntity
  8
0
  6
Continuous
 62
     7
370
    25
100
AcDbLine
 10
6810.2504929576
 20
5272.2385081191
 30
0.0
 11
6790.4976693945
 21
5272.2385081191
 31
0.0
  0
LINE
  5
12B
330
1F
100
AcDbEntity
  8
0
  6
Continuous
 62
     7
370
    25
100
AcDbLine
 10
6759.7490452976
 20
5272.2385081191
 30
0.0
 11
6759.7490452976
 21
5305.2385081191
 31
0.0
  0
LINE
  5
12C
330
1F
100
AcDbEntity
  8
0
  6
Continuous
 62
     7
370
    25
100
AcDbLine
 10
6765.2469455645
 20
5272.2385081191
 30
0.0
 11
6759.7490452976
 21
5272.2385081191
 31
0.0
  0
LINE
  5
12D
330
1F
100
AcDbEntity
  8
0
  6
Continuous
 62
     7
370
    25
100
AcDbLine
 10
6664.9997691276
 20
5388.3409723332
 30
0.0
 11
7009.9997691276
 21
5388.3409723332
 31
0.0
  0
LINE
  5
12E
330
1F
100
AcDbEntity
  8
0
  6
Continuous
 62
     7
370
    25
100
AcDbLine
 10
7009.9997691276
 20
5385.8409723332
 30
0.0
 11
7009.9997691276
 21
5388.3409723332
 31
0.0
  0
LINE
  5
12F
330
1F
100
AcDbEntity
  8
0
  6
Continuous
 62
     7
370
    25
100
AcDbLine
 10
7009.9997691276
 20
5385.8409723332
 30
0.0
 11
6664.9997691276
 21
5385.8409723332
 31
0.0
  0
LINE
  5
130
330
1F
100
AcDbEntity
  8
0
  6
Continuous
 62
     7
370
    25
100
AcDbLine
 10
6664.9997691276
 20
5388.3409723332
 30
0.0
 11
6664.9997691276
 21
5385.8409723332
 31
0.0
  0
LINE
  5
131
330
1F
100
AcDbEntity
  8
0
  6
Continuous
 62
     7
370
    25
100
AcDbLine
 10
6662.4997691276
 20
5385.8409723332
 30
0.0
 11
6664.9997691276
 21
5385.8409723332
 31
0.0
  0
ARC
  5
132
330
1F
100
AcDbEntity
  8
0
  6
Continuous
 62
     7
370
    25
100
AcDbCircle
 10
6664.9997691276
 20
5385.8409723332
 30
0.0
 40
2.5
100
AcDbArc
 50
90.0
 51
180.0
  0
LINE
  5
133
330
1F
100
AcDbEntity
  8
0
  6
Continuous
 62
     7
370
    25
100
AcDbLine
 10
6664.9997691276
 20
5310.8409723332
 30
0.0
 11
7009.9997691276
 21
5310.8409723332
 31
0.0
  0
LINE
  5
134
330
1F
100
AcDbEntity
  8
0
  6
Continuous
 62
     7
370
    25
100
AcDbLine
 10
7009.9997691276
 20
5310.8409723332
 30
0.0
 11
7009.9997691276
 21
5308.3409723332
 31
0.0
  0
LINE
  5
135
330
1F
100
AcDbEntity
  8
0
  6
Continuous
 62
     7
370
    25
100
AcDbLine
 10
7009.9997691276
 20
5308.3409723332
 30
0.0
 11
6664.9997691276
 21
5308.3409723332
 31
0.0
  0
LINE
  5
136
330
1F
100
AcDbEntity
  8
0
  6
Continuous
 62
     7
370
    25
100
AcDbLine
 10
6664.9997691276
 20
5308.3409723332
 30
0.0
 11
6664.9997691276
 21
5310.8409723332
 31
0.0
  0
LINE
  5
137
330
1F
100
AcDbEntity
  8
0
  6
Continuous
 62
     7
370
    25
100
AcDbLine
 10
6662.4997691276
 20
5310.8409723332
 30
0.0
 11
6664.9997691276
 21
5310.8409723332
 31
0.0
  0
ARC
  5
138
330
1F
100
AcDbEntity
  8
0
  6
Continuous
 62
     7
370
    25
100
AcDbCircle
 10
6664.9997691276
 20
5310.8409723332
 30
0.0
 40
2.500000000000909
100
AcDbArc
 50
180.0
 51
270.0
  0
LINE
  5
139
330
1F
100
AcDbEntity
  8
0
  6
Continuous
 62
     7
370
    25
100
AcDbLine
 10
6662.4997691276
 20
5310.8409723332
 30
0.0
 11
6662.4997691276
 21
5385.8409723332
 31
0.0
  0
LINE
  5
13A
330
1F
100
AcDbEntity
  8
0
  6
Continuous
 62
     7
370
    25
100
AcDbLine
 10
6664.9997691276
 20
5385.8409723332
 30
0.0
 11
6664.9997691276
 21
5310.8409723332
 31
0.0
  0
LINE
  5
13B
330
1F
100
AcDbEntity
  8
0
  6
Continuous
 62
     7
370
    25
100
AcDbLine
 10
7009.9997691276
 20
5310.8409723332
 30
0.0
 11
7009.9997691276
 21
5385.8409723332
 31
0.0
  0
ARC
  5
13C
330
1F
100
AcDbEntity
  8
0
  6
Continuous
 62
     7
370
    25
100
AcDbCircle
 10
7009.9997691276
 20
5385.8409723332
 30
0.0
 40
2.5
100
AcDbArc
 50
0.0
 51
90.0
  0
LINE
  5
13D
330
1F
100
AcDbEntity
  8
0
  6
Continuous
 62
     7
370
    25
100
AcDbLine
 10
7009.9997691276
 20
5385.8409723332
 30
0.0
 11
7012.4997691276
 21
5385.8409723332
 31
0.0
  0
LINE
  5
13E
330
1F
100
AcDbEntity
  8
0
  6
Continuous
 62
     7
370
    25
100
AcDbLine
 10
7012.4997691276
 20
5385.8409723332
 30
0.0
 11
7012.4997691276
 21
5310.8409723332
 31
0.0
  0
LINE
  5
13F
330
1F
100
AcDbEntity
  8
0
  6
Continuous
 62
     7
370
    25
100
AcDbLine
 10
7009.9997691276
 20
5310.8409723332
 30
0.0
 11
7012.4997691276
 21
5310.8409723332
 31
0.0
  0
ARC
  5
140
330
1F
100
AcDbEntity
  8
0
  6
Continuous
 62
     7
370
    25
100
AcDbCircle
 10
7009.9997691276
 20
5310.8409723332
 30
0.0
 40
2.500000000000909
100
AcDbArc
 50
270.0
 51
0.0
  0
LINE
  5
141
330
1F
100
AcDbEntity
  8
0
  6
Continuous
 62
     8
370
    25
100
AcDbLine
 10
6756.9997691276
 20
5259.5389738244
 30
0.0
 11
6812.9997691276
 21
5259.5389738244
 31
0.0
  0
LINE
  5
142
330
1F
100
AcDbEntity
  8
0
  6
Continuous
 62
     8
370
    25
100
AcDbLine
 10
6677.4997691276
 20
5187.8955824721
 30
0.0
 11
6677.4997691276
 21
5107.8955824721
 31
0.0
  0
LINE
  5
143
330
1F
100
AcDbEntity
  8
0
  6
Continuous
 62
     8
370
    25
100
AcDbLine
 10
6757.8935548474
 20
5042.5899066107
 30
0.0
 11
6812.1059834077
 21
5042.5899066107
 31
0.0
  0
LINE
  5
144
330
1F
100
AcDbEntity
  8
0
  6
Continuous
 62
     8
370
    25
100
AcDbLine
 10
6812.3092108827
 20
5167.2432245708
 30
0.0
 11
6759.7780153472
 21
5167.2432245708
 31
0.0
  0
LINE
  5
145
330
1F
100
AcDbEntity
  8
0
  6
Continuous
 62
     8
370
    25
100
AcDbLine
 10
6727.9997691276
 20
5173.8955824721
 30
0.0
 11
6727.9997691276
 21
5121.8955824721
 31
0.0
  0
LINE
  5
146
330
1F
100
AcDbEntity
  8
0
  6
Continuous
 62
     8
370
    25
100
AcDbLine
 10
6761.9997691276
 20
5183.3955824721
 30
0.0
 11
6807.9997691276
 21
5183.3955824721
 31
0.0
  0
LINE
  5
147
330
1F
100
AcDbEntity
  8
0
  6
Continuous
 62
     7
370
    25
100
AcDbLine
 10
6294.0187553361
 20
4844.5765017723
 30
0.0
 11
6294.0187553361
 21
4854.5765017723
 31
0.0
  0
LINE
  5
148
330
1F
100
AcDbEntity
  8
0
  6
Continuous
 62
     7
370
    25
100
AcDbLine
 10
6254.0187553361
 20
4854.5765017723
 30
0.0
 11
6254.0187553361
 21
4844.5765017723
 31
0.0
  0
LINE
  5
149
330
1F
100
AcDbEntity
  8
0
  6
Continuous
 62
     7
370
    25
100
AcDbLine
 10
6280.7878751088
 20
4708.6907250857
 30
0.0
 11
6281.0187553361
 21
4708.8100026109
 31
0.0
  0
ARC
  5
14A
330
1F
100
AcDbEntity
  8
0
  6
Continuous
 62
     7
370
    25
100
AcDbCircle
 10
6274.0187553361
 20
4722.0765017723
 30
0.0
 40
14.9999999999999
100
AcDbArc
 50
311.5352715725
 51
48.4645523346
  0
ARC
  5
14B
330
1F
100
AcDbEntity
  8
0
  6
Continuous
 62
     7
370
    25
100
AcDbCircle
 10
6274.0187553361
 20
4722.0765017723
 30
0.0
 40
14.99999999999994
100
AcDbArc
 50
62.1818607153
 51
85.6686731266
  0
ARC
  5
14C
330
1F
100
AcDbEntity
  8
0
  6
Continuous
 62
     7
370
    25
100
AcDbCircle
 10
6274.0187553361
 20
4722.0765017723
 30
0.0
 40
14.99999999999962
100
AcDbArc
 50
94.3313261851
 51
117.8181392847
  0
ARC
  5
14D
330
1F
100
AcDbEntity
  8
0
  6
Continuous
 62
     7
370
    25
100
AcDbCircle
 10
6274.0187553361
 20
4722.0765017723
 30
0.0
 40
15.00000000000037
100
AcDbArc
 50
131.5354895717
 51
228.4643533607
  0
ARC
  5
14E
330
1F
100
AcDbEntity
  8
0
  6
Continuous
 62
     7
370
    25
100
AcDbCircle
 10
6274.0187553361
 20
4722.0765017723
 30
0.0
 40
15.00000000000032
100
AcDbArc
 50
242.1818607153
 51
265.6686740241
  0
ARC
  5
14F
330
1F
100
AcDbEntity
  8
0
  6
Continuous
 62
     7
370
    25
100
AcDbCircle
 10
6274.0187553361
 20
4722.0765017723
 30
0.0
 40
15.00000000000074
100
AcDbArc
 50
274.3313258806
 51
296.8254937192
  0
LINE
  5
150
330
1F
100
AcDbEntity
  8
0
  6
Continuous
 62
     7
370
    25
100
AcDbLine
 10
6294.0187553361
 20
4854.5765017723
 30
0.0
 11
6254.0187553361
 21
4854.5765017723
 31
0.0
  0
LINE
  5
151
330
1F
100
AcDbEntity
  8
0
  6
Continuous
 62
     7
370
    25
100
AcDbLine
 10
6281.0187553361
 20
4734.5765017723
 30
0.0
 11
6275.0187553361
 21
4734.5765017723
 31
0.0
  0
LINE
  5
152
330
1F
100
AcDbEntity
  8
0
  6
Continuous
 62
     7
370
    25
100
AcDbLine
 10
6273.0187553361
 20
4734.5765017723
 30
0.0
 11
6267.0187553361
 21
4734.5765017723
 31
0.0
  0
ARC
  5
153
330
1F
100
AcDbEntity
  8
0
  6
Continuous
 62
     7
370
    25
100
AcDbCircle
 10
6274.0187553361
 20
4722.0765017723
 30
0.0
 40
31.42261826173994
100
AcDbArc
 50
51.0447440947
 51
152.578429547
  0
ARC
  5
154
330
1F
100
AcDbEntity
  8
0
  6
Continuous
 62
     7
370
    25
100
AcDbCircle
 10
6274.0187553361
 20
4722.0765017723
 30
0.0
 40
31.42261826174105
100
AcDbArc
 50
204.08366059
 51
335.9164278461
  0
ARC
  5
155
330
1F
100
AcDbEntity
  8
0
  6
Continuous
 62
     7
370
    25
100
AcDbCircle
 10
6279.0187553361
 20
4735.7435504138
 30
0.0
 40
2.000000000000909
100
AcDbArc
 50
0.0
 51
69.9052855056
  0
ARC
  5
156
330
1F
100
AcDbEntity
  8
0
  6
Continuous
 62
     7
370
    25
100
AcDbCircle
 10
6274.0187553361
 20
4722.0765017723
 30
0.0
 40
16.55294535724687
100
AcDbArc
 50
69.9052855056
 51
78.1035336095
  0
ARC
  5
157
330
1F
100
AcDbEntity
  8
0
  6
Continuous
 62
     7
370
    25
100
AcDbCircle
 10
6277.0187553361
 20
4736.3168746105
 30
0.0
 40
2.0
100
AcDbArc
 50
78.1035336095
 51
180.0
  0
LINE
  5
158
330
1F
100
AcDbEntity
  8
0
  6
Continuous
 62
     7
370
    25
100
AcDbLine
 10
6275.0187553361
 20
4736.3168746105
 30
0.0
 11
6275.0187553361
 21
4707.8361289341
 31
0.0
  0
ARC
  5
159
330
1F
100
AcDbEntity
  8
0
  6
Continuous
 62
     7
370
    25
100
AcDbCircle
 10
6277.0187553361
 20
4707.8361289341
 30
0.0
 40
2.0
100
AcDbArc
 50
180.0
 51
281.8964663905
  0
ARC
  5
15A
330
1F
100
AcDbEntity
  8
0
  6
Continuous
 62
     7
370
    25
100
AcDbCircle
 10
6274.0187553361
 20
4722.0765017723
 30
0.0
 40
16.55294535724772
100
AcDbArc
 50
281.8964663905
 51
290.0947144944
  0
ARC
  5
15B
330
1F
100
AcDbEntity
  8
0
  6
Continuous
 62
     7
370
    25
100
AcDbCircle
 10
6279.0187553361
 20
4708.4094531307
 30
0.0
 40
2.000000000000909
100
AcDbArc
 50
290.0947144944
 51
0.0
  0
LINE
  5
15C
330
1F
100
AcDbEntity
  8
0
  6
Continuous
 62
     7
370
    25
100
AcDbLine
 10
6281.0187553361
 20
4708.4094531307
 30
0.0
 11
6281.0187553361
 21
4735.7435504138
 31
0.0
  0
ARC
  5
15D
330
1F
100
AcDbEntity
  8
0
  6
Continuous
 62
     7
370
    25
100
AcDbCircle
 10
6263.0187553361
 20
4712.548216587
 30
0.0
 40
2.000000000000909
100
AcDbArc
 50
220.899364014
 51
0.0
  0
LINE
  5
15E
330
1F
100
AcDbEntity
  8
0
  6
Continuous
 62
     7
370
    25
100
AcDbLine
 10
6265.0187553361
 20
4712.548216587
 30
0.0
 11
6265.0187553361
 21
4731.6047869575
 31
0.0
  0
ARC
  5
15F
330
1F
100
AcDbEntity
  8
0
  6
Continuous
 62
     7
370
    25
100
AcDbCircle
 10
6263.0187553361
 20
4731.6047869575
 30
0.0
 40
2.000000000000909
100
AcDbArc
 50
0.0
 51
139.100635986
  0
ARC
  5
160
330
1F
100
AcDbEntity
  8
0
  6
Continuous
 62
     7
370
    25
100
AcDbCircle
 10
6274.0187553361
 20
4722.0765017723
 30
0.0
 40
16.5529453572472
100
AcDbArc
 50
139.100635986
 51
220.899364014
  0
ARC
  5
161
330
1F
100
AcDbEntity
  8
0
  6
Continuous
 62
     7
370
    25
100
AcDbCircle
 10
6269.0187553361
 20
4735.7435504138
 30
0.0
 40
2.0
100
AcDbArc
 50
110.0947144944
 51
180.0
  0
LINE
  5
162
330
1F
100
AcDbEntity
  8
0
  6
Continuous
 62
     7
370
    25
100
AcDbLine
 10
6267.0187553361
 20
4735.7435504138
 30
0.0
 11
6267.0187553361
 21
4708.4094531307
 31
0.0
  0
ARC
  5
163
330
1F
100
AcDbEntity
  8
0
  6
Continuous
 62
     7
370
    25
100
AcDbCircle
 10
6269.0187553361
 20
4708.4094531307
 30
0.0
 40
2.0
100
AcDbArc
 50
180.0
 51
249.9052855056
  0
ARC
  5
164
330
1F
100
AcDbEntity
  8
0
  6
Continuous
 62
     7
370
    25
100
AcDbCircle
 10
6274.0187553361
 20
4722.0765017723
 30
0.0
 40
16.55294535724709
100
AcDbArc
 50
249.9052855056
 51
258.1035336095
  0
ARC
  5
165
330
1F
100
AcDbEntity
  8
0
  6
Continuous
 62
     7
370
    25
100
AcDbCircle
 10
6271.0187553361
 20
4707.8361289341
 30
0.0
 40
2.0
100
AcDbArc
 50
258.1035336095
 51
0.0
  0
LINE
  5
166
330
1F
100
AcDbEntity
  8
0
  6
Continuous
 62
     7
370
    25
100
AcDbLine
 10
6273.0187553361
 20
4707.8361289341
 30
0.0
 11
6273.0187553361
 21
4736.3168746105
 31
0.0
  0
ARC
  5
167
330
1F
100
AcDbEntity
  8
0
  6
Continuous
 62
     7
370
    25
100
AcDbCircle
 10
6271.0187553361
 20
4736.3168746105
 30
0.0
 40
2.0
100
AcDbArc
 50
0.0
 51
101.8964663905
  0
ARC
  5
168
330
1F
100
AcDbEntity
  8
0
  6
Continuous
 62
     7
370
    25
100
AcDbCircle
 10
6274.0187553361
 20
4722.0765017723
 30
0.0
 40
16.55294535724655
100
AcDbArc
 50
101.8964663905
 51
110.0947144944
  0
ARC
  5
169
330
1F
100
AcDbEntity
  8
0
  6
Continuous
 62
     7
370
    25
100
AcDbCircle
 10
6285.0187553361
 20
4712.548216587
 30
0.0
 40
2.00000000000015
100
AcDbArc
 50
180.0
 51
319.100635986
  0
ARC
  5
16A
330
1F
100
AcDbEntity
  8
0
  6
Continuous
 62
     7
370
    25
100
AcDbCircle
 10
6274.0187553361
 20
4722.0765017723
 30
0.0
 40
16.5529453572472
100
AcDbArc
 50
319.100635986
 51
40.899364014
  0
ARC
  5
16B
330
1F
100
AcDbEntity
  8
0
  6
Continuous
 62
     7
370
    25
100
AcDbCircle
 10
6285.0187553361
 20
4731.6047869575
 30
0.0
 40
2.00000000000015
100
AcDbArc
 50
40.899364014
 51
180.0
  0
LINE
  5
16C
330
1F
100
AcDbEntity
  8
0
  6
Continuous
 62
     7
370
    25
100
AcDbLine
 10
6283.0187553361
 20
4731.6047869575
 30
0.0
 11
6283.0187553361
 21
4712.548216587
 31
0.0
  0
CIRCLE
  5
16D
330
1F
100
AcDbEntity
  8
0
  6
Continuous
 62
     7
370
    25
100
AcDbCircle
 10
6274.0187553361
 20
4722.0765017723
 30
0.0
 40
31.0
  0
LINE
  5
16E
330
1F
100
AcDbEntity
  8
0
  6
Continuous
 62
     7
370
    25
100
AcDbLine
 10
6469.0187553361
 20
4842.0765017723
 30
0.0
 11
6079.0187553361
 21
4842.0765017723
 31
0.0
  0
LINE
  5
16F
330
1F
100
AcDbEntity
  8
0
  6
Continuous
 62
     7
370
    25
100
AcDbLine
 10
6079.0187553361
 20
4842.0765017723
 30
0.0
 11
6079.0187553361
 21
4844.5765017723
 31
0.0
  0
LINE
  5
170
330
1F
100
AcDbEntity
  8
0
  6
Continuous
 62
     7
370
    25
100
AcDbLine
 10
6079.0187553361
 20
4844.5765017723
 30
0.0
 11
6469.0187553361
 21
4844.5765017723
 31
0.0
  0
LINE
  5
171
330
1F
100
AcDbEntity
  8
0
  6
Continuous
 62
     7
370
    25
100
AcDbLine
 10
6469.0187553361
 20
4842.0765017723
 30
0.0
 11
6469.0187553361
 21
4844.5765017723
 31
0.0
  0
LINE
  5
172
330
1F
100
AcDbEntity
  8
0
  6
Continuous
 62
     7
370
    25
100
AcDbLine
 10
6111.5187553361
 20
4819.5765017723
 30
0.0
 11
6436.5187553361
 21
4819.5765017723
 31
0.0
  0
ARC
  5
173
330
1F
100
AcDbEntity
  8
0
  6
Continuous
 62
     7
370
    25
100
AcDbCircle
 10
6111.5187553361
 20
4809.5765017723
 30
0.0
 40
10.0
100
AcDbArc
 50
90.0
 51
180.0
  0
LINE
  5
174
330
1F
100
AcDbEntity
  8
0
  6
Continuous
 62
     7
370
    25
100
AcDbLine
 10
6101.5187553361
 20
4529.5765017723
 30
0.0
 11
6101.5187553361
 21
4809.5765017723
 31
0.0
  0
ARC
  5
175
330
1F
100
AcDbEntity
  8
0
  6
Continuous
 62
     7
370
    25
100
AcDbCircle
 10
6111.5187553361
 20
4529.5765017723
 30
0.0
 40
10.0
100
AcDbArc
 50
180.0
 51
270.0
  0
LINE
  5
176
330
1F
100
AcDbEntity
  8
0
  6
Continuous
 62
     7
370
    25
100
AcDbLine
 10
6436.5187553361
 20
4519.5765017723
 30
0.0
 11
6111.5187553361
 21
4519.5765017723
 31
0.0
  0
ARC
  5
177
330
1F
100
AcDbEntity
  8
0
  6
Continuous
 62
     7
370
    25
100
AcDbCircle
 10
6436.5187553361
 20
4529.5765017723
 30
0.0
 40
10.0
100
AcDbArc
 50
270.0
 51
0.0
  0
LINE
  5
178
330
1F
100
AcDbEntity
  8
0
  6
Continuous
 62
     7
370
    25
100
AcDbLine
 10
6446.5187553361
 20
4809.5765017723
 30
0.0
 11
6446.5187553361
 21
4529.5765017723
 31
0.0
  0
ARC
  5
179
330
1F
100
AcDbEntity
  8
0
  6
Continuous
 62
     7
370
    25
100
AcDbCircle
 10
6436.5187553361
 20
4809.5765017723
 30
0.0
 40
10.0
100
AcDbArc
 50
0.0
 51
90.0
  0
LINE
  5
17A
330
1F
100
AcDbEntity
  8
0
  6
Continuous
 62
     7
370
    25
100
AcDbLine
 10
6469.0187553361
 20
4497.0765017723
 30
0.0
 11
6469.0187553361
 21
4842.0765017723
 31
0.0
  0
LINE
  5
17B
330
1F
100
AcDbEntity
  8
0
  6
Continuous
 62
     7
370
    25
100
AcDbLine
 10
6079.0187553361
 20
4497.0765017723
 30
0.0
 11
6469.0187553361
 21
4497.0765017723
 31
0.0
  0
LINE
  5
17C
330
1F
100
AcDbEntity
  8
0
  6
Continuous
 62
     7
370
    25
100
AcDbLine
 10
6079.0187553361
 20
4842.0765017723
 30
0.0
 11
6079.0187553361
 21
4497.0765017723
 31
0.0
  0
ARC
  5
17D
330
1F
100
AcDbEntity
  8
0
  6
Continuous
 62
     7
370
    25
100
AcDbCircle
 10
6469.0187553361
 20
4842.0765017723
 30
0.0
 40
2.5
100
AcDbArc
 50
0.0
 51
90.0
  0
LINE
  5
17E
330
1F
100
AcDbEntity
  8
0
  6
Continuous
 62
     7
370
    25
100
AcDbLine
 10
6469.0187553361
 20
4842.0765017723
 30
0.0
 11
6471.5187553361
 21
4842.0765017723
 31
0.0
  0
LINE
  5
17F
330
1F
100
AcDbEntity
  8
0
  6
Continuous
 62
     7
370
    25
100
AcDbLine
 10
6471.5187553361
 20
4842.0765017723
 30
0.0
 11
6471.5187553361
 21
4497.0765017723
 31
0.0
  0
LINE
  5
180
330
1F
100
AcDbEntity
  8
0
  6
Continuous
 62
     7
370
    25
100
AcDbLine
 10
6471.5187553361
 20
4497.0765017723
 30
0.0
 11
6469.0187553361
 21
4497.0765017723
 31
0.0
  0
LINE
  5
181
330
1F
100
AcDbEntity
  8
0
  6
Continuous
 62
     7
370
    25
100
AcDbLine
 10
6079.0187553361
 20
4842.0765017723
 30
0.0
 11
6076.5187553361
 21
4842.0765017723
 31
0.0
  0
ARC
  5
182
330
1F
100
AcDbEntity
  8
0
  6
Continuous
 62
     7
370
    25
100
AcDbCircle
 10
6079.0187553361
 20
4842.0765017723
 30
0.0
 40
2.5
100
AcDbArc
 50
90.0
 51
180.0
  0
LINE
  5
183
330
1F
100
AcDbEntity
  8
0
  6
Continuous
 62
     7
370
    25
100
AcDbLine
 10
6076.5187553361
 20
4497.0765017723
 30
0.0
 11
6079.0187553361
 21
4497.0765017723
 31
0.0
  0
LINE
  5
184
330
1F
100
AcDbEntity
  8
0
  6
Continuous
 62
     7
370
    25
100
AcDbLine
 10
6076.5187553361
 20
4497.0765017723
 30
0.0
 11
6076.5187553361
 21
4842.0765017723
 31
0.0
  0
LINE
  5
185
330
1F
100
AcDbEntity
  8
0
  6
Continuous
 62
     7
370
    25
100
AcDbLine
 10
6436.5187553361
 20
4819.5765017723
 30
0.0
 11
6436.5187553361
 21
4814.5765017723
 31
0.0
  0
LINE
  5
186
330
1F
100
AcDbEntity
  8
0
  6
Continuous
 62
     7
370
    25
100
AcDbLine
 10
6436.5187553361
 20
4814.5765017723
 30
0.0
 11
6111.5187553361
 21
4814.5765017723
 31
0.0
  0
LINE
  5
187
330
1F
100
AcDbEntity
  8
0
  6
Continuous
 62
     7
370
    25
100
AcDbLine
 10
6111.5187553361
 20
4819.5765017723
 30
0.0
 11
6111.5187553361
 21
4814.5765017723
 31
0.0
  0
LINE
  5
188
330
1F
100
AcDbEntity
  8
0
  6
Continuous
 62
     7
370
    25
100
AcDbLine
 10
6441.5187553361
 20
4809.5765017723
 30
0.0
 11
6446.5187553361
 21
4809.5765017723
 31
0.0
  0
ARC
  5
189
330
1F
100
AcDbEntity
  8
0
  6
Continuous
 62
     7
370
    25
100
AcDbCircle
 10
6436.5187553361
 20
4809.5765017723
 30
0.0
 40
5.0
100
AcDbArc
 50
0.0
 51
90.0
  0
LINE
  5
18A
330
1F
100
AcDbEntity
  8
0
  6
Continuous
 62
     7
370
    25
100
AcDbLine
 10
6441.5187553361
 20
4529.5765017723
 30
0.0
 11
6441.5187553361
 21
4809.5765017723
 31
0.0
  0
LINE
  5
18B
330
1F
100
AcDbEntity
  8
0
  6
Continuous
 62
     7
370
    25
100
AcDbLine
 10
6446.5187553361
 20
4529.5765017723
 30
0.0
 11
6441.5187553361
 21
4529.5765017723
 31
0.0
  0
ARC
  5
18C
330
1F
100
AcDbEntity
  8
0
  6
Continuous
 62
     7
370
    25
100
AcDbCircle
 10
6111.5187553361
 20
4809.5765017723
 30
0.0
 40
5.0
100
AcDbArc
 50
90.0
 51
180.0
  0
LINE
  5
18D
330
1F
100
AcDbEntity
  8
0
  6
Continuous
 62
     7
370
    25
100
AcDbLine
 10
6101.5187553361
 20
4809.5765017723
 30
0.0
 11
6106.5187553361
 21
4809.5765017723
 31
0.0
  0
LINE
  5
18E
330
1F
100
AcDbEntity
  8
0
  6
Continuous
 62
     7
370
    25
100
AcDbLine
 10
6106.5187553361
 20
4809.5765017723
 30
0.0
 11
6106.5187553361
 21
4529.5765017723
 31
0.0
  0
LINE
  5
18F
330
1F
100
AcDbEntity
  8
0
  6
Continuous
 62
     7
370
    25
100
AcDbLine
 10
6106.5187553361
 20
4529.5765017723
 30
0.0
 11
6101.5187553361
 21
4529.5765017723
 31
0.0
  0
LINE
  5
190
330
1F
100
AcDbEntity
  8
0
  6
Continuous
 62
     7
370
    25
100
AcDbLine
 10
6436.5187553361
 20
4524.5765017723
 30
0.0
 11
6436.5187553361
 21
4519.5765017723
 31
0.0
  0
ARC
  5
191
330
1F
100
AcDbEntity
  8
0
  6
Continuous
 62
     7
370
    25
100
AcDbCircle
 10
6436.5187553361
 20
4529.5765017723
 30
0.0
 40
5.0
100
AcDbArc
 50
270.0
 51
0.0
  0
LINE
  5
192
330
1F
100
AcDbEntity
  8
0
  6
Continuous
 62
     7
370
    25
100
AcDbLine
 10
6111.5187553361
 20
4524.5765017723
 30
0.0
 11
6436.5187553361
 21
4524.5765017723
 31
0.0
  0
LINE
  5
193
330
1F
100
AcDbEntity
  8
0
  6
Continuous
 62
     7
370
    25
100
AcDbLine
 10
6111.5187553361
 20
4524.5765017723
 30
0.0
 11
6111.5187553361
 21
4519.5765017723
 31
0.0
  0
ARC
  5
194
330
1F
100
AcDbEntity
  8
0
  6
Continuous
 62
     7
370
    25
100
AcDbCircle
 10
6111.5187553361
 20
4529.5765017723
 30
0.0
 40
5.0
100
AcDbArc
 50
180.0
 51
270.0
  0
LINE
  5
195
330
1F
100
AcDbEntity
  8
0
  6
Continuous
 62
     7
370
    25
100
AcDbLine
 10
6469.0187553361
 20
4494.5765017723
 30
0.0
 11
6079.0187553361
 21
4494.5765017723
 31
0.0
  0
LINE
  5
196
330
1F
100
AcDbEntity
  8
0
  6
Continuous
 62
     7
370
    25
100
AcDbLine
 10
6079.0187553361
 20
4494.5765017723
 30
0.0
 11
6079.0187553361
 21
4497.0765017723
 31
0.0
  0
LINE
  5
197
330
1F
100
AcDbEntity
  8
0
  6
Continuous
 62
     7
370
    25
100
AcDbLine
 10
6469.0187553361
 20
4494.5765017723
 30
0.0
 11
6469.0187553361
 21
4497.0765017723
 31
0.0
  0
ARC
  5
198
330
1F
100
AcDbEntity
  8
0
  6
Continuous
 62
     7
370
    25
100
AcDbCircle
 10
6469.0187553361
 20
4497.0765017723
 30
0.0
 40
2.5
100
AcDbArc
 50
270.0
 51
0.0
  0
ARC
  5
199
330
1F
100
AcDbEntity
  8
0
  6
Continuous
 62
     7
370
    25
100
AcDbCircle
 10
6079.0187553361
 20
4497.0765017723
 30
0.0
 40
2.5
100
AcDbArc
 50
180.0
 51
270.0
  0
LWPOLYLINE
  5
19A
330
1F
100
AcDbEntity
  8
0
  6
Continuous
 62
     7
370
    25
100
AcDbPolyline
 90
       17
 70
   128
 43
0.0
 10
6110.0779666569
 20
4529.3618335048
 10
6127.3818705299
 20
4529.29909652
 10
6144.8283143424
 20
4529.220190579
 10
6162.4704600695
 20
4529.1308229983
 10
6180.225207755
 20
4529.0374303472
 10
6203.4451208678
 20
4528.9200850701
 10
6226.7885010146
 20
4528.819592713
 10
6250.3822057381
 20
4528.7488129878
 10
6274.0187553361
 20
4528.7221468956
 10
6297.7325111189
 20
4528.7489799071
 10
6321.4030026105
 20
4528.8201702618
 10
6345.1595626269
 20
4528.9227972916
 10
6368.7872498849
 20
4529.0425456253
 10
6386.2272188826
 20
4529.1342664456
 10
6403.5578880096
 20
4529.2218805692
 10
6420.8286447221
 20
4529.2998106772
 10
6437.9595440153
 20
4529.3618335048
  0
LWPOLYLINE
  5
19B
330
1F
100
AcDbEntity
  8
0
  6
Continuous
 62
     7
370
    25
100
AcDbPolyline
 90
        9
 70
   128
 43
0.0
 10
6437.9595440153
 20
4529.3618335048
 10
6437.9215953262
 20
4528.4175000026
 10
6437.8326350462
 20
4527.5153113812
 10
6437.6958980457
 20
4526.6880740028
 10
6437.5163565038
 20
4525.9658687712
 10
6437.3005391051
 20
4525.374957297
 10
6437.0562936361
 20
4524.936826945
 10
6436.7925016158
 20
4524.6674094867
 10
6436.5187553361
 20
4524.5765017723
  0
LWPOLYLINE
  5
19C
330
1F
100
AcDbEntity
  8
0
  6
Continuous
 62
     7
370
    25
100
AcDbPolyline
 90
        9
 70
   128
 43
0.0
 10
6110.0779666569
 20
4529.3618335048
 10
6110.115915346
 20
4528.4175000026
 10
6110.204875626
 20
4527.5153113812
 10
6110.3416126265
 20
4526.6880740028
 10
6110.5211541684
 20
4525.9658687712
 10
6110.7369715671
 20
4525.374957297
 10
6110.9812170361
 20
4524.936826945
 10
6111.2450090564
 20
4524.6674094867
 10
6111.5187553361
 20
4524.5765017723
  0
LWPOLYLINE
  5
19D
330
1F
100
AcDbEntity
  8
0
  6
Continuous
 62
     7
370
    25
100
AcDbPolyline
 90
        5
 70
   128
 43
0.0
 10
6110.0766774818
 20
4809.4606156097
 10
6109.9415492061
 20
4739.483820032
 10
6109.8955267526
 20
4669.5150550531
 10
6109.9464558652
 20
4593.655593262
 10
6110.0779666569
 20
4529.3618335048
  0
ARC
  5
19E
330
1F
100
AcDbEntity
  8
0
  6
Continuous
 62
     7
370
    25
100
AcDbCircle
 10
6109.3542896297
 20
4546.9765206756
 30
0.0
 40
17.62954657861256
100
AcDbArc
 50
260.7443503381
 51
272.3526012204
  0
ARC
  5
19F
330
1F
100
AcDbEntity
  8
0
  6
Continuous
 62
     7
370
    25
100
AcDbCircle
 10
6109.3503148532
 20
4841.8353015232
 30
0.0
 40
32.38283327121663
100
AcDbArc
 50
264.9836427149
 51
271.2852798663
  0
LWPOLYLINE
  5
1A0
330
1F
100
AcDbEntity
  8
0
  6
Continuous
 62
     7
370
    25
100
AcDbPolyline
 90
        5
 70
   128
 43
0.0
 10
6437.9595440153
 20
4529.3618335048
 10
6438.091054807
 20
4593.655593262
 10
6438.1419839196
 20
4669.5150550531
 10
6438.0959636268
 20
4739.4821413582
 10
6437.9608331904
 20
4809.4606156097
  0
ARC
  5
1A1
330
1F
100
AcDbEntity
  8
0
  6
Continuous
 62
     7
370
    25
100
AcDbCircle
 10
6438.687195819
 20
4841.8353015233
 30
0.0
 40
32.38283327126479
100
AcDbArc
 50
268.7147201337
 51
275.0163572851
  0
ARC
  5
1A2
330
1F
100
AcDbEntity
  8
0
  6
Continuous
 62
     7
370
    25
100
AcDbCircle
 10
6438.6832210425
 20
4546.9765206757
 30
0.0
 40
17.62954657863619
100
AcDbArc
 50
267.6473987796
 51
279.2556496619
  0
LWPOLYLINE
  5
1A3
330
1F
100
AcDbEntity
  8
0
  6
Continuous
 62
     7
370
    25
100
AcDbPolyline
 90
        9
 70
   128
 43
0.0
 10
6436.5187553361
 20
4814.5765017723
 10
6436.8042642892
 20
4814.4775813073
 10
6437.078476171
 20
4814.1847340159
 10
6437.3305409147
 20
4813.709547334
 10
6437.5504847757
 20
4813.0708235367
 10
6437.7296049743
 20
4812.293835766
 10
6437.8608140493
 20
4811.4093280184
 10
6437.9389202955
 20
4810.4522986611
 10
6437.9608331904
 20
4809.4606156097
  0
LWPOLYLINE
  5
1A4
330
1F
100
AcDbEntity
  8
0
  6
Continuous
 62
     7
370
    25
100
AcDbPolyline
 90
       15
 70
   128
 43
0.0
 10
6437.9608331904
 20
4809.4606156097
 10
6414.8047777104
 20
4809.5415902638
 10
6391.3940724089
 20
4809.6493838793
 10
6367.7848014827
 20
4809.7705206603
 10
6344.4999639223
 20
4809.888033509
 10
6321.0694177426
 20
4809.9896238446
 10
6297.5550518963
 20
4810.0610338088
 10
6274.0187553361
 20
4810.0880055432
 10
6250.2366430587
 20
4810.0604865886
 10
6226.477158552
 20
4809.9877430675
 10
6202.8041061072
 20
4809.8844949936
 10
6179.2812900153
 20
4809.7654623808
 10
6156.0008397641
 20
4809.6461772353
 10
6132.9147166525
 20
4809.5402621078
 10
6110.0766774818
 20
4809.4606156097
  0
LWPOLYLINE
  5
1A5
330
1F
100
AcDbEntity
  8
0
  6
Continuous
 62
     7
370
    25
100
AcDbPolyline
 90
        9
 70
   128
 43
0.0
 10
6111.5187553361
 20
4814.5765017723
 10
6111.233246383
 20
4814.4775813073
 10
6110.9590345012
 20
4814.1847340159
 10
6110.7069697575
 20
4813.709547334
 10
6110.4870258965
 20
4813.0708235367
 10
6110.3079056979
 20
4812.293835766
 10
6110.1766966229
 20
4811.4093280184
 10
6110.0985903767
 20
4810.4522986611
 10
6110.0766774818
 20
4809.4606156097
  0
LWPOLYLINE
  5
1A6
330
1F
100
AcDbEntity
  8
0
  6
Continuous
 62
     7
370
    25
100
AcDbPolyline
 90
       33
 70
   128
 43
0.0
 10
6305.84690235
 20
4722.0822036685
 10
6305.2462019038
 20
4715.7327285524
 10
6303.453687259
 20
4709.6552180058
 10
6300.5203169084
 20
4704.0171772968
 10
6296.5882768167
 20
4699.0925991738
 10
6291.7837466159
 20
4695.0321180325
 10
6286.2971277355
 20
4692.0040601758
 10
6280.3646886172
 20
4690.1326694193
 10
6274.1614479214
 20
4689.4768695557
 10
6267.9881125155
 20
4690.068529758
 10
6262.0111638814
 20
4691.8894872786
 10
6256.5059367343
 20
4694.8601746608
 10
6251.6711258217
 20
4698.8665153353
 10
6247.6771596877
 20
4703.7737092334
 10
6244.7083248223
 20
4709.3505299356
 10
6242.8455346888
 20
4715.4582656335
 10
6242.1910960229
 20
4721.8152210276
 10
6242.7630380862
 20
4728.130753534
 10
6244.5425528333
 20
4734.233556836
 10
6247.4561890194
 20
4739.8497373102
 10
6251.3872777081
 20
4744.7670224522
 10
6256.2090172443
 20
4748.8213208985
 10
6261.6889455737
 20
4751.8234935786
 10
6267.6765728323
 20
4753.693221345
 10
6273.8811989697
 20
4754.339050031
 10
6280.1052252886
 20
4753.7447510761
 10
6286.1013712248
 20
4751.9274249506
 10
6291.6090109494
 20
4748.9701243179
 10
6296.4652289962
 20
4744.9552220996
 10
6300.4308801239
 20
4740.0790334588
 10
6303.3957769854
 20
4734.4782345984
 10
6305.221892063
 20
4728.4028634129
 10
6305.84690235
 20
4722.0822036685
  0
ENDSEC
  0
SECTION
  2
OBJECTS
  0
DICTIONARY
  5
C
330
0
100
AcDbDictionary
281
     1
  3
ACAD_GROUP
350
D
  3
ACAD_LAYOUT
350
1A
  3
ACAD_MLINESTYLE
350
17
  3
ACAD_PLOTSETTINGS
350
19
  3
ACAD_PLOTSTYLENAME
350
E
  3
ACAD_SCALELIST
350
47
  3
DWGPROPS
350
1A7
  0
DICTIONARY
  5
D
102
{ACAD_REACTORS
330
C
102
}
330
C
100
AcDbDictionary
281
     1
  0
DICTIONARY
  5
1A
102
{ACAD_REACTORS
330
C
102
}
330
C
100
AcDbDictionary
281
     1
  3
Layout1
350
1E
  3
Layout2
350
26
  3
Model
350
22
  0
DICTIONARY
  5
17
102
{ACAD_REACTORS
330
C
102
}
330
C
100
AcDbDictionary
281
     1
  3
Standard
350
18
  0
DICTIONARY
  5
19
102
{ACAD_REACTORS
330
C
102
}
330
C
100
AcDbDictionary
281
     1
  0
ACDBDICTIONARYWDFLT
  5
E
102
{ACAD_REACTORS
330
C
102
}
330
C
100
AcDbDictionary
281
     1
  3
Normal
350
F
100
AcDbDictionaryWithDefault
340
F
  0
DICTIONARY
  5
47
102
{ACAD_REACTORS
330
C
102
}
330
C
100
AcDbDictionary
281
     1
  3
A0
350
48
  3
A1
350
49
  3
A2
350
4A
  3
A3
350
4B
  3
A4
350
4C
  3
A5
350
4D
  3
A6
350
4E
  3
A7
350
4F
  3
A8
350
50
  3
A9
350
51
  3
B0
350
52
  3
B1
350
53
  3
B2
350
54
  3
B3
350
55
  3
B4
350
56
  3
B5
350
57
  3
B6
350
58
  3
B7
350
59
  3
B8
350
5A
  3
B9
350
5B
  3
C0
350
5C
  3
C1
350
5D
  3
C2
350
5E
  3
C3
350
5F
  3
C4
350
60
  3
C5
350
61
  3
C6
350
62
  3
C7
350
63
  3
C8
350
64
  3
C9
350
65
  3
D0
350
66
  3
D1
350
67
  3
D2
350
68
  0
XRECORD
  5
1A7
102
{ACAD_REACTORS
330
C
102
}
330
C
100
AcDbXrecord
280
     1
  1
DWGPROPS COOKIE
  2

  3

  4

  6

  7

  8
radek.stransky
  9

300
=
301
=
302
=
303
=
304
=
305
=
306
=
307
=
308
=
309
=
 40
0.0
 41
2459741.304990602
 42
2459741.304990891
  1

 90
        0
  0
LAYOUT
  5
1E
102
{ACAD_REACTORS
330
1A
102
}
330
1A
100
AcDbPlotSettings
  1

  2
none_device
  4

  6

 40
0.0
 41
0.0
 42
0.0
 43
0.0
 44
0.0
 45
0.0
 46
0.0
 47
0.0
 48
0.0
 49
0.0
140
0.0
141
0.0
142
1.0
143
1.0
 70
   688
 72
     1
 73
     0
 74
     5
  7

 75
    16
147
1.0
148
0.0
149
0.0
100
AcDbLayout
  1
Layout1
 70
     1
 71
     1
 10
0.0
 20
0.0
 11
420.0
 21
297.0
 12
0.0
 22
0.0
 32
0.0
 14
1.0000000000E+20
 24
1.0000000000E+20
 34
1.0000000000E+20
 15
-1.0000000000E+20
 25
-1.0000000000E+20
 35
-1.0000000000E+20
146
0.0
 13
0.0
 23
0.0
 33
0.0
 16
1.0
 26
0.0
 36
0.0
 17
0.0
 27
1.0
 37
0.0
 76
     0
330
1B
  0
LAYOUT
  5
26
102
{ACAD_REACTORS
330
1A
102
}
330
1A
100
AcDbPlotSettings
  1

  2
none_device
  4

  6

 40
0.0
 41
0.0
 42
0.0
 43
0.0
 44
0.0
 45
0.0
 46
0.0
 47
0.0
 48
0.0
 49
0.0
140
0.0
141
0.0
142
1.0
143
1.0
 70
   688
 72
     1
 73
     0
 74
     5
  7

 75
    16
147
1.0
148
0.0
149
0.0
100
AcDbLayout
  1
Layout2
 70
     1
 71
     2
 10
0.0
 20
0.0
 11
0.0
 21
0.0
 12
0.0
 22
0.0
 32
0.0
 14
0.0
 24
0.0
 34
0.0
 15
0.0
 25
0.0
 35
0.0
146
0.0
 13
0.0
 23
0.0
 33
0.0
 16
1.0
 26
0.0
 36
0.0
 17
0.0
 27
1.0
 37
0.0
 76
     0
330
23
  0
LAYOUT
  5
22
102
{ACAD_REACTORS
330
1A
102
}
330
1A
100
AcDbPlotSettings
  1

  2
none_device
  4
Letter_(8.50_x_11.00_Inches)
  6

 40
6.35
 41
6.35
 42
6.35000508
 43
6.35000508
 44
215.9
 45
279.4
 46
0.0
 47
0.0
 48
0.0
 49
0.0
140
0.0
141
0.0
142
1.0
143
1.0
 70
  1712
 72
     1
 73
     0
 74
     0
  7

 75
     0
147
1.0
148
0.0
149
0.0
100
AcDbLayout
  1
Model
 70
     1
 71
     0
 10
0.0
 20
0.0
 11
20000.0
 21
10000.0
 12
0.0
 22
0.0
 32
0.0
 14
0.0
 24
0.0
 34
0.0
 15
20000.0
 25
10000.0
 35
0.0
146
0.0
 13
0.0
 23
0.0
 33
0.0
 16
1.0
 26
0.0
 36
0.0
 17
0.0
 27
1.0
 37
0.0
 76
     0
330
1F
331
29
  0
MLINESTYLE
  5
18
102
{ACAD_REACTORS
330
17
102
}
330
17
100
AcDbMlineStyle
  2
Standard
 70
     0
  3

 62
   256
 51
90.0
 52
90.0
 71
     2
 49
0.5
 62
   256
  6
BYLAYER
 49
-0.5
 62
   256
  6
BYLAYER
  0
ACDBPLACEHOLDER
  5
F
102
{ACAD_REACTORS
330
E
102
}
330
E
  0
SCALE
  5
48
102
{ACAD_REACTORS
330
47
102
}
330
47
100
AcDbScale
 70
     0
300
1:1
140
1.0
141
1.0
290
     1
  0
SCALE
  5
49
102
{ACAD_REACTORS
330
47
102
}
330
47
100
AcDbScale
 70
     0
300
1:2
140
1.0
141
2.0
290
     0
  0
SCALE
  5
4A
102
{ACAD_REACTORS
330
47
102
}
330
47
100
AcDbScale
 70
     0
300
1:4
140
1.0
141
4.0
290
     0
  0
SCALE
  5
4B
102
{ACAD_REACTORS
330
47
102
}
330
47
100
AcDbScale
 70
     0
300
1:5
140
1.0
141
5.0
290
     0
  0
SCALE
  5
4C
102
{ACAD_REACTORS
330
47
102
}
330
47
100
AcDbScale
 70
     0
300
1:8
140
1.0
141
8.0
290
     0
  0
SCALE
  5
4D
102
{ACAD_REACTORS
330
47
102
}
330
47
100
AcDbScale
 70
     0
300
1:10
140
1.0
141
10.0
290
     0
  0
SCALE
  5
4E
102
{ACAD_REACTORS
330
47
102
}
330
47
100
AcDbScale
 70
     0
300
1:16
140
1.0
141
16.0
290
     0
  0
SCALE
  5
4F
102
{ACAD_REACTORS
330
47
102
}
330
47
100
AcDbScale
 70
     0
300
1:20
140
1.0
141
20.0
290
     0
  0
SCALE
  5
50
102
{ACAD_REACTORS
330
47
102
}
330
47
100
AcDbScale
 70
     0
300
1:30
140
1.0
141
30.0
290
     0
  0
SCALE
  5
51
102
{ACAD_REACTORS
330
47
102
}
330
47
100
AcDbScale
 70
     0
300
1:40
140
1.0
141
40.0
290
     0
  0
SCALE
  5
52
102
{ACAD_REACTORS
330
47
102
}
330
47
100
AcDbScale
 70
     0
300
1:50
140
1.0
141
50.0
290
     0
  0
SCALE
  5
53
102
{ACAD_REACTORS
330
47
102
}
330
47
100
AcDbScale
 70
     0
300
1:100
140
1.0
141
100.0
290
     0
  0
SCALE
  5
54
102
{ACAD_REACTORS
330
47
102
}
330
47
100
AcDbScale
 70
     0
300
2:1
140
2.0
141
1.0
290
     0
  0
SCALE
  5
55
102
{ACAD_REACTORS
330
47
102
}
330
47
100
AcDbScale
 70
     0
300
4:1
140
4.0
141
1.0
290
     0
  0
SCALE
  5
56
102
{ACAD_REACTORS
330
47
102
}
330
47
100
AcDbScale
 70
     0
300
8:1
140
8.0
141
1.0
290
     0
  0
SCALE
  5
57
102
{ACAD_REACTORS
330
47
102
}
330
47
100
AcDbScale
 70
     0
300
10:1
140
10.0
141
1.0
290
     0
  0
SCALE
  5
58
102
{ACAD_REACTORS
330
47
102
}
330
47
100
AcDbScale
 70
     0
300
100:1
140
100.0
141
1.0
290
     0
  0
SCALE
  5
59
102
{ACAD_REACTORS
330
47
102
}
330
47
100
AcDbScale
 70
     0
300
1/128" = 1'-0"
140
0.0078125
141
12.0
290
     0
  0
SCALE
  5
5A
102
{ACAD_REACTORS
330
47
102
}
330
47
100
AcDbScale
 70
     0
300
1/64" = 1'-0"
140
0.015625
141
12.0
290
     0
  0
SCALE
  5
5B
102
{ACAD_REACTORS
330
47
102
}
330
47
100
AcDbScale
 70
     0
300
1/32" = 1'-0"
140
0.03125
141
12.0
290
     0
  0
SCALE
  5
5C
102
{ACAD_REACTORS
330
47
102
}
330
47
100
AcDbScale
 70
     0
300
1/16" = 1'-0"
140
0.0625
141
12.0
290
     0
  0
SCALE
  5
5D
102
{ACAD_REACTORS
330
47
102
}
330
47
100
AcDbScale
 70
     0
300
3/32" = 1'-0"
140
0.09375
141
12.0
290
     0
  0
SCALE
  5
5E
102
{ACAD_REACTORS
330
47
102
}
330
47
100
AcDbScale
 70
     0
300
1/8" = 1'-0"
140
0.125
141
12.0
290
     0
  0
SCALE
  5
5F
102
{ACAD_REACTORS
330
47
102
}
330
47
100
AcDbScale
 70
     0
300
3/16" = 1'-0"
140
0.1875
141
12.0
290
     0
  0
SCALE
  5
60
102
{ACAD_REACTORS
330
47
102
}
330
47
100
AcDbScale
 70
     0
300
1/4" = 1'-0"
140
0.25
141
12.0
290
     0
  0
SCALE
  5
61
102
{ACAD_REACTORS
330
47
102
}
330
47
100
AcDbScale
 70
     0
300
3/8" = 1'-0"
140
0.375
141
12.0
290
     0
  0
SCALE
  5
62
102
{ACAD_REACTORS
330
47
102
}
330
47
100
AcDbScale
 70
     0
300
1/2" = 1'-0"
140
0.5
141
12.0
290
     0
  0
SCALE
  5
63
102
{ACAD_REACTORS
330
47
102
}
330
47
100
AcDbScale
 70
     0
300
3/4" = 1'-0"
140
0.75
141
12.0
290
     0
  0
SCALE
  5
64
102
{ACAD_REACTORS
330
47
102
}
330
47
100
AcDbScale
 70
     0
300
1" = 1'-0"
140
1.0
141
12.0
290
     0
  0
SCALE
  5
65
102
{ACAD_REACTORS
330
47
102
}
330
47
100
AcDbScale
 70
     0
300
1-1/2" = 1'-0"
140
1.5
141
12.0
290
     0
  0
SCALE
  5
66
102
{ACAD_REACTORS
330
47
102
}
330
47
100
AcDbScale
 70
     0
300
3" = 1'-0"
140
3.0
141
12.0
290
     0
  0
SCALE
  5
67
102
{ACAD_REACTORS
330
47
102
}
330
47
100
AcDbScale
 70
     0
300
6" = 1'-0"
140
6.0
141
12.0
290
     0
  0
SCALE
  5
68
102
{ACAD_REACTORS
330
47
102
}
330
47
100
AcDbScale
 70
     0
300
1'-0" = 1'-0"
140
12.0
141
12.0
290
     0
  0
ENDSEC
  0
EOF
