  0
SECTION
  2
HEADER
  9
$ACADVER
  1
AC1015
  9
$ACADMAINTVER
 70
     6
  9
$DWGCODEPAGE
  3
ANSI_1250
  9
$INSBASE
 10
0.0
 20
0.0
 30
0.0
  9
$EXTMIN
 10
0.0
 20
0.0
 30
0.0
  9
$EXTMAX
 10
20000.0
 20
10000.0
 30
0.0
  9
$LIMMIN
 10
0.0
 20
0.0
  9
$LIMMAX
 10
20000.0
 20
10000.0
  9
$ORTHOMODE
 70
     0
  9
$REGENMODE
 70
     1
  9
$FILLMODE
 70
     1
  9
$QTEXTMODE
 70
     0
  9
$MIRRTEXT
 70
     1
  9
$LTSCALE
 40
1.0
  9
$ATTMODE
 70
     1
  9
$TEXTSIZE
 40
2.0
  9
$TRACEWID
 40
1.0
  9
$TEXTSTYLE
  7
Standard
  9
$CLAYER
  8
0
  9
$CELTYPE
  6
ByLayer
  9
$CECOLOR
 62
   256
  9
$CELTSCALE
 40
1.0
  9
$DISPSILH
 70
     0
  9
$DIMSCALE
 40
1.0
  9
$DIMASZ
 40
2.0
  9
$DIMEXO
 40
1.0
  9
$DIMDLI
 40
3.75
  9
$DIMRND
 40
0.0
  9
$DIMDLE
 40
0.0
  9
$DIMEXE
 40
1.0
  9
$DIMTP
 40
0.0
  9
$DIMTM
 40
0.0
  9
$DIMTXT
 40
2.0
  9
$DIMCEN
 40
2.5
  9
$DIMTSZ
 40
0.0
  9
$DIMTOL
 70
     0
  9
$DIMLIM
 70
     0
  9
$DIMTIH
 70
     1
  9
$DIMTOH
 70
     1
  9
$DIMSE1
 70
     0
  9
$DIMSE2
 70
     0
  9
$DIMTAD
 70
     1
  9
$DIMZIN
 70
     0
  9
$DIMBLK
  1

  9
$DIMASO
 70
     1
  9
$DIMSHO
 70
     1
  9
$DIMPOST
  1

  9
$DIMAPOST
  1

  9
$DIMALT
 70
     0
  9
$DIMALTD
 70
     3
  9
$DIMALTF
 40
0.0393700787
  9
$DIMLFAC
 40
1.0
  9
$DIMTOFL
 70
     1
  9
$DIMTVP
 40
0.0
  9
$DIMTIX
 70
     0
  9
$DIMSOXD
 70
     0
  9
$DIMSAH
 70
     0
  9
$DIMBLK1
  1

  9
$DIMBLK2
  1

  9
$DIMSTYLE
  2
ISO-25
  9
$DIMCLRD
 70
     0
  9
$DIMCLRE
 70
     0
  9
$DIMCLRT
 70
     0
  9
$DIMTFAC
 40
1.0
  9
$DIMGAP
 40
1.524
  9
$DIMJUST
 70
     0
  9
$DIMSD1
 70
     0
  9
$DIMSD2
 70
     0
  9
$DIMTOLJ
 70
     0
  9
$DIMTZIN
 70
     0
  9
$DIMALTZ
 70
     0
  9
$DIMALTTZ
 70
     0
  9
$DIMUPT
 70
     0
  9
$DIMDEC
 70
     2
  9
$DIMTDEC
 70
     0
  9
$DIMALTU
 70
     2
  9
$DIMALTTD
 70
     3
  9
$DIMTXSTY
  7
Standard
  9
$DIMAUNIT
 70
     0
  9
$DIMADEC
 70
     2
  9
$DIMALTRND
 40
0.0
  9
$DIMAZIN
 70
     0
  9
$DIMDSEP
 70
    44
  9
$DIMATFIT
 70
     3
  9
$DIMFRAC
 70
     0
  9
$DIMLDRBLK
  1

  9
$DIMLUNIT
 70
     2
  9
$DIMLWD
 70
    -2
  9
$DIMLWE
 70
    -2
  9
$DIMTMOVE
 70
     0
  9
$LUNITS
 70
     2
  9
$LUPREC
 70
     3
  9
$SKETCHINC
 40
1.0
  9
$FILLETRAD
 40
10.0
  9
$AUNITS
 70
     0
  9
$AUPREC
 70
     2
  9
$MENU
  1
.
  9
$ELEVATION
 40
0.0
  9
$PELEVATION
 40
0.0
  9
$THICKNESS
 40
0.0
  9
$LIMCHECK
 70
     0
  9
$CHAMFERA
 40
0.0
  9
$CHAMFERB
 40
0.0
  9
$CHAMFERC
 40
0.0
  9
$CHAMFERD
 40
0.0
  9
$SKPOLY
 70
     0
  9
$TDCREATE
 40
2459625.266698114
  9
$TDUCREATE
 40
2459625.225031447
  9
$TDUPDATE
 40
2459625.266698623
  9
$TDUUPDATE
 40
2459625.225031956
  9
$TDINDWG
 40
0.0000000116
  9
$TDUSRTIMER
 40
0.0000000116
  9
$USRTIMER
 70
     1
  9
$ANGBASE
 50
0.0
  9
$ANGDIR
 70
     0
  9
$PDMODE
 70
     0
  9
$PDSIZE
 40
-1.0
  9
$PLINEWID
 40
0.0
  9
$SPLFRAME
 70
     0
  9
$SPLINETYPE
 70
     6
  9
$SPLINESEGS
 70
     8
  9
$HANDSEED
  5
41F
  9
$SURFTAB1
 70
     6
  9
$SURFTAB2
 70
     6
  9
$SURFTYPE
 70
     6
  9
$SURFU
 70
     6
  9
$SURFV
 70
     6
  9
$UCSBASE
  2

  9
$UCSNAME
  2

  9
$UCSORG
 10
0.0
 20
0.0
 30
0.0
  9
$UCSXDIR
 10
1.0
 20
0.0
 30
0.0
  9
$UCSYDIR
 10
0.0
 20
1.0
 30
0.0
  9
$UCSORTHOREF
  2

  9
$UCSORTHOVIEW
 70
     0
  9
$UCSORGTOP
 10
0.0
 20
0.0
 30
0.0
  9
$UCSORGBOTTOM
 10
0.0
 20
0.0
 30
0.0
  9
$UCSORGLEFT
 10
0.0
 20
0.0
 30
0.0
  9
$UCSORGRIGHT
 10
0.0
 20
0.0
 30
0.0
  9
$UCSORGFRONT
 10
0.0
 20
0.0
 30
0.0
  9
$UCSORGBACK
 10
0.0
 20
0.0
 30
0.0
  9
$PUCSBASE
  2

  9
$PUCSNAME
  2

  9
$PUCSORG
 10
0.0
 20
0.0
 30
0.0
  9
$PUCSXDIR
 10
1.0
 20
0.0
 30
0.0
  9
$PUCSYDIR
 10
0.0
 20
1.0
 30
0.0
  9
$PUCSORTHOREF
  2

  9
$PUCSORTHOVIEW
 70
     0
  9
$PUCSORGTOP
 10
0.0
 20
0.0
 30
0.0
  9
$PUCSORGBOTTOM
 10
0.0
 20
0.0
 30
0.0
  9
$PUCSORGLEFT
 10
0.0
 20
0.0
 30
0.0
  9
$PUCSORGRIGHT
 10
0.0
 20
0.0
 30
0.0
  9
$PUCSORGFRONT
 10
0.0
 20
0.0
 30
0.0
  9
$PUCSORGBACK
 10
0.0
 20
0.0
 30
0.0
  9
$USERI1
 70
     0
  9
$USERI2
 70
     0
  9
$USERI3
 70
     0
  9
$USERI4
 70
     0
  9
$USERI5
 70
     0
  9
$USERR1
 40
0.0
  9
$USERR2
 40
0.0
  9
$USERR3
 40
0.0
  9
$USERR4
 40
0.0
  9
$USERR5
 40
0.0
  9
$WORLDVIEW
 70
     1
  9
$SHADEDGE
 70
     3
  9
$SHADEDIF
 70
    70
  9
$TILEMODE
 70
     1
  9
$MAXACTVP
 70
    64
  9
$PINSBASE
 10
0.0
 20
0.0
 30
0.0
  9
$PLIMCHECK
 70
     0
  9
$PEXTMIN
 10
1.0000000000E+20
 20
1.0000000000E+20
 30
1.0000000000E+20
  9
$PEXTMAX
 10
-1.0000000000E+20
 20
-1.0000000000E+20
 30
-1.0000000000E+20
  9
$PLIMMIN
 10
0.0
 20
0.0
  9
$PLIMMAX
 10
420.0
 20
297.0
  9
$UNITMODE
 70
     0
  9
$VISRETAIN
 70
     1
  9
$PLINEGEN
 70
     0
  9
$PSLTSCALE
 70
     1
  9
$TREEDEPTH
 70
  3020
  9
$CMLSTYLE
  2
Standard
  9
$CMLJUST
 70
     0
  9
$CMLSCALE
 40
20.0
  9
$PROXYGRAPHICS
 70
     1
  9
$MEASUREMENT
 70
     1
  9
$CELWEIGHT
370
    -1
  9
$ENDCAPS
280
     0
  9
$JOINSTYLE
280
     0
  9
$LWDISPLAY
290
     1
  9
$INSUNITS
 70
     4
  9
$HYPERLINKBASE
  1

  9
$STYLESHEET
  1

  9
$XEDIT
290
     1
  9
$CEPSNTYPE
380
     0
  9
$PSTYLEMODE
290
     1
  9
$FINGERPRINTGUID
  2
{c1c9347b-5079-4c4c-9887-044d94c72d02}
  9
$VERSIONGUID
  2
{FAEB1C32-E019-11D5-929B-00C0DF256EC4}
  9
$EXTNAMES
290
     1
  9
$PSVPSCALE
 40
0.0
  9
$OLESTARTUP
290
     0
  0
ENDSEC
  0
SECTION
  2
CLASSES
  0
CLASS
  1
ACDBDICTIONARYWDFLT
  2
AcDbDictionaryWithDefault
  3
ObjectDBX Classes
 90
        0
280
     0
281
     0
  0
CLASS
  1
VISUALSTYLE
  2
AcDbVisualStyle
  3
ObjectDBX Classes
 90
     4095
280
     0
281
     0
  0
CLASS
  1
MATERIAL
  2
AcDbMaterial
  3
ObjectDBX Classes
 90
     1153
280
     0
281
     0
  0
CLASS
  1
SCALE
  2
AcDbScale
  3
ObjectDBX Classes
 90
     1153
280
     0
281
     0
  0
CLASS
  1
TABLESTYLE
  2
AcDbTableStyle
  3
ObjectDBX Classes
 90
     4095
280
     0
281
     0
  0
CLASS
  1
MLEADERSTYLE
  2
AcDbMLeaderStyle
  3
ACDB_MLEADERSTYLE_CLASS
 90
     4095
280
     0
281
     0
  0
CLASS
  1
SUN
  2
AcDbSun
  3
SCENEOE
 90
     1153
280
     0
281
     0
  0
CLASS
  1
ACDBPLACEHOLDER
  2
AcDbPlaceHolder
  3
ObjectDBX Classes
 90
        0
280
     0
281
     0
  0
CLASS
  1
LAYOUT
  2
AcDbLayout
  3
ObjectDBX Classes
 90
        0
280
     0
281
     0
  0
ENDSEC
  0
SECTION
  2
TABLES
  0
TABLE
  2
VPORT
  5
8
330
0
100
AcDbSymbolTable
 70
     1
  0
VPORT
  5
29
330
8
100
AcDbSymbolTableRecord
100
AcDbViewportTableRecord
  2
*Active
 70
     0
 10
0.0
 20
0.0
 11
1.0
 21
1.0
 12
10000.0
 22
5000.0
 13
0.0
 23
0.0
 14
10.0
 24
10.0
 15
10.0
 25
10.0
 16
0.0
 26
0.0
 36
1.0
 17
0.0
 27
0.0
 37
0.0
 40
10000.0
 41
2.0
 42
50.0
 43
0.0
 44
0.0
 50
0.0
 51
0.0
 71
     0
 72
  2000
 73
     1
 74
     3
 75
     0
 76
     0
 77
     0
 78
     0
281
     0
 65
     1
110
0.0
120
0.0
130
0.0
111
1.0
121
0.0
131
0.0
112
0.0
122
1.0
132
0.0
 79
     0
146
0.0
  0
ENDTAB
  0
TABLE
  2
LTYPE
  5
5
330
0
100
AcDbSymbolTable
 70
     6
  0
LTYPE
  5
14
330
5
100
AcDbSymbolTableRecord
100
AcDbLinetypeTableRecord
  2
ByBlock
 70
     0
  3

 72
    65
 73
     0
 40
0.0
  0
LTYPE
  5
15
330
5
100
AcDbSymbolTableRecord
100
AcDbLinetypeTableRecord
  2
ByLayer
 70
     0
  3

 72
    65
 73
     0
 40
0.0
  0
LTYPE
  5
16
330
5
100
AcDbSymbolTableRecord
100
AcDbLinetypeTableRecord
  2
Continuous
 70
     0
  3
Solid line
 72
    65
 73
     0
 40
0.0
  0
LTYPE
  5
6E
330
5
100
AcDbSymbolTableRecord
100
AcDbLinetypeTableRecord
  2
HIDDEN
 70
     0
  3
Hidden __ __ __ __ __ __ __ __ __ __ __ __ __ __
 72
    65
 73
     2
 40
1.905
 49
1.27
 74
     0
 49
-0.635
 74
     0
  0
LTYPE
  5
6F
330
5
100
AcDbSymbolTableRecord
100
AcDbLinetypeTableRecord
  2
PHANTOM
 70
     0
  3
Phantom ______  __  __  ______  __  __  ______
 72
    65
 73
     6
 40
12.7
 49
6.35
 74
     0
 49
-1.27
 74
     0
 49
1.27
 74
     0
 49
-1.27
 74
     0
 49
1.27
 74
     0
 49
-1.27
 74
     0
  0
LTYPE
  5
70
330
5
100
AcDbSymbolTableRecord
100
AcDbLinetypeTableRecord
  2
CENTER
 70
     0
  3
Center ____ _ ____ _ ____ _ ____ _ ____ _ ____
 72
    65
 73
     4
 40
10.16
 49
6.35
 74
     0
 49
-1.27
 74
     0
 49
1.27
 74
     0
 49
-1.27
 74
     0
  0
LTYPE
  5
71
330
5
100
AcDbSymbolTableRecord
100
AcDbLinetypeTableRecord
  2
CENTERX2
 70
     0
  3
Center (2x) ________  __  ________  __  _____
 72
    65
 73
     4
 40
20.32
 49
12.7
 74
     0
 49
-2.54
 74
     0
 49
2.54
 74
     0
 49
-2.54
 74
     0
  0
LTYPE
  5
72
330
5
100
AcDbSymbolTableRecord
100
AcDbLinetypeTableRecord
  2
DOT2
 70
     0
  3
Dot (.5x) ........................................
 72
    65
 73
     2
 40
0.635
 49
0.0
 74
     0
 49
-0.635
 74
     0
  0
ENDTAB
  0
TABLE
  2
LAYER
  5
2
330
0
100
AcDbSymbolTable
 70
    13
  0
LAYER
  5
10
330
2
100
AcDbSymbolTableRecord
100
AcDbLayerTableRecord
  2
0
 70
     0
 62
     7
  6
Continuous
370
    -3
390
F
  0
LAYER
  5
73
330
2
100
AcDbSymbolTableRecord
100
AcDbLayerTableRecord
  2
FORMAT
 70
     0
 62
     7
  6
Continuous
370
    -3
390
F
  0
LAYER
  5
74
330
2
100
AcDbSymbolTableRecord
100
AcDbLayerTableRecord
  2
OSA
 70
     0
 62
     7
  6
CENTER
370
    -3
390
F
  0
LAYER
  5
75
330
2
100
AcDbSymbolTableRecord
100
AcDbLayerTableRecord
  2
0_35
 70
     0
 62
     7
  6
Continuous
370
    35
390
F
  0
LAYER
  5
76
330
2
100
AcDbSymbolTableRecord
100
AcDbLayerTableRecord
  2
0_5
 70
     0
 62
     7
  6
Continuous
370
    50
390
F
  0
LAYER
  5
77
330
2
100
AcDbSymbolTableRecord
100
AcDbLayerTableRecord
  2
0_25
 70
     0
 62
     7
  6
Continuous
370
    25
390
F
  0
LAYER
  5
78
330
2
100
AcDbSymbolTableRecord
100
AcDbLayerTableRecord
  2
0_18
 70
     0
 62
     7
  6
Continuous
370
    -3
390
F
  0
LAYER
  5
79
330
2
100
AcDbSymbolTableRecord
100
AcDbLayerTableRecord
  2
SLD-0
 70
     0
 62
   179
  6
Continuous
370
    -3
390
F
  0
LAYER
  5
7A
330
2
100
AcDbSymbolTableRecord
100
AcDbLayerTableRecord
  2
KOTY
 70
     0
 62
     7
  6
Continuous
370
    -3
390
F
  0
LAYER
  5
7B
330
2
100
AcDbSymbolTableRecord
100
AcDbLayerTableRecord
  2
SILNA
 70
     0
 62
   179
  6
Continuous
370
    -3
390
F
  0
LAYER
  5
7C
330
2
100
AcDbSymbolTableRecord
100
AcDbLayerTableRecord
  2
0_18_1
 70
     0
 62
   179
  6
Continuous
370
    -3
390
F
  0
LAYER
  5
7D
330
2
100
AcDbSymbolTableRecord
100
AcDbLayerTableRecord
  2
0_35_1
 70
     0
 62
   179
  6
Continuous
370
    35
390
F
  0
LAYER
  5
7E
330
2
100
AcDbSymbolTableRecord
100
AcDbLayerTableRecord
  2
0_5_1
 70
     0
 62
   179
  6
Continuous
370
    50
390
F
  0
ENDTAB
  0
TABLE
  2
STYLE
  5
3
330
0
100
AcDbSymbolTable
 70
     1
  0
STYLE
  5
11
330
3
100
AcDbSymbolTableRecord
100
AcDbTextStyleTableRecord
  2
Standard
 70
     0
 40
0.0
 41
1.0
 50
0.0
 71
     0
 42
2.0
  3
txt
  4

  0
ENDTAB
  0
TABLE
  2
VIEW
  5
6
330
0
100
AcDbSymbolTable
 70
     0
  0
ENDTAB
  0
TABLE
  2
UCS
  5
7
330
0
100
AcDbSymbolTable
 70
     0
  0
ENDTAB
  0
TABLE
  2
APPID
  5
9
330
0
100
AcDbSymbolTable
 70
     1
  0
APPID
  5
12
330
9
100
AcDbSymbolTableRecord
100
AcDbRegAppTableRecord
  2
ACAD
 70
     0
  0
ENDTAB
  0
TABLE
  2
DIMSTYLE
  5
A
330
0
100
AcDbSymbolTable
 70
     1
100
AcDbDimStyleTable
  0
DIMSTYLE
105
27
330
A
100
AcDbSymbolTableRecord
100
AcDbDimStyleTableRecord
  2
ISO-25
 70
     0
 41
2.5
 42
0.625
 43
3.75
 44
1.25
 73
     0
 74
     0
 77
     1
 78
     8
140
2.5
141
2.5
143
0.0393700787
147
0.625
171
     3
172
     1
178
     0
271
     2
272
     2
274
     3
278
    44
283
     0
284
     8
340
11
  0
ENDTAB
  0
TABLE
  2
BLOCK_RECORD
  5
1
330
0
100
AcDbSymbolTable
 70
     1
  0
BLOCK_RECORD
  5
1F
330
1
100
AcDbSymbolTableRecord
100
AcDbBlockTableRecord
  2
*Model_Space
340
22
  0
BLOCK_RECORD
  5
1B
330
1
100
AcDbSymbolTableRecord
100
AcDbBlockTableRecord
  2
*Paper_Space
340
1E
  0
BLOCK_RECORD
  5
23
330
1
100
AcDbSymbolTableRecord
100
AcDbBlockTableRecord
  2
*Paper_Space0
340
26
  0
ENDTAB
  0
ENDSEC
  0
SECTION
  2
BLOCKS
  0
BLOCK
  5
20
330
1F
100
AcDbEntity
  8
0
100
AcDbBlockBegin
  2
*Model_Space
 70
     0
 10
0.0
 20
0.0
 30
0.0
  3
*Model_Space
  1

  0
ENDBLK
  5
21
330
1F
100
AcDbEntity
  8
0
100
AcDbBlockEnd
  0
BLOCK
  5
1C
330
1B
100
AcDbEntity
 67
     1
  8
0
100
AcDbBlockBegin
  2
*Paper_Space
 70
     0
 10
0.0
 20
0.0
 30
0.0
  3
*Paper_Space
  1

  0
ENDBLK
  5
1D
330
1B
100
AcDbEntity
 67
     1
  8
0
100
AcDbBlockEnd
  0
BLOCK
  5
24
330
23
100
AcDbEntity
  8
0
100
AcDbBlockBegin
  2
*Paper_Space0
 70
     0
 10
0.0
 20
0.0
 30
0.0
  3
*Paper_Space0
  1

  0
ENDBLK
  5
25
330
23
100
AcDbEntity
  8
0
100
AcDbBlockEnd
  0
ENDSEC
  0
SECTION
  2
ENTITIES
  0
LINE
  5
7F
330
1F
100
AcDbEntity
  8
0
  6
Continuous
 62
     7
370
    25
100
AcDbLine
 10
6240.1157950699
 20
4922.9494545927
 30
0.0
 11
6240.1157950699
 21
4906.9494545927
 31
0.0
  0
LINE
  5
80
330
1F
100
AcDbEntity
  8
0
  6
Continuous
 62
     7
370
    25
100
AcDbLine
 10
6314.1157950699
 20
4906.9494545927
 30
0.0
 11
6314.1157950699
 21
4922.9494545927
 31
0.0
  0
LINE
  5
81
330
1F
100
AcDbEntity
  8
0
  6
Continuous
 62
     7
370
    25
100
AcDbLine
 10
6247.1157950699
 20
4906.9494545927
 30
0.0
 11
6247.1157950699
 21
4879.9494545927
 31
0.0
  0
LINE
  5
82
330
1F
100
AcDbEntity
  8
0
  6
Continuous
 62
     7
370
    25
100
AcDbLine
 10
6307.1157950699
 20
4879.9494545927
 30
0.0
 11
6307.1157950699
 21
4906.9494545927
 31
0.0
  0
LINE
  5
83
330
1F
100
AcDbEntity
  8
0
  6
Continuous
 62
     7
370
    25
100
AcDbLine
 10
6306.0187553361
 20
4922.9494545927
 30
0.0
 11
6306.0187553361
 21
4988.9494545927
 31
0.0
  0
LINE
  5
84
330
1F
100
AcDbEntity
  8
0
  6
Continuous
 62
     7
370
    25
100
AcDbLine
 10
6242.0187553361
 20
4988.9494545927
 30
0.0
 11
6242.0187553361
 21
4922.9494545927
 31
0.0
  0
LINE
  5
85
330
1F
100
AcDbEntity
  8
0
  6
Continuous
 62
     7
370
    25
100
AcDbLine
 10
6297.0187553361
 20
4988.9494545927
 30
0.0
 11
6297.0187553361
 21
4996.6865948506
 31
0.0
  0
LINE
  5
86
330
1F
100
AcDbEntity
  8
0
  6
Continuous
 62
     7
370
    25
100
AcDbLine
 10
6251.0187553361
 20
4996.6865948506
 30
0.0
 11
6251.0187553361
 21
4988.9494545927
 31
0.0
  0
LINE
  5
87
330
1F
100
AcDbEntity
  8
0
  6
Continuous
 62
     7
370
    25
100
AcDbLine
 10
6254.0187553361
 20
5103.5116499767
 30
0.0
 11
6254.0187553361
 21
5014.1865948506
 31
0.0
  0
LINE
  5
88
330
1F
100
AcDbEntity
  8
0
  6
Continuous
 62
     7
370
    25
100
AcDbLine
 10
6294.0187553361
 20
5014.1865948506
 30
0.0
 11
6294.0187553361
 21
5103.5116499767
 31
0.0
  0
LINE
  5
89
330
1F
100
AcDbEntity
  8
0
  6
Continuous
 62
     7
370
    25
100
AcDbLine
 10
6301.0187553361
 20
5104.5116499767
 30
0.0
 11
6301.0187553361
 21
5106.5116499767
 31
0.0
  0
LINE
  5
8A
330
1F
100
AcDbEntity
  8
0
  6
Continuous
 62
     7
370
    25
100
AcDbLine
 10
6247.0187553361
 20
5106.5116499767
 30
0.0
 11
6247.0187553361
 21
5104.5116499767
 31
0.0
  0
ARC
  5
8B
330
1F
100
AcDbEntity
  8
0
  6
Continuous
 62
     7
370
    25
100
AcDbCircle
 10
6248.0187553361
 20
5104.5116499767
 30
0.0
 40
1.0
100
AcDbArc
 50
180.0
 51
270.0
  0
ARC
  5
8C
330
1F
100
AcDbEntity
  8
0
  6
Continuous
 62
     7
370
    25
100
AcDbCircle
 10
6300.0187553361
 20
5104.5116499767
 30
0.0
 40
1.0
100
AcDbArc
 50
270.0
 51
0.0
  0
LINE
  5
8D
330
1F
100
AcDbEntity
  8
0
  6
Continuous
 62
     7
370
    25
100
AcDbLine
 10
6247.0187553361
 20
5013.1865948506
 30
0.0
 11
6247.0187553361
 21
5011.1865948506
 31
0.0
  0
LINE
  5
8E
330
1F
100
AcDbEntity
  8
0
  6
Continuous
 62
     7
370
    25
100
AcDbLine
 10
6301.0187553361
 20
5011.1865948506
 30
0.0
 11
6301.0187553361
 21
5013.1865948506
 31
0.0
  0
ARC
  5
8F
330
1F
100
AcDbEntity
  8
0
  6
Continuous
 62
     7
370
    25
100
AcDbCircle
 10
6300.0187553361
 20
5013.1865948506
 30
0.0
 40
0.9999999999990905
100
AcDbArc
 50
0.0
 51
90.0
  0
ARC
  5
90
330
1F
100
AcDbEntity
  8
0
  6
Continuous
 62
     7
370
    25
100
AcDbCircle
 10
6248.0187553361
 20
5013.1865948506
 30
0.0
 40
1.0
100
AcDbArc
 50
90.0
 51
180.0
  0
LINE
  5
91
330
1F
100
AcDbEntity
  8
0
  6
Continuous
 62
     7
370
    25
100
AcDbLine
 10
6248.5187553361
 20
5011.1865948506
 30
0.0
 11
6248.5187553361
 21
4996.6865948506
 31
0.0
  0
ARC
  5
92
330
1F
100
AcDbEntity
  8
0
  6
Continuous
 62
     7
370
    25
100
AcDbCircle
 10
6282.4627769067
 20
5164.7094109366
 30
0.0
 40
41.0568662861245
100
AcDbArc
 50
290.7647726998
 51
351.2298835829
  0
ARC
  5
93
330
1F
100
AcDbEntity
  8
0
  6
Continuous
 62
     7
370
    25
100
AcDbCircle
 10
6265.5747337655
 20
5164.7094109366
 30
0.0
 40
41.0568662861245
100
AcDbArc
 50
188.7701164171
 51
249.2352273002
  0
LINE
  5
94
330
1F
100
AcDbEntity
  8
0
  6
Continuous
 62
     7
370
    25
100
AcDbLine
 10
6297.0187553361
 20
5121.0116499767
 30
0.0
 11
6297.0187553361
 21
5126.3194413977
 31
0.0
  0
LINE
  5
95
330
1F
100
AcDbEntity
  8
0
  6
Continuous
 62
     7
370
    25
100
AcDbLine
 10
6251.0187553361
 20
5126.3194413977
 30
0.0
 11
6251.0187553361
 21
5121.0116499767
 31
0.0
  0
LINE
  5
96
330
1F
100
AcDbEntity
  8
0
  6
Continuous
 62
     7
370
    25
100
AcDbLine
 10
6331.5187553361
 20
5183.4494545927
 30
0.0
 11
6331.5187553361
 21
5185.4494545927
 31
0.0
  0
LINE
  5
97
330
1F
100
AcDbEntity
  8
0
  6
Continuous
 62
     7
370
    25
100
AcDbLine
 10
6216.5187553361
 20
5185.4494545927
 30
0.0
 11
6216.5187553361
 21
5183.4494545927
 31
0.0
  0
LINE
  5
98
330
1F
100
AcDbEntity
  8
0
  6
Continuous
 62
     7
370
    25
100
AcDbLine
 10
6216.5187553361
 20
5186.4494545927
 30
0.0
 11
6217.5187553361
 21
5185.4494545927
 31
0.0
  0
LINE
  5
99
330
1F
100
AcDbEntity
  8
0
  6
Continuous
 62
     7
370
    25
100
AcDbLine
 10
6330.5187553361
 20
5185.4494545927
 30
0.0
 11
6331.5187553361
 21
5186.4494545927
 31
0.0
  0
ARC
  5
9A
330
1F
100
AcDbEntity
  8
0
  6
Continuous
 62
     7
370
    25
100
AcDbCircle
 10
6024.0187553361
 20
5327.7665484952
 30
0.0
 40
10.0
100
AcDbArc
 50
180.0
 51
205.8419327632
  0
ARC
  5
9B
330
1F
100
AcDbEntity
  8
0
  6
Continuous
 62
     7
370
    25
100
AcDbCircle
 10
6024.0187553361
 20
5335.1323606902
 30
0.0
 40
10.0
100
AcDbArc
 50
154.1580672368
 51
180.0
  0
ARC
  5
9C
330
1F
100
AcDbEntity
  8
0
  6
Continuous
 62
     7
370
    25
100
AcDbCircle
 10
6524.0187553361
 20
5335.1323606902
 30
0.0
 40
10.00000000000091
100
AcDbArc
 50
0.0
 51
25.8419327632
  0
ARC
  5
9D
330
1F
100
AcDbEntity
  8
0
  6
Continuous
 62
     7
370
    25
100
AcDbCircle
 10
6524.0187553361
 20
5327.7665484952
 30
0.0
 40
10.00000000000091
100
AcDbArc
 50
334.1580672368
 51
0.0
  0
LWPOLYLINE
  5
9E
330
1F
100
AcDbEntity
  8
0
  6
Continuous
 62
     7
370
    25
100
AcDbPolyline
 90
       26
 70
   128
 43
0.0
 10
6422.0358975766
 20
5363.2795848086
 10
6420.9605269516
 20
5363.2935984463
 10
6419.1256923009
 20
5363.3071925468
 10
6416.8720947687
 20
5363.3185719675
 10
6414.4380863915
 20
5363.3278271121
 10
6411.2480256632
 20
5363.3372043088
 10
6408.4319669254
 20
5363.3437166566
 10
6406.1068774696
 20
5363.3481491629
 10
6402.372159308
 20
5363.3538382622
 10
6398.1485068994
 20
5363.3584942693
 10
6393.5244773022
 20
5363.3617327967
 10
6388.7657393617
 20
5363.3632483358
 10
6383.9755665736
 20
5363.3629887323
 10
6379.4350168629
 20
5363.3610807141
 10
6376.6950046725
 20
5363.3591107253
 10
6374.193585096
 20
5363.3567305258
 10
6371.8252959502
 20
5363.3539210658
 10
6369.6435235942
 20
5363.3508096167
 10
6367.0748102644
 20
5363.3464220977
 10
6364.217146233
 20
5363.3404506917
 10
6361.2086034617
 20
5363.3325759952
 10
6358.2290778741
 20
5363.3225177724
 10
6355.5118608687
 20
5363.3100623723
 10
6353.9839526516
 20
5363.3003805057
 10
6352.7915813013
 20
5363.289618341
 10
6352.0879628968
 20
5363.2795926018
  0
LWPOLYLINE
  5
9F
330
1F
100
AcDbEntity
  8
0
  6
Continuous
 62
     7
370
    25
100
AcDbPolyline
 90
       26
 70
   128
 43
0.0
 10
6195.9387115677
 20
5363.2795881461
 10
6194.8638253435
 20
5363.2935967205
 10
6193.0290801769
 20
5363.3071909316
 10
6190.7755577123
 20
5363.3185704763
 10
6188.3416105098
 20
5363.3278257485
 10
6185.1516119206
 20
5363.3372031077
 10
6182.3355965041
 20
5363.3437155966
 10
6180.0105366736
 20
5363.3481482185
 10
6176.2758566357
 20
5363.353837503
 10
6172.0522354547
 20
5363.3584937197
 10
6167.4282275663
 20
5363.3617324764
 10
6162.6694997818
 20
5363.3632482515
 10
6157.8793252599
 20
5363.3629888857
 10
6153.3387627323
 20
5363.3610810926
 10
6150.5987373094
 20
5363.3591112397
 10
6148.0973017404
 20
5363.3567311642
 10
6145.7289938001
 20
5363.3539218218
 10
6143.5472007439
 20
5363.3508104812
 10
6140.9784582603
 20
5363.3464230905
 10
6138.1207545904
 20
5363.3404518285
 10
6135.112159636
 20
5363.3325772855
 10
6132.1325675209
 20
5363.3225192181
 10
6129.4152682159
 20
5363.3100639652
 10
6127.8872961051
 20
5363.3003821861
 10
6126.6948537836
 20
5363.289620096
 10
6125.9906856085
 20
5363.2795874854
  0
LINE
  5
A0
330
1F
100
AcDbEntity
  8
0
  6
Continuous
 62
     7
370
    25
100
AcDbLine
 10
6349.4473202419
 20
5360.9027939461
 30
0.0
 11
6349.0385978899
 21
5357.4494545927
 31
0.0
  0
LINE
  5
A1
330
1F
100
AcDbEntity
  8
0
  6
Continuous
 62
     7
370
    25
100
AcDbLine
 10
6198.9989127824
 20
5357.4494545927
 30
0.0
 11
6198.5901904303
 21
5360.9027939461
 31
0.0
  0
LINE
  5
A2
330
1F
100
AcDbEntity
  8
0
  6
Continuous
 62
     7
370
    25
100
AcDbLine
 10
6123.3505690542
 20
5360.9029787001
 30
0.0
 11
6122.9417675541
 21
5357.4494545927
 31
0.0
  0
LINE
  5
A3
330
1F
100
AcDbEntity
  8
0
  6
Continuous
 62
     7
370
    25
100
AcDbLine
 10
6425.0957431181
 20
5357.4494545927
 30
0.0
 11
6424.686941618
 21
5360.9029787001
 31
0.0
  0
LINE
  5
A4
330
1F
100
AcDbEntity
  8
0
  6
Continuous
 62
     7
370
    25
100
AcDbLine
 10
6275.0957814065
 20
4922.9494545927
 30
0.0
 11
6240.1157950699
 21
4922.9494545927
 31
0.0
  0
LINE
  5
A5
330
1F
100
AcDbEntity
  8
0
  6
Continuous
 62
     7
370
    25
100
AcDbLine
 10
6314.1157950699
 20
4922.9494545927
 30
0.0
 11
6275.0957814065
 21
4922.9494545927
 31
0.0
  0
LINE
  5
A6
330
1F
100
AcDbEntity
  8
0
  6
Continuous
 62
     7
370
    25
100
AcDbLine
 10
6275.0957814065
 20
4906.9494545927
 30
0.0
 11
6240.1157950699
 21
4906.9494545927
 31
0.0
  0
LINE
  5
A7
330
1F
100
AcDbEntity
  8
0
  6
Continuous
 62
     7
370
    25
100
AcDbLine
 10
6314.1157950699
 20
4906.9494545927
 30
0.0
 11
6275.0957814065
 21
4906.9494545927
 31
0.0
  0
LINE
  5
A8
330
1F
100
AcDbEntity
  8
0
  6
Continuous
 62
     7
370
    25
100
AcDbLine
 10
6275.4779461536
 20
4879.9494545927
 30
0.0
 11
6247.1157950699
 21
4879.9494545927
 31
0.0
  0
LINE
  5
A9
330
1F
100
AcDbEntity
  8
0
  6
Continuous
 62
     7
370
    25
100
AcDbLine
 10
6307.1157950699
 20
4879.9494545927
 30
0.0
 11
6275.4779461536
 21
4879.9494545927
 31
0.0
  0
LINE
  5
AA
330
1F
100
AcDbEntity
  8
0
  6
Continuous
 62
     7
370
    25
100
AcDbLine
 10
6306.0187553361
 20
4988.9494545927
 30
0.0
 11
6242.0187553361
 21
4988.9494545927
 31
0.0
  0
LINE
  5
AB
330
1F
100
AcDbEntity
  8
0
  6
Continuous
 62
     7
370
    25
100
AcDbLine
 10
6247.0187553361
 20
5106.5116499767
 30
0.0
 11
6301.0187553361
 21
5106.5116499767
 31
0.0
  0
LINE
  5
AC
330
1F
100
AcDbEntity
  8
0
  6
Continuous
 62
     7
370
    25
100
AcDbLine
 10
6300.0187553361
 20
5103.5116499767
 30
0.0
 11
6248.0187553361
 21
5103.5116499767
 31
0.0
  0
LINE
  5
AD
330
1F
100
AcDbEntity
  8
0
  6
Continuous
 62
     7
370
    25
100
AcDbLine
 10
6270.0170342704
 20
5121.0116499767
 30
0.0
 11
6270.0170342704
 21
5106.5116499767
 31
0.0
  0
LINE
  5
AE
330
1F
100
AcDbEntity
  8
0
  6
Continuous
 62
     7
370
    25
100
AcDbLine
 10
6272.5035626167
 20
5121.0116499767
 30
0.0
 11
6272.5035626167
 21
5106.5116499767
 31
0.0
  0
LINE
  5
AF
330
1F
100
AcDbEntity
  8
0
  6
Continuous
 62
     7
370
    25
100
AcDbLine
 10
6270.0170342704
 20
5121.0116499767
 30
0.0
 11
6272.5035626167
 21
5121.0116499767
 31
0.0
  0
LINE
  5
B0
330
1F
100
AcDbEntity
  8
0
  6
Continuous
 62
     7
370
    25
100
AcDbLine
 10
6272.6215122985
 20
5121.0116499767
 30
0.0
 11
6272.6215122985
 21
5106.5116499767
 31
0.0
  0
LINE
  5
B1
330
1F
100
AcDbEntity
  8
0
  6
Continuous
 62
     7
370
    25
100
AcDbLine
 10
6272.5035626167
 20
5121.0116499767
 30
0.0
 11
6272.6215122985
 21
5121.0116499767
 31
0.0
  0
LINE
  5
B2
330
1F
100
AcDbEntity
  8
0
  6
Continuous
 62
     7
370
    25
100
AcDbLine
 10
6280.7215364074
 20
5121.0116499767
 30
0.0
 11
6280.7215364074
 21
5106.5116499767
 31
0.0
  0
LINE
  5
B3
330
1F
100
AcDbEntity
  8
0
  6
Continuous
 62
     7
370
    25
100
AcDbLine
 10
6272.6215122985
 20
5121.0116499767
 30
0.0
 11
6280.7215364074
 21
5121.0116499767
 31
0.0
  0
LINE
  5
B4
330
1F
100
AcDbEntity
  8
0
  6
Continuous
 62
     7
370
    25
100
AcDbLine
 10
6281.0740341059
 20
5121.0116499767
 30
0.0
 11
6281.0740341059
 21
5106.5116499767
 31
0.0
  0
LINE
  5
B5
330
1F
100
AcDbEntity
  8
0
  6
Continuous
 62
     7
370
    25
100
AcDbLine
 10
6283.4510107552
 20
5121.0116499767
 30
0.0
 11
6283.4510107552
 21
5106.5116499767
 31
0.0
  0
LINE
  5
B6
330
1F
100
AcDbEntity
  8
0
  6
Continuous
 62
     7
370
    25
100
AcDbLine
 10
6281.0740341059
 20
5121.0116499767
 30
0.0
 11
6283.4510107552
 21
5121.0116499767
 31
0.0
  0
LINE
  5
B7
330
1F
100
AcDbEntity
  8
0
  6
Continuous
 62
     7
370
    25
100
AcDbLine
 10
6280.7215364074
 20
5121.0116499767
 30
0.0
 11
6281.0740341059
 21
5121.0116499767
 31
0.0
  0
LINE
  5
B8
330
1F
100
AcDbEntity
  8
0
  6
Continuous
 62
     7
370
    25
100
AcDbLine
 10
6262.386107555
 20
5121.0116499767
 30
0.0
 11
6262.386107555
 21
5106.5116499767
 31
0.0
  0
LINE
  5
B9
330
1F
100
AcDbEntity
  8
0
  6
Continuous
 62
     7
370
    25
100
AcDbLine
 10
6262.386107555
 20
5121.0116499767
 30
0.0
 11
6270.1349839522
 21
5121.0116499767
 31
0.0
  0
LINE
  5
BA
330
1F
100
AcDbEntity
  8
0
  6
Continuous
 62
     7
370
    25
100
AcDbLine
 10
6290.1491171225
 20
5121.0116499767
 30
0.0
 11
6290.1491171225
 21
5106.5116499767
 31
0.0
  0
LINE
  5
BB
330
1F
100
AcDbEntity
  8
0
  6
Continuous
 62
     7
370
    25
100
AcDbLine
 10
6283.4510107552
 20
5121.0116499767
 30
0.0
 11
6290.1491171225
 21
5121.0116499767
 31
0.0
  0
LINE
  5
BC
330
1F
100
AcDbEntity
  8
0
  6
Continuous
 62
     7
370
    25
100
AcDbLine
 10
6261.8181050644
 20
5121.0116499767
 30
0.0
 11
6261.8181050644
 21
5106.5116499767
 31
0.0
  0
LINE
  5
BD
330
1F
100
AcDbEntity
  8
0
  6
Continuous
 62
     7
370
    25
100
AcDbLine
 10
6261.8181050644
 20
5121.0116499767
 30
0.0
 11
6262.386107555
 21
5121.0116499767
 31
0.0
  0
LINE
  5
BE
330
1F
100
AcDbEntity
  8
0
  6
Continuous
 62
     7
370
    25
100
AcDbLine
 10
6259.6519683616
 20
5121.0116499767
 30
0.0
 11
6259.6519683616
 21
5106.5116499767
 31
0.0
  0
LINE
  5
BF
330
1F
100
AcDbEntity
  8
0
  6
Continuous
 62
     7
370
    25
100
AcDbLine
 10
6259.6519683616
 20
5121.0116499767
 30
0.0
 11
6261.8181050644
 21
5121.0116499767
 31
0.0
  0
LINE
  5
C0
330
1F
100
AcDbEntity
  8
0
  6
Continuous
 62
     7
370
    25
100
AcDbLine
 10
6254.1620932922
 20
5121.0116499767
 30
0.0
 11
6254.1620932922
 21
5106.5116499767
 31
0.0
  0
LINE
  5
C1
330
1F
100
AcDbEntity
  8
0
  6
Continuous
 62
     7
370
    25
100
AcDbLine
 10
6254.1620932922
 20
5121.0116499767
 30
0.0
 11
6259.6519683616
 21
5121.0116499767
 31
0.0
  0
LINE
  5
C2
330
1F
100
AcDbEntity
  8
0
  6
Continuous
 62
     7
370
    25
100
AcDbLine
 10
6290.911112147
 20
5121.0116499767
 30
0.0
 11
6290.911112147
 21
5106.5116499767
 31
0.0
  0
LINE
  5
C3
330
1F
100
AcDbEntity
  8
0
  6
Continuous
 62
     7
370
    25
100
AcDbLine
 10
6292.7675362425
 20
5121.0116499767
 30
0.0
 11
6292.7675362425
 21
5106.5116499767
 31
0.0
  0
LINE
  5
C4
330
1F
100
AcDbEntity
  8
0
  6
Continuous
 62
     7
370
    25
100
AcDbLine
 10
6290.911112147
 20
5121.0116499767
 30
0.0
 11
6292.7675362425
 21
5121.0116499767
 31
0.0
  0
LINE
  5
C5
330
1F
100
AcDbEntity
  8
0
  6
Continuous
 62
     7
370
    25
100
AcDbLine
 10
6290.1491171225
 20
5121.0116499767
 30
0.0
 11
6290.911112147
 21
5121.0116499767
 31
0.0
  0
LINE
  5
C6
330
1F
100
AcDbEntity
  8
0
  6
Continuous
 62
     7
370
    25
100
AcDbLine
 10
6296.787611745
 20
5121.0116499767
 30
0.0
 11
6296.787611745
 21
5106.5116499767
 31
0.0
  0
LINE
  5
C7
330
1F
100
AcDbEntity
  8
0
  6
Continuous
 62
     7
370
    25
100
AcDbLine
 10
6292.7349960365
 20
5121.0116499767
 30
0.0
 11
6296.787611745
 21
5121.0116499767
 31
0.0
  0
LINE
  5
C8
330
1F
100
AcDbEntity
  8
0
  6
Continuous
 62
     7
370
    25
100
AcDbLine
 10
6253.2422507835
 20
5121.0116499767
 30
0.0
 11
6253.2422507835
 21
5106.5116499767
 31
0.0
  0
LINE
  5
C9
330
1F
100
AcDbEntity
  8
0
  6
Continuous
 62
     7
370
    25
100
AcDbLine
 10
6253.2422507835
 20
5121.0116499767
 30
0.0
 11
6254.1620932922
 21
5121.0116499767
 31
0.0
  0
LINE
  5
CA
330
1F
100
AcDbEntity
  8
0
  6
Continuous
 62
     7
370
    25
100
AcDbLine
 10
6251.7710504389
 20
5121.0116499767
 30
0.0
 11
6251.7710504389
 21
5106.5116499767
 31
0.0
  0
LINE
  5
CB
330
1F
100
AcDbEntity
  8
0
  6
Continuous
 62
     7
370
    25
100
AcDbLine
 10
6251.7710504389
 20
5121.0116499767
 30
0.0
 11
6253.2422507835
 21
5121.0116499767
 31
0.0
  0
LINE
  5
CC
330
1F
100
AcDbEntity
  8
0
  6
Continuous
 62
     7
370
    25
100
AcDbLine
 10
6249.3714762889
 20
5121.0116499767
 30
0.0
 11
6249.3714762889
 21
5106.5116499767
 31
0.0
  0
LINE
  5
CD
330
1F
100
AcDbEntity
  8
0
  6
Continuous
 62
     7
370
    25
100
AcDbLine
 10
6249.3714762889
 20
5121.0116499767
 30
0.0
 11
6251.745913936
 21
5121.0116499767
 31
0.0
  0
LINE
  5
CE
330
1F
100
AcDbEntity
  8
0
  6
Continuous
 62
     7
370
    25
100
AcDbLine
 10
6297.8273482332
 20
5121.0116499767
 30
0.0
 11
6297.8273482332
 21
5106.5116499767
 31
0.0
  0
LINE
  5
CF
330
1F
100
AcDbEntity
  8
0
  6
Continuous
 62
     7
370
    25
100
AcDbLine
 10
6298.8422271837
 20
5121.0116499767
 30
0.0
 11
6298.8422271837
 21
5106.5116499767
 31
0.0
  0
LINE
  5
D0
330
1F
100
AcDbEntity
  8
0
  6
Continuous
 62
     7
370
    25
100
AcDbLine
 10
6297.8273482332
 20
5121.0116499767
 30
0.0
 11
6298.8422271837
 21
5121.0116499767
 31
0.0
  0
LINE
  5
D1
330
1F
100
AcDbEntity
  8
0
  6
Continuous
 62
     7
370
    25
100
AcDbLine
 10
6296.787611745
 20
5121.0116499767
 30
0.0
 11
6297.8273482332
 21
5121.0116499767
 31
0.0
  0
LINE
  5
D2
330
1F
100
AcDbEntity
  8
0
  6
Continuous
 62
     7
370
    25
100
AcDbLine
 10
6299.4891642458
 20
5121.0116499767
 30
0.0
 11
6299.4891642458
 21
5106.5116499767
 31
0.0
  0
LINE
  5
D3
330
1F
100
AcDbEntity
  8
0
  6
Continuous
 62
     7
370
    25
100
AcDbLine
 10
6298.8255929698
 20
5121.0116499767
 30
0.0
 11
6299.4891642458
 21
5121.0116499767
 31
0.0
  0
LINE
  5
D4
330
1F
100
AcDbEntity
  8
0
  6
Continuous
 62
     7
370
    25
100
AcDbLine
 10
6248.2588428884
 20
5121.0116499767
 30
0.0
 11
6248.2588428884
 21
5106.5116499767
 31
0.0
  0
LINE
  5
D5
330
1F
100
AcDbEntity
  8
0
  6
Continuous
 62
     7
370
    25
100
AcDbLine
 10
6248.2588428884
 20
5121.0116499767
 30
0.0
 11
6249.3714762889
 21
5121.0116499767
 31
0.0
  0
LINE
  5
D6
330
1F
100
AcDbEntity
  8
0
  6
Continuous
 62
     7
370
    25
100
AcDbLine
 10
6247.7369628069
 20
5121.0116499767
 30
0.0
 11
6247.7369628069
 21
5106.5116499767
 31
0.0
  0
LINE
  5
D7
330
1F
100
AcDbEntity
  8
0
  6
Continuous
 62
     7
370
    25
100
AcDbLine
 10
6247.7369628069
 20
5121.0116499767
 30
0.0
 11
6248.2588428884
 21
5121.0116499767
 31
0.0
  0
LINE
  5
D8
330
1F
100
AcDbEntity
  8
0
  6
Continuous
 62
     7
370
    25
100
AcDbLine
 10
6300.6268623132
 20
5121.0116499767
 30
0.0
 11
6300.6268623132
 21
5106.5116499767
 31
0.0
  0
LINE
  5
D9
330
1F
100
AcDbEntity
  8
0
  6
Continuous
 62
     7
370
    25
100
AcDbLine
 10
6299.4891642458
 20
5121.0116499767
 30
0.0
 11
6300.6268623132
 21
5121.0116499767
 31
0.0
  0
LINE
  5
DA
330
1F
100
AcDbEntity
  8
0
  6
Continuous
 62
     7
370
    25
100
AcDbLine
 10
6247.7295578769
 20
5121.0116499767
 30
0.0
 11
6247.7295578769
 21
5106.5116499767
 31
0.0
  0
LINE
  5
DB
330
1F
100
AcDbEntity
  8
0
  6
Continuous
 62
     7
370
    25
100
AcDbLine
 10
6247.7295578769
 20
5121.0116499767
 30
0.0
 11
6247.7369628069
 21
5121.0116499767
 31
0.0
  0
LINE
  5
DC
330
1F
100
AcDbEntity
  8
0
  6
Continuous
 62
     7
370
    25
100
AcDbLine
 10
6259.2512635938
 20
5011.1865948506
 30
0.0
 11
6247.0187553361
 21
5011.1865948506
 31
0.0
  0
LINE
  5
DD
330
1F
100
AcDbEntity
  8
0
  6
Continuous
 62
     7
370
    25
100
AcDbLine
 10
6301.0187553361
 20
5011.1865948506
 30
0.0
 11
6259.2512635938
 21
5011.1865948506
 31
0.0
  0
LINE
  5
DE
330
1F
100
AcDbEntity
  8
0
  6
Continuous
 62
     7
370
    25
100
AcDbLine
 10
6259.7982077324
 20
5014.1865948506
 30
0.0
 11
6300.0187553361
 21
5014.1865948506
 31
0.0
  0
LINE
  5
DF
330
1F
100
AcDbEntity
  8
0
  6
Continuous
 62
     7
370
    25
100
AcDbLine
 10
6248.0187553361
 20
5014.1865948506
 30
0.0
 11
6259.7982077324
 21
5014.1865948506
 31
0.0
  0
LINE
  5
E0
330
1F
100
AcDbEntity
  8
0
  6
Continuous
 62
     7
370
    25
100
AcDbLine
 10
6284.4038079325
 20
4996.6865948506
 30
0.0
 11
6284.4038079325
 21
5011.1865948506
 31
0.0
  0
LINE
  5
E1
330
1F
100
AcDbEntity
  8
0
  6
Continuous
 62
     7
370
    25
100
AcDbLine
 10
6284.4038079325
 20
4996.6865948506
 30
0.0
 11
6276.5302053566
 21
4996.6865948506
 31
0.0
  0
LINE
  5
E2
330
1F
100
AcDbEntity
  8
0
  6
Continuous
 62
     7
370
    25
100
AcDbLine
 10
6265.9917200797
 20
4996.6865948506
 30
0.0
 11
6265.9917200797
 21
5011.1865948506
 31
0.0
  0
LINE
  5
E3
330
1F
100
AcDbEntity
  8
0
  6
Continuous
 62
     7
370
    25
100
AcDbLine
 10
6274.0332810289
 20
4996.6865948506
 30
0.0
 11
6274.0332810289
 21
5011.1865948506
 31
0.0
  0
LINE
  5
E4
330
1F
100
AcDbEntity
  8
0
  6
Continuous
 62
     7
370
    25
100
AcDbLine
 10
6274.0332810289
 20
4996.6865948506
 30
0.0
 11
6265.9917200797
 21
4996.6865948506
 31
0.0
  0
LINE
  5
E5
330
1F
100
AcDbEntity
  8
0
  6
Continuous
 62
     7
370
    25
100
AcDbLine
 10
6276.586622175
 20
4996.6865948506
 30
0.0
 11
6276.586622175
 21
5011.1865948506
 31
0.0
  0
LINE
  5
E6
330
1F
100
AcDbEntity
  8
0
  6
Continuous
 62
     7
370
    25
100
AcDbLine
 10
6274.0896978473
 20
4996.6865948506
 30
0.0
 11
6274.0896978473
 21
5011.1865948506
 31
0.0
  0
LINE
  5
E7
330
1F
100
AcDbEntity
  8
0
  6
Continuous
 62
     7
370
    25
100
AcDbLine
 10
6276.586622175
 20
4996.6865948506
 30
0.0
 11
6274.0896978473
 21
4996.6865948506
 31
0.0
  0
LINE
  5
E8
330
1F
100
AcDbEntity
  8
0
  6
Continuous
 62
     7
370
    25
100
AcDbLine
 10
6274.0896978473
 20
4996.6865948506
 30
0.0
 11
6274.0332810289
 21
4996.6865948506
 31
0.0
  0
LINE
  5
E9
330
1F
100
AcDbEntity
  8
0
  6
Continuous
 62
     7
370
    25
100
AcDbLine
 10
6265.5810850435
 20
4996.6865948506
 30
0.0
 11
6265.5810850435
 21
5011.1865948506
 31
0.0
  0
LINE
  5
EA
330
1F
100
AcDbEntity
  8
0
  6
Continuous
 62
     7
370
    25
100
AcDbLine
 10
6263.2496074649
 20
4996.6865948506
 30
0.0
 11
6263.2496074649
 21
5011.1865948506
 31
0.0
  0
LINE
  5
EB
330
1F
100
AcDbEntity
  8
0
  6
Continuous
 62
     7
370
    25
100
AcDbLine
 10
6265.5810850435
 20
4996.6865948506
 30
0.0
 11
6263.2496074649
 21
4996.6865948506
 31
0.0
  0
LINE
  5
EC
330
1F
100
AcDbEntity
  8
0
  6
Continuous
 62
     7
370
    25
100
AcDbLine
 10
6265.9917200797
 20
4996.6865948506
 30
0.0
 11
6265.5810850435
 21
4996.6865948506
 31
0.0
  0
LINE
  5
ED
330
1F
100
AcDbEntity
  8
0
  6
Continuous
 62
     7
370
    25
100
AcDbLine
 10
6287.1481518017
 20
4996.6865948506
 30
0.0
 11
6287.1481518017
 21
5011.1865948506
 31
0.0
  0
LINE
  5
EE
330
1F
100
AcDbEntity
  8
0
  6
Continuous
 62
     7
370
    25
100
AcDbLine
 10
6284.9175216251
 20
4996.6865948506
 30
0.0
 11
6284.9175216251
 21
5011.1865948506
 31
0.0
  0
LINE
  5
EF
330
1F
100
AcDbEntity
  8
0
  6
Continuous
 62
     7
370
    25
100
AcDbLine
 10
6287.1481518017
 20
4996.6865948506
 30
0.0
 11
6284.9175216251
 21
4996.6865948506
 31
0.0
  0
LINE
  5
F0
330
1F
100
AcDbEntity
  8
0
  6
Continuous
 62
     7
370
    25
100
AcDbLine
 10
6284.9175216251
 20
4996.6865948506
 30
0.0
 11
6284.4038079325
 21
4996.6865948506
 31
0.0
  0
LINE
  5
F1
330
1F
100
AcDbEntity
  8
0
  6
Continuous
 62
     7
370
    25
100
AcDbLine
 10
6256.841182122
 20
4996.6865948506
 30
0.0
 11
6256.841182122
 21
5011.1865948506
 31
0.0
  0
LINE
  5
F2
330
1F
100
AcDbEntity
  8
0
  6
Continuous
 62
     7
370
    25
100
AcDbLine
 10
6263.2496074649
 20
4996.6865948506
 30
0.0
 11
6256.841182122
 21
4996.6865948506
 31
0.0
  0
LINE
  5
F3
330
1F
100
AcDbEntity
  8
0
  6
Continuous
 62
     7
370
    25
100
AcDbLine
 10
6292.9786648969
 20
4996.6865948506
 30
0.0
 11
6292.9786648969
 21
5011.1865948506
 31
0.0
  0
LINE
  5
F4
330
1F
100
AcDbEntity
  8
0
  6
Continuous
 62
     7
370
    25
100
AcDbLine
 10
6292.9786648969
 20
4996.6865948506
 30
0.0
 11
6287.1481518017
 21
4996.6865948506
 31
0.0
  0
LINE
  5
F5
330
1F
100
AcDbEntity
  8
0
  6
Continuous
 62
     7
370
    25
100
AcDbLine
 10
6256.0344977595
 20
4996.6865948506
 30
0.0
 11
6256.0344977595
 21
5011.1865948506
 31
0.0
  0
LINE
  5
F6
330
1F
100
AcDbEntity
  8
0
  6
Continuous
 62
     7
370
    25
100
AcDbLine
 10
6256.841182122
 20
4996.6865948506
 30
0.0
 11
6256.0344977595
 21
4996.6865948506
 31
0.0
  0
LINE
  5
F7
330
1F
100
AcDbEntity
  8
0
  6
Continuous
 62
     7
370
    25
100
AcDbLine
 10
6254.2716005841
 20
4996.6865948506
 30
0.0
 11
6254.2716005841
 21
5011.1865948506
 31
0.0
  0
LINE
  5
F8
330
1F
100
AcDbEntity
  8
0
  6
Continuous
 62
     7
370
    25
100
AcDbLine
 10
6256.0344977595
 20
4996.6865948506
 30
0.0
 11
6254.2716005841
 21
4996.6865948506
 31
0.0
  0
LINE
  5
F9
330
1F
100
AcDbEntity
  8
0
  6
Continuous
 62
     7
370
    25
100
AcDbLine
 10
6295.4394895027
 20
4996.6865948506
 30
0.0
 11
6295.4394895027
 21
5011.1865948506
 31
0.0
  0
LINE
  5
FA
330
1F
100
AcDbEntity
  8
0
  6
Continuous
 62
     7
370
    25
100
AcDbLine
 10
6293.8608496993
 20
4996.6865948506
 30
0.0
 11
6293.8608496993
 21
5011.1865948506
 31
0.0
  0
LINE
  5
FB
330
1F
100
AcDbEntity
  8
0
  6
Continuous
 62
     7
370
    25
100
AcDbLine
 10
6295.4394895027
 20
4996.6865948506
 30
0.0
 11
6293.8608496993
 21
4996.6865948506
 31
0.0
  0
LINE
  5
FC
330
1F
100
AcDbEntity
  8
0
  6
Continuous
 62
     7
370
    25
100
AcDbLine
 10
6293.8608496993
 20
4996.6865948506
 30
0.0
 11
6292.9786648969
 21
4996.6865948506
 31
0.0
  0
LINE
  5
FD
330
1F
100
AcDbEntity
  8
0
  6
Continuous
 62
     7
370
    25
100
AcDbLine
 10
6250.6608026264
 20
4996.6865948506
 30
0.0
 11
6250.6608026264
 21
5011.1865948506
 31
0.0
  0
LINE
  5
FE
330
1F
100
AcDbEntity
  8
0
  6
Continuous
 62
     7
370
    25
100
AcDbLine
 10
6254.2716005841
 20
4996.6865948506
 30
0.0
 11
6250.6608026264
 21
4996.6865948506
 31
0.0
  0
LINE
  5
FF
330
1F
100
AcDbEntity
  8
0
  6
Continuous
 62
     7
370
    25
100
AcDbLine
 10
6298.2751812529
 20
4996.6865948506
 30
0.0
 11
6298.2751812529
 21
5011.1865948506
 31
0.0
  0
LINE
  5
100
330
1F
100
AcDbEntity
  8
0
  6
Continuous
 62
     7
370
    25
100
AcDbLine
 10
6298.2751812529
 20
4996.6865948506
 30
0.0
 11
6295.4394895027
 21
4996.6865948506
 31
0.0
  0
LINE
  5
101
330
1F
100
AcDbEntity
  8
0
  6
Continuous
 62
     7
370
    25
100
AcDbLine
 10
6249.5975519923
 20
4996.6865948506
 30
0.0
 11
6249.5975519923
 21
5011.1865948506
 31
0.0
  0
LINE
  5
102
330
1F
100
AcDbEntity
  8
0
  6
Continuous
 62
     7
370
    25
100
AcDbLine
 10
6250.6608026264
 20
4996.6865948506
 30
0.0
 11
6249.5975519923
 21
4996.6865948506
 31
0.0
  0
LINE
  5
103
330
1F
100
AcDbEntity
  8
0
  6
Continuous
 62
     7
370
    25
100
AcDbLine
 10
6248.7080561571
 20
4996.6865948506
 30
0.0
 11
6248.7080561571
 21
5011.1865948506
 31
0.0
  0
LINE
  5
104
330
1F
100
AcDbEntity
  8
0
  6
Continuous
 62
     7
370
    25
100
AcDbLine
 10
6249.5975519923
 20
4996.6865948506
 30
0.0
 11
6248.7080561571
 21
4996.6865948506
 31
0.0
  0
LINE
  5
105
330
1F
100
AcDbEntity
  8
0
  6
Continuous
 62
     7
370
    25
100
AcDbLine
 10
6299.3732993983
 20
4996.6865948506
 30
0.0
 11
6299.3732993983
 21
5011.1865948506
 31
0.0
  0
LINE
  5
106
330
1F
100
AcDbEntity
  8
0
  6
Continuous
 62
     7
370
    25
100
AcDbLine
 10
6299.3732993983
 20
4996.6865948506
 30
0.0
 11
6298.2751812529
 21
4996.6865948506
 31
0.0
  0
LINE
  5
107
330
1F
100
AcDbEntity
  8
0
  6
Continuous
 62
     7
370
    25
100
AcDbLine
 10
6300.026987665
 20
4996.6865948506
 30
0.0
 11
6300.026987665
 21
5011.1865948506
 31
0.0
  0
LINE
  5
108
330
1F
100
AcDbEntity
  8
0
  6
Continuous
 62
     7
370
    25
100
AcDbLine
 10
6300.026987665
 20
4996.6865948506
 30
0.0
 11
6299.3732993983
 21
4996.6865948506
 31
0.0
  0
LINE
  5
109
330
1F
100
AcDbEntity
  8
0
  6
Continuous
 62
     7
370
    25
100
AcDbLine
 10
6248.7080561571
 20
4996.6865948506
 30
0.0
 11
6248.5192253546
 21
4996.6865948506
 31
0.0
  0
LINE
  5
10A
330
1F
100
AcDbEntity
  8
0
  6
Continuous
 62
     7
370
    25
100
AcDbLine
 10
6247.3832541429
 20
4996.6865948506
 30
0.0
 11
6247.3832541429
 21
5011.1865948506
 31
0.0
  0
LINE
  5
10B
330
1F
100
AcDbEntity
  8
0
  6
Continuous
 62
     7
370
    25
100
AcDbLine
 10
6248.5187553361
 20
4996.6865948506
 30
0.0
 11
6247.3832541429
 21
4996.6865948506
 31
0.0
  0
LINE
  5
10C
330
1F
100
AcDbEntity
  8
0
  6
Continuous
 62
     7
370
    25
100
AcDbLine
 10
6300.5017180902
 20
4996.6865948506
 30
0.0
 11
6300.5017180902
 21
5011.1865948506
 31
0.0
  0
LINE
  5
10D
330
1F
100
AcDbEntity
  8
0
  6
Continuous
 62
     7
370
    25
100
AcDbLine
 10
6300.5017180902
 20
4996.6865948506
 30
0.0
 11
6300.026987665
 21
4996.6865948506
 31
0.0
  0
ARC
  5
10E
330
1F
100
AcDbEntity
  8
0
  6
Continuous
 62
     7
370
    25
100
AcDbCircle
 10
6274.0187553361
 20
4966.9494545927
 30
0.0
 40
40.50000000000063
100
AcDbArc
 50
131.1221636199
 51
217.8029497815
  0
ARC
  5
10F
330
1F
100
AcDbEntity
  8
0
  6
Continuous
 62
     7
370
    25
100
AcDbCircle
 10
6274.0187553361
 20
4966.9494545927
 30
0.0
 40
40.50000000000012
100
AcDbArc
 50
322.1970502185
 51
49.1636814872
  0
LINE
  5
110
330
1F
100
AcDbEntity
  8
0
  6
Continuous
 62
     7
370
    25
100
AcDbLine
 10
6297.0187553361
 20
5126.3194413977
 30
0.0
 11
6251.0187553361
 21
5126.3194413977
 31
0.0
  0
LINE
  5
111
330
1F
100
AcDbEntity
  8
0
  6
Continuous
 62
     7
370
    25
100
AcDbLine
 10
6216.5187553361
 20
5185.4494545927
 30
0.0
 11
6331.5187553361
 21
5185.4494545927
 31
0.0
  0
LINE
  5
112
330
1F
100
AcDbEntity
  8
0
  6
Continuous
 62
     7
370
    25
100
AcDbLine
 10
6211.0187553361
 20
5183.4494545927
 30
0.0
 11
6337.0187553361
 21
5183.4494545927
 31
0.0
  0
ARC
  5
113
330
1F
100
AcDbEntity
  8
0
  6
Continuous
 62
     7
370
    25
100
AcDbCircle
 10
6337.0187553361
 20
5180.4494545927
 30
0.0
 40
3.0
100
AcDbArc
 50
0.0
 51
90.0
  0
LINE
  5
114
330
1F
100
AcDbEntity
  8
0
  6
Continuous
 62
     7
370
    25
100
AcDbLine
 10
6340.0187553361
 20
5180.4494545927
 30
0.0
 11
6208.0187553361
 21
5180.4494545927
 31
0.0
  0
ARC
  5
115
330
1F
100
AcDbEntity
  8
0
  6
Continuous
 62
     7
370
    25
100
AcDbCircle
 10
6211.0187553361
 20
5180.4494545927
 30
0.0
 40
3.0
100
AcDbArc
 50
90.0
 51
180.0
  0
LINE
  5
116
330
1F
100
AcDbEntity
  8
0
  6
Continuous
 62
     7
370
    25
100
AcDbLine
 10
6211.0187553361
 20
5158.4494545927
 30
0.0
 11
6337.0187553361
 21
5158.4494545927
 31
0.0
  0
ARC
  5
117
330
1F
100
AcDbEntity
  8
0
  6
Continuous
 62
     7
370
    25
100
AcDbCircle
 10
6211.0187553361
 20
5161.4494545927
 30
0.0
 40
3.0
100
AcDbArc
 50
180.0
 51
270.0
  0
LINE
  5
118
330
1F
100
AcDbEntity
  8
0
  6
Continuous
 62
     7
370
    25
100
AcDbLine
 10
6208.0187553361
 20
5161.4494545927
 30
0.0
 11
6340.0187553361
 21
5161.4494545927
 31
0.0
  0
ARC
  5
119
330
1F
100
AcDbEntity
  8
0
  6
Continuous
 62
     7
370
    25
100
AcDbCircle
 10
6337.0187553361
 20
5161.4494545927
 30
0.0
 40
3.0
100
AcDbArc
 50
270.0
 51
0.0
  0
LINE
  5
11A
330
1F
100
AcDbEntity
  8
0
  6
Continuous
 62
     7
370
    25
100
AcDbLine
 10
6340.0187553361
 20
5180.4494545927
 30
0.0
 11
6340.0187553361
 21
5161.4494545927
 31
0.0
  0
LINE
  5
11B
330
1F
100
AcDbEntity
  8
0
  6
Continuous
 62
     7
370
    25
100
AcDbLine
 10
6208.0187553361
 20
5180.4494545927
 30
0.0
 11
6208.0187553361
 21
5161.4494545927
 31
0.0
  0
LWPOLYLINE
  5
11C
330
1F
100
AcDbEntity
  8
0
  6
Continuous
 62
     7
370
    25
100
AcDbPolyline
 90
        9
 70
   128
 43
0.0
 10
6337.0187553361
 20
5156.6312124885
 10
6337.6040263021
 20
5156.6539196351
 10
6338.1668056332
 20
5156.7211684519
 10
6338.6854660352
 20
5156.8303746048
 10
6339.1400756797
 20
5156.9773413624
 10
6339.513164173
 20
5157.1564208747
 10
6339.7903939336
 20
5157.3607312164
 10
6339.9611111773
 20
5157.5824208558
 10
6340.0187553361
 20
5157.8129703842
  0
LINE
  5
11D
330
1F
100
AcDbEntity
  8
0
  6
Continuous
 62
     7
370
    25
100
AcDbLine
 10
6337.0187553361
 20
5156.6312124885
 30
0.0
 11
6337.0187553361
 21
5158.4494545927
 31
0.0
  0
LINE
  5
11E
330
1F
100
AcDbEntity
  8
0
  6
Continuous
 62
     7
370
    25
100
AcDbLine
 10
6340.0187553361
 20
5157.8129703842
 30
0.0
 11
6340.0187553361
 21
5161.4494545927
 31
0.0
  0
LWPOLYLINE
  5
11F
330
1F
100
AcDbEntity
  8
0
  6
Continuous
 62
     7
370
    25
100
AcDbPolyline
 90
        9
 70
   128
 43
0.0
 10
6211.0187553361
 20
5156.6312124885
 10
6210.4334843701
 20
5156.6539196351
 10
6209.870705039
 20
5156.7211684519
 10
6209.352044637
 20
5156.8303746048
 10
6208.8974349925
 20
5156.9773413624
 10
6208.5243464992
 20
5157.1564208747
 10
6208.2471167386
 20
5157.3607312164
 10
6208.0763994949
 20
5157.5824208558
 10
6208.0187553361
 20
5157.8129703842
  0
LINE
  5
120
330
1F
100
AcDbEntity
  8
0
  6
Continuous
 62
     7
370
    25
100
AcDbLine
 10
6211.0187553361
 20
5158.4494545927
 30
0.0
 11
6211.0187553361
 21
5156.6312124885
 31
0.0
  0
LINE
  5
121
330
1F
100
AcDbEntity
  8
0
  6
Continuous
 62
     7
370
    25
100
AcDbLine
 10
6208.0187553361
 20
5161.4494545927
 30
0.0
 11
6208.0187553361
 21
5157.8129703842
 31
0.0
  0
LWPOLYLINE
  5
122
330
1F
100
AcDbEntity
  8
0
  6
Continuous
 62
     7
370
    25
100
AcDbPolyline
 90
        9
 70
   128
 43
0.0
 10
6337.0187553361
 20
5125.267696697
 10
6337.6040263021
 20
5125.2904038436
 10
6338.1668056332
 20
5125.3576526605
 10
6338.6854660352
 20
5125.4668588133
 10
6339.1400756797
 20
5125.6138255709
 10
6339.513164173
 20
5125.7929050832
 10
6339.7903939336
 20
5125.997215425
 10
6339.9611111773
 20
5126.2189050643
 10
6340.0187553361
 20
5126.4494545927
  0
LINE
  5
123
330
1F
100
AcDbEntity
  8
0
  6
Continuous
 62
     7
370
    25
100
AcDbLine
 10
6337.0187553361
 20
5156.6312124885
 30
0.0
 11
6337.0187553361
 21
5125.267696697
 31
0.0
  0
LINE
  5
124
330
1F
100
AcDbEntity
  8
0
  6
Continuous
 62
     7
370
    25
100
AcDbLine
 10
6340.0187553361
 20
5157.8129703842
 30
0.0
 11
6340.0187553361
 21
5126.4494545927
 31
0.0
  0
LWPOLYLINE
  5
125
330
1F
100
AcDbEntity
  8
0
  6
Continuous
 62
     7
370
    25
100
AcDbPolyline
 90
        9
 70
   128
 43
0.0
 10
6208.0187553361
 20
5126.4494545927
 10
6208.0763994949
 20
5126.2189050643
 10
6208.2471167386
 20
5125.997215425
 10
6208.5243464992
 20
5125.7929050832
 10
6208.8974349925
 20
5125.6138255709
 10
6209.352044637
 20
5125.4668588133
 10
6209.870705039
 20
5125.3576526605
 10
6210.4334843701
 20
5125.2904038436
 10
6211.0187553361
 20
5125.267696697
  0
LINE
  5
126
330
1F
100
AcDbEntity
  8
0
  6
Continuous
 62
     7
370
    25
100
AcDbLine
 10
6211.0187553361
 20
5125.267696697
 30
0.0
 11
6211.0187553361
 21
5156.6312124885
 31
0.0
  0
LINE
  5
127
330
1F
100
AcDbEntity
  8
0
  6
Continuous
 62
     7
370
    25
100
AcDbLine
 10
6208.0187553361
 20
5126.4494545927
 30
0.0
 11
6208.0187553361
 21
5157.8129703842
 31
0.0
  0
ARC
  5
128
330
1F
100
AcDbEntity
  8
0
  6
Continuous
 62
     7
370
    25
100
AcDbCircle
 10
6211.0187553361
 20
5126.4494545927
 30
0.0
 40
3.0
100
AcDbArc
 50
180.0
 51
270.0
  0
LINE
  5
129
330
1F
100
AcDbEntity
  8
0
  6
Continuous
 62
     7
370
    25
100
AcDbLine
 10
6211.0187553361
 20
5125.267696697
 30
0.0
 11
6211.0187553361
 21
5123.4494545927
 31
0.0
  0
ARC
  5
12A
330
1F
100
AcDbEntity
  8
0
  6
Continuous
 62
     7
370
    25
100
AcDbCircle
 10
6337.0187553361
 20
5126.4494545927
 30
0.0
 40
3.0
100
AcDbArc
 50
270.0
 51
0.0
  0
LINE
  5
12B
330
1F
100
AcDbEntity
  8
0
  6
Continuous
 62
     7
370
    25
100
AcDbLine
 10
6337.0187553361
 20
5123.4494545927
 30
0.0
 11
6337.0187553361
 21
5125.267696697
 31
0.0
  0
LINE
  5
12C
330
1F
100
AcDbEntity
  8
0
  6
Continuous
 62
     7
370
    25
100
AcDbLine
 10
6231.0187553361
 20
5123.4494545927
 30
0.0
 11
6211.0187553361
 21
5123.4494545927
 31
0.0
  0
CIRCLE
  5
12D
330
1F
100
AcDbEntity
  8
0
  6
Continuous
 62
     7
370
    25
100
AcDbCircle
 10
6220.0187553361
 20
5136.4494545927
 30
0.0
 40
3.0
  0
LINE
  5
12E
330
1F
100
AcDbEntity
  8
0
  6
Continuous
 62
     7
370
    25
100
AcDbLine
 10
6231.0187553361
 20
5123.4494545927
 30
0.0
 11
6231.0187553361
 21
5142.5384699547
 31
0.0
  0
CIRCLE
  5
12F
330
1F
100
AcDbEntity
  8
0
  6
Continuous
 62
     7
370
    25
100
AcDbCircle
 10
6328.0187553361
 20
5136.4494545927
 30
0.0
 40
3.0
  0
LINE
  5
130
330
1F
100
AcDbEntity
  8
0
  6
Continuous
 62
     7
370
    25
100
AcDbLine
 10
6337.0187553361
 20
5123.4494545927
 30
0.0
 11
6317.0187553361
 21
5123.4494545927
 31
0.0
  0
LINE
  5
131
330
1F
100
AcDbEntity
  8
0
  6
Continuous
 62
     7
370
    25
100
AcDbLine
 10
6317.0187553361
 20
5123.4494545927
 30
0.0
 11
6317.0187553361
 21
5142.5384699547
 31
0.0
  0
LINE
  5
132
330
1F
100
AcDbEntity
  8
0
  6
Continuous
 62
     7
370
    25
100
AcDbLine
 10
6494.0187553361
 20
5543.4151261151
 30
0.0
 11
6494.0187553361
 21
5544.4566184873
 31
0.0
  0
LINE
  5
133
330
1F
100
AcDbEntity
  8
0
  6
Continuous
 62
     7
370
    25
100
AcDbLine
 10
6494.0187553361
 20
5543.4151261151
 30
0.0
 11
6054.0187553361
 21
5543.4151261151
 31
0.0
  0
LINE
  5
134
330
1F
100
AcDbEntity
  8
0
  6
Continuous
 62
     7
370
    25
100
AcDbLine
 10
6054.0187553361
 20
5543.4151261151
 30
0.0
 11
6054.0187553361
 21
5544.4566184873
 31
0.0
  0
LINE
  5
135
330
1F
100
AcDbEntity
  8
0
  6
Continuous
 62
     7
370
    25
100
AcDbLine
 10
6494.0187553361
 20
5544.4566184873
 30
0.0
 11
6054.0187553361
 21
5544.4566184873
 31
0.0
  0
ARC
  5
136
330
1F
100
AcDbEntity
  8
0
  6
Continuous
 62
     7
370
    25
100
AcDbCircle
 10
6054.0187553361
 20
5482.4494545927
 30
0.0
 40
60.96567152237822
100
AcDbArc
 50
90.0
 51
180.0
  0
LINE
  5
137
330
1F
100
AcDbEntity
  8
0
  6
Continuous
 62
     7
370
    25
100
AcDbLine
 10
5993.0530838137
 20
5482.4494545927
 30
0.0
 11
5992.0115914416
 21
5482.4494545927
 31
0.0
  0
ARC
  5
138
330
1F
100
AcDbEntity
  8
0
  6
Continuous
 62
     7
370
    25
100
AcDbCircle
 10
6054.0187553361
 20
5482.4494545927
 30
0.0
 40
62.00716389453464
100
AcDbArc
 50
90.0
 51
180.0
  0
LINE
  5
139
330
1F
100
AcDbEntity
  8
0
  6
Continuous
 62
     7
370
    25
100
AcDbLine
 10
5993.0530838137
 20
5482.4494545927
 30
0.0
 11
5993.0530838137
 21
5357.4494545927
 31
0.0
  0
LINE
  5
13A
330
1F
100
AcDbEntity
  8
0
  6
Continuous
 62
     7
370
    25
100
AcDbLine
 10
5992.0115914416
 20
5482.4494545927
 30
0.0
 11
5992.0115914416
 21
5357.4494545927
 31
0.0
  0
LINE
  5
13B
330
1F
100
AcDbEntity
  8
0
  6
Continuous
 62
     7
370
    25
100
AcDbLine
 10
5993.0530838137
 20
5357.4494545927
 30
0.0
 11
5992.0115914416
 21
5357.4494545927
 31
0.0
  0
LINE
  5
13C
330
1F
100
AcDbEntity
  8
0
  6
Continuous
 62
     7
370
    25
100
AcDbLine
 10
6554.9844268585
 20
5482.4494545927
 30
0.0
 11
6556.0259192306
 21
5482.4494545927
 31
0.0
  0
ARC
  5
13D
330
1F
100
AcDbEntity
  8
0
  6
Continuous
 62
     7
370
    25
100
AcDbCircle
 10
6494.0187553361
 20
5482.4494545927
 30
0.0
 40
60.96567152237822
100
AcDbArc
 50
0.0
 51
90.0
  0
ARC
  5
13E
330
1F
100
AcDbEntity
  8
0
  6
Continuous
 62
     7
370
    25
100
AcDbCircle
 10
6494.0187553361
 20
5482.4494545927
 30
0.0
 40
62.00716389453464
100
AcDbArc
 50
0.0
 51
90.0
  0
LINE
  5
13F
330
1F
100
AcDbEntity
  8
0
  6
Continuous
 62
     7
370
    25
100
AcDbLine
 10
6554.9844268585
 20
5357.4494545927
 30
0.0
 11
6554.9844268585
 21
5482.4494545927
 31
0.0
  0
LINE
  5
140
330
1F
100
AcDbEntity
  8
0
  6
Continuous
 62
     7
370
    25
100
AcDbLine
 10
6556.0259192306
 20
5357.4494545927
 30
0.0
 11
6556.0259192306
 21
5482.4494545927
 31
0.0
  0
LINE
  5
141
330
1F
100
AcDbEntity
  8
0
  6
Continuous
 62
     7
370
    25
100
AcDbLine
 10
6554.9844268585
 20
5357.4494545927
 30
0.0
 11
6556.0259192306
 21
5357.4494545927
 31
0.0
  0
LINE
  5
142
330
1F
100
AcDbEntity
  8
0
  6
Continuous
 62
     7
370
    25
100
AcDbLine
 10
5994.0187553361
 20
5482.4494545927
 30
0.0
 11
5993.0530838137
 21
5482.4494545927
 31
0.0
  0
LINE
  5
143
330
1F
100
AcDbEntity
  8
0
  6
Continuous
 62
     7
370
    25
100
AcDbLine
 10
5994.0187553361
 20
5357.4494545927
 30
0.0
 11
5994.0187553361
 21
5482.4494545927
 31
0.0
  0
LINE
  5
144
330
1F
100
AcDbEntity
  8
0
  6
Continuous
 62
     7
370
    25
100
AcDbLine
 10
5994.0187553361
 20
5357.4494545927
 30
0.0
 11
5993.0530838137
 21
5357.4494545927
 31
0.0
  0
LINE
  5
145
330
1F
100
AcDbEntity
  8
0
  6
Continuous
 62
     7
370
    25
100
AcDbLine
 10
6494.0187553361
 20
5542.4494545927
 30
0.0
 11
6494.0187553361
 21
5543.4151261151
 31
0.0
  0
LINE
  5
146
330
1F
100
AcDbEntity
  8
0
  6
Continuous
 62
     7
370
    25
100
AcDbLine
 10
6054.0187553361
 20
5542.4494545927
 30
0.0
 11
6494.0187553361
 21
5542.4494545927
 31
0.0
  0
LINE
  5
147
330
1F
100
AcDbEntity
  8
0
  6
Continuous
 62
     7
370
    25
100
AcDbLine
 10
6054.0187553361
 20
5542.4494545927
 30
0.0
 11
6054.0187553361
 21
5543.4151261151
 31
0.0
  0
ARC
  5
148
330
1F
100
AcDbEntity
  8
0
  6
Continuous
 62
     7
370
    25
100
AcDbCircle
 10
6054.0187553361
 20
5482.4494545927
 30
0.0
 40
60.0
100
AcDbArc
 50
90.0
 51
180.0
  0
LINE
  5
149
330
1F
100
AcDbEntity
  8
0
  6
Continuous
 62
     7
370
    25
100
AcDbLine
 10
6554.0187553361
 20
5482.4494545927
 30
0.0
 11
6554.9844268585
 21
5482.4494545927
 31
0.0
  0
ARC
  5
14A
330
1F
100
AcDbEntity
  8
0
  6
Continuous
 62
     7
370
    25
100
AcDbCircle
 10
6494.0187553361
 20
5482.4494545927
 30
0.0
 40
60.0
100
AcDbArc
 50
0.0
 51
90.0
  0
LINE
  5
14B
330
1F
100
AcDbEntity
  8
0
  6
Continuous
 62
     7
370
    25
100
AcDbLine
 10
6554.0187553361
 20
5482.4494545927
 30
0.0
 11
6554.0187553361
 21
5357.4494545927
 31
0.0
  0
LINE
  5
14C
330
1F
100
AcDbEntity
  8
0
  6
Continuous
 62
     7
370
    25
100
AcDbLine
 10
6554.0187553361
 20
5357.4494545927
 30
0.0
 11
6554.9844268585
 21
5357.4494545927
 31
0.0
  0
LINE
  5
14D
330
1F
100
AcDbEntity
  8
0
  6
Continuous
 62
     7
370
    25
100
AcDbLine
 10
6494.0187553361
 20
5544.4566184873
 30
0.0
 11
6494.0187553361
 21
5547.4494545927
 31
0.0
  0
LINE
  5
14E
330
1F
100
AcDbEntity
  8
0
  6
Continuous
 62
     7
370
    25
100
AcDbLine
 10
6054.0187553361
 20
5544.4566184873
 30
0.0
 11
6054.0187553361
 21
5547.4494545927
 31
0.0
  0
LINE
  5
14F
330
1F
100
AcDbEntity
  8
0
  6
Continuous
 62
     7
370
    25
100
AcDbLine
 10
6494.0187553361
 20
5547.4494545927
 30
0.0
 11
6054.0187553361
 21
5547.4494545927
 31
0.0
  0
LINE
  5
150
330
1F
100
AcDbEntity
  8
0
  6
Continuous
 62
     7
370
    25
100
AcDbLine
 10
5992.0115914416
 20
5482.4494545927
 30
0.0
 11
5989.0187553361
 21
5482.4494545927
 31
0.0
  0
ARC
  5
151
330
1F
100
AcDbEntity
  8
0
  6
Continuous
 62
     7
370
    25
100
AcDbCircle
 10
6054.0187553361
 20
5482.4494545927
 30
0.0
 40
65.0
100
AcDbArc
 50
90.0
 51
180.0
  0
LINE
  5
152
330
1F
100
AcDbEntity
  8
0
  6
Continuous
 62
     7
370
    25
100
AcDbLine
 10
6556.0259192306
 20
5482.4494545927
 30
0.0
 11
6559.0187553361
 21
5482.4494545927
 31
0.0
  0
LINE
  5
153
330
1F
100
AcDbEntity
  8
0
  6
Continuous
 62
     7
370
    25
100
AcDbLine
 10
6559.0187553361
 20
5357.4494545927
 30
0.0
 11
6559.0187553361
 21
5482.4494545927
 31
0.0
  0
LINE
  5
154
330
1F
100
AcDbEntity
  8
0
  6
Continuous
 62
     7
370
    25
100
AcDbLine
 10
6556.0259192306
 20
5357.4494545927
 30
0.0
 11
6559.0187553361
 21
5357.4494545927
 31
0.0
  0
ARC
  5
155
330
1F
100
AcDbEntity
  8
0
  6
Continuous
 62
     7
370
    25
100
AcDbCircle
 10
6494.0187553361
 20
5482.4494545927
 30
0.0
 40
65.0
100
AcDbArc
 50
0.0
 51
90.0
  0
LINE
  5
156
330
1F
100
AcDbEntity
  8
0
  6
Continuous
 62
     7
370
    25
100
AcDbLine
 10
5989.0187553361
 20
5482.4494545927
 30
0.0
 11
5989.0187553361
 21
5357.4494545927
 31
0.0
  0
LINE
  5
157
330
1F
100
AcDbEntity
  8
0
  6
Continuous
 62
     7
370
    25
100
AcDbLine
 10
5992.0115914416
 20
5357.4494545927
 30
0.0
 11
5989.0187553361
 21
5357.4494545927
 31
0.0
  0
CIRCLE
  5
158
330
1F
100
AcDbEntity
  8
0
  6
Continuous
 62
     7
370
    25
100
AcDbCircle
 10
6274.0187553361
 20
5520.1994545927
 30
0.0
 40
2.0
  0
CIRCLE
  5
159
330
1F
100
AcDbEntity
  8
0
  6
Continuous
 62
     7
370
    25
100
AcDbCircle
 10
6274.0187553361
 20
5520.1994545927
 30
0.0
 40
4.000000000000909
  0
CIRCLE
  5
15A
330
1F
100
AcDbEntity
  8
0
  6
Continuous
 62
     7
370
    25
100
AcDbCircle
 10
6026.2687553361
 20
5520.1994545927
 30
0.0
 40
2.0
  0
CIRCLE
  5
15B
330
1F
100
AcDbEntity
  8
0
  6
Continuous
 62
     7
370
    25
100
AcDbCircle
 10
6026.2687553361
 20
5520.1994545927
 30
0.0
 40
4.000000000000909
  0
CIRCLE
  5
15C
330
1F
100
AcDbEntity
  8
0
  6
Continuous
 62
     7
370
    25
100
AcDbCircle
 10
6521.7687553361
 20
5520.1994545927
 30
0.0
 40
2.0
  0
CIRCLE
  5
15D
330
1F
100
AcDbEntity
  8
0
  6
Continuous
 62
     7
370
    25
100
AcDbCircle
 10
6521.7687553361
 20
5520.1994545927
 30
0.0
 40
4.0
  0
CIRCLE
  5
15E
330
1F
100
AcDbEntity
  8
0
  6
Continuous
 62
     7
370
    25
100
AcDbCircle
 10
6016.5187553361
 20
5367.9494545927
 30
0.0
 40
3.5
  0
CIRCLE
  5
15F
330
1F
100
AcDbEntity
  8
0
  6
Continuous
 62
     7
370
    25
100
AcDbCircle
 10
6531.5187553361
 20
5367.9494545927
 30
0.0
 40
3.499999999999091
  0
LINE
  5
160
330
1F
100
AcDbEntity
  8
0
  6
Continuous
 62
     7
370
    25
100
AcDbLine
 10
6554.0187553361
 20
5357.4494545927
 30
0.0
 11
6544.0187553361
 21
5357.4494545927
 31
0.0
  0
LINE
  5
161
330
1F
100
AcDbEntity
  8
0
  6
Continuous
 62
     7
370
    25
100
AcDbLine
 10
6004.0187553361
 20
5357.4494545927
 30
0.0
 11
5994.0187553361
 21
5357.4494545927
 31
0.0
  0
LINE
  5
162
330
1F
100
AcDbEntity
  8
0
  6
Continuous
 62
     7
370
    25
100
AcDbLine
 10
6044.0187553361
 20
5357.4494545927
 30
0.0
 11
6504.0187553361
 21
5357.4494545927
 31
0.0
  0
LINE
  5
163
330
1F
100
AcDbEntity
  8
0
  6
Continuous
 62
     7
370
    25
100
AcDbLine
 10
6504.0187553361
 20
5357.4494545927
 30
0.0
 11
6504.0187553361
 21
5347.4494545927
 31
0.0
  0
LINE
  5
164
330
1F
100
AcDbEntity
  8
0
  6
Continuous
 62
     7
370
    25
100
AcDbLine
 10
6044.0187553361
 20
5347.4494545927
 30
0.0
 11
6504.0187553361
 21
5347.4494545927
 31
0.0
  0
LINE
  5
165
330
1F
100
AcDbEntity
  8
0
  6
Continuous
 62
     7
370
    25
100
AcDbLine
 10
6044.0187553361
 20
5357.4494545927
 30
0.0
 11
6044.0187553361
 21
5347.4494545927
 31
0.0
  0
LINE
  5
166
330
1F
100
AcDbEntity
  8
0
  6
Continuous
 62
     7
370
    25
100
AcDbLine
 10
6004.0187553361
 20
5357.4494545927
 30
0.0
 11
6044.0187553361
 21
5357.4494545927
 31
0.0
  0
LINE
  5
167
330
1F
100
AcDbEntity
  8
0
  6
Continuous
 62
     7
370
    25
100
AcDbLine
 10
6004.0187553361
 20
5357.4494545927
 30
0.0
 11
5994.0187553361
 21
5347.4494545927
 31
0.0
  0
LINE
  5
168
330
1F
100
AcDbEntity
  8
0
  6
Continuous
 62
     7
370
    25
100
AcDbLine
 10
6044.0187553361
 20
5347.4494545927
 30
0.0
 11
5994.0187553361
 21
5347.4494545927
 31
0.0
  0
LINE
  5
169
330
1F
100
AcDbEntity
  8
0
  6
Continuous
 62
     7
370
    25
100
AcDbLine
 10
6504.0187553361
 20
5357.4494545927
 30
0.0
 11
6544.0187553361
 21
5357.4494545927
 31
0.0
  0
LINE
  5
16A
330
1F
100
AcDbEntity
  8
0
  6
Continuous
 62
     7
370
    25
100
AcDbLine
 10
6544.0187553361
 20
5357.4494545927
 30
0.0
 11
6554.0187553361
 21
5347.4494545927
 31
0.0
  0
LINE
  5
16B
330
1F
100
AcDbEntity
  8
0
  6
Continuous
 62
     7
370
    25
100
AcDbLine
 10
6554.0187553361
 20
5347.4494545927
 30
0.0
 11
6504.0187553361
 21
5347.4494545927
 31
0.0
  0
LINE
  5
16C
330
1F
100
AcDbEntity
  8
0
  6
Continuous
 62
     7
370
    25
100
AcDbLine
 10
6065.0187553361
 20
5236.4494545927
 30
0.0
 11
6483.0187553361
 21
5236.4494545927
 31
0.0
  0
LINE
  5
16D
330
1F
100
AcDbEntity
  8
0
  6
Continuous
 62
     7
370
    25
100
AcDbLine
 10
6015.0187553361
 20
5236.4494545927
 30
0.0
 11
6065.0187553361
 21
5236.4494545927
 31
0.0
  0
LINE
  5
16E
330
1F
100
AcDbEntity
  8
0
  6
Continuous
 62
     7
370
    25
100
AcDbLine
 10
6015.0187553361
 20
5236.4494545927
 30
0.0
 11
6015.0187553361
 21
5347.4494545927
 31
0.0
  0
LINE
  5
16F
330
1F
100
AcDbEntity
  8
0
  6
Continuous
 62
     7
370
    25
100
AcDbLine
 10
6483.0187553361
 20
5236.4494545927
 30
0.0
 11
6483.0187553361
 21
5186.4494545927
 31
0.0
  0
LINE
  5
170
330
1F
100
AcDbEntity
  8
0
  6
Continuous
 62
     7
370
    25
100
AcDbLine
 10
6483.0187553361
 20
5186.4494545927
 30
0.0
 11
6065.0187553361
 21
5186.4494545927
 31
0.0
  0
LINE
  5
171
330
1F
100
AcDbEntity
  8
0
  6
Continuous
 62
     7
370
    25
100
AcDbLine
 10
6065.0187553361
 20
5236.4494545927
 30
0.0
 11
6065.0187553361
 21
5186.4494545927
 31
0.0
  0
ARC
  5
172
330
1F
100
AcDbEntity
  8
0
  6
Continuous
 62
     7
370
    25
100
AcDbCircle
 10
6065.0187553361
 20
5236.4494545927
 30
0.0
 40
50.0
100
AcDbArc
 50
180.0
 51
270.0
  0
LINE
  5
173
330
1F
100
AcDbEntity
  8
0
  6
Continuous
 62
     7
370
    25
100
AcDbLine
 10
6533.0187553361
 20
5347.4494545927
 30
0.0
 11
6533.0187553361
 21
5236.4494545927
 31
0.0
  0
LINE
  5
174
330
1F
100
AcDbEntity
  8
0
  6
Continuous
 62
     7
370
    25
100
AcDbLine
 10
6483.0187553361
 20
5236.4494545927
 30
0.0
 11
6533.0187553361
 21
5236.4494545927
 31
0.0
  0
ARC
  5
175
330
1F
100
AcDbEntity
  8
0
  6
Continuous
 62
     7
370
    25
100
AcDbCircle
 10
6483.0187553361
 20
5236.4494545927
 30
0.0
 40
50.0
100
AcDbArc
 50
270.0
 51
0.0
  0
LINE
  5
176
330
1F
100
AcDbEntity
  8
0
  6
Continuous
 62
     7
370
    25
100
AcDbLine
 10
6014.0187553361
 20
5327.7665484952
 30
0.0
 11
6014.0187553361
 21
5335.1323606902
 31
0.0
  0
LINE
  5
177
330
1F
100
AcDbEntity
  8
0
  6
Continuous
 62
     7
370
    25
100
AcDbLine
 10
6534.0187553361
 20
5331.4494545927
 30
0.0
 11
6534.0187553361
 21
5327.7665484952
 31
0.0
  0
LINE
  5
178
330
1F
100
AcDbEntity
  8
0
  6
Continuous
 62
     7
370
    25
100
AcDbLine
 10
6534.0187553361
 20
5335.1323606902
 30
0.0
 11
6534.0187553361
 21
5331.4494545927
 31
0.0
  0
ARC
  5
179
330
1F
100
AcDbEntity
  8
0
  6
Continuous
 62
     7
370
    25
100
AcDbCircle
 10
6421.5357499164
 20
5360.5336620536
 30
0.0
 40
3.16822936143854
100
AcDbArc
 50
283.2248291633
 51
355.5083269719
  0
ARC
  5
17A
330
1F
100
AcDbEntity
  8
0
  6
Continuous
 62
     7
370
    25
100
AcDbCircle
 10
6422.1277757049
 20
5360.6599814833
 30
0.0
 40
2.593643567303418
100
AcDbArc
 50
351.6993687321
 51
91.9929110702
  0
ARC
  5
17B
330
1F
100
AcDbEntity
  8
0
  6
Continuous
 62
     7
370
    25
100
AcDbCircle
 10
6352.0817468221
 20
5360.5889126154
 30
0.0
 40
2.65907863132015
100
AcDbArc
 50
89.8244558431
 51
186.5510406195
  0
ARC
  5
17C
330
1F
100
AcDbEntity
  8
0
  6
Continuous
 62
     7
370
    25
100
AcDbCircle
 10
6352.6858412899
 20
5360.5900039505
 30
0.0
 40
3.260059090408812
100
AcDbArc
 50
185.3587339113
 51
254.4381127529
  0
ARC
  5
17D
330
1F
100
AcDbEntity
  8
0
  6
Continuous
 62
     7
370
    25
100
AcDbCircle
 10
6126.4954290409
 20
5360.5282287076
 30
0.0
 40
3.161495414343545
100
AcDbArc
 50
184.4024934199
 51
256.8643504448
  0
ARC
  5
17E
330
1F
100
AcDbEntity
  8
0
  6
Continuous
 62
     7
370
    25
100
AcDbCircle
 10
6125.908549286
 20
5360.6613299829
 30
0.0
 40
2.59266542299965
100
AcDbArc
 50
88.220902622
 51
188.3339026096
  0
ARC
  5
17F
330
1F
100
AcDbEntity
  8
0
  6
Continuous
 62
     7
370
    25
100
AcDbCircle
 10
6195.9916545622
 20
5360.6217986071
 30
0.0
 40
2.627431417401504
100
AcDbArc
 50
352.6471862202
 51
91.1956480244
  0
ARC
  5
180
330
1F
100
AcDbEntity
  8
0
  6
Continuous
 62
     7
370
    25
100
AcDbCircle
 10
6195.3516693823
 20
5360.5900039505
 30
0.0
 40
3.260059090396316
100
AcDbArc
 50
285.5618872469
 51
354.6412660888
  0
LINE
  5
181
330
1F
100
AcDbEntity
  8
0
  6
Continuous
 62
     8
370
    25
100
AcDbLine
 10
6247.0187553361
 20
5104.5116499767
 30
0.0
 11
6301.0187553361
 21
5104.5116499767
 31
0.0
  0
LINE
  5
182
330
1F
100
AcDbEntity
  8
0
  6
Continuous
 62
     8
370
    25
100
AcDbLine
 10
6259.2512635938
 20
5013.1865948506
 30
0.0
 11
6247.0187553361
 21
5013.1865948506
 31
0.0
  0
LINE
  5
183
330
1F
100
AcDbEntity
  8
0
  6
Continuous
 62
     8
370
    25
100
AcDbLine
 10
6301.0187553361
 20
5013.1865948506
 30
0.0
 11
6259.2512635938
 21
5013.1865948506
 31
0.0
  0
LINE
  5
184
330
1F
100
AcDbEntity
  8
0
  6
Continuous
 62
     8
370
    25
100
AcDbLine
 10
6483.0187553361
 20
5236.4494545927
 30
0.0
 11
6483.0187553361
 21
5347.4494545927
 31
0.0
  0
LINE
  5
185
330
1F
100
AcDbEntity
  8
0
  6
Continuous
 62
     8
370
    25
100
AcDbLine
 10
6065.0187553361
 20
5347.4494545927
 30
0.0
 11
6065.0187553361
 21
5236.4494545927
 31
0.0
  0
LINE
  5
186
330
1F
100
AcDbEntity
  8
0
  6
Continuous
 62
     7
370
    25
100
AcDbLine
 10
6955.8938286795
 20
4986.9494545927
 30
0.0
 11
6884.1971921577
 21
4986.9494545927
 31
0.0
  0
LINE
  5
187
330
1F
100
AcDbEntity
  8
0
  6
Continuous
 62
     7
370
    25
100
AcDbLine
 10
6884.1971921577
 20
4946.9494545927
 30
0.0
 11
6955.8938286795
 21
4946.9494545927
 31
0.0
  0
LINE
  5
188
330
1F
100
AcDbEntity
  8
0
  6
Continuous
 62
     7
370
    25
100
AcDbLine
 10
6874.6971921577
 20
5345.4494545927
 30
0.0
 11
6870.6971921577
 21
5345.4494545927
 31
0.0
  0
LINE
  5
189
330
1F
100
AcDbEntity
  8
0
  6
Continuous
 62
     7
370
    25
100
AcDbLine
 10
6873.1971921577
 20
5308.4494545927
 30
0.0
 11
6874.6971921577
 21
5308.4494545927
 31
0.0
  0
LINE
  5
18A
330
1F
100
AcDbEntity
  8
0
  6
Continuous
 62
     7
370
    25
100
AcDbLine
 10
6870.6971921577
 20
5343.4494545927
 30
0.0
 11
6851.6971921577
 21
5343.4494545927
 31
0.0
  0
LINE
  5
18B
330
1F
100
AcDbEntity
  8
0
  6
Continuous
 62
     7
370
    25
100
AcDbLine
 10
6851.6971921577
 20
5310.4494545927
 30
0.0
 11
6851.6971921577
 21
5291.9656410793
 31
0.0
  0
LINE
  5
18C
330
1F
100
AcDbEntity
  8
0
  6
Continuous
 62
     7
370
    25
100
AcDbLine
 10
6873.1971921577
 20
5291.9656410793
 30
0.0
 11
6873.1971921577
 21
5308.4494545927
 31
0.0
  0
LWPOLYLINE
  5
18D
330
1F
100
AcDbEntity
  8
0
  6
Continuous
 62
     7
370
    25
100
AcDbPolyline
 90
       12
 70
   128
 43
0.0
 10
6930.743563781
 20
5155.1582349863
 10
6928.0791788121
 20
5155.1557543447
 10
6920.8749586683
 20
5155.1797296099
 10
6914.4598583864
 20
5155.2376590879
 10
6908.7600887517
 20
5155.3315764452
 10
6902.5407920947
 20
5155.5003539756
 10
6897.2175882105
 20
5155.7257999124
 10
6892.6836696902
 20
5156.0071055935
 10
6888.8558141726
 20
5156.3404699268
 10
6884.7272826782
 20
5156.846874939
 10
6881.5710280629
 20
5157.401360755
 10
6880.6509606789
 20
5157.6261257269
  0
LWPOLYLINE
  5
18E
330
1F
100
AcDbEntity
  8
0
  6
Continuous
 62
     7
370
    25
100
AcDbPolyline
 90
       14
 70
   128
 43
0.0
 10
6872.4575727909
 20
5183.4494545927
 10
6872.4041369682
 20
5188.5913151673
 10
6872.4533703345
 20
5200.5429522867
 10
6872.6098659778
 20
5212.0775638235
 10
6872.6884597942
 20
5216.3729822028
 10
6872.773106646
 20
5220.4979339398
 10
6872.877320915
 20
5225.0917749211
 10
6873.0161148172
 20
5230.628515147
 10
6873.2019869133
 20
5237.2658186454
 10
6873.4399233738
 20
5244.8826766302
 10
6873.7313843039
 20
5253.4055044873
 10
6874.0722549078
 20
5262.6820627304
 10
6874.4485440168
 20
5272.4772714175
 10
6874.6971921577
 20
5279.7481779661
  0
LWPOLYLINE
  5
18F
330
1F
100
AcDbEntity
  8
0
  6
Continuous
 62
     7
370
    25
100
AcDbPolyline
 90
       19
 70
   128
 43
0.0
 10
6849.9472159669
 20
5291.9656410793
 10
6849.8208632802
 20
5283.944458193
 10
6849.5368814908
 20
5275.2997779953
 10
6849.2080308699
 20
5266.706432415
 10
6848.9037456288
 20
5258.6168122308
 10
6848.6425952378
 20
5251.3000907947
 10
6848.4270756566
 20
5244.8791254401
 10
6848.2646057298
 20
5239.7088561593
 10
6848.1271984179
 20
5235.0209319965
 10
6847.9993005746
 20
5230.2874450524
 10
6847.8812098675
 20
5225.5266006188
 10
6847.7734384105
 20
5220.7532333498
 10
6847.5236051199
 20
5206.6269235734
 10
6847.4018975268
 20
5192.745278151
 10
6847.5243185559
 20
5179.3136362511
 10
6847.8046844995
 20
5172.073572014
 10
6848.3796912589
 20
5165.0528202509
 10
6849.5275096184
 20
5158.1044324858
 10
6850.6971921577
 20
5153.9973154699
  0
LWPOLYLINE
  5
190
330
1F
100
AcDbEntity
  8
0
  6
Continuous
 62
     7
370
    25
100
AcDbPolyline
 90
       12
 70
   128
 43
0.0
 10
6870.4543814059
 20
5134.5495628384
 10
6874.3542667333
 20
5133.4079020723
 10
6879.4473107085
 20
5132.370642985
 10
6883.8752170654
 20
5131.7371120601
 10
6888.9720592177
 20
5131.2217442691
 10
6894.9001382811
 20
5130.8146206618
 10
6901.8546010832
 20
5130.5086565765
 10
6907.1772614674
 20
5130.3597657903
 10
6913.1422836182
 20
5130.2529475119
 10
6919.8386736635
 20
5130.185829143
 10
6927.3614615564
 20
5130.1564797342
 10
6930.743563781
 20
5130.1587844984
  0
LINE
  5
191
330
1F
100
AcDbEntity
  8
0
  6
Continuous
 62
     7
370
    25
100
AcDbLine
 10
6930.743563781
 20
5122.6994545927
 30
0.0
 11
6932.243563781
 21
5122.6994545927
 31
0.0
  0
LINE
  5
192
330
1F
100
AcDbEntity
  8
0
  6
Continuous
 62
     7
370
    25
100
AcDbLine
 10
6978.5060973763
 20
4922.9494545927
 30
0.0
 11
6978.5060973763
 21
4906.9494545927
 31
0.0
  0
LINE
  5
193
330
1F
100
AcDbEntity
  8
0
  6
Continuous
 62
     7
370
    25
100
AcDbLine
 10
7052.5060973763
 20
4906.9494545927
 30
0.0
 11
7052.5060973763
 21
4922.9494545927
 31
0.0
  0
LINE
  5
194
330
1F
100
AcDbEntity
  8
0
  6
Continuous
 62
     7
370
    25
100
AcDbLine
 10
6985.5060973763
 20
4906.9494545927
 30
0.0
 11
6985.5060973763
 21
4879.9494545927
 31
0.0
  0
LINE
  5
195
330
1F
100
AcDbEntity
  8
0
  6
Continuous
 62
     7
370
    25
100
AcDbLine
 10
7045.5060973763
 20
4879.9494545927
 30
0.0
 11
7045.5060973763
 21
4906.9494545927
 31
0.0
  0
LINE
  5
196
330
1F
100
AcDbEntity
  8
0
  6
Continuous
 62
     7
370
    25
100
AcDbLine
 10
7047.6971921577
 20
4922.9494545927
 30
0.0
 11
7047.6971921577
 21
4988.9494545927
 31
0.0
  0
LINE
  5
197
330
1F
100
AcDbEntity
  8
0
  6
Continuous
 62
     7
370
    25
100
AcDbLine
 10
6983.6971921577
 20
4944.9957003713
 30
0.0
 11
6983.6971921577
 21
4922.9494545927
 31
0.0
  0
LINE
  5
198
330
1F
100
AcDbEntity
  8
0
  6
Continuous
 62
     7
370
    25
100
AcDbLine
 10
7038.6971921577
 20
4988.9494545927
 30
0.0
 11
7038.6971921577
 21
4996.6865948506
 31
0.0
  0
LINE
  5
199
330
1F
100
AcDbEntity
  8
0
  6
Continuous
 62
     7
370
    25
100
AcDbLine
 10
6992.6971921577
 20
4996.6865948506
 30
0.0
 11
6992.6971921577
 21
4988.9494545927
 31
0.0
  0
LINE
  5
19A
330
1F
100
AcDbEntity
  8
0
  6
Continuous
 62
     7
370
    25
100
AcDbLine
 10
6973.3938286795
 20
4944.9494545927
 30
0.0
 11
6983.7289419373
 21
4944.9494545927
 31
0.0
  0
LINE
  5
19B
330
1F
100
AcDbEntity
  8
0
  6
Continuous
 62
     7
370
    25
100
AcDbLine
 10
6983.6971921577
 20
4988.9494545927
 30
0.0
 11
6973.3938286795
 21
4988.9494545927
 31
0.0
  0
LINE
  5
19C
330
1F
100
AcDbEntity
  8
0
  6
Continuous
 62
     7
370
    25
100
AcDbLine
 10
6995.6971921577
 20
5103.5116499767
 30
0.0
 11
6995.6971921577
 21
5014.1865948506
 31
0.0
  0
LINE
  5
19D
330
1F
100
AcDbEntity
  8
0
  6
Continuous
 62
     7
370
    25
100
AcDbLine
 10
7035.6971921577
 20
5014.1865948506
 30
0.0
 11
7035.6971921577
 21
5103.5116499767
 31
0.0
  0
ARC
  5
19E
330
1F
100
AcDbEntity
  8
0
  6
Continuous
 62
     7
370
    25
100
AcDbCircle
 10
6989.6971921577
 20
5104.5116499767
 30
0.0
 40
1.0
100
AcDbArc
 50
180.0
 51
270.0
  0
ARC
  5
19F
330
1F
100
AcDbEntity
  8
0
  6
Continuous
 62
     7
370
    25
100
AcDbCircle
 10
7041.6971921577
 20
5104.5116499767
 30
0.0
 40
1.0
100
AcDbArc
 50
270.0
 51
0.0
  0
LINE
  5
1A0
330
1F
100
AcDbEntity
  8
0
  6
Continuous
 62
     7
370
    25
100
AcDbLine
 10
7042.6971921577
 20
5104.5116499767
 30
0.0
 11
7042.6971921577
 21
5106.5116499767
 31
0.0
  0
LINE
  5
1A1
330
1F
100
AcDbEntity
  8
0
  6
Continuous
 62
     7
370
    25
100
AcDbLine
 10
6988.6971921577
 20
5106.5116499767
 30
0.0
 11
6988.6971921577
 21
5104.5116499767
 31
0.0
  0
ARC
  5
1A2
330
1F
100
AcDbEntity
  8
0
  6
Continuous
 62
     7
370
    25
100
AcDbCircle
 10
6956.8938286795
 20
4992.9494545927
 30
0.0
 40
1.0
100
AcDbArc
 50
90.0
 51
180.0
  0
ARC
  5
1A3
330
1F
100
AcDbEntity
  8
0
  6
Continuous
 62
     7
370
    25
100
AcDbCircle
 10
6956.8938286795
 20
4940.9494545927
 30
0.0
 40
1.0
100
AcDbArc
 50
180.0
 51
270.0
  0
LINE
  5
1A4
330
1F
100
AcDbEntity
  8
0
  6
Continuous
 62
     7
370
    25
100
AcDbLine
 10
6956.8938286795
 20
4939.9494545927
 30
0.0
 11
6958.8938286795
 21
4939.9494545927
 31
0.0
  0
LINE
  5
1A5
330
1F
100
AcDbEntity
  8
0
  6
Continuous
 62
     7
370
    25
100
AcDbLine
 10
6958.8938286795
 20
4993.9494545927
 30
0.0
 11
6956.8938286795
 21
4993.9494545927
 31
0.0
  0
ARC
  5
1A6
330
1F
100
AcDbEntity
  8
0
  6
Continuous
 62
     7
370
    25
100
AcDbCircle
 10
7041.6971921577
 20
5013.1865948506
 30
0.0
 40
1.0
100
AcDbArc
 50
0.0
 51
90.0
  0
ARC
  5
1A7
330
1F
100
AcDbEntity
  8
0
  6
Continuous
 62
     7
370
    25
100
AcDbCircle
 10
6989.6971921577
 20
5013.1865948506
 30
0.0
 40
0.9999999999990905
100
AcDbArc
 50
90.0
 51
180.0
  0
LINE
  5
1A8
330
1F
100
AcDbEntity
  8
0
  6
Continuous
 62
     7
370
    25
100
AcDbLine
 10
6988.6971921577
 20
5013.1865948506
 30
0.0
 11
6988.6971921577
 21
5011.1865948506
 31
0.0
  0
LINE
  5
1A9
330
1F
100
AcDbEntity
  8
0
  6
Continuous
 62
     7
370
    25
100
AcDbLine
 10
7042.6971921577
 20
5011.1865948506
 30
0.0
 11
7042.6971921577
 21
5013.1865948506
 31
0.0
  0
LINE
  5
1AA
330
1F
100
AcDbEntity
  8
0
  6
Continuous
 62
     7
370
    25
100
AcDbLine
 10
6850.6971921577
 20
4926.4494545927
 30
0.0
 11
6860.7195663031
 21
4926.4494545927
 31
0.0
  0
LINE
  5
1AB
330
1F
100
AcDbEntity
  8
0
  6
Continuous
 62
     7
370
    25
100
AcDbLine
 10
6860.7195663031
 20
5007.4494545927
 30
0.0
 11
6850.6971921577
 21
5007.4494545927
 31
0.0
  0
ARC
  5
1AC
330
1F
100
AcDbEntity
  8
0
  6
Continuous
 62
     7
370
    25
100
AcDbCircle
 10
6860.6764943283
 20
4950.1926587681
 30
0.0
 40
23.74324324324357
100
AcDbArc
 50
270.1039387798
 51
352.1491489403
  0
ARC
  5
1AD
330
1F
100
AcDbEntity
  8
0
  6
Continuous
 62
     7
370
    25
100
AcDbCircle
 10
6860.6764943283
 20
4983.7062504174
 30
0.0
 40
23.74324324324404
100
AcDbArc
 50
7.8508510597
 51
89.8960612202
  0
ARC
  5
1AE
330
1F
100
AcDbEntity
  8
0
  6
Continuous
 62
     7
370
    25
100
AcDbCircle
 10
7024.1412137283
 20
5164.7094109366
 30
0.0
 40
41.0568662861245
100
AcDbArc
 50
290.7647726998
 51
351.2298835829
  0
LINE
  5
1AF
330
1F
100
AcDbEntity
  8
0
  6
Continuous
 62
     7
370
    25
100
AcDbLine
 10
7038.6971921577
 20
5121.0116499767
 30
0.0
 11
7038.6971921577
 21
5126.3194413977
 31
0.0
  0
LINE
  5
1B0
330
1F
100
AcDbEntity
  8
0
  6
Continuous
 62
     7
370
    25
100
AcDbLine
 10
6992.6971921577
 20
5125.484857191
 30
0.0
 11
6992.6971921577
 21
5121.0116499767
 31
0.0
  0
LINE
  5
1B1
330
1F
100
AcDbEntity
  8
0
  6
Continuous
 62
     7
370
    25
100
AcDbLine
 10
6945.243563781
 20
5125.4494545927
 30
0.0
 11
6992.7237189691
 21
5125.4494545927
 31
0.0
  0
LINE
  5
1B2
330
1F
100
AcDbEntity
  8
0
  6
Continuous
 62
     7
370
    25
100
AcDbLine
 10
7073.1971921577
 20
5183.4494545927
 30
0.0
 11
7073.1971921577
 21
5185.4494545927
 31
0.0
  0
LINE
  5
1B3
330
1F
100
AcDbEntity
  8
0
  6
Continuous
 62
     7
370
    25
100
AcDbLine
 10
6958.1971921577
 20
5185.4494545927
 30
0.0
 11
6958.1971921577
 21
5183.4494545927
 31
0.0
  0
ARC
  5
1B4
330
1F
100
AcDbEntity
  8
0
  6
Continuous
 62
     7
370
    25
100
AcDbCircle
 10
7078.6971921577
 20
5180.4494545927
 30
0.0
 40
3.0
100
AcDbArc
 50
0.0
 51
90.0
  0
ARC
  5
1B5
330
1F
100
AcDbEntity
  8
0
  6
Continuous
 62
     7
370
    25
100
AcDbCircle
 10
7078.6971921577
 20
5161.4494545927
 30
0.0
 40
3.0
100
AcDbArc
 50
270.0
 51
0.0
  0
LINE
  5
1B6
330
1F
100
AcDbEntity
  8
0
  6
Continuous
 62
     7
370
    25
100
AcDbLine
 10
7081.6971921577
 20
5161.4494545927
 30
0.0
 11
7081.6971921577
 21
5180.4494545927
 31
0.0
  0
LINE
  5
1B7
330
1F
100
AcDbEntity
  8
0
  6
Continuous
 62
     7
370
    25
100
AcDbLine
 10
6852.890069347
 20
5482.4494545927
 30
0.0
 11
6852.890069347
 21
5543.7509471424
 31
0.0
  0
LINE
  5
1B8
330
1F
100
AcDbEntity
  8
0
  6
Continuous
 62
     7
370
    25
100
AcDbLine
 10
6852.890069347
 20
5357.4494545927
 30
0.0
 11
6852.890069347
 21
5482.4494545927
 31
0.0
  0
LINE
  5
1B9
330
1F
100
AcDbEntity
  8
0
  6
Continuous
 62
     7
370
    25
100
AcDbLine
 10
6850.6971921577
 20
5523.6994545927
 30
0.0
 11
6850.1971921577
 21
5523.1994545927
 31
0.0
  0
LINE
  5
1BA
330
1F
100
AcDbEntity
  8
0
  6
Continuous
 62
     7
370
    25
100
AcDbLine
 10
6850.1971921577
 20
5517.1994545927
 30
0.0
 11
6850.6971921577
 21
5516.6994545927
 31
0.0
  0
LINE
  5
1BB
330
1F
100
AcDbEntity
  8
0
  6
Continuous
 62
     7
370
    25
100
AcDbLine
 10
6958.1971921577
 20
5186.4494545927
 30
0.0
 11
6959.1971921577
 21
5185.4494545927
 31
0.0
  0
LINE
  5
1BC
330
1F
100
AcDbEntity
  8
0
  6
Continuous
 62
     7
370
    25
100
AcDbLine
 10
7072.1971921577
 20
5185.4494545927
 30
0.0
 11
7073.1971921577
 21
5186.4494545927
 31
0.0
  0
LINE
  5
1BD
330
1F
100
AcDbEntity
  8
0
  6
Continuous
 62
     7
370
    25
100
AcDbLine
 10
7211.0891204284
 20
5363.2378753099
 30
0.0
 11
7207.1933541362
 21
5357.4494545927
 31
0.0
  0
ARC
  5
1BE
330
1F
100
AcDbEntity
  8
0
  6
Continuous
 62
     7
370
    25
100
AcDbCircle
 10
7241.8705293184
 20
5360.3849431869
 30
0.0
 40
2.978612985710233
100
AcDbArc
 50
279.7615201263
 51
90.6742630698
  0
LINE
  5
1BF
330
1F
100
AcDbEntity
  8
0
  6
Continuous
 62
     7
370
    25
100
AcDbLine
 10
7241.8354774804
 20
5363.3633499233
 30
0.0
 11
7211.1672103023
 21
5363.2799491466
 31
0.0
  0
LINE
  5
1C0
330
1F
100
AcDbEntity
  8
0
  6
Continuous
 62
     7
370
    25
100
AcDbLine
 10
7211.0896965271
 20
5363.2396602952
 30
0.0
 11
7207.1928840708
 21
5357.4494545927
 31
0.0
  0
LINE
  5
1C1
330
1F
100
AcDbEntity
  8
0
  6
Continuous
 62
     7
370
    25
100
AcDbLine
 10
6870.6971921577
 20
5309.7811698793
 30
0.0
 11
6870.6971921577
 21
5345.4494545927
 31
0.0
  0
LWPOLYLINE
  5
1C2
330
1F
100
AcDbEntity
  8
0
  6
Continuous
 62
     7
370
    25
100
AcDbPolyline
 90
       11
 70
   128
 43
0.0
 10
6870.6971921577
 20
5311.9506942015
 10
6870.4824211702
 20
5312.0748989596
 10
6867.734051132
 20
5313.3612840825
 10
6864.7407106373
 20
5314.2235861738
 10
6861.9525326382
 20
5314.4221967906
 10
6859.2187980623
 20
5314.0223501824
 10
6856.1320052028
 20
5312.9291448146
 10
6853.6918533139
 20
5311.6738708634
 10
6852.7232284248
 20
5311.0988088431
 10
6852.0343816248
 20
5310.6671291079
 10
6851.6971921577
 20
5310.4494545927
  0
LINE
  5
1C3
330
1F
100
AcDbEntity
  8
0
  6
Continuous
 62
     7
370
    25
100
AcDbLine
 10
6851.6971921577
 20
5310.4494545927
 30
0.0
 11
6851.6971921577
 21
5343.4494545927
 31
0.0
  0
LINE
  5
1C4
330
1F
100
AcDbEntity
  8
0
  6
Continuous
 62
     7
370
    25
100
AcDbLine
 10
6861.6236328609
 20
5291.9656410793
 30
0.0
 11
6874.6971921577
 21
5291.9656410793
 31
0.0
  0
LINE
  5
1C5
330
1F
100
AcDbEntity
  8
0
  6
Continuous
 62
     7
370
    25
100
AcDbLine
 10
6849.9472094899
 20
5291.9656410793
 30
0.0
 11
6861.6236328609
 21
5291.9656410793
 31
0.0
  0
LINE
  5
1C6
330
1F
100
AcDbEntity
  8
0
  6
Continuous
 62
     7
370
    25
100
AcDbLine
 10
6932.243563781
 20
5143.4848891256
 30
0.0
 11
6945.243563781
 21
5143.4848891256
 31
0.0
  0
LINE
  5
1C7
330
1F
100
AcDbEntity
  8
0
  6
Continuous
 62
     7
370
    25
100
AcDbLine
 10
6932.243563781
 20
5156.3053846491
 30
0.0
 11
6945.243563781
 21
5156.3053846491
 31
0.0
  0
LINE
  5
1C8
330
1F
100
AcDbEntity
  8
0
  6
Continuous
 62
     7
370
    25
100
AcDbLine
 10
6945.243563781
 20
5143.4848891256
 30
0.0
 11
6945.243563781
 21
5156.3053846491
 31
0.0
  0
LINE
  5
1C9
330
1F
100
AcDbEntity
  8
0
  6
Continuous
 62
     7
370
    25
100
AcDbLine
 10
6932.243563781
 20
5143.4848891256
 30
0.0
 11
6932.243563781
 21
5156.3053846491
 31
0.0
  0
LINE
  5
1CA
330
1F
100
AcDbEntity
  8
0
  6
Continuous
 62
     7
370
    25
100
AcDbLine
 10
6930.743563781
 20
5122.6994545927
 30
0.0
 11
6930.743563781
 21
5158.4494545927
 31
0.0
  0
LINE
  5
1CB
330
1F
100
AcDbEntity
  8
0
  6
Continuous
 62
     7
370
    25
100
AcDbLine
 10
6932.243563781
 20
5130.3643843065
 30
0.0
 11
6945.243563781
 21
5130.3643843065
 31
0.0
  0
LINE
  5
1CC
330
1F
100
AcDbEntity
  8
0
  6
Continuous
 62
     7
370
    25
100
AcDbLine
 10
6945.243563781
 20
5130.3643843065
 30
0.0
 11
6945.243563781
 21
5143.4848891256
 31
0.0
  0
LINE
  5
1CD
330
1F
100
AcDbEntity
  8
0
  6
Continuous
 62
     7
370
    25
100
AcDbLine
 10
6932.243563781
 20
5130.3643843065
 30
0.0
 11
6932.243563781
 21
5143.4848891256
 31
0.0
  0
LINE
  5
1CE
330
1F
100
AcDbEntity
  8
0
  6
Continuous
 62
     7
370
    25
100
AcDbLine
 10
6945.243563781
 20
5156.3053846491
 30
0.0
 11
6945.243563781
 21
5158.4494545927
 31
0.0
  0
LINE
  5
1CF
330
1F
100
AcDbEntity
  8
0
  6
Continuous
 62
     7
370
    25
100
AcDbLine
 10
6932.243563781
 20
5156.3053846491
 30
0.0
 11
6932.243563781
 21
5158.4494545927
 31
0.0
  0
LINE
  5
1D0
330
1F
100
AcDbEntity
  8
0
  6
Continuous
 62
     7
370
    25
100
AcDbLine
 10
6932.243563781
 20
5121.955457083
 30
0.0
 11
6945.243563781
 21
5121.955457083
 31
0.0
  0
LINE
  5
1D1
330
1F
100
AcDbEntity
  8
0
  6
Continuous
 62
     7
370
    25
100
AcDbLine
 10
6945.243563781
 20
5121.955457083
 30
0.0
 11
6945.243563781
 21
5130.3643843065
 31
0.0
  0
LINE
  5
1D2
330
1F
100
AcDbEntity
  8
0
  6
Continuous
 62
     7
370
    25
100
AcDbLine
 10
6932.243563781
 20
5121.955457083
 30
0.0
 11
6932.243563781
 21
5130.3643843065
 31
0.0
  0
LINE
  5
1D3
330
1F
100
AcDbEntity
  8
0
  6
Continuous
 62
     7
370
    25
100
AcDbLine
 10
6932.243563781
 20
5121.4700318458
 30
0.0
 11
6945.243563781
 21
5121.4700318458
 31
0.0
  0
LINE
  5
1D4
330
1F
100
AcDbEntity
  8
0
  6
Continuous
 62
     7
370
    25
100
AcDbLine
 10
6945.243563781
 20
5121.4700318458
 30
0.0
 11
6945.243563781
 21
5121.955457083
 31
0.0
  0
LINE
  5
1D5
330
1F
100
AcDbEntity
  8
0
  6
Continuous
 62
     7
370
    25
100
AcDbLine
 10
6932.243563781
 20
5121.4700318458
 30
0.0
 11
6932.243563781
 21
5121.955457083
 31
0.0
  0
LINE
  5
1D6
330
1F
100
AcDbEntity
  8
0
  6
Continuous
 62
     7
370
    25
100
AcDbLine
 10
7052.5060973763
 20
4922.9494545927
 30
0.0
 11
6978.5060973763
 21
4922.9494545927
 31
0.0
  0
LINE
  5
1D7
330
1F
100
AcDbEntity
  8
0
  6
Continuous
 62
     7
370
    25
100
AcDbLine
 10
7052.5060973763
 20
4906.9494545927
 30
0.0
 11
6978.5060973763
 21
4906.9494545927
 31
0.0
  0
LINE
  5
1D8
330
1F
100
AcDbEntity
  8
0
  6
Continuous
 62
     7
370
    25
100
AcDbLine
 10
7045.5060973763
 20
4879.9494545927
 30
0.0
 11
6985.5060973763
 21
4879.9494545927
 31
0.0
  0
LWPOLYLINE
  5
1D9
330
1F
100
AcDbEntity
  8
0
  6
Continuous
 62
     7
370
    25
100
AcDbPolyline
 90
       23
 70
   128
 43
0.0
 10
6983.6971921577
 20
4988.9494545927
 10
6983.7762292041
 20
4988.8343323827
 10
6984.1264911759
 20
4988.3202093872
 10
6984.7493847166
 20
4987.388798648
 10
6985.6111447001
 20
4986.0588829364
 10
6986.6664659755
 20
4984.3501173004
 10
6987.9913915984
 20
4982.0362496344
 10
6989.381009247
 20
4979.3002231109
 10
6990.8078397224
 20
4975.8646026367
 10
6991.9388545169
 20
4971.8950190149
 10
6992.3220090576
 20
4969.4791156303
 10
6992.4592920805
 20
4966.9494545927
 10
6992.2515226554
 20
4963.835065662
 10
6991.6389778922
 20
4960.7206767313
 10
6990.7628660725
 20
4957.9095089446
 10
6989.6854312599
 20
4955.261353592
 10
6988.3499007059
 20
4952.5316062875
 10
6986.9915819653
 20
4950.0967973387
 10
6985.6080727395
 20
4947.8351900931
 10
6984.4860066576
 20
4946.1134736865
 10
6983.9609197463
 20
4945.3348533572
 10
6983.7108904438
 20
4944.9693841348
 10
6983.728955201
 20
4944.9957003713
  0
LINE
  5
1DA
330
1F
100
AcDbEntity
  8
0
  6
Continuous
 62
     7
370
    25
100
AcDbLine
 10
7047.6971921577
 20
4988.9494545927
 30
0.0
 11
6983.6971921577
 21
4988.9494545927
 31
0.0
  0
LINE
  5
1DB
330
1F
100
AcDbEntity
  8
0
  6
Continuous
 62
     7
370
    25
100
AcDbLine
 10
7041.6971921577
 20
5103.5116499767
 30
0.0
 11
6989.6971921577
 21
5103.5116499767
 31
0.0
  0
LINE
  5
1DC
330
1F
100
AcDbEntity
  8
0
  6
Continuous
 62
     7
370
    25
100
AcDbLine
 10
6988.6971921577
 20
5106.5116499767
 30
0.0
 11
7042.6971921577
 21
5106.5116499767
 31
0.0
  0
LINE
  5
1DD
330
1F
100
AcDbEntity
  8
0
  6
Continuous
 62
     7
370
    25
100
AcDbLine
 10
7020.0290056702
 20
5121.0116499767
 30
0.0
 11
7020.0290056702
 21
5106.5116499767
 31
0.0
  0
LINE
  5
1DE
330
1F
100
AcDbEntity
  8
0
  6
Continuous
 62
     7
370
    25
100
AcDbLine
 10
7022.4739271783
 20
5121.0116499767
 30
0.0
 11
7022.4739271783
 21
5106.5116499767
 31
0.0
  0
LINE
  5
1DF
330
1F
100
AcDbEntity
  8
0
  6
Continuous
 62
     7
370
    25
100
AcDbLine
 10
7020.0290056702
 20
5121.0116499767
 30
0.0
 11
7022.4739271783
 21
5121.0116499767
 31
0.0
  0
LINE
  5
1E0
330
1F
100
AcDbEntity
  8
0
  6
Continuous
 62
     7
370
    25
100
AcDbLine
 10
7011.4105473385
 20
5121.0116499767
 30
0.0
 11
7011.4105473385
 21
5106.5116499767
 31
0.0
  0
LINE
  5
1E1
330
1F
100
AcDbEntity
  8
0
  6
Continuous
 62
     7
370
    25
100
AcDbLine
 10
7011.6461319244
 20
5121.0116499767
 30
0.0
 11
7011.6461319244
 21
5106.5116499767
 31
0.0
  0
LINE
  5
1E2
330
1F
100
AcDbEntity
  8
0
  6
Continuous
 62
     7
370
    25
100
AcDbLine
 10
7011.4105473385
 20
5121.0116499767
 30
0.0
 11
7011.6461319244
 21
5121.0116499767
 31
0.0
  0
LINE
  5
1E3
330
1F
100
AcDbEntity
  8
0
  6
Continuous
 62
     7
370
    25
100
AcDbLine
 10
7008.9647326481
 20
5121.0116499767
 30
0.0
 11
7008.9647326481
 21
5106.5116499767
 31
0.0
  0
LINE
  5
1E4
330
1F
100
AcDbEntity
  8
0
  6
Continuous
 62
     7
370
    25
100
AcDbLine
 10
7008.9647326481
 20
5121.0116499767
 30
0.0
 11
7011.4105473385
 21
5121.0116499767
 31
0.0
  0
LINE
  5
1E5
330
1F
100
AcDbEntity
  8
0
  6
Continuous
 62
     7
370
    25
100
AcDbLine
 10
7019.7915087985
 20
5121.0116499767
 30
0.0
 11
7019.7915087985
 21
5106.5116499767
 31
0.0
  0
LINE
  5
1E6
330
1F
100
AcDbEntity
  8
0
  6
Continuous
 62
     7
370
    25
100
AcDbLine
 10
7019.7915087985
 20
5121.0116499767
 30
0.0
 11
7020.0290056702
 21
5121.0116499767
 31
0.0
  0
LINE
  5
1E7
330
1F
100
AcDbEntity
  8
0
  6
Continuous
 62
     7
370
    25
100
AcDbLine
 10
7011.6461319244
 20
5121.0116499767
 30
0.0
 11
7019.7915087985
 21
5121.0116499767
 31
0.0
  0
LINE
  5
1E8
330
1F
100
AcDbEntity
  8
0
  6
Continuous
 62
     7
370
    25
100
AcDbLine
 10
7029.6747558201
 20
5121.0116499767
 30
0.0
 11
7029.6747558201
 21
5106.5116499767
 31
0.0
  0
LINE
  5
1E9
330
1F
100
AcDbEntity
  8
0
  6
Continuous
 62
     7
370
    25
100
AcDbLine
 10
7022.4739271783
 20
5121.0116499767
 30
0.0
 11
7029.6747558201
 21
5121.0116499767
 31
0.0
  0
LINE
  5
1EA
330
1F
100
AcDbEntity
  8
0
  6
Continuous
 62
     7
370
    25
100
AcDbLine
 10
7001.7562986593
 20
5121.0116499767
 30
0.0
 11
7001.7562986593
 21
5106.5116499767
 31
0.0
  0
LINE
  5
1EB
330
1F
100
AcDbEntity
  8
0
  6
Continuous
 62
     7
370
    25
100
AcDbLine
 10
7001.7562986593
 20
5121.0116499767
 30
0.0
 11
7008.9647326481
 21
5121.0116499767
 31
0.0
  0
LINE
  5
1EC
330
1F
100
AcDbEntity
  8
0
  6
Continuous
 62
     7
370
    25
100
AcDbLine
 10
7030.3442687827
 20
5121.0116499767
 30
0.0
 11
7030.3442687827
 21
5106.5116499767
 31
0.0
  0
LINE
  5
1ED
330
1F
100
AcDbEntity
  8
0
  6
Continuous
 62
     7
370
    25
100
AcDbLine
 10
7032.3655479683
 20
5121.0116499767
 30
0.0
 11
7032.3655479683
 21
5106.5116499767
 31
0.0
  0
LINE
  5
1EE
330
1F
100
AcDbEntity
  8
0
  6
Continuous
 62
     7
370
    25
100
AcDbLine
 10
7030.3442687827
 20
5121.0116499767
 30
0.0
 11
7032.3655479683
 21
5121.0116499767
 31
0.0
  0
LINE
  5
1EF
330
1F
100
AcDbEntity
  8
0
  6
Continuous
 62
     7
370
    25
100
AcDbLine
 10
7001.0883673309
 20
5121.0116499767
 30
0.0
 11
7001.0883673309
 21
5106.5116499767
 31
0.0
  0
LINE
  5
1F0
330
1F
100
AcDbEntity
  8
0
  6
Continuous
 62
     7
370
    25
100
AcDbLine
 10
7001.0883673309
 20
5121.0116499767
 30
0.0
 11
7001.7562986593
 21
5121.0116499767
 31
0.0
  0
LINE
  5
1F1
330
1F
100
AcDbEntity
  8
0
  6
Continuous
 62
     7
370
    25
100
AcDbLine
 10
6999.0645630376
 20
5121.0116499767
 30
0.0
 11
6999.0645630376
 21
5106.5116499767
 31
0.0
  0
LINE
  5
1F2
330
1F
100
AcDbEntity
  8
0
  6
Continuous
 62
     7
370
    25
100
AcDbLine
 10
6999.0645630376
 20
5121.0116499767
 30
0.0
 11
7001.0883673309
 21
5121.0116499767
 31
0.0
  0
LINE
  5
1F3
330
1F
100
AcDbEntity
  8
0
  6
Continuous
 62
     7
370
    25
100
AcDbLine
 10
7029.6747558201
 20
5121.0116499767
 30
0.0
 11
7030.3442687827
 21
5121.0116499767
 31
0.0
  0
LINE
  5
1F4
330
1F
100
AcDbEntity
  8
0
  6
Continuous
 62
     7
370
    25
100
AcDbLine
 10
7037.1411551023
 20
5121.0116499767
 30
0.0
 11
7037.1411551023
 21
5106.5116499767
 31
0.0
  0
LINE
  5
1F5
330
1F
100
AcDbEntity
  8
0
  6
Continuous
 62
     7
370
    25
100
AcDbLine
 10
7032.3655479683
 20
5121.0116499767
 30
0.0
 11
7037.1411551023
 21
5121.0116499767
 31
0.0
  0
LINE
  5
1F6
330
1F
100
AcDbEntity
  8
0
  6
Continuous
 62
     7
370
    25
100
AcDbLine
 10
6994.2769725292
 20
5121.0116499767
 30
0.0
 11
6994.2769725292
 21
5106.5116499767
 31
0.0
  0
LINE
  5
1F7
330
1F
100
AcDbEntity
  8
0
  6
Continuous
 62
     7
370
    25
100
AcDbLine
 10
6994.2769725292
 20
5121.0116499767
 30
0.0
 11
6999.0645630376
 21
5121.0116499767
 31
0.0
  0
LINE
  5
1F8
330
1F
100
AcDbEntity
  8
0
  6
Continuous
 62
     7
370
    25
100
AcDbLine
 10
6993.2921858528
 20
5121.0116499767
 30
0.0
 11
6993.2921858528
 21
5106.5116499767
 31
0.0
  0
LINE
  5
1F9
330
1F
100
AcDbEntity
  8
0
  6
Continuous
 62
     7
370
    25
100
AcDbLine
 10
6993.2921858528
 20
5121.0116499767
 30
0.0
 11
6994.2769725292
 21
5121.0116499767
 31
0.0
  0
LINE
  5
1FA
330
1F
100
AcDbEntity
  8
0
  6
Continuous
 62
     7
370
    25
100
AcDbLine
 10
7038.1269192823
 20
5121.0116499767
 30
0.0
 11
7038.1269192823
 21
5106.5116499767
 31
0.0
  0
LINE
  5
1FB
330
1F
100
AcDbEntity
  8
0
  6
Continuous
 62
     7
370
    25
100
AcDbLine
 10
7039.3750586114
 20
5121.0116499767
 30
0.0
 11
7039.3750586114
 21
5106.5116499767
 31
0.0
  0
LINE
  5
1FC
330
1F
100
AcDbEntity
  8
0
  6
Continuous
 62
     7
370
    25
100
AcDbLine
 10
7038.1269192823
 20
5121.0116499767
 30
0.0
 11
7039.3750586114
 21
5121.0116499767
 31
0.0
  0
LINE
  5
1FD
330
1F
100
AcDbEntity
  8
0
  6
Continuous
 62
     7
370
    25
100
AcDbLine
 10
6992.0403261048
 20
5121.0116499767
 30
0.0
 11
6992.0403261048
 21
5106.5116499767
 31
0.0
  0
LINE
  5
1FE
330
1F
100
AcDbEntity
  8
0
  6
Continuous
 62
     7
370
    25
100
AcDbLine
 10
6992.0403261048
 20
5121.0116499767
 30
0.0
 11
6993.2921858528
 21
5121.0116499767
 31
0.0
  0
LINE
  5
1FF
330
1F
100
AcDbEntity
  8
0
  6
Continuous
 62
     7
370
    25
100
AcDbLine
 10
7037.1411551023
 20
5121.0116499767
 30
0.0
 11
7038.1269192823
 21
5121.0116499767
 31
0.0
  0
LINE
  5
200
330
1F
100
AcDbEntity
  8
0
  6
Continuous
 62
     7
370
    25
100
AcDbLine
 10
7040.8996983791
 20
5121.0116499767
 30
0.0
 11
7040.8996983791
 21
5106.5116499767
 31
0.0
  0
LINE
  5
201
330
1F
100
AcDbEntity
  8
0
  6
Continuous
 62
     7
370
    25
100
AcDbLine
 10
7039.3750586114
 20
5121.0116499767
 30
0.0
 11
7040.8996983791
 21
5121.0116499767
 31
0.0
  0
LINE
  5
202
330
1F
100
AcDbEntity
  8
0
  6
Continuous
 62
     7
370
    25
100
AcDbLine
 10
6990.5013969693
 20
5121.0116499767
 30
0.0
 11
6990.5013969693
 21
5106.5116499767
 31
0.0
  0
LINE
  5
203
330
1F
100
AcDbEntity
  8
0
  6
Continuous
 62
     7
370
    25
100
AcDbLine
 10
6990.5013969693
 20
5121.0116499767
 30
0.0
 11
6992.0403261048
 21
5121.0116499767
 31
0.0
  0
LINE
  5
204
330
1F
100
AcDbEntity
  8
0
  6
Continuous
 62
     7
370
    25
100
AcDbLine
 10
6989.370033508
 20
5121.0116499767
 30
0.0
 11
6989.370033508
 21
5106.5116499767
 31
0.0
  0
LINE
  5
205
330
1F
100
AcDbEntity
  8
0
  6
Continuous
 62
     7
370
    25
100
AcDbLine
 10
6989.370033508
 20
5121.0116499767
 30
0.0
 11
6990.5013969693
 21
5121.0116499767
 31
0.0
  0
LINE
  5
206
330
1F
100
AcDbEntity
  8
0
  6
Continuous
 62
     7
370
    25
100
AcDbLine
 10
6989.1065762283
 20
5121.0116499767
 30
0.0
 11
6989.1065762283
 21
5106.5116499767
 31
0.0
  0
LINE
  5
207
330
1F
100
AcDbEntity
  8
0
  6
Continuous
 62
     7
370
    25
100
AcDbLine
 10
6989.1065762283
 20
5121.0116499767
 30
0.0
 11
6989.370033508
 21
5121.0116499767
 31
0.0
  0
LINE
  5
208
330
1F
100
AcDbEntity
  8
0
  6
Continuous
 62
     7
370
    25
100
AcDbLine
 10
7042.0312661943
 20
5121.0116499767
 30
0.0
 11
7042.0312661943
 21
5106.5116499767
 31
0.0
  0
LINE
  5
209
330
1F
100
AcDbEntity
  8
0
  6
Continuous
 62
     7
370
    25
100
AcDbLine
 10
7040.8996983791
 20
5121.0116499767
 30
0.0
 11
7042.0312661943
 21
5121.0116499767
 31
0.0
  0
LINE
  5
20A
330
1F
100
AcDbEntity
  8
0
  6
Continuous
 62
     7
370
    25
100
AcDbLine
 10
7042.290451038
 20
5121.0116499767
 30
0.0
 11
7042.290451038
 21
5106.5116499767
 31
0.0
  0
LINE
  5
20B
330
1F
100
AcDbEntity
  8
0
  6
Continuous
 62
     7
370
    25
100
AcDbLine
 10
7042.0312661943
 20
5121.0116499767
 30
0.0
 11
7042.290451038
 21
5121.0116499767
 31
0.0
  0
LINE
  5
20C
330
1F
100
AcDbEntity
  8
0
  6
Continuous
 62
     7
370
    25
100
AcDbLine
 10
6955.8938286795
 20
4983.9833782193
 30
0.0
 11
6955.8938286795
 21
4992.9494545927
 31
0.0
  0
LINE
  5
20D
330
1F
100
AcDbEntity
  8
0
  6
Continuous
 62
     7
370
    25
100
AcDbLine
 10
6955.8938286795
 20
4940.9494545927
 30
0.0
 11
6955.8938286795
 21
4983.9833782193
 31
0.0
  0
LINE
  5
20E
330
1F
100
AcDbEntity
  8
0
  6
Continuous
 62
     7
370
    25
100
AcDbLine
 10
6958.8938286795
 20
4984.638529128
 30
0.0
 11
6958.8938286795
 21
4939.9494545927
 31
0.0
  0
LINE
  5
20F
330
1F
100
AcDbEntity
  8
0
  6
Continuous
 62
     7
370
    25
100
AcDbLine
 10
6958.8938286795
 20
4993.9494545927
 30
0.0
 11
6958.8938286795
 21
4984.638529128
 31
0.0
  0
LINE
  5
210
330
1F
100
AcDbEntity
  8
0
  6
Continuous
 62
     7
370
    25
100
AcDbLine
 10
6973.3938286795
 20
4959.8098993793
 30
0.0
 11
6958.8938286795
 21
4959.8098993793
 31
0.0
  0
LINE
  5
211
330
1F
100
AcDbEntity
  8
0
  6
Continuous
 62
     7
370
    25
100
AcDbLine
 10
6973.3938286795
 20
4967.8933651571
 30
0.0
 11
6958.8938286795
 21
4967.8933651571
 31
0.0
  0
LINE
  5
212
330
1F
100
AcDbEntity
  8
0
  6
Continuous
 62
     7
370
    25
100
AcDbLine
 10
6973.3938286795
 20
4967.8933651571
 30
0.0
 11
6973.3938286795
 21
4959.8098993793
 31
0.0
  0
LINE
  5
213
330
1F
100
AcDbEntity
  8
0
  6
Continuous
 62
     7
370
    25
100
AcDbLine
 10
6973.3938286795
 20
4978.1764360976
 30
0.0
 11
6958.8938286795
 21
4978.1764360976
 31
0.0
  0
LINE
  5
214
330
1F
100
AcDbEntity
  8
0
  6
Continuous
 62
     7
370
    25
100
AcDbLine
 10
6973.3938286795
 20
4978.1764360976
 30
0.0
 11
6973.3938286795
 21
4970.3841121443
 31
0.0
  0
LINE
  5
215
330
1F
100
AcDbEntity
  8
0
  6
Continuous
 62
     7
370
    25
100
AcDbLine
 10
6973.3938286795
 20
4970.4819059913
 30
0.0
 11
6958.8938286795
 21
4970.4819059913
 31
0.0
  0
LINE
  5
216
330
1F
100
AcDbEntity
  8
0
  6
Continuous
 62
     7
370
    25
100
AcDbLine
 10
6973.3938286795
 20
4967.9911590041
 30
0.0
 11
6958.8938286795
 21
4967.9911590041
 31
0.0
  0
LINE
  5
217
330
1F
100
AcDbEntity
  8
0
  6
Continuous
 62
     7
370
    25
100
AcDbLine
 10
6973.3938286795
 20
4970.4819059913
 30
0.0
 11
6973.3938286795
 21
4967.9911590041
 31
0.0
  0
LINE
  5
218
330
1F
100
AcDbEntity
  8
0
  6
Continuous
 62
     7
370
    25
100
AcDbLine
 10
6973.3938286795
 20
4967.9911590041
 30
0.0
 11
6973.3938286795
 21
4967.8933651571
 31
0.0
  0
LINE
  5
219
330
1F
100
AcDbEntity
  8
0
  6
Continuous
 62
     7
370
    25
100
AcDbLine
 10
6973.3938286795
 20
4959.4382075497
 30
0.0
 11
6958.8938286795
 21
4959.4382075497
 31
0.0
  0
LINE
  5
21A
330
1F
100
AcDbEntity
  8
0
  6
Continuous
 62
     7
370
    25
100
AcDbLine
 10
6973.3938286795
 20
4957.0753916754
 30
0.0
 11
6958.8938286795
 21
4957.0753916754
 31
0.0
  0
LINE
  5
21B
330
1F
100
AcDbEntity
  8
0
  6
Continuous
 62
     7
370
    25
100
AcDbLine
 10
6973.3938286795
 20
4959.4382075497
 30
0.0
 11
6973.3938286795
 21
4957.0753916754
 31
0.0
  0
LINE
  5
21C
330
1F
100
AcDbEntity
  8
0
  6
Continuous
 62
     7
370
    25
100
AcDbLine
 10
6973.3938286795
 20
4959.8098993793
 30
0.0
 11
6973.3938286795
 21
4959.4382075497
 31
0.0
  0
LINE
  5
21D
330
1F
100
AcDbEntity
  8
0
  6
Continuous
 62
     7
370
    25
100
AcDbLine
 10
6973.3938286795
 20
4950.4701805715
 30
0.0
 11
6958.8938286795
 21
4950.4701805715
 31
0.0
  0
LINE
  5
21E
330
1F
100
AcDbEntity
  8
0
  6
Continuous
 62
     7
370
    25
100
AcDbLine
 10
6973.3938286795
 20
4957.0753916754
 30
0.0
 11
6973.3938286795
 21
4950.4701805715
 31
0.0
  0
LINE
  5
21F
330
1F
100
AcDbEntity
  8
0
  6
Continuous
 62
     7
370
    25
100
AcDbLine
 10
6973.3938286795
 20
4980.9148114948
 30
0.0
 11
6958.8938286795
 21
4980.9148114948
 31
0.0
  0
LINE
  5
220
330
1F
100
AcDbEntity
  8
0
  6
Continuous
 62
     7
370
    25
100
AcDbLine
 10
6973.3938286795
 20
4978.7268061766
 30
0.0
 11
6958.8938286795
 21
4978.7268061766
 31
0.0
  0
LINE
  5
221
330
1F
100
AcDbEntity
  8
0
  6
Continuous
 62
     7
370
    25
100
AcDbLine
 10
6973.3938286795
 20
4980.9148114948
 30
0.0
 11
6973.3938286795
 21
4978.7268061766
 31
0.0
  0
LINE
  5
222
330
1F
100
AcDbEntity
  8
0
  6
Continuous
 62
     7
370
    25
100
AcDbLine
 10
6973.3938286795
 20
4978.7268061766
 30
0.0
 11
6973.3938286795
 21
4978.1764360976
 31
0.0
  0
LINE
  5
223
330
1F
100
AcDbEntity
  8
0
  6
Continuous
 62
     7
370
    25
100
AcDbLine
 10
6973.3938286795
 20
4986.5182599418
 30
0.0
 11
6958.8938286795
 21
4986.5182599418
 31
0.0
  0
LINE
  5
224
330
1F
100
AcDbEntity
  8
0
  6
Continuous
 62
     7
370
    25
100
AcDbLine
 10
6973.3938286795
 20
4986.5182599418
 30
0.0
 11
6973.3938286795
 21
4980.9148114948
 31
0.0
  0
LINE
  5
225
330
1F
100
AcDbEntity
  8
0
  6
Continuous
 62
     7
370
    25
100
AcDbLine
 10
6973.3938286795
 20
4949.6932719593
 30
0.0
 11
6958.8938286795
 21
4949.6932719593
 31
0.0
  0
LINE
  5
226
330
1F
100
AcDbEntity
  8
0
  6
Continuous
 62
     7
370
    25
100
AcDbLine
 10
6973.3938286795
 20
4947.8669395281
 30
0.0
 11
6958.8938286795
 21
4947.8669395281
 31
0.0
  0
LINE
  5
227
330
1F
100
AcDbEntity
  8
0
  6
Continuous
 62
     7
370
    25
100
AcDbLine
 10
6973.3938286795
 20
4949.6932719593
 30
0.0
 11
6973.3938286795
 21
4947.8669395281
 31
0.0
  0
LINE
  5
228
330
1F
100
AcDbEntity
  8
0
  6
Continuous
 62
     7
370
    25
100
AcDbLine
 10
6973.3938286795
 20
4950.4701805715
 30
0.0
 11
6973.3938286795
 21
4949.6932719593
 31
0.0
  0
LINE
  5
229
330
1F
100
AcDbEntity
  8
0
  6
Continuous
 62
     7
370
    25
100
AcDbLine
 10
6973.3938286795
 20
4943.9798779515
 30
0.0
 11
6958.8938286795
 21
4943.9798779515
 31
0.0
  0
LINE
  5
22A
330
1F
100
AcDbEntity
  8
0
  6
Continuous
 62
     7
370
    25
100
AcDbLine
 10
6973.3938286795
 20
4947.8669395281
 30
0.0
 11
6973.3938286795
 21
4943.9798779515
 31
0.0
  0
LINE
  5
22B
330
1F
100
AcDbEntity
  8
0
  6
Continuous
 62
     7
370
    25
100
AcDbLine
 10
6973.3938286795
 20
4987.4260422663
 30
0.0
 11
6958.8938286795
 21
4987.4260422663
 31
0.0
  0
LINE
  5
22C
330
1F
100
AcDbEntity
  8
0
  6
Continuous
 62
     7
370
    25
100
AcDbLine
 10
6973.3938286795
 20
4987.4260422663
 30
0.0
 11
6973.3938286795
 21
4986.5182599418
 31
0.0
  0
LINE
  5
22D
330
1F
100
AcDbEntity
  8
0
  6
Continuous
 62
     7
370
    25
100
AcDbLine
 10
6973.3938286795
 20
4988.9329799187
 30
0.0
 11
6958.8938286795
 21
4988.9329799187
 31
0.0
  0
LINE
  5
22E
330
1F
100
AcDbEntity
  8
0
  6
Continuous
 62
     7
370
    25
100
AcDbLine
 10
6973.3938286795
 20
4988.9329799187
 30
0.0
 11
6973.3938286795
 21
4987.4260422663
 31
0.0
  0
LINE
  5
22F
330
1F
100
AcDbEntity
  8
0
  6
Continuous
 62
     7
370
    25
100
AcDbLine
 10
6973.3938286795
 20
4991.4764595643
 30
0.0
 11
6958.8938286795
 21
4991.4764595643
 31
0.0
  0
LINE
  5
230
330
1F
100
AcDbEntity
  8
0
  6
Continuous
 62
     7
370
    25
100
AcDbLine
 10
6973.3938286795
 20
4991.4764595643
 30
0.0
 11
6973.3938286795
 21
4988.9329799187
 31
0.0
  0
LINE
  5
231
330
1F
100
AcDbEntity
  8
0
  6
Continuous
 62
     7
370
    25
100
AcDbLine
 10
6973.3938286795
 20
4942.9320871138
 30
0.0
 11
6958.8938286795
 21
4942.9320871138
 31
0.0
  0
LINE
  5
232
330
1F
100
AcDbEntity
  8
0
  6
Continuous
 62
     7
370
    25
100
AcDbLine
 10
6973.3938286795
 20
4943.9798779515
 30
0.0
 11
6973.3938286795
 21
4942.9320871138
 31
0.0
  0
LINE
  5
233
330
1F
100
AcDbEntity
  8
0
  6
Continuous
 62
     7
370
    25
100
AcDbLine
 10
6973.3938286795
 20
4941.9580275946
 30
0.0
 11
6958.8938286795
 21
4941.9580275946
 31
0.0
  0
LINE
  5
234
330
1F
100
AcDbEntity
  8
0
  6
Continuous
 62
     7
370
    25
100
AcDbLine
 10
6973.3938286795
 20
4942.9320871138
 30
0.0
 11
6973.3938286795
 21
4941.9580275946
 31
0.0
  0
LINE
  5
235
330
1F
100
AcDbEntity
  8
0
  6
Continuous
 62
     7
370
    25
100
AcDbLine
 10
6973.3938286795
 20
4941.4612238047
 30
0.0
 11
6958.8938286795
 21
4941.4612238047
 31
0.0
  0
LINE
  5
236
330
1F
100
AcDbEntity
  8
0
  6
Continuous
 62
     7
370
    25
100
AcDbLine
 10
6973.3938286795
 20
4941.9580275946
 30
0.0
 11
6973.3938286795
 21
4941.4612238047
 31
0.0
  0
LINE
  5
237
330
1F
100
AcDbEntity
  8
0
  6
Continuous
 62
     7
370
    25
100
AcDbLine
 10
6973.3938286795
 20
4992.5846903233
 30
0.0
 11
6958.8938286795
 21
4992.5846903233
 31
0.0
  0
LINE
  5
238
330
1F
100
AcDbEntity
  8
0
  6
Continuous
 62
     7
370
    25
100
AcDbLine
 10
6973.3938286795
 20
4992.5846903233
 30
0.0
 11
6973.3938286795
 21
4991.4764595643
 31
0.0
  0
LINE
  5
239
330
1F
100
AcDbEntity
  8
0
  6
Continuous
 62
     7
370
    25
100
AcDbLine
 10
6973.3938286795
 20
4993.1499970996
 30
0.0
 11
6958.8938286795
 21
4993.1499970996
 31
0.0
  0
LINE
  5
23A
330
1F
100
AcDbEntity
  8
0
  6
Continuous
 62
     7
370
    25
100
AcDbLine
 10
6973.3938286795
 20
4993.1499970996
 30
0.0
 11
6973.3938286795
 21
4992.5846903233
 31
0.0
  0
LINE
  5
23B
330
1F
100
AcDbEntity
  8
0
  6
Continuous
 62
     7
370
    25
100
AcDbLine
 10
6973.3938286795
 20
4940.3237232963
 30
0.0
 11
6958.8938286795
 21
4940.3237232963
 31
0.0
  0
LINE
  5
23C
330
1F
100
AcDbEntity
  8
0
  6
Continuous
 62
     7
370
    25
100
AcDbLine
 10
6973.3938286795
 20
4941.4612238047
 30
0.0
 11
6973.3938286795
 21
4940.3237232963
 31
0.0
  0
LINE
  5
23D
330
1F
100
AcDbEntity
  8
0
  6
Continuous
 62
     7
370
    25
100
AcDbLine
 10
6973.3938286795
 20
4993.3107732337
 30
0.0
 11
6958.8938286795
 21
4993.3107732337
 31
0.0
  0
LINE
  5
23E
330
1F
100
AcDbEntity
  8
0
  6
Continuous
 62
     7
370
    25
100
AcDbLine
 10
6973.3938286795
 20
4993.3107732337
 30
0.0
 11
6973.3938286795
 21
4993.1499970996
 31
0.0
  0
LINE
  5
23F
330
1F
100
AcDbEntity
  8
0
  6
Continuous
 62
     7
370
    25
100
AcDbLine
 10
7037.4635888703
 20
5014.1865948506
 30
0.0
 11
7041.6971921577
 21
5014.1865948506
 31
0.0
  0
LINE
  5
240
330
1F
100
AcDbEntity
  8
0
  6
Continuous
 62
     7
370
    25
100
AcDbLine
 10
6989.6971921577
 20
5014.1865948506
 30
0.0
 11
7037.4635888703
 21
5014.1865948506
 31
0.0
  0
LINE
  5
241
330
1F
100
AcDbEntity
  8
0
  6
Continuous
 62
     7
370
    25
100
AcDbLine
 10
7038.3007579747
 20
5011.1865948506
 30
0.0
 11
6988.6971921577
 21
5011.1865948506
 31
0.0
  0
LINE
  5
242
330
1F
100
AcDbEntity
  8
0
  6
Continuous
 62
     7
370
    25
100
AcDbLine
 10
7042.6971921577
 20
5011.1865948506
 30
0.0
 11
7038.3007579747
 21
5011.1865948506
 31
0.0
  0
LINE
  5
243
330
1F
100
AcDbEntity
  8
0
  6
Continuous
 62
     7
370
    25
100
AcDbLine
 10
7015.5423673487
 20
4996.6865948506
 30
0.0
 11
7015.5423673487
 21
5011.1865948506
 31
0.0
  0
LINE
  5
244
330
1F
100
AcDbEntity
  8
0
  6
Continuous
 62
     7
370
    25
100
AcDbLine
 10
7023.5909389906
 20
4996.6865948506
 30
0.0
 11
7023.5909389906
 21
5011.1865948506
 31
0.0
  0
LINE
  5
245
330
1F
100
AcDbEntity
  8
0
  6
Continuous
 62
     7
370
    25
100
AcDbLine
 10
7023.5909389906
 20
4996.6865948506
 30
0.0
 11
7015.5423673487
 21
4996.6865948506
 31
0.0
  0
LINE
  5
246
330
1F
100
AcDbEntity
  8
0
  6
Continuous
 62
     7
370
    25
100
AcDbLine
 10
7015.4796995412
 20
4996.6865948506
 30
0.0
 11
7015.4796995412
 21
5011.1865948506
 31
0.0
  0
LINE
  5
247
330
1F
100
AcDbEntity
  8
0
  6
Continuous
 62
     7
370
    25
100
AcDbLine
 10
7012.9834950889
 20
4996.6865948506
 30
0.0
 11
7012.9834950889
 21
5011.1865948506
 31
0.0
  0
LINE
  5
248
330
1F
100
AcDbEntity
  8
0
  6
Continuous
 62
     7
370
    25
100
AcDbLine
 10
7015.4796995412
 20
4996.6865948506
 30
0.0
 11
7012.9834950889
 21
4996.6865948506
 31
0.0
  0
LINE
  5
249
330
1F
100
AcDbEntity
  8
0
  6
Continuous
 62
     7
370
    25
100
AcDbLine
 10
7005.184159432
 20
4996.6865948506
 30
0.0
 11
7005.184159432
 21
5011.1865948506
 31
0.0
  0
LINE
  5
24A
330
1F
100
AcDbEntity
  8
0
  6
Continuous
 62
     7
370
    25
100
AcDbLine
 10
7013.0461628964
 20
4996.6865948506
 30
0.0
 11
7005.184159432
 21
4996.6865948506
 31
0.0
  0
LINE
  5
24B
330
1F
100
AcDbEntity
  8
0
  6
Continuous
 62
     7
370
    25
100
AcDbLine
 10
7015.5423673487
 20
4996.6865948506
 30
0.0
 11
7015.4796995412
 21
4996.6865948506
 31
0.0
  0
LINE
  5
24C
330
1F
100
AcDbEntity
  8
0
  6
Continuous
 62
     7
370
    25
100
AcDbLine
 10
7026.3321371078
 20
4996.6865948506
 30
0.0
 11
7026.3321371078
 21
5011.1865948506
 31
0.0
  0
LINE
  5
24D
330
1F
100
AcDbEntity
  8
0
  6
Continuous
 62
     7
370
    25
100
AcDbLine
 10
7023.9957302171
 20
4996.6865948506
 30
0.0
 11
7023.9957302171
 21
5011.1865948506
 31
0.0
  0
LINE
  5
24E
330
1F
100
AcDbEntity
  8
0
  6
Continuous
 62
     7
370
    25
100
AcDbLine
 10
7026.3321371078
 20
4996.6865948506
 30
0.0
 11
7023.9957302171
 21
4996.6865948506
 31
0.0
  0
LINE
  5
24F
330
1F
100
AcDbEntity
  8
0
  6
Continuous
 62
     7
370
    25
100
AcDbLine
 10
7023.9957302171
 20
4996.6865948506
 30
0.0
 11
7023.5909389906
 21
4996.6865948506
 31
0.0
  0
LINE
  5
250
330
1F
100
AcDbEntity
  8
0
  6
Continuous
 62
     7
370
    25
100
AcDbLine
 10
7032.770814545
 20
4996.6865948506
 30
0.0
 11
7032.770814545
 21
5011.1865948506
 31
0.0
  0
LINE
  5
251
330
1F
100
AcDbEntity
  8
0
  6
Continuous
 62
     7
370
    25
100
AcDbLine
 10
7032.770814545
 20
4996.6865948506
 30
0.0
 11
7026.3321371078
 21
4996.6865948506
 31
0.0
  0
LINE
  5
252
330
1F
100
AcDbEntity
  8
0
  6
Continuous
 62
     7
370
    25
100
AcDbLine
 10
7004.6648684239
 20
4996.6865948506
 30
0.0
 11
7004.6648684239
 21
5011.1865948506
 31
0.0
  0
LINE
  5
253
330
1F
100
AcDbEntity
  8
0
  6
Continuous
 62
     7
370
    25
100
AcDbLine
 10
7002.4404828372
 20
4996.6865948506
 30
0.0
 11
7002.4404828372
 21
5011.1865948506
 31
0.0
  0
LINE
  5
254
330
1F
100
AcDbEntity
  8
0
  6
Continuous
 62
     7
370
    25
100
AcDbLine
 10
7004.6648684239
 20
4996.6865948506
 30
0.0
 11
7002.4404828372
 21
4996.6865948506
 31
0.0
  0
LINE
  5
255
330
1F
100
AcDbEntity
  8
0
  6
Continuous
 62
     7
370
    25
100
AcDbLine
 10
7005.184159432
 20
4996.6865948506
 30
0.0
 11
7004.6648684239
 21
4996.6865948506
 31
0.0
  0
LINE
  5
256
330
1F
100
AcDbEntity
  8
0
  6
Continuous
 62
     7
370
    25
100
AcDbLine
 10
6996.6437503815
 20
4996.6865948506
 30
0.0
 11
6996.6437503815
 21
5011.1865948506
 31
0.0
  0
LINE
  5
257
330
1F
100
AcDbEntity
  8
0
  6
Continuous
 62
     7
370
    25
100
AcDbLine
 10
7002.4404828372
 20
4996.6865948506
 30
0.0
 11
6996.6437503815
 21
4996.6865948506
 31
0.0
  0
LINE
  5
258
330
1F
100
AcDbEntity
  8
0
  6
Continuous
 62
     7
370
    25
100
AcDbLine
 10
7035.3456960771
 20
4996.6865948506
 30
0.0
 11
7035.3456960771
 21
5011.1865948506
 31
0.0
  0
LINE
  5
259
330
1F
100
AcDbEntity
  8
0
  6
Continuous
 62
     7
370
    25
100
AcDbLine
 10
7033.5730727249
 20
4996.6865948506
 30
0.0
 11
7033.5730727249
 21
5011.1865948506
 31
0.0
  0
LINE
  5
25A
330
1F
100
AcDbEntity
  8
0
  6
Continuous
 62
     7
370
    25
100
AcDbLine
 10
7035.3456960771
 20
4996.6865948506
 30
0.0
 11
7033.5730727249
 21
4996.6865948506
 31
0.0
  0
LINE
  5
25B
330
1F
100
AcDbEntity
  8
0
  6
Continuous
 62
     7
370
    25
100
AcDbLine
 10
7033.5730727249
 20
4996.6865948506
 30
0.0
 11
7032.770814545
 21
4996.6865948506
 31
0.0
  0
LINE
  5
25C
330
1F
100
AcDbEntity
  8
0
  6
Continuous
 62
     7
370
    25
100
AcDbLine
 10
6995.7576263056
 20
4996.6865948506
 30
0.0
 11
6995.7576263056
 21
5011.1865948506
 31
0.0
  0
LINE
  5
25D
330
1F
100
AcDbEntity
  8
0
  6
Continuous
 62
     7
370
    25
100
AcDbLine
 10
6996.6437503815
 20
4996.6865948506
 30
0.0
 11
6995.7576263056
 21
4996.6865948506
 31
0.0
  0
LINE
  5
25E
330
1F
100
AcDbEntity
  8
0
  6
Continuous
 62
     7
370
    25
100
AcDbLine
 10
6994.1896760603
 20
4996.6865948506
 30
0.0
 11
6994.1896760603
 21
5011.1865948506
 31
0.0
  0
LINE
  5
25F
330
1F
100
AcDbEntity
  8
0
  6
Continuous
 62
     7
370
    25
100
AcDbLine
 10
6995.7576263056
 20
4996.6865948506
 30
0.0
 11
6994.1896760603
 21
4996.6865948506
 31
0.0
  0
LINE
  5
260
330
1F
100
AcDbEntity
  8
0
  6
Continuous
 62
     7
370
    25
100
AcDbLine
 10
7038.9985056796
 20
4996.6865948506
 30
0.0
 11
7038.9985056796
 21
5011.1865948506
 31
0.0
  0
LINE
  5
261
330
1F
100
AcDbEntity
  8
0
  6
Continuous
 62
     7
370
    25
100
AcDbLine
 10
7038.9985056796
 20
4996.6865948506
 30
0.0
 11
7035.3456960771
 21
4996.6865948506
 31
0.0
  0
LINE
  5
262
330
1F
100
AcDbEntity
  8
0
  6
Continuous
 62
     7
370
    25
100
AcDbLine
 10
6991.3978545092
 20
4996.6865948506
 30
0.0
 11
6991.3978545092
 21
5011.1865948506
 31
0.0
  0
LINE
  5
263
330
1F
100
AcDbEntity
  8
0
  6
Continuous
 62
     7
370
    25
100
AcDbLine
 10
6994.1896760603
 20
4996.6865948506
 30
0.0
 11
6991.3978545092
 21
4996.6865948506
 31
0.0
  0
LINE
  5
264
330
1F
100
AcDbEntity
  8
0
  6
Continuous
 62
     7
370
    25
100
AcDbLine
 10
7040.0595130854
 20
4996.6865948506
 30
0.0
 11
7040.0595130854
 21
5011.1865948506
 31
0.0
  0
LINE
  5
265
330
1F
100
AcDbEntity
  8
0
  6
Continuous
 62
     7
370
    25
100
AcDbLine
 10
7040.0595130854
 20
4996.6865948506
 30
0.0
 11
7038.9985056796
 21
4996.6865948506
 31
0.0
  0
LINE
  5
266
330
1F
100
AcDbEntity
  8
0
  6
Continuous
 62
     7
370
    25
100
AcDbLine
 10
7040.9618502177
 20
4996.6865948506
 30
0.0
 11
7040.9618502177
 21
5011.1865948506
 31
0.0
  0
LINE
  5
267
330
1F
100
AcDbEntity
  8
0
  6
Continuous
 62
     7
370
    25
100
AcDbLine
 10
7040.9618502177
 20
4996.6865948506
 30
0.0
 11
7040.0595130854
 21
4996.6865948506
 31
0.0
  0
LINE
  5
268
330
1F
100
AcDbEntity
  8
0
  6
Continuous
 62
     7
370
    25
100
AcDbLine
 10
6990.2981162685
 20
4996.6865948506
 30
0.0
 11
6990.2981162685
 21
5011.1865948506
 31
0.0
  0
LINE
  5
269
330
1F
100
AcDbEntity
  8
0
  6
Continuous
 62
     7
370
    25
100
AcDbLine
 10
6991.3978545092
 20
4996.6865948506
 30
0.0
 11
6990.2981162685
 21
4996.6865948506
 31
0.0
  0
LINE
  5
26A
330
1F
100
AcDbEntity
  8
0
  6
Continuous
 62
     7
370
    25
100
AcDbLine
 10
7041.1971880205
 20
4996.6865948506
 30
0.0
 11
7041.1971880205
 21
5011.1865948506
 31
0.0
  0
LINE
  5
26B
330
1F
100
AcDbEntity
  8
0
  6
Continuous
 62
     7
370
    25
100
AcDbLine
 10
7041.1971880205
 20
4996.6865948506
 30
0.0
 11
7040.9618502177
 21
4996.6865948506
 31
0.0
  0
LINE
  5
26C
330
1F
100
AcDbEntity
  8
0
  6
Continuous
 62
     7
370
    25
100
AcDbLine
 10
6989.6577142064
 20
4996.6865948506
 30
0.0
 11
6989.6577142064
 21
5011.1865948506
 31
0.0
  0
LINE
  5
26D
330
1F
100
AcDbEntity
  8
0
  6
Continuous
 62
     7
370
    25
100
AcDbLine
 10
6990.2981162685
 20
4996.6865948506
 30
0.0
 11
6989.6577142064
 21
4996.6865948506
 31
0.0
  0
LINE
  5
26E
330
1F
100
AcDbEntity
  8
0
  6
Continuous
 62
     7
370
    25
100
AcDbLine
 10
7042.3334868327
 20
4996.6865948506
 30
0.0
 11
7042.3334868327
 21
5011.1865948506
 31
0.0
  0
LINE
  5
26F
330
1F
100
AcDbEntity
  8
0
  6
Continuous
 62
     7
370
    25
100
AcDbLine
 10
7042.3334868327
 20
4996.6865948506
 30
0.0
 11
7041.1971880205
 21
4996.6865948506
 31
0.0
  0
LINE
  5
270
330
1F
100
AcDbEntity
  8
0
  6
Continuous
 62
     7
370
    25
100
AcDbLine
 10
6989.2303371959
 20
4996.6865948506
 30
0.0
 11
6989.2303371959
 21
5011.1865948506
 31
0.0
  0
LINE
  5
271
330
1F
100
AcDbEntity
  8
0
  6
Continuous
 62
     7
370
    25
100
AcDbLine
 10
6989.6577142064
 20
4996.6865948506
 30
0.0
 11
6989.2303371959
 21
4996.6865948506
 31
0.0
  0
LINE
  5
272
330
1F
100
AcDbEntity
  8
0
  6
Continuous
 62
     7
370
    25
100
AcDbLine
 10
6850.6971921577
 20
4930.9813788065
 30
0.0
 11
6850.6971921577
 21
5007.4494545927
 31
0.0
  0
LINE
  5
273
330
1F
100
AcDbEntity
  8
0
  6
Continuous
 62
     7
370
    25
100
AcDbLine
 10
6850.6971921577
 20
4926.4494545927
 30
0.0
 11
6850.6971921577
 21
4930.9813788065
 31
0.0
  0
LINE
  5
274
330
1F
100
AcDbEntity
  8
0
  6
Continuous
 62
     7
370
    25
100
AcDbLine
 10
6884.1971921577
 20
4949.1874418588
 30
0.0
 11
6884.1971921577
 21
4986.9494545927
 31
0.0
  0
LINE
  5
275
330
1F
100
AcDbEntity
  8
0
  6
Continuous
 62
     7
370
    25
100
AcDbLine
 10
6884.1971921577
 20
4946.9494545927
 30
0.0
 11
6884.1971921577
 21
4949.1874418588
 31
0.0
  0
LINE
  5
276
330
1F
100
AcDbEntity
  8
0
  6
Continuous
 62
     7
370
    25
100
AcDbLine
 10
7038.6971921577
 20
5126.3194413977
 30
0.0
 11
6993.3422747508
 21
5126.3194413977
 31
0.0
  0
LWPOLYLINE
  5
277
330
1F
100
AcDbEntity
  8
0
  6
Continuous
 62
     7
370
    25
100
AcDbPolyline
 90
       15
 70
   128
 43
0.0
 10
6967.1851147105
 20
5158.4494545927
 10
6967.5489135618
 20
5157.6952352599
 10
6968.2624922596
 20
5156.2520419959
 10
6969.1599378722
 20
5154.4937739645
 10
6970.2614276299
 20
5152.4192788831
 10
6971.5421714448
 20
5150.1186102291
 10
6973.0803967425
 20
5147.507437288
 10
6974.7928044639
 20
5144.7877190257
 10
6976.829049546
 20
5141.7994359774
 10
6979.0305826144
 20
5138.8564126765
 10
6981.6083023884
 20
5135.7746186571
 10
6984.3271136745
 20
5132.9325071346
 10
6987.3792821911
 20
5130.2215847928
 10
6990.4697214758
 20
5127.9743528288
 10
6993.3422747508
 20
5126.3194413977
  0
LWPOLYLINE
  5
278
330
1F
100
AcDbEntity
  8
0
  6
Continuous
 62
     7
370
    25
100
AcDbPolyline
 90
        4
 70
   128
 43
0.0
 10
6993.3422747508
 20
5126.3194413977
 10
6992.9160050061
 20
5125.742303062
 10
6992.7100254384
 20
5125.4665693503
 10
6992.7237255646
 20
5125.484857191
  0
LINE
  5
279
330
1F
100
AcDbEntity
  8
0
  6
Continuous
 62
     7
370
    25
100
AcDbLine
 10
6958.1971921577
 20
5185.4494545927
 30
0.0
 11
7073.1971921577
 21
5185.4494545927
 31
0.0
  0
LINE
  5
27A
330
1F
100
AcDbEntity
  8
0
  6
Continuous
 62
     7
370
    25
100
AcDbLine
 10
6863.7190036838
 20
5126.4494545927
 30
0.0
 11
6866.4764387738
 21
5125.267696697
 31
0.0
  0
ARC
  5
27B
330
1F
100
AcDbEntity
  8
0
  6
Continuous
 62
     7
370
    25
100
AcDbCircle
 10
6863.7190036838
 20
5126.4494545927
 30
0.0
 40
3.0
100
AcDbArc
 50
270.0
 51
336.8014094864
  0
LINE
  5
27C
330
1F
100
AcDbEntity
  8
0
  6
Continuous
 62
     7
370
    25
100
AcDbLine
 10
6863.7190036838
 20
5126.4494545927
 30
0.0
 11
6863.7190036838
 21
5123.4494545927
 31
0.0
  0
ARC
  5
27D
330
1F
100
AcDbEntity
  8
0
  6
Continuous
 62
     7
370
    25
100
AcDbCircle
 10
6882.6753806317
 20
5155.4494545927
 30
0.0
 40
3.00000000000008
100
AcDbArc
 50
90.0
 51
156.8014094863
  0
LINE
  5
27E
330
1F
100
AcDbEntity
  8
0
  6
Continuous
 62
     7
370
    25
100
AcDbLine
 10
6879.9179455416
 20
5156.6312124885
 30
0.0
 11
6877.1605104515
 21
5157.8129703842
 31
0.0
  0
ARC
  5
27F
330
1F
100
AcDbEntity
  8
0
  6
Continuous
 62
     7
370
    25
100
AcDbCircle
 10
6882.6753806317
 20
5155.4494545927
 30
0.0
 40
6.0
100
AcDbArc
 50
90.0
 51
156.8014094864
  0
LINE
  5
280
330
1F
100
AcDbEntity
  8
0
  6
Continuous
 62
     7
370
    25
100
AcDbLine
 10
6882.6753806317
 20
5158.4494545927
 30
0.0
 11
6882.6753806317
 21
5161.4494545927
 31
0.0
  0
LINE
  5
281
330
1F
100
AcDbEntity
  8
0
  6
Continuous
 62
     7
370
    25
100
AcDbLine
 10
6863.7190036838
 20
5126.4494545927
 30
0.0
 11
6877.1605104515
 21
5157.8129703842
 31
0.0
  0
LINE
  5
282
330
1F
100
AcDbEntity
  8
0
  6
Continuous
 62
     7
370
    25
100
AcDbLine
 10
6866.4764387738
 20
5125.267696697
 30
0.0
 11
6879.9179455416
 21
5156.6312124885
 31
0.0
  0
LINE
  5
283
330
1F
100
AcDbEntity
  8
0
  6
Continuous
 62
     7
370
    25
100
AcDbLine
 10
6882.6753806317
 20
5158.4494545927
 30
0.0
 11
7015.6971921577
 21
5158.4494545927
 31
0.0
  0
LINE
  5
284
330
1F
100
AcDbEntity
  8
0
  6
Continuous
 62
     7
370
    25
100
AcDbLine
 10
6882.6753806317
 20
5161.4494545927
 30
0.0
 11
7015.6971921577
 21
5161.4494545927
 31
0.0
  0
LINE
  5
285
330
1F
100
AcDbEntity
  8
0
  6
Continuous
 62
     7
370
    25
100
AcDbLine
 10
7015.6971921577
 20
5158.4494545927
 30
0.0
 11
7015.6971921577
 21
5161.4494545927
 31
0.0
  0
LINE
  5
286
330
1F
100
AcDbEntity
  8
0
  6
Continuous
 62
     7
370
    25
100
AcDbLine
 10
6850.6971921577
 20
5183.4494545927
 30
0.0
 11
7015.6971921577
 21
5183.4494545927
 31
0.0
  0
LINE
  5
287
330
1F
100
AcDbEntity
  8
0
  6
Continuous
 62
     7
370
    25
100
AcDbLine
 10
7015.6971921577
 20
5183.4494545927
 30
0.0
 11
7015.6971921577
 21
5180.4494545927
 31
0.0
  0
LINE
  5
288
330
1F
100
AcDbEntity
  8
0
  6
Continuous
 62
     7
370
    25
100
AcDbLine
 10
7015.6971921577
 20
5180.4494545927
 30
0.0
 11
6850.6971921577
 21
5180.4494545927
 31
0.0
  0
LINE
  5
289
330
1F
100
AcDbEntity
  8
0
  6
Continuous
 62
     7
370
    25
100
AcDbLine
 10
6850.6971921577
 20
5180.4494545927
 30
0.0
 11
6850.6971921577
 21
5183.4494545927
 31
0.0
  0
LINE
  5
28A
330
1F
100
AcDbEntity
  8
0
  6
Continuous
 62
     7
370
    25
100
AcDbLine
 10
6850.6971921577
 20
5126.4494545927
 30
0.0
 11
6863.7190036838
 21
5126.4494545927
 31
0.0
  0
LINE
  5
28B
330
1F
100
AcDbEntity
  8
0
  6
Continuous
 62
     7
370
    25
100
AcDbLine
 10
6853.6971921577
 20
5123.4494545927
 30
0.0
 11
6863.7190036838
 21
5123.4494545927
 31
0.0
  0
LINE
  5
28C
330
1F
100
AcDbEntity
  8
0
  6
Continuous
 62
     7
370
    25
100
AcDbLine
 10
6853.6971921577
 20
5123.4494545927
 30
0.0
 11
6850.6971921577
 21
5123.4494545927
 31
0.0
  0
LINE
  5
28D
330
1F
100
AcDbEntity
  8
0
  6
Continuous
 62
     7
370
    25
100
AcDbLine
 10
6850.6971921577
 20
5123.4494545927
 30
0.0
 11
6850.6971921577
 21
5126.4494545927
 31
0.0
  0
LINE
  5
28E
330
1F
100
AcDbEntity
  8
0
  6
Continuous
 62
     7
370
    25
100
AcDbLine
 10
7015.6971921577
 20
5180.4494545927
 30
0.0
 11
7015.6971921577
 21
5161.4494545927
 31
0.0
  0
LINE
  5
28F
330
1F
100
AcDbEntity
  8
0
  6
Continuous
 62
     7
370
    25
100
AcDbLine
 10
6850.6971921577
 20
5180.4494545927
 30
0.0
 11
6850.6971921577
 21
5126.4494545927
 31
0.0
  0
LINE
  5
290
330
1F
100
AcDbEntity
  8
0
  6
Continuous
 62
     7
370
    25
100
AcDbLine
 10
7015.6971921577
 20
5183.4494545927
 30
0.0
 11
7078.6971921577
 21
5183.4494545927
 31
0.0
  0
LINE
  5
291
330
1F
100
AcDbEntity
  8
0
  6
Continuous
 62
     7
370
    25
100
AcDbLine
 10
7015.6971921577
 20
5158.4494545927
 30
0.0
 11
7078.6971921577
 21
5158.4494545927
 31
0.0
  0
LINE
  5
292
330
1F
100
AcDbEntity
  8
0
  6
Continuous
 62
     7
370
    25
100
AcDbLine
 10
6851.6328774618
 20
5547.4494545927
 30
0.0
 11
6850.6971921577
 21
5547.0966189203
 31
0.0
  0
LINE
  5
293
330
1F
100
AcDbEntity
  8
0
  6
Continuous
 62
     7
370
    25
100
AcDbLine
 10
6851.6328774618
 20
5547.4494545927
 30
0.0
 11
6851.6328774618
 21
5482.4494545927
 31
0.0
  0
LINE
  5
294
330
1F
100
AcDbEntity
  8
0
  6
Continuous
 62
     7
370
    25
100
AcDbLine
 10
6851.6328774618
 20
5482.4494545927
 30
0.0
 11
6850.6971921577
 21
5482.4494545927
 31
0.0
  0
LINE
  5
295
330
1F
100
AcDbEntity
  8
0
  6
Continuous
 62
     7
370
    25
100
AcDbLine
 10
6850.6971921577
 20
5547.0966189203
 30
0.0
 11
6850.6971921577
 21
5482.4494545927
 31
0.0
  0
LINE
  5
296
330
1F
100
AcDbEntity
  8
0
  6
Continuous
 62
     7
370
    25
100
AcDbLine
 10
6852.7614399552
 20
5544.4566184873
 30
0.0
 11
6851.6328774618
 21
5547.4494545927
 31
0.0
  0
LINE
  5
297
330
1F
100
AcDbEntity
  8
0
  6
Continuous
 62
     7
370
    25
100
AcDbLine
 10
6852.7614399552
 20
5544.4566184873
 30
0.0
 11
6852.7614399552
 21
5482.4494545927
 31
0.0
  0
LINE
  5
298
330
1F
100
AcDbEntity
  8
0
  6
Continuous
 62
     7
370
    25
100
AcDbLine
 10
6852.7614399552
 20
5482.4494545927
 30
0.0
 11
6851.6328774618
 21
5482.4494545927
 31
0.0
  0
LINE
  5
299
330
1F
100
AcDbEntity
  8
0
  6
Continuous
 62
     7
370
    25
100
AcDbLine
 10
6852.7614399552
 20
5482.4494545927
 30
0.0
 11
6852.7614399552
 21
5357.4494545927
 31
0.0
  0
LINE
  5
29A
330
1F
100
AcDbEntity
  8
0
  6
Continuous
 62
     7
370
    25
100
AcDbLine
 10
6851.6328774618
 20
5482.4494545927
 30
0.0
 11
6851.6328774618
 21
5357.4494545927
 31
0.0
  0
LINE
  5
29B
330
1F
100
AcDbEntity
  8
0
  6
Continuous
 62
     7
370
    25
100
AcDbLine
 10
6852.7614399552
 20
5357.4494545927
 30
0.0
 11
6851.6328774618
 21
5357.4494545927
 31
0.0
  0
LINE
  5
29C
330
1F
100
AcDbEntity
  8
0
  6
Continuous
 62
     7
370
    25
100
AcDbLine
 10
6850.6971921577
 20
5482.4494545927
 30
0.0
 11
6850.6971921577
 21
5357.4494545927
 31
0.0
  0
LINE
  5
29D
330
1F
100
AcDbEntity
  8
0
  6
Continuous
 62
     7
370
    25
100
AcDbLine
 10
6851.6328774618
 20
5357.4494545927
 30
0.0
 11
6850.6971921577
 21
5357.4494545927
 31
0.0
  0
ARC
  5
29E
330
1F
100
AcDbEntity
  8
0
  6
Continuous
 62
     7
370
    25
100
AcDbCircle
 10
6850.890069347
 20
5543.7509471424
 30
0.0
 40
2.000000000000359
100
AcDbArc
 50
0.0
 51
20.6608559197
  0
LINE
  5
29F
330
1F
100
AcDbEntity
  8
0
  6
Continuous
 62
     7
370
    25
100
AcDbLine
 10
6852.890069347
 20
5357.4494545927
 30
0.0
 11
6852.7614399552
 21
5357.4494545927
 31
0.0
  0
LINE
  5
2A0
330
1F
100
AcDbEntity
  8
0
  6
Continuous
 62
     7
370
    25
100
AcDbLine
 10
6850.1971921577
 20
5520.1994545927
 30
0.0
 11
6850.1971921577
 21
5523.1994545927
 31
0.0
  0
LINE
  5
2A1
330
1F
100
AcDbEntity
  8
0
  6
Continuous
 62
     7
370
    25
100
AcDbLine
 10
6850.1971921577
 20
5517.1994545927
 30
0.0
 11
6850.1971921577
 21
5520.1994545927
 31
0.0
  0
LINE
  5
2A2
330
1F
100
AcDbEntity
  8
0
  6
Continuous
 62
     7
370
    25
100
AcDbLine
 10
6852.890069347
 20
5357.4494545927
 30
0.0
 11
7204.6971921577
 21
5357.4494545927
 31
0.0
  0
LINE
  5
2A3
330
1F
100
AcDbEntity
  8
0
  6
Continuous
 62
     7
370
    25
100
AcDbLine
 10
7204.6971921577
 20
5357.4494545927
 30
0.0
 11
7204.6971921577
 21
5347.4494545927
 31
0.0
  0
LINE
  5
2A4
330
1F
100
AcDbEntity
  8
0
  6
Continuous
 62
     7
370
    25
100
AcDbLine
 10
6850.6971921577
 20
5347.4494545927
 30
0.0
 11
7204.6971921577
 21
5347.4494545927
 31
0.0
  0
LINE
  5
2A5
330
1F
100
AcDbEntity
  8
0
  6
Continuous
 62
     7
370
    25
100
AcDbLine
 10
6850.6971921577
 20
5347.4494545927
 30
0.0
 11
6850.6971921577
 21
5357.4494545927
 31
0.0
  0
LINE
  5
2A6
330
1F
100
AcDbEntity
  8
0
  6
Continuous
 62
     7
370
    25
100
AcDbLine
 10
7204.6971921577
 20
5357.4494545927
 30
0.0
 11
7244.6971921577
 21
5357.4494545927
 31
0.0
  0
LINE
  5
2A7
330
1F
100
AcDbEntity
  8
0
  6
Continuous
 62
     7
370
    25
100
AcDbLine
 10
7244.6971921577
 20
5357.4494545927
 30
0.0
 11
7254.6971921577
 21
5347.4494545927
 31
0.0
  0
LINE
  5
2A8
330
1F
100
AcDbEntity
  8
0
  6
Continuous
 62
     7
370
    25
100
AcDbLine
 10
7254.6971921577
 20
5347.4494545927
 30
0.0
 11
7204.6971921577
 21
5347.4494545927
 31
0.0
  0
CIRCLE
  5
2A9
330
1F
100
AcDbEntity
  8
0
  6
Continuous
 62
     7
370
    25
100
AcDbCircle
 10
6969.6971921577
 20
5331.4494545927
 30
0.0
 40
8.041805041046246
  0
CIRCLE
  5
2AA
330
1F
100
AcDbEntity
  8
0
  6
Continuous
 62
     7
370
    25
100
AcDbCircle
 10
6969.6971921577
 20
5331.4494545927
 30
0.0
 40
3.682906097505111
  0
LINE
  5
2AB
330
1F
100
AcDbEntity
  8
0
  6
Continuous
 62
     7
370
    25
100
AcDbLine
 10
6874.6971921577
 20
5236.4494545927
 30
0.0
 11
6924.6971921577
 21
5236.4494545927
 31
0.0
  0
LINE
  5
2AC
330
1F
100
AcDbEntity
  8
0
  6
Continuous
 62
     7
370
    25
100
AcDbLine
 10
6874.6971921577
 20
5236.4494545927
 30
0.0
 11
6874.6971921577
 21
5347.4494545927
 31
0.0
  0
ARC
  5
2AD
330
1F
100
AcDbEntity
  8
0
  6
Continuous
 62
     7
370
    25
100
AcDbCircle
 10
6924.6971921577
 20
5236.4494545927
 30
0.0
 40
50.0
100
AcDbArc
 50
180.0
 51
270.0
  0
LINE
  5
2AE
330
1F
100
AcDbEntity
  8
0
  6
Continuous
 62
     7
370
    25
100
AcDbLine
 10
6924.6971921577
 20
5186.4494545927
 30
0.0
 11
6924.6971921577
 21
5236.4494545927
 31
0.0
  0
LINE
  5
2AF
330
1F
100
AcDbEntity
  8
0
  6
Continuous
 62
     7
370
    25
100
AcDbLine
 10
6924.6971921577
 20
5236.4494545927
 30
0.0
 11
7183.6971921577
 21
5236.4494545927
 31
0.0
  0
LINE
  5
2B0
330
1F
100
AcDbEntity
  8
0
  6
Continuous
 62
     7
370
    25
100
AcDbLine
 10
7183.6971921577
 20
5186.4494545927
 30
0.0
 11
6924.6971921577
 21
5186.4494545927
 31
0.0
  0
LINE
  5
2B1
330
1F
100
AcDbEntity
  8
0
  6
Continuous
 62
     7
370
    25
100
AcDbLine
 10
7183.6971921577
 20
5186.4494545927
 30
0.0
 11
7183.6971921577
 21
5236.4494545927
 31
0.0
  0
LINE
  5
2B2
330
1F
100
AcDbEntity
  8
0
  6
Continuous
 62
     7
370
    25
100
AcDbLine
 10
7233.6971921577
 20
5347.4494545927
 30
0.0
 11
7233.6971921577
 21
5236.4494545927
 31
0.0
  0
LINE
  5
2B3
330
1F
100
AcDbEntity
  8
0
  6
Continuous
 62
     7
370
    25
100
AcDbLine
 10
7183.6971921577
 20
5236.4494545927
 30
0.0
 11
7233.6971921577
 21
5236.4494545927
 31
0.0
  0
ARC
  5
2B4
330
1F
100
AcDbEntity
  8
0
  6
Continuous
 62
     7
370
    25
100
AcDbCircle
 10
7183.6971921577
 20
5236.4494545927
 30
0.0
 40
50.0
100
AcDbArc
 50
270.0
 51
0.0
  0
ARC
  5
2B5
330
1F
100
AcDbEntity
  8
0
  6
Continuous
 62
     7
370
    25
100
AcDbCircle
 10
7206.9807064837
 20
5357.9994834201
 30
0.0
 40
6.659012877858446
100
AcDbArc
 50
20.0782587077
 51
51.6741649206
  0
ARC
  5
2B6
330
1F
100
AcDbEntity
  8
0
  6
Continuous
 62
     7
370
    25
100
AcDbCircle
 10
7207.5991325684
 20
5356.5143439038
 30
0.0
 40
6.78123346641442
100
AcDbArc
 50
7.0425292864
 51
33.7881079753
  0
LWPOLYLINE
  5
2B7
330
1F
100
AcDbEntity
  8
0
  6
Continuous
 62
     7
370
    25
100
AcDbPolyline
 90
        3
 70
   128
 43
0.0
 10
7211.1652351576
 20
5363.2514613647
 10
7211.1130187855
 20
5363.2671716923
 10
7211.1081356471
 20
5363.2275594675
  0
LINE
  5
2B8
330
1F
100
AcDbEntity
  8
0
  6
Continuous
 62
     8
370
    25
100
AcDbLine
 10
6988.6971921577
 20
5104.5116499767
 30
0.0
 11
7042.6971921577
 21
5104.5116499767
 31
0.0
  0
LINE
  5
2B9
330
1F
100
AcDbEntity
  8
0
  6
Continuous
 62
     8
370
    25
100
AcDbLine
 10
6956.8938286795
 20
4984.638529128
 30
0.0
 11
6956.8938286795
 21
4939.9494545927
 31
0.0
  0
LINE
  5
2BA
330
1F
100
AcDbEntity
  8
0
  6
Continuous
 62
     8
370
    25
100
AcDbLine
 10
6956.8938286795
 20
4993.9494545927
 30
0.0
 11
6956.8938286795
 21
4984.638529128
 31
0.0
  0
LINE
  5
2BB
330
1F
100
AcDbEntity
  8
0
  6
Continuous
 62
     8
370
    25
100
AcDbLine
 10
7038.3007579747
 20
5013.1865948506
 30
0.0
 11
6988.6971921577
 21
5013.1865948506
 31
0.0
  0
LINE
  5
2BC
330
1F
100
AcDbEntity
  8
0
  6
Continuous
 62
     8
370
    25
100
AcDbLine
 10
7042.6971921577
 20
5013.1865948506
 30
0.0
 11
7038.3007579747
 21
5013.1865948506
 31
0.0
  0
LINE
  5
2BD
330
1F
100
AcDbEntity
  8
0
  6
Continuous
 62
     8
370
    25
100
AcDbLine
 10
6860.7195663031
 20
4930.9813788065
 30
0.0
 11
6860.7195663031
 21
5007.4494545927
 31
0.0
  0
LINE
  5
2BE
330
1F
100
AcDbEntity
  8
0
  6
Continuous
 62
     8
370
    25
100
AcDbLine
 10
6860.7195663031
 20
4926.4494545927
 30
0.0
 11
6860.7195663031
 21
4930.9813788065
 31
0.0
  0
LINE
  5
2BF
330
1F
100
AcDbEntity
  8
0
  6
Continuous
 62
     8
370
    25
100
AcDbLine
 10
7081.6971921577
 20
5180.4494545927
 30
0.0
 11
7015.6971921577
 21
5180.4494545927
 31
0.0
  0
LINE
  5
2C0
330
1F
100
AcDbEntity
  8
0
  6
Continuous
 62
     8
370
    25
100
AcDbLine
 10
7015.6971921577
 20
5161.4494545927
 30
0.0
 11
7081.6971921577
 21
5161.4494545927
 31
0.0
  0
LINE
  5
2C1
330
1F
100
AcDbEntity
  8
0
  6
Continuous
 62
     8
370
    25
100
AcDbLine
 10
6852.890069347
 20
5482.4494545927
 30
0.0
 11
6852.7614399552
 21
5482.4494545927
 31
0.0
  0
LINE
  5
2C2
330
1F
100
AcDbEntity
  8
0
  6
Continuous
 62
     8
370
    25
100
AcDbLine
 10
6924.6971921577
 20
5347.4494545927
 30
0.0
 11
6924.6971921577
 21
5236.4494545927
 31
0.0
  0
LINE
  5
2C3
330
1F
100
AcDbEntity
  8
0
  6
Continuous
 62
     8
370
    25
100
AcDbLine
 10
7183.6971921577
 20
5236.4494545927
 30
0.0
 11
7183.6971921577
 21
5347.4494545927
 31
0.0
  0
ARC
  5
2C4
330
1F
100
AcDbEntity
  8
0
  6
Continuous
 62
     7
370
    25
100
AcDbCircle
 10
6275.5157646711
 20
4639.7460465667
 30
0.0
 40
12.79558581639042
100
AcDbArc
 50
47.8903664838
 51
132.1096335162
  0
ARC
  5
2C5
330
1F
100
AcDbEntity
  8
0
  6
Continuous
 62
     7
370
    25
100
AcDbCircle
 10
6257.7632191023
 20
4625.0110563367
 30
0.0
 40
2.138818411385385
100
AcDbArc
 50
201.1709085861
 51
255.3002152837
  0
ARC
  5
2C6
330
1F
100
AcDbEntity
  8
0
  6
Continuous
 62
     7
370
    25
100
AcDbCircle
 10
6290.2742915699
 20
4625.0110563367
 30
0.0
 40
2.138818411385385
100
AcDbArc
 50
284.6997847163
 51
338.8290914139
  0
ARC
  5
2C7
330
1F
100
AcDbEntity
  8
0
  6
Continuous
 62
     7
370
    25
100
AcDbCircle
 10
6274.0187553361
 20
4686.9744235482
 30
0.0
 40
66.19895683170793
100
AcDbArc
 50
279.7844616563
 51
284.6997847163
  0
ARC
  5
2C8
330
1F
100
AcDbEntity
  8
0
  6
Continuous
 62
     7
370
    25
100
AcDbCircle
 10
6274.0187553361
 20
4686.9744235482
 30
0.0
 40
66.19895683170773
100
AcDbArc
 50
265.8852972563
 51
274.1147027437
  0
ARC
  5
2C9
330
1F
100
AcDbEntity
  8
0
  6
Continuous
 62
     7
370
    25
100
AcDbCircle
 10
6274.0187553361
 20
4686.9744235482
 30
0.0
 40
66.19895683170778
100
AcDbArc
 50
255.3002152837
 51
260.2155383437
  0
LINE
  5
2CA
330
1F
100
AcDbEntity
  8
0
  6
Continuous
 62
     7
370
    25
100
AcDbLine
 10
6278.7687553361
 20
4620.9461009464
 30
0.0
 11
6278.7687553361
 21
4621.7383952693
 31
0.0
  0
LINE
  5
2CB
330
1F
100
AcDbEntity
  8
0
  6
Continuous
 62
     7
370
    25
100
AcDbLine
 10
6269.2687553361
 20
4621.7383952693
 30
0.0
 11
6269.2687553361
 21
4620.9461009464
 31
0.0
  0
LINE
  5
2CC
330
1F
100
AcDbEntity
  8
0
  6
Continuous
 62
     7
370
    25
100
AcDbLine
 10
6494.0187553361
 20
4647.0457424302
 30
0.0
 11
6555.3202478857
 21
4647.0457424302
 31
0.0
  0
LINE
  5
2CD
330
1F
100
AcDbEntity
  8
0
  6
Continuous
 62
     7
370
    25
100
AcDbLine
 10
5992.7172627865
 20
4647.0457424302
 30
0.0
 11
6054.0187553361
 21
4647.0457424302
 31
0.0
  0
LINE
  5
2CE
330
1F
100
AcDbEntity
  8
0
  6
Continuous
 62
     7
370
    25
100
AcDbLine
 10
6054.0187553361
 20
4647.0457424302
 30
0.0
 11
6494.0187553361
 21
4647.0457424302
 31
0.0
  0
LINE
  5
2CF
330
1F
100
AcDbEntity
  8
0
  6
Continuous
 62
     7
370
    25
100
AcDbLine
 10
6525.2687553361
 20
4649.2386196196
 30
0.0
 11
6524.7687553361
 21
4649.7386196196
 31
0.0
  0
LINE
  5
2D0
330
1F
100
AcDbEntity
  8
0
  6
Continuous
 62
     7
370
    25
100
AcDbLine
 10
6518.7687553361
 20
4649.7386196196
 30
0.0
 11
6518.2687553361
 21
4649.2386196196
 31
0.0
  0
LINE
  5
2D1
330
1F
100
AcDbEntity
  8
0
  6
Continuous
 62
     7
370
    25
100
AcDbLine
 10
6277.5187553361
 20
4649.2386196196
 30
0.0
 11
6277.0187553361
 21
4649.7386196196
 31
0.0
  0
LINE
  5
2D2
330
1F
100
AcDbEntity
  8
0
  6
Continuous
 62
     7
370
    25
100
AcDbLine
 10
6271.0187553361
 20
4649.7386196196
 30
0.0
 11
6270.5187553361
 21
4649.2386196196
 31
0.0
  0
LINE
  5
2D3
330
1F
100
AcDbEntity
  8
0
  6
Continuous
 62
     7
370
    25
100
AcDbLine
 10
6029.7687553361
 20
4649.2386196196
 30
0.0
 11
6029.2687553361
 21
4649.7386196196
 31
0.0
  0
LINE
  5
2D4
330
1F
100
AcDbEntity
  8
0
  6
Continuous
 62
     7
370
    25
100
AcDbLine
 10
6023.2687553361
 20
4649.7386196196
 30
0.0
 11
6022.7687553361
 21
4649.2386196196
 31
0.0
  0
LINE
  5
2D5
330
1F
100
AcDbEntity
  8
0
  6
Continuous
 62
     7
370
    25
100
AcDbLine
 10
6424.6940238993
 20
4286.6995122296
 30
0.0
 11
6427.3040371002
 21
4301.5392259018
 31
0.0
  0
LINE
  5
2D6
330
1F
100
AcDbEntity
  8
0
  6
Continuous
 62
     7
370
    25
100
AcDbLine
 10
6421.3944831585
 20
4302.5770960305
 30
0.0
 11
6418.7844694707
 21
4287.7373795898
 31
0.0
  0
LINE
  5
2D7
330
1F
100
AcDbEntity
  8
0
  6
Continuous
 62
     7
370
    25
100
AcDbLine
 10
6129.2530379007
 20
4287.7373983569
 30
0.0
 11
6126.6430275137
 21
4302.5770960305
 31
0.0
  0
LINE
  5
2D8
330
1F
100
AcDbEntity
  8
0
  6
Continuous
 62
     7
370
    25
100
AcDbLine
 10
6120.733473572
 20
4301.5392259018
 30
0.0
 11
6123.3434903123
 21
4286.6994921052
 31
0.0
  0
LINE
  5
2D9
330
1F
100
AcDbEntity
  8
0
  6
Continuous
 62
     7
370
    25
100
AcDbLine
 10
6346.8306078865
 20
4301.5392764109
 30
0.0
 11
6349.4402587197
 21
4286.700134631
 31
0.0
  0
LINE
  5
2DA
330
1F
100
AcDbEntity
  8
0
  6
Continuous
 62
     7
370
    25
100
AcDbLine
 10
6355.349824051
 20
4287.7379398545
 30
0.0
 11
6352.7401795687
 21
4302.5770455215
 31
0.0
  0
LINE
  5
2DB
330
1F
100
AcDbEntity
  8
0
  6
Continuous
 62
     7
370
    25
100
AcDbLine
 10
6195.2973311035
 20
4302.5770455215
 30
0.0
 11
6192.687683321
 21
4287.7379210883
 31
0.0
  0
LINE
  5
2DC
330
1F
100
AcDbEntity
  8
0
  6
Continuous
 62
     7
370
    25
100
AcDbLine
 10
6198.5972554915
 20
4286.7001547544
 30
0.0
 11
6201.2069027857
 21
4301.5392764109
 31
0.0
  0
ARC
  5
2DD
330
1F
100
AcDbEntity
  8
0
  6
Continuous
 62
     7
370
    25
100
AcDbCircle
 10
6387.0527602187
 20
4293.2212190903
 30
0.0
 40
32.14329458929353
100
AcDbArc
 50
189.8123924587
 51
350.1996863189
  0
ARC
  5
2DE
330
1F
100
AcDbEntity
  8
0
  6
Continuous
 62
     7
370
    25
100
AcDbCircle
 10
6387.0826559351
 20
4293.2143516578
 30
0.0
 40
38.13771857170571
100
AcDbArc
 50
189.8136881838
 51
350.1757466427
  0
ARC
  5
2DF
330
1F
100
AcDbEntity
  8
0
  6
Continuous
 62
     7
370
    25
100
AcDbCircle
 10
6160.9857731715
 20
4293.2143465245
 30
0.0
 40
38.13771425085083
100
AcDbArc
 50
189.8146592975
 51
350.1761168539
  0
ARC
  5
2E0
330
1F
100
AcDbEntity
  8
0
  6
Continuous
 62
     7
370
    25
100
AcDbCircle
 10
6160.9558910156
 20
4293.2212328092
 30
0.0
 40
32.14330629351068
100
AcDbArc
 50
189.8134404905
 51
350.2018158005
  0
LINE
  5
2E1
330
1F
100
AcDbEntity
  8
0
  6
Continuous
 62
     7
370
    25
100
AcDbLine
 10
6240.524245201
 20
4560.7861076469
 30
0.0
 11
6195.2972317124
 21
4302.5764792207
 31
0.0
  0
LINE
  5
2E2
330
1F
100
AcDbEntity
  8
0
  6
Continuous
 62
     7
370
    25
100
AcDbLine
 10
6201.2070021768
 20
4301.5398427117
 30
0.0
 11
6246.4342712008
 21
4559.7509300385
 31
0.0
  0
LINE
  5
2E3
330
1F
100
AcDbEntity
  8
0
  6
Continuous
 62
     7
370
    25
100
AcDbLine
 10
6301.6032394714
 20
4559.7509300385
 30
0.0
 11
6346.8305084954
 21
4301.5398427117
 31
0.0
  0
LINE
  5
2E4
330
1F
100
AcDbEntity
  8
0
  6
Continuous
 62
     7
370
    25
100
AcDbLine
 10
6352.7402789598
 20
4302.5764792207
 30
0.0
 11
6307.5132654712
 21
4560.7861076469
 31
0.0
  0
LINE
  5
2E5
330
1F
100
AcDbEntity
  8
0
  6
Continuous
 62
     7
370
    25
100
AcDbLine
 10
6427.3041365016
 20
4301.5397922045
 30
0.0
 11
6472.5359496874
 21
4559.7508795826
 31
0.0
  0
LINE
  5
2E6
330
1F
100
AcDbEntity
  8
0
  6
Continuous
 62
     7
370
    25
100
AcDbLine
 10
6466.6259413637
 20
4560.7861581027
 30
0.0
 11
6421.3943837571
 21
4302.5765297278
 31
0.0
  0
LINE
  5
2E7
330
1F
100
AcDbEntity
  8
0
  6
Continuous
 62
     7
370
    25
100
AcDbLine
 10
6126.6431269151
 20
4302.5765297278
 30
0.0
 11
6081.4115693085
 21
4560.7861581027
 31
0.0
  0
LINE
  5
2E8
330
1F
100
AcDbEntity
  8
0
  6
Continuous
 62
     7
370
    25
100
AcDbLine
 10
6075.5015609848
 20
4559.7508795826
 30
0.0
 11
6120.7333741706
 21
4301.5397922045
 31
0.0
  0
LINE
  5
2E9
330
1F
100
AcDbEntity
  8
0
  6
Continuous
 62
     7
370
    25
100
AcDbLine
 10
6532.0187553361
 20
4534.2386196196
 30
0.0
 11
6468.0668705773
 21
4534.2386196196
 31
0.0
  0
LINE
  5
2EA
330
1F
100
AcDbEntity
  8
0
  6
Continuous
 62
     7
370
    25
100
AcDbLine
 10
6461.975508598
 20
4534.2386196196
 30
0.0
 11
6312.1632221999
 21
4534.2386196196
 31
0.0
  0
LINE
  5
2EB
330
1F
100
AcDbEntity
  8
0
  6
Continuous
 62
     7
370
    25
100
AcDbLine
 10
6306.0718784392
 20
4534.2386196196
 30
0.0
 11
6241.965632233
 21
4534.2386196196
 31
0.0
  0
LINE
  5
2EC
330
1F
100
AcDbEntity
  8
0
  6
Continuous
 62
     7
370
    25
100
AcDbLine
 10
6235.8742884723
 20
4534.2386196196
 30
0.0
 11
6086.0620020742
 21
4534.2386196196
 31
0.0
  0
LINE
  5
2ED
330
1F
100
AcDbEntity
  8
0
  6
Continuous
 62
     7
370
    25
100
AcDbLine
 10
6079.9706400949
 20
4534.2386196196
 30
0.0
 11
6016.0187553361
 21
4534.2386196196
 31
0.0
  0
LINE
  5
2EE
330
1F
100
AcDbEntity
  8
0
  6
Continuous
 62
     7
370
    25
100
AcDbLine
 10
6016.0187553361
 20
4526.2386196196
 30
0.0
 11
6081.372030365
 21
4526.2386196196
 31
0.0
  0
LINE
  5
2EF
330
1F
100
AcDbEntity
  8
0
  6
Continuous
 62
     7
370
    25
100
AcDbLine
 10
6087.4633923443
 20
4526.2386196196
 30
0.0
 11
6234.473038991
 21
4526.2386196196
 31
0.0
  0
LINE
  5
2F0
330
1F
100
AcDbEntity
  8
0
  6
Continuous
 62
     7
370
    25
100
AcDbLine
 10
6240.5643827517
 20
4526.2386196196
 30
0.0
 11
6307.4731279205
 21
4526.2386196196
 31
0.0
  0
LINE
  5
2F1
330
1F
100
AcDbEntity
  8
0
  6
Continuous
 62
     7
370
    25
100
AcDbLine
 10
6313.5644716812
 20
4526.2386196196
 30
0.0
 11
6460.5741183279
 21
4526.2386196196
 31
0.0
  0
LINE
  5
2F2
330
1F
100
AcDbEntity
  8
0
  6
Continuous
 62
     7
370
    25
100
AcDbLine
 10
6466.6654803072
 20
4526.2386196196
 30
0.0
 11
6532.0187553361
 21
4526.2386196196
 31
0.0
  0
CIRCLE
  5
2F3
330
1F
100
AcDbEntity
  8
0
  6
Continuous
 62
     7
370
    25
100
AcDbCircle
 10
6274.0187553361
 20
4484.2386196196
 30
0.0
 40
7.499999999999902
  0
CIRCLE
  5
2F4
330
1F
100
AcDbEntity
  8
0
  6
Continuous
 62
     7
370
    25
100
AcDbCircle
 10
6274.0187553361
 20
4484.2386196196
 30
0.0
 40
39.91409314612839
  0
CIRCLE
  5
2F5
330
1F
100
AcDbEntity
  8
0
  6
Continuous
 62
     7
370
    25
100
AcDbCircle
 10
6274.0187553361
 20
4484.2386196196
 30
0.0
 40
38.99999999999985
  0
ARC
  5
2F6
330
1F
100
AcDbEntity
  8
0
  6
Continuous
 62
     7
370
    25
100
AcDbCircle
 10
6274.0187553361
 20
4484.2386196196
 30
0.0
 40
22.50000000000074
100
AcDbArc
 50
350.4450014225
 51
7.2319246968
  0
ARC
  5
2F7
330
1F
100
AcDbEntity
  8
0
  6
Continuous
 62
     7
370
    25
100
AcDbCircle
 10
6298.2463070391
 20
4488.4197949184
 30
0.0
 40
2.335383495429678
100
AcDbArc
 50
215.2765824103
 51
280.8773304638
  0
LINE
  5
2F8
330
1F
100
AcDbEntity
  8
0
  6
Continuous
 62
     7
370
    25
100
AcDbLine
 10
6298.6870100383
 20
4486.1263702004
 30
0.0
 11
6302.2619347808
 21
4486.6486693926
 31
0.0
  0
ARC
  5
2F9
330
1F
100
AcDbEntity
  8
0
  6
Continuous
 62
     7
370
    25
100
AcDbCircle
 10
6302.0486189954
 20
4488.3338037709
 30
0.0
 40
1.698582201993275
100
AcDbArc
 50
277.2145175834
 51
99.4097769568
  0
LINE
  5
2FA
330
1F
100
AcDbEntity
  8
0
  6
Continuous
 62
     7
370
    25
100
AcDbLine
 10
6301.7709104726
 20
4490.0095303217
 30
0.0
 11
6298.1959857302
 21
4489.4872311295
 31
0.0
  0
ARC
  5
2FB
330
1F
100
AcDbEntity
  8
0
  6
Continuous
 62
     7
370
    25
100
AcDbCircle
 10
6298.3185644519
 20
4487.3032414137
 30
0.0
 40
2.187426940930965
100
AcDbArc
 50
93.2124155864
 51
163.8822606197
  0
ARC
  5
2FC
330
1F
100
AcDbEntity
  8
0
  6
Continuous
 62
     7
370
    25
100
AcDbCircle
 10
6274.0187553361
 20
4484.2386196196
 30
0.0
 40
22.50000000000025
100
AcDbArc
 50
9.3923698435
 51
26.1792931178
  0
ARC
  5
2FD
330
1F
100
AcDbEntity
  8
0
  6
Continuous
 62
     7
370
    25
100
AcDbCircle
 10
6295.5741573302
 20
4496.0251252093
 30
0.0
 40
2.306173621283349
100
AcDbArc
 50
233.7550170057
 51
300.2936327106
  0
LINE
  5
2FE
330
1F
100
AcDbEntity
  8
0
  6
Continuous
 62
     7
370
    25
100
AcDbLine
 10
6296.7374643445
 20
4494.033855875
 30
0.0
 11
6299.9490995333
 21
4495.6886316227
 31
0.0
  0
ARC
  5
2FF
330
1F
100
AcDbEntity
  8
0
  6
Continuous
 62
     7
370
    25
100
AcDbCircle
 10
6299.1993974448
 20
4497.2127942762
 30
0.0
 40
1.698565575988342
100
AcDbArc
 50
296.1915583149
 51
118.3274730672
  0
LINE
  5
300
330
1F
100
AcDbEntity
  8
0
  6
Continuous
 62
     7
370
    25
100
AcDbLine
 10
6298.3934105168
 20
4498.7079565041
 30
0.0
 11
6295.181775328
 21
4497.0531807564
 31
0.0
  0
ARC
  5
301
330
1F
100
AcDbEntity
  8
0
  6
Continuous
 62
     7
370
    25
100
AcDbCircle
 10
6296.0477922085
 20
4495.001240211
 30
0.0
 40
2.227205702040984
100
AcDbArc
 50
112.882066837
 51
182.1073462117
  0
ARC
  5
302
330
1F
100
AcDbEntity
  8
0
  6
Continuous
 62
     7
370
    25
100
AcDbCircle
 10
6274.0187553361
 20
4484.2386196196
 30
0.0
 40
22.49999999999992
100
AcDbArc
 50
28.3397382646
 51
45.1266615389
  0
ARC
  5
303
330
1F
100
AcDbEntity
  8
0
  6
Continuous
 62
     7
370
    25
100
AcDbCircle
 10
6290.6016745688
 20
4502.3068424559
 30
0.0
 40
2.238193832254975
100
AcDbArc
 50
251.5529655756
 51
320.3904209829
  0
LINE
  5
304
330
1F
100
AcDbEntity
  8
0
  6
Continuous
 62
     7
370
    25
100
AcDbLine
 10
6292.3259940126
 20
4500.8798757125
 30
0.0
 11
6294.8263091412
 21
4503.4878073869
 31
0.0
  0
ARC
  5
305
330
1F
100
AcDbEntity
  8
0
  6
Continuous
 62
     7
370
    25
100
AcDbCircle
 10
6293.6223361289
 20
4504.6859619144
 30
0.0
 40
1.698565655544018
100
AcDbArc
 50
315.1387827921
 51
137.2749854321
  0
LINE
  5
306
330
1F
100
AcDbEntity
  8
0
  6
Continuous
 62
     7
370
    25
100
AcDbLine
 10
6292.3745384603
 20
4505.8384055202
 30
0.0
 11
6289.8742233317
 21
4503.2304738458
 31
0.0
  0
ARC
  5
307
330
1F
100
AcDbEntity
  8
0
  6
Continuous
 62
     7
370
    25
100
AcDbCircle
 10
6291.4278157467
 20
4501.5544536375
 30
0.0
 40
2.285321231438545
100
AcDbArc
 50
132.8290774931
 51
200.0550723974
  0
ARC
  5
308
330
1F
100
AcDbEntity
  8
0
  6
Continuous
 62
     7
370
    25
100
AcDbCircle
 10
6274.0187553361
 20
4484.2386196196
 30
0.0
 40
22.50000000000026
100
AcDbArc
 50
47.2871066856
 51
64.0740299599
  0
ARC
  5
309
330
1F
100
AcDbEntity
  8
0
  6
Continuous
 62
     7
370
    25
100
AcDbCircle
 10
6283.8152215002
 20
4506.7426927667
 30
0.0
 40
2.268845810374368
100
AcDbArc
 50
271.0290535163
 51
338.8090698843
  0
LINE
  5
30A
330
1F
100
AcDbEntity
  8
0
  6
Continuous
 62
     7
370
    25
100
AcDbLine
 10
6285.930650304
 20
4505.9225572367
 30
0.0
 11
6287.4486974319
 21
4509.2010349746
 31
0.0
  0
ARC
  5
30B
330
1F
100
AcDbEntity
  8
0
  6
Continuous
 62
     7
370
    25
100
AcDbCircle
 10
6285.9212798558
 20
4509.9441204197
 30
0.0
 40
1.698581888074159
100
AcDbArc
 50
334.0571756599
 51
156.2513294067
  0
LINE
  5
30C
330
1F
100
AcDbEntity
  8
0
  6
Continuous
 62
     7
370
    25
100
AcDbLine
 10
6284.366532483
 20
4510.6281825787
 30
0.0
 11
6282.8484853551
 21
4507.3497048407
 31
0.0
  0
ARC
  5
30D
330
1F
100
AcDbEntity
  8
0
  6
Continuous
 62
     7
370
    25
100
AcDbCircle
 10
6284.8320821603
 20
4506.266114465
 30
0.0
 40
2.260270866074989
100
AcDbArc
 50
151.3533003498
 51
219.425586383
  0
ARC
  5
30E
330
1F
100
AcDbEntity
  8
0
  6
Continuous
 62
     7
370
    25
100
AcDbCircle
 10
6274.0187553361
 20
4484.2386196196
 30
0.0
 40
22.50000000000055
100
AcDbArc
 50
66.2344751067
 51
83.021398381
  0
ARC
  5
30F
330
1F
100
AcDbEntity
  8
0
  6
Continuous
 62
     7
370
    25
100
AcDbCircle
 10
6275.929480649
 20
4508.7392255611
 30
0.0
 40
2.318294015547986
100
AcDbArc
 50
290.7934406317
 51
356.9394196109
  0
LINE
  5
310
330
1F
100
AcDbEntity
  8
0
  6
Continuous
 62
     7
370
    25
100
AcDbLine
 10
6278.2444679435
 20
4508.6154476591
 30
0.0
 11
6278.6157431095
 21
4512.2091975268
 31
0.0
  0
ARC
  5
311
330
1F
100
AcDbEntity
  8
0
  6
Continuous
 62
     7
370
    25
100
AcDbCircle
 10
6276.9298063286
 20
4512.4160741752
 30
0.0
 40
1.698581990070702
100
AcDbArc
 50
353.0043644338
 51
175.1988774749
  0
LINE
  5
312
330
1F
100
AcDbEntity
  8
0
  6
Continuous
 62
     7
370
    25
100
AcDbLine
 10
6275.2371842896
 20
4512.5582410143
 30
0.0
 11
6274.8659091235
 21
4508.9644911466
 31
0.0
  0
ARC
  5
313
330
1F
100
AcDbEntity
  8
0
  6
Continuous
 62
     7
370
    25
100
AcDbCircle
 10
6277.0393235449
 20
4508.5590144629
 30
0.0
 40
2.210914197338267
100
AcDbArc
 50
169.4322680974
 51
239.2413554772
  0
ARC
  5
314
330
1F
100
AcDbEntity
  8
0
  6
Continuous
 62
     7
370
    25
100
AcDbCircle
 10
6274.0187553361
 20
4484.2386196196
 30
0.0
 40
22.50000000000018
100
AcDbArc
 50
85.1818435277
 51
101.968766802
  0
ARC
  5
315
330
1F
100
AcDbEntity
  8
0
  6
Continuous
 62
     7
370
    25
100
AcDbCircle
 10
6267.9096390588
 20
4508.0200580738
 30
0.0
 40
2.284176274196368
100
AcDbArc
 50
309.1817081551
 51
16.4458889297
  0
LINE
  5
316
330
1F
100
AcDbEntity
  8
0
  6
Continuous
 62
     7
370
    25
100
AcDbLine
 10
6270.1003640533
 20
4508.6667305179
 30
0.0
 11
6269.2846338323
 21
4512.1863139545
 31
0.0
  0
ARC
  5
317
330
1F
100
AcDbEntity
  8
0
  6
Continuous
 62
     7
370
    25
100
AcDbCircle
 10
6267.6230925247
 20
4511.833611587
 30
0.0
 40
1.69856365107554
100
AcDbArc
 50
11.9845208336
 51
194.113457917
  0
LINE
  5
318
330
1F
100
AcDbEntity
  8
0
  6
Continuous
 62
     7
370
    25
100
AcDbLine
 10
6265.9758004132
 20
4511.4194290476
 30
0.0
 11
6266.7915306342
 21
4507.899845611
 31
0.0
  0
ARC
  5
319
330
1F
100
AcDbEntity
  8
0
  6
Continuous
 62
     7
370
    25
100
AcDbCircle
 10
6269.0188671789
 20
4508.2597426839
 30
0.0
 40
2.256225606291185
100
AcDbArc
 50
189.1786239081
 51
257.389736509
  0
ARC
  5
31A
330
1F
100
AcDbEntity
  8
0
  6
Continuous
 62
     7
370
    25
100
AcDbCircle
 10
6274.0187553361
 20
4484.2386196196
 30
0.0
 40
22.50000000000027
100
AcDbArc
 50
104.1292119488
 51
120.9161352231
  0
ARC
  5
31B
330
1F
100
AcDbEntity
  8
0
  6
Continuous
 62
     7
370
    25
100
AcDbCircle
 10
6260.5111312688
 20
4504.7476506905
 30
0.0
 40
2.290591145908075
100
AcDbArc
 50
328.2357486189
 51
35.286585308
  0
LINE
  5
31C
330
1F
100
AcDbEntity
  8
0
  6
Continuous
 62
     7
370
    25
100
AcDbLine
 10
6262.3808786587
 20
4506.0708485198
 30
0.0
 11
6260.4665400774
 21
4509.1348640479
 31
0.0
  0
ARC
  5
31D
330
1F
100
AcDbEntity
  8
0
  6
Continuous
 62
     7
370
    25
100
AcDbCircle
 10
6259.0090587389
 20
4508.262553471
 30
0.0
 40
1.69858105333011
100
AcDbArc
 50
30.9007522629
 51
213.09196333
  0
LINE
  5
31E
330
1F
100
AcDbEntity
  8
0
  6
Continuous
 62
     7
370
    25
100
AcDbLine
 10
6257.5859955019
 20
4507.3351546256
 30
0.0
 11
6259.5003340832
 21
4504.2711390975
 31
0.0
  0
ARC
  5
31F
330
1F
100
AcDbEntity
  8
0
  6
Continuous
 62
     7
370
    25
100
AcDbCircle
 10
6261.4871671605
 20
4505.3291258106
 30
0.0
 40
2.250964584763645
100
AcDbArc
 50
208.0352585085
 51
276.4278387506
  0
ARC
  5
320
330
1F
100
AcDbEntity
  8
0
  6
Continuous
 62
     7
370
    25
100
AcDbCircle
 10
6274.0187553361
 20
4484.2386196196
 30
0.0
 40
22.50000000000022
100
AcDbArc
 50
123.0765803698
 51
139.8635036441
  0
ARC
  5
321
330
1F
100
AcDbEntity
  8
0
  6
Continuous
 62
     7
370
    25
100
AcDbCircle
 10
6254.5783853982
 20
4499.2484721687
 30
0.0
 40
2.29536554531638
100
AcDbArc
 50
347.262038113
 51
54.155032656
  0
LINE
  5
322
330
1F
100
AcDbEntity
  8
0
  6
Continuous
 62
     7
370
    25
100
AcDbLine
 10
6255.9225377824
 20
4501.1091057583
 30
0.0
 11
6253.1170391301
 21
4503.3855197524
 31
0.0
  0
ARC
  5
323
330
1F
100
AcDbEntity
  8
0
  6
Continuous
 62
     7
370
    25
100
AcDbCircle
 10
6252.0231124482
 20
4502.0861381843
 30
0.0
 40
1.698548805606215
100
AcDbArc
 50
49.9065589597
 51
231.9808934752
  0
LINE
  5
324
330
1F
100
AcDbEntity
  8
0
  6
Continuous
 62
     7
370
    25
100
AcDbLine
 10
6250.9769350993
 20
4500.7480122561
 30
0.0
 11
6253.7824337516
 21
4498.471598262
 31
0.0
  0
ARC
  5
325
330
1F
100
AcDbEntity
  8
0
  6
Continuous
 62
     7
370
    25
100
AcDbCircle
 10
6255.3169895136
 20
4500.1103118126
 30
0.0
 40
2.245048660451673
100
AcDbArc
 50
226.8799727608
 51
295.4778613404
  0
ARC
  5
326
330
1F
100
AcDbEntity
  8
0
  6
Continuous
 62
     7
370
    25
100
AcDbCircle
 10
6274.0187553361
 20
4484.2386196196
 30
0.0
 40
22.49999999999995
100
AcDbArc
 50
142.0239487909
 51
158.8108720652
  0
ARC
  5
327
330
1F
100
AcDbEntity
  8
0
  6
Continuous
 62
     7
370
    25
100
AcDbCircle
 10
6250.7359626797
 20
4492.1046295819
 30
0.0
 40
2.319332562786192
100
AcDbArc
 50
6.5996203181
 51
72.712187293
  0
LINE
  5
328
330
1F
100
AcDbEntity
  8
0
  6
Continuous
 62
     7
370
    25
100
AcDbLine
 10
6251.4252028698
 20
4494.3191840512
 30
0.0
 11
6248.0325634573
 21
4495.5613117328
 31
0.0
  0
ARC
  5
329
330
1F
100
AcDbEntity
  8
0
  6
Continuous
 62
     7
370
    25
100
AcDbCircle
 10
6247.419421072
 20
4493.977281878
 30
0.0
 40
1.698556494651657
100
AcDbArc
 50
68.8396984303
 51
250.9424908467
  0
LINE
  5
32A
330
1F
100
AcDbEntity
  8
0
  6
Continuous
 62
     7
370
    25
100
AcDbLine
 10
6246.8648134499
 20
4492.3718210248
 30
0.0
 11
6250.2574528624
 21
4491.1296933432
 31
0.0
  0
ARC
  5
32B
330
1F
100
AcDbEntity
  8
0
  6
Continuous
 62
     7
370
    25
100
AcDbCircle
 10
6251.1843657826
 20
4493.1353721991
 30
0.0
 40
2.209505653900876
100
AcDbArc
 50
245.1962528835
 51
315.0563180596
  0
ARC
  5
32C
330
1F
100
AcDbEntity
  8
0
  6
Continuous
 62
     7
370
    25
100
AcDbCircle
 10
6274.0187553361
 20
4484.2386196196
 30
0.0
 40
22.49999999999983
100
AcDbArc
 50
160.9713172119
 51
177.7582404862
  0
ARC
  5
32D
330
1F
100
AcDbEntity
  8
0
  6
Continuous
 62
     7
370
    25
100
AcDbCircle
 10
6249.4941175317
 20
4484.2016174445
 30
0.0
 40
2.238365864646306
100
AcDbArc
 50
24.1875617488
 51
93.0189827044
  0
LINE
  5
32E
330
1F
100
AcDbEntity
  8
0
  6
Continuous
 62
     7
370
    25
100
AcDbLine
 10
6249.3762299419
 20
4486.4368767718
 30
0.0
 11
6245.7640948918
 21
4486.510114333
 31
0.0
  0
ARC
  5
32F
330
1F
100
AcDbEntity
  8
0
  6
Continuous
 62
     7
370
    25
100
AcDbCircle
 10
6245.6983288851
 20
4484.8128282077
 30
0.0
 40
1.698559789653855
100
AcDbArc
 50
87.7810279246
 51
269.8958981946
  0
LINE
  5
330
330
1F
100
AcDbEntity
  8
0
  6
Continuous
 62
     7
370
    25
100
AcDbLine
 10
6245.6952427408
 20
4483.1142712216
 30
0.0
 11
6249.3073777909
 21
4483.0410336604
 31
0.0
  0
ARC
  5
331
330
1F
100
AcDbEntity
  8
0
  6
Continuous
 62
     7
370
    25
100
AcDbCircle
 10
6249.5491552256
 20
4485.2096363122
 30
0.0
 40
2.182038906453977
100
AcDbArc
 50
263.6383671098
 51
334.5089406753
  0
ARC
  5
332
330
1F
100
AcDbEntity
  8
0
  6
Continuous
 62
     7
370
    25
100
AcDbCircle
 10
6274.0187553361
 20
4484.2386196196
 30
0.0
 40
22.50000000000005
100
AcDbArc
 50
179.918685633
 51
196.7056089073
  0
ARC
  5
333
330
1F
100
AcDbEntity
  8
0
  6
Continuous
 62
     7
370
    25
100
AcDbCircle
 10
6250.8297977777
 20
4476.2171719529
 30
0.0
 40
2.258101957785663
100
AcDbArc
 50
43.4773189719
 51
111.6239623235
  0
LINE
  5
334
330
1F
100
AcDbEntity
  8
0
  6
Continuous
 62
     7
370
    25
100
AcDbLine
 10
6249.9976570088
 20
4478.3163542205
 30
0.0
 11
6246.5574572017
 21
4477.2127652352
 31
0.0
  0
ARC
  5
335
330
1F
100
AcDbEntity
  8
0
  6
Continuous
 62
     7
370
    25
100
AcDbCircle
 10
6247.046111987
 20
4475.5860082092
 30
0.0
 40
1.698564664873531
100
AcDbArc
 50
106.7195240422
 51
288.8521389192
  0
LINE
  5
336
330
1F
100
AcDbEntity
  8
0
  6
Continuous
 62
     7
370
    25
100
AcDbLine
 10
6247.594964106
 20
4473.9785620134
 30
0.0
 11
6251.035163913
 21
4475.0821509987
 31
0.0
  0
ARC
  5
337
330
1F
100
AcDbEntity
  8
0
  6
Continuous
 62
     7
370
    25
100
AcDbCircle
 10
6250.4870727555
 20
4477.2771007563
 30
0.0
 40
2.262345763839771
100
AcDbArc
 50
284.0203645406
 51
352.0216800867
  0
ARC
  5
338
330
1F
100
AcDbEntity
  8
0
  6
Continuous
 62
     7
370
    25
100
AcDbCircle
 10
6274.0187553361
 20
4484.2386196196
 30
0.0
 40
22.5000000000008
100
AcDbArc
 50
198.866054054
 51
215.6529773284
  0
ARC
  5
339
330
1F
100
AcDbEntity
  8
0
  6
Continuous
 62
     7
370
    25
100
AcDbCircle
 10
6254.6893373671
 20
4469.135188736
 30
0.0
 40
2.247413504999754
100
AcDbArc
 50
62.2401798535
 51
130.7558382838
  0
LINE
  5
33A
330
1F
100
AcDbEntity
  8
0
  6
Continuous
 62
     7
370
    25
100
AcDbLine
 10
6253.2221428051
 20
4470.8376010186
 30
0.0
 11
6250.3266772705
 21
4468.6767764772
 31
0.0
  0
ARC
  5
33B
330
1F
100
AcDbEntity
  8
0
  6
Continuous
 62
     7
370
    25
100
AcDbCircle
 10
6251.3172308164
 20
4467.2969531686
 30
0.0
 40
1.698560770275354
100
AcDbArc
 50
125.6739741806
 51
307.792425623
  0
LINE
  5
33C
330
1F
100
AcDbEntity
  8
0
  6
Continuous
 62
     7
370
    25
100
AcDbLine
 10
6252.3581132583
 20
4465.954689248
 30
0.0
 11
6255.2535787929
 21
4468.1155137894
 31
0.0
  0
ARC
  5
33D
330
1F
100
AcDbEntity
  8
0
  6
Continuous
 62
     7
370
    25
100
AcDbCircle
 10
6254.0068243244
 20
4470.0202282677
 30
0.0
 40
2.276474016694599
100
AcDbArc
 50
303.2072497607
 51
10.7295317087
  0
ARC
  5
33E
330
1F
100
AcDbEntity
  8
0
  6
Continuous
 62
     7
370
    25
100
AcDbCircle
 10
6274.0187553361
 20
4484.2386196196
 30
0.0
 40
22.50000000000043
100
AcDbArc
 50
217.8134224751
 51
234.6003457494
  0
ARC
  5
33F
330
1F
100
AcDbEntity
  8
0
  6
Continuous
 62
     7
370
    25
100
AcDbCircle
 10
6260.6664231295
 20
4463.6232928782
 30
0.0
 40
2.297076884233341
100
AcDbArc
 50
82.0270714466
 51
148.8636835329
  0
LINE
  5
340
330
1F
100
AcDbEntity
  8
0
  6
Continuous
 62
     7
370
    25
100
AcDbLine
 10
6258.7002642618
 20
4464.8110561203
 30
0.0
 11
6256.6633016181
 21
4461.8271548906
 31
0.0
  0
ARC
  5
341
330
1F
100
AcDbEntity
  8
0
  6
Continuous
 62
     7
370
    25
100
AcDbCircle
 10
6258.0481815614
 20
4460.8436816367
 30
0.0
 40
1.698561773627418
100
AcDbArc
 50
144.6195136394
 51
326.7416230059
  0
LINE
  5
342
330
1F
100
AcDbEntity
  8
0
  6
Continuous
 62
     7
370
    25
100
AcDbLine
 10
6259.4685290792
 20
4459.9121640428
 30
0.0
 11
6261.505491723
 21
4462.8960652725
 31
0.0
  0
ARC
  5
343
330
1F
100
AcDbEntity
  8
0
  6
Continuous
 62
     7
370
    25
100
AcDbCircle
 10
6259.7141803316
 20
4464.2923031157
 30
0.0
 40
2.271183967809408
100
AcDbArc
 50
322.0653633493
 51
29.7661549624
  0
ARC
  5
344
330
1F
100
AcDbEntity
  8
0
  6
Continuous
 62
     7
370
    25
100
AcDbCircle
 10
6274.0187553361
 20
4484.2386196196
 30
0.0
 40
22.50000000000037
100
AcDbArc
 50
236.7607908962
 51
253.5477141705
  0
ARC
  5
345
330
1F
100
AcDbEntity
  8
0
  6
Continuous
 62
     7
370
    25
100
AcDbCircle
 10
6268.0760606091
 20
4460.4125704616
 30
0.0
 40
2.2879999190067
100
AcDbArc
 50
100.8243262708
 51
167.9611655509
  0
LINE
  5
346
330
1F
100
AcDbEntity
  8
0
  6
Continuous
 62
     7
370
    25
100
AcDbLine
 10
6265.8383819174
 20
4460.8897891769
 30
0.0
 11
6264.8806586736
 21
4457.4061632571
 31
0.0
  0
ARC
  5
347
330
1F
100
AcDbEntity
  8
0
  6
Continuous
 62
     7
370
    25
100
AcDbCircle
 10
6266.5097872889
 20
4456.9254726425
 30
0.0
 40
1.698565133300203
100
AcDbArc
 50
163.5607807121
 51
345.6950927756
  0
LINE
  5
348
330
1F
100
AcDbEntity
  8
0
  6
Continuous
 62
     7
370
    25
100
AcDbLine
 10
6268.1556876851
 20
4456.5057877632
 30
0.0
 11
6269.1134109288
 21
4459.989413683
 31
0.0
  0
ARC
  5
349
330
1F
100
AcDbEntity
  8
0
  6
Continuous
 62
     7
370
    25
100
AcDbCircle
 10
6266.9763943152
 20
4460.7311732691
 30
0.0
 40
2.262089142943764
100
AcDbArc
 50
340.8580853616
 51
48.8681697919
  0
ARC
  5
34A
330
1F
100
AcDbEntity
  8
0
  6
Continuous
 62
     7
370
    25
100
AcDbCircle
 10
6274.0187553361
 20
4484.2386196196
 30
0.0
 40
22.49999999999968
100
AcDbArc
 50
255.7081593172
 51
272.4950825915
  0
ARC
  5
34B
330
1F
100
AcDbEntity
  8
0
  6
Continuous
 62
     7
370
    25
100
AcDbCircle
 10
6276.1201826141
 20
4459.781058604
 30
0.0
 40
2.274800697505413
100
AcDbArc
 50
119.550795702
 51
187.1294329617
  0
LINE
  5
34C
330
1F
100
AcDbEntity
  8
0
  6
Continuous
 62
     7
370
    25
100
AcDbLine
 10
6273.8629699644
 20
4459.4987303064
 30
0.0
 11
6274.0882702947
 21
4455.8928846189
 31
0.0
  0
ARC
  5
34D
330
1F
100
AcDbEntity
  8
0
  6
Continuous
 62
     7
370
    25
100
AcDbCircle
 10
6275.7851596779
 20
4455.9679931689
 30
0.0
 40
1.698550815535335
100
AcDbArc
 50
182.534399648
 51
4.6162106816
  0
LINE
  5
34E
330
1F
100
AcDbEntity
  8
0
  6
Continuous
 62
     7
370
    25
100
AcDbLine
 10
6277.4782006458
 20
4456.1046941344
 30
0.0
 11
6277.2529003155
 21
4459.7105398219
 31
0.0
  0
ARC
  5
34F
330
1F
100
AcDbEntity
  8
0
  6
Continuous
 62
     7
370
    25
100
AcDbCircle
 10
6275.0031553992
 20
4459.7264789492
 30
0.0
 40
2.249801378810058
100
AcDbArc
 50
359.5940742272
 51
68.0269177685
  0
ARC
  5
350
330
1F
100
AcDbEntity
  8
0
  6
Continuous
 62
     7
370
    25
100
AcDbCircle
 10
6274.0187553361
 20
4484.2386196196
 30
0.0
 40
22.50000000000071
100
AcDbArc
 50
274.6555277383
 51
291.4424510126
  0
ARC
  5
351
330
1F
100
AcDbEntity
  8
0
  6
Continuous
 62
     7
370
    25
100
AcDbCircle
 10
6284.003538348
 20
4461.7810040772
 30
0.0
 40
2.321860541187663
100
AcDbArc
 50
139.2717884887
 51
205.3031770171
  0
LINE
  5
352
330
1F
100
AcDbEntity
  8
0
  6
Continuous
 62
     7
370
    25
100
AcDbLine
 10
6281.9044397737
 20
4460.7886223219
 30
0.0
 11
6283.2883488915
 21
4457.4513061975
 31
0.0
  0
ARC
  5
353
330
1F
100
AcDbEntity
  8
0
  6
Continuous
 62
     7
370
    25
100
AcDbCircle
 10
6284.8691948175
 20
4458.0726335918
 30
0.0
 40
1.698564562490328
100
AcDbArc
 50
201.4565517129
 51
23.5887954591
  0
LINE
  5
354
330
1F
100
AcDbEntity
  8
0
  6
Continuous
 62
     7
370
    25
100
AcDbLine
 10
6286.4258290284
 20
4458.7523478748
 30
0.0
 11
6285.0419199107
 21
4462.0896639992
 31
0.0
  0
ARC
  5
355
330
1F
100
AcDbEntity
  8
0
  6
Continuous
 62
     7
370
    25
100
AcDbCircle
 10
6282.9067946093
 20
4461.3714830101
 30
0.0
 40
2.252674851245037
100
AcDbArc
 50
18.5911274803
 51
86.9246013576
  0
ARC
  5
356
330
1F
100
AcDbEntity
  8
0
  6
Continuous
 62
     7
370
    25
100
AcDbCircle
 10
6274.0187553361
 20
4484.2386196196
 30
0.0
 40
22.50000000000097
100
AcDbArc
 50
293.6028961593
 51
310.3898194336
  0
ARC
  5
357
330
1F
100
AcDbEntity
  8
0
  6
Continuous
 62
     7
370
    25
100
AcDbCircle
 10
6290.7061212143
 20
4466.2302613272
 30
0.0
 40
2.280650250774233
100
AcDbArc
 50
157.5438148296
 51
224.9258875183
  0
LINE
  5
358
330
1F
100
AcDbEntity
  8
0
  6
Continuous
 62
     7
370
    25
100
AcDbLine
 10
6289.0913733152
 20
4464.6196854088
 30
0.0
 11
6291.4839231939
 21
4461.9125488333
 31
0.0
  0
ARC
  5
359
330
1F
100
AcDbEntity
  8
0
  6
Continuous
 62
     7
370
    25
100
AcDbCircle
 10
6292.7773780032
 20
4463.0135016058
 30
0.0
 40
1.698564791551926
100
AcDbArc
 50
220.4035050142
 51
42.5365789997
  0
LINE
  5
35A
330
1F
100
AcDbEntity
  8
0
  6
Continuous
 62
     7
370
    25
100
AcDbLine
 10
6294.0289584609
 20
4464.1618346189
 30
0.0
 11
6291.6364085822
 21
4466.8689711945
 31
0.0
  0
ARC
  5
35B
330
1F
100
AcDbEntity
  8
0
  6
Continuous
 62
     7
370
    25
100
AcDbCircle
 10
6289.8540793439
 20
4465.5082739984
 30
0.0
 40
2.24236356843711
100
AcDbArc
 50
37.3594760383
 51
106.0509896416
  0
ARC
  5
35C
330
1F
100
AcDbEntity
  8
0
  6
Continuous
 62
     7
370
    25
100
AcDbCircle
 10
6274.0187553361
 20
4484.2386196196
 30
0.0
 40
22.5000000000002
100
AcDbArc
 50
312.5502645804
 51
329.3371878547
  0
ARC
  5
35D
330
1F
100
AcDbEntity
  8
0
  6
Continuous
 62
     7
370
    25
100
AcDbCircle
 10
6295.6587167555
 20
4472.6298838461
 30
0.0
 40
2.28976255668907
100
AcDbArc
 50
176.6430637601
 51
243.7213754299
  0
LINE
  5
35E
330
1F
100
AcDbEntity
  8
0
  6
Continuous
 62
     7
370
    25
100
AcDbLine
 10
6294.6449548229
 20
4470.5767644366
 30
0.0
 11
6297.7868755589
 21
4468.7931676634
 31
0.0
  0
ARC
  5
35F
330
1F
100
AcDbEntity
  8
0
  6
Continuous
 62
     7
370
    25
100
AcDbCircle
 10
6298.6524305049
 20
4470.2546438185
 30
0.0
 40
1.698557598782695
100
AcDbArc
 50
239.3639867618
 51
61.4708340942
  0
LINE
  5
360
330
1F
100
AcDbEntity
  8
0
  6
Continuous
 62
     7
370
    25
100
AcDbLine
 10
6299.4636718945
 20
4471.7469525414
 30
0.0
 11
6296.3217511584
 21
4473.5305493145
 31
0.0
  0
ARC
  5
361
330
1F
100
AcDbEntity
  8
0
  6
Continuous
 62
     7
370
    25
100
AcDbCircle
 10
6295.0779410487
 20
4471.653447883
 30
0.0
 40
2.251793368200484
100
AcDbArc
 50
56.4706393092
 51
124.8345632131
  0
ARC
  5
362
330
1F
100
AcDbEntity
  8
0
  6
Continuous
 62
     7
370
    25
100
AcDbCircle
 10
6274.0187553361
 20
4484.2386196196
 30
0.0
 40
22.50000000000074
100
AcDbArc
 50
331.4976330014
 51
348.2845562757
  0
ARC
  5
363
330
1F
100
AcDbEntity
  8
0
  6
Continuous
 62
     7
370
    25
100
AcDbCircle
 10
6298.2241504329
 20
4480.2490696886
 30
0.0
 40
2.249916716399426
100
AcDbArc
 50
194.9151635421
 51
263.34401249
  0
LINE
  5
364
330
1F
100
AcDbEntity
  8
0
  6
Continuous
 62
     7
370
    25
100
AcDbLine
 10
6297.9633675677
 20
4478.0143174589
 30
0.0
 11
6301.5141832974
 21
4477.347540874
 31
0.0
  0
ARC
  5
365
330
1F
100
AcDbEntity
  8
0
  6
Continuous
 62
     7
370
    25
100
AcDbCircle
 10
6301.8586867056
 20
4479.0108027521
 30
0.0
 40
1.698564886444268
100
AcDbArc
 50
258.2980699335
 51
80.4314877647
  0
LINE
  5
366
330
1F
100
AcDbEntity
  8
0
  6
Continuous
 62
     7
370
    25
100
AcDbLine
 10
6302.1410338004
 20
4480.6857364199
 30
0.0
 11
6298.5902180707
 21
4481.3525130049
 31
0.0
  0
ARC
  5
367
330
1F
100
AcDbEntity
  8
0
  6
Continuous
 62
     7
370
    25
100
AcDbCircle
 10
6298.029373885
 20
4479.1561817157
 30
0.0
 40
2.266807740492383
100
AcDbArc
 50
75.6753514023
 51
143.5245879617
  0
ELLIPSE
  5
368
330
1F
100
AcDbEntity
  8
0
  6
Continuous
 62
     7
370
    25
100
AcDbEllipse
 10
6254.744103322
 20
4499.8782947772
 30
0.0
 11
1.86499943607214
 21
-1.513282072643051
 31
0.0
210
0.0
220
0.0
230
1.0
 40
0.7071067812
 41
6.030742433100755
 42
6.535628181259145
  0
LWPOLYLINE
  5
369
330
1F
100
AcDbEntity
  8
0
  6
Continuous
 62
     7
370
    25
100
AcDbPolyline
 90
       11
 70
   128
 43
0.0
 10
6255.2374485914
 20
4501.6649950368
 10
6255.6294251961
 20
4501.2682566274
 10
6256.0414264148
 20
4500.5144570281
 10
6256.1486950743
 20
4499.8841676348
 10
6256.0709327138
 20
4499.387643316
 10
6255.8205887701
 20
4498.9478946765
 10
6255.4826983534
 20
4498.6723698398
 10
6255.0750661218
 20
4498.5132169503
 10
6254.4361211838
 20
4498.4728256447
 10
6253.6576768243
 20
4498.6821998413
 10
6253.0973445606
 20
4499.0274875404
  0
ELLIPSE
  5
36A
330
1F
100
AcDbEntity
  8
0
  6
Continuous
 62
     7
370
    25
100
AcDbEllipse
 10
6260.8666513556
 20
4505.2893633163
 30
0.0
 11
1.272586736655285
 21
-2.036852602823274
 31
0.0
210
0.0
220
0.0
230
1.0
 40
0.7071067812
 41
6.030742433099844
 42
6.535628181258914
  0
LWPOLYLINE
  5
36B
330
1F
100
AcDbEntity
  8
0
  6
Continuous
 62
     7
370
    25
100
AcDbPolyline
 90
       11
 70
   128
 43
0.0
 10
6261.9134064435
 20
4506.8190662805
 10
6262.151439546
 20
4506.3274465257
 10
6262.3003219781
 20
4505.4827237505
 10
6262.2001366298
 20
4504.8479738555
 10
6261.9670880813
 20
4504.4007736927
 10
6261.588018487
 20
4504.0629214742
 10
6261.1790440182
 20
4503.9099981943
 10
6260.742445079
 20
4503.8902155262
 10
6260.126187134
 20
4504.0568210856
 10
6259.4575401049
 20
4504.5044431925
 10
6259.032861868
 20
4505.0193568582
  0
ELLIPSE
  5
36C
330
1F
100
AcDbEntity
  8
0
  6
Continuous
 62
     7
370
    25
100
AcDbEllipse
 10
6295.604732144
 20
4471.9847526973
 30
0.0
 11
-2.088641317336624
 21
1.185674059534904
 31
0.0
210
0.0
220
0.0
230
1.0
 40
0.7071067812
 41
6.030742433100159
 42
6.535628181259134
  0
LWPOLYLINE
  5
36D
330
1F
100
AcDbEntity
  8
0
  6
Continuous
 62
     7
370
    25
100
AcDbPolyline
 90
       11
 70
   128
 43
0.0
 10
6295.4121966583
 20
4470.141218738
 10
6295.0291951953
 20
4470.4079487188
 10
6294.4777371771
 20
4471.0577752623
 10
6294.2339521861
 20
4471.6756088138
 10
6294.2069803006
 20
4472.1907926859
 10
6294.3663360733
 20
4472.6855317421
 10
6294.6465770146
 20
4473.0264374677
 10
6295.0128195611
 20
4473.2588826395
 10
6295.619244028
 20
4473.4167917691
 10
6296.412095583
 20
4473.360233813
 10
6297.0889929938
 20
4473.0950036159
  0
ELLIPSE
  5
36E
330
1F
100
AcDbEntity
  8
0
  6
Continuous
 62
     7
370
    25
100
AcDbEllipse
 10
6275.5666389761
 20
4459.4653334924
 30
0.0
 11
-0.1497719447070267
 21
2.397042738984055
 31
0.0
210
0.0
220
0.0
230
1.0
 40
0.7071067812
 41
6.030742433099911
 42
6.535628181259478
  0
LWPOLYLINE
  5
36F
330
1F
100
AcDbEntity
  8
0
  6
Continuous
 62
     7
370
    25
100
AcDbPolyline
 90
       12
 70
   128
 43
0.0
 10
6273.9179872145
 20
4458.6182002435
 10
6273.9154493555
 20
4458.8852121032
 10
6274.0859249754
 20
4459.7021042396
 10
6274.4475686129
 20
4460.3227577442
 10
6274.8595972001
 20
4460.6841949559
 10
6275.2800627705
 20
4460.8573085828
 10
6275.7398507797
 20
4460.8746929569
 10
6276.2287123955
 20
4460.705936757
 10
6276.6349923045
 20
4460.3923751209
 10
6277.0609106266
 20
4459.7775874818
 10
6277.2836127051
 20
4459.0554824964
 10
6277.3079175656
 20
4458.830009759
  0
ELLIPSE
  5
370
330
1F
100
AcDbEntity
  8
0
  6
Continuous
 62
     7
370
    25
100
AcDbEllipse
 10
6284.448213254
 20
4506.7627856827
 30
0.0
 11
-1.009145748581432
 21
-2.179419736090495
 31
0.0
210
0.0
220
0.0
230
1.0
 40
0.7071067812
 41
6.030742433100204
 42
6.535628181259208
  0
LWPOLYLINE
  5
371
330
1F
100
AcDbEntity
  8
0
  6
Continuous
 62
     7
370
    25
100
AcDbPolyline
 90
       11
 70
   128
 43
0.0
 10
6286.3013500645
 20
4506.7231456309
 10
6285.9289660159
 20
4506.1414114948
 10
6285.2630465084
 20
4505.5894564319
 10
6284.6960888305
 20
4505.379798799
 10
6284.2114732356
 20
4505.3655632619
 10
6283.7501356928
 20
4505.5235201416
 10
6283.4179914731
 20
4505.7967892046
 10
6283.1750478365
 20
4506.1693033549
 10
6282.9979187824
 20
4506.8065677854
 10
6283.0428967361
 20
4507.627007055
 10
6283.2191851157
 20
4508.150293235
  0
ELLIPSE
  5
372
330
1F
100
AcDbEntity
  8
0
  6
Continuous
 62
     7
370
    25
100
AcDbEllipse
 10
6267.438897515
 20
4460.3050214706
 30
0.0
 11
0.6366616173827425
 21
2.315795222572888
 31
0.0
210
0.0
220
0.0
230
1.0
 40
0.7071067812
 41
6.030742433100061
 42
6.535628181259399
  0
LWPOLYLINE
  5
373
330
1F
100
AcDbEntity
  8
0
  6
Continuous
 62
     7
370
    25
100
AcDbPolyline
 90
       11
 70
   128
 43
0.0
 10
6265.6045105371
 20
4460.0391045897
 10
6265.8424790557
 20
4460.6162661938
 10
6266.3879821564
 20
4461.2837925982
 10
6266.9176898654
 20
4461.6093832939
 10
6267.3985586351
 20
4461.7203543414
 10
6267.8786388797
 20
4461.65809055
 10
6268.2983882156
 20
4461.4255266599
 10
6268.6170869856
 20
4461.0704594699
 10
6268.888888418
 20
4460.4562173649
 10
6268.9705022045
 20
4459.7785195203
 10
6268.8795395485
 20
4459.1387290957
  0
ELLIPSE
  5
374
330
1F
100
AcDbEntity
  8
0
  6
Continuous
 62
     7
370
    25
100
AcDbEllipse
 10
6250.3835081457
 20
4476.6566185943
 30
0.0
 11
2.286927029832441
 21
0.73362816750614
 31
0.0
210
0.0
220
0.0
230
1.0
 40
0.7071067812
 41
6.030742433100047
 42
6.535628181259495
  0
LWPOLYLINE
  5
375
330
1F
100
AcDbEntity
  8
0
  6
Continuous
 62
     7
370
    25
100
AcDbPolyline
 90
       11
 70
   128
 43
0.0
 10
6249.1575768681
 20
4478.0468631321
 10
6249.658623852
 20
4478.1534084129
 10
6250.5126391647
 20
4478.1026655972
 10
6251.1335710636
 20
4477.8442604889
 10
6251.498347985
 20
4477.5257906247
 10
6251.735534055
 20
4477.1001625664
 10
6251.7990747174
 20
4476.6649201465
 10
6251.7247641835
 20
4476.2382233898
 10
6251.4347293961
 20
4475.6860166621
 10
6250.8610735254
 20
4475.1394770263
 10
6250.1950837723
 20
4474.8126599104
  0
ELLIPSE
  5
376
330
1F
100
AcDbEntity
  8
0
  6
Continuous
 62
     7
370
    25
100
AcDbEllipse
 10
6298.4139684653
 20
4479.6576562188
 30
0.0
 11
-2.360460707445782
 21
0.4432502414465489
 31
0.0
210
0.0
220
0.0
230
1.0
 40
0.7071067812
 41
6.030742433099732
 42
6.535628181259092
  0
LWPOLYLINE
  5
377
330
1F
100
AcDbEntity
  8
0
  6
Continuous
 62
     7
370
    25
100
AcDbPolyline
 90
       11
 70
   128
 43
0.0
 10
6298.8304595813
 20
4477.8514938444
 10
6298.3975883822
 20
4477.973298408
 10
6297.6630608008
 20
4478.4029985086
 10
6297.2249487432
 20
4478.9083782996
 10
6297.0274698791
 20
4479.3877601369
 10
6297.0136030271
 20
4479.9100036168
 10
6297.1658137539
 20
4480.3254015001
 10
6297.4346246887
 20
4480.6650611638
 10
6297.9532397022
 20
4481.0124535778
 10
6298.7184718892
 20
4481.2194921881
 10
6299.4573100843
 20
4481.1896893903
  0
ELLIPSE
  5
378
330
1F
100
AcDbEntity
  8
0
  6
Continuous
 62
     7
370
    25
100
AcDbEllipse
 10
6260.0241857459
 20
4463.7382861763
 30
0.0
 11
1.354103014404245
 21
1.983595360530671
 31
0.0
210
0.0
220
0.0
230
1.0
 40
0.7071067812
 41
6.030742433099418
 42
6.53562818125858
  0
LWPOLYLINE
  5
379
330
1F
100
AcDbEntity
  8
0
  6
Continuous
 62
     7
370
    25
100
AcDbPolyline
 90
       12
 70
   128
 43
0.0
 10
6258.2028478441
 20
4464.0824018835
 10
6258.4499542244
 20
4464.3899366638
 10
6259.1233206235
 20
4464.9028963509
 10
6259.7712954204
 20
4465.1216593968
 10
6260.2983048304
 20
4465.1228656708
 10
6260.7269149135
 20
4464.9748722446
 10
6261.0786888751
 20
4464.6864990551
 10
6261.3136055837
 20
4464.2988156687
 10
6261.4458391704
 20
4463.7118675934
 10
6261.3652751755
 20
4462.9442805554
 10
6261.0507660011
 20
4462.2320707406
 10
6261.0080753052
 20
4462.1674110357
  0
ELLIPSE
  5
37A
330
1F
100
AcDbEntity
  8
0
  6
Continuous
 62
     7
370
    25
100
AcDbEllipse
 10
6254.1260027399
 20
4469.393080106
 30
0.0
 11
1.92480633874311
 21
1.436442162522326
 31
0.0
210
0.0
220
0.0
230
1.0
 40
0.7071067812
 41
6.030742433099853
 42
6.535628181258738
  0
LWPOLYLINE
  5
37B
330
1F
100
AcDbEntity
  8
0
  6
Continuous
 62
     7
370
    25
100
AcDbPolyline
 90
       11
 70
   128
 43
0.0
 10
6252.5150841369
 20
4470.309938125
 10
6253.1101942466
 20
4470.6406970562
 10
6253.9574715904
 20
4470.8126768431
 10
6254.5587925442
 20
4470.7297069313
 10
6255.0192620902
 20
4470.4941106887
 10
6255.3162134756
 20
4470.1722694212
 10
6255.487737419
 20
4469.7694632942
 10
6255.5291543033
 20
4469.3291469626
 10
6255.3902756779
 20
4468.6886902566
 10
6254.9704126445
 20
4467.9873007381
 10
6254.5465201247
 20
4467.5878508958
  0
ELLIPSE
  5
37C
330
1F
100
AcDbEntity
  8
0
  6
Continuous
 62
     7
370
    25
100
AcDbEllipse
 10
6291.1967012214
 20
4502.155924787
 30
0.0
 11
-1.662123879879801
 21
-1.733663674382115
 31
0.0
210
0.0
220
0.0
230
1.0
 40
0.7071067812
 41
6.030742433099991
 42
6.535628181259418
  0
LWPOLYLINE
  5
37D
330
1F
100
AcDbEntity
  8
0
  6
Continuous
 62
     7
370
    25
100
AcDbPolyline
 90
       12
 70
   128
 43
0.0
 10
6292.9365588643
 20
4501.5167200038
 10
6292.8871165298
 20
4501.4665786564
 10
6292.2259437824
 20
4500.9950828326
 10
6291.3909611423
 20
4500.7562082278
 10
6290.8343229086
 20
4500.7957176234
 10
6290.4079390557
 20
4500.9748551828
 10
6290.0686756801
 20
4501.2919766997
 10
6289.873551325
 20
4501.6704291252
 10
6289.7907356805
 20
4502.1218170994
 10
6289.875591101
 20
4502.8120133568
 10
6290.1642207274
 20
4503.4556110913
 10
6290.4847881834
 20
4503.8673181371
  0
ELLIPSE
  5
37E
330
1F
100
AcDbEntity
  8
0
  6
Continuous
 62
     7
370
    25
100
AcDbEllipse
 10
6249.2022593231
 20
4484.7417845405
 30
0.0
 11
2.401223691910673
 21
-0.04868582287053869
 31
0.0
210
0.0
220
0.0
230
1.0
 40
0.7071067812
 41
6.030742433099642
 42
6.535628181258805
  0
LWPOLYLINE
  5
37F
330
1F
100
AcDbEntity
  8
0
  6
Continuous
 62
     7
370
    25
100
AcDbPolyline
 90
       11
 70
   128
 43
0.0
 10
6248.4941640471
 20
4486.4547610297
 10
6249.0204697317
 20
4486.388778362
 10
6249.7569623933
 20
4486.0905511217
 10
6250.261333859
 20
4485.6653267501
 10
6250.5300932651
 20
4485.2246196467
 10
6250.6248986011
 20
4484.713252909
 10
6250.5401987743
 20
4484.2803031945
 10
6250.3282842983
 20
4483.9016681567
 10
6249.8693436197
 20
4483.4742696415
 10
6249.1444394596
 20
4483.1471690578
 10
6248.4253118961
 20
4483.0589179183
  0
ELLIPSE
  5
380
330
1F
100
AcDbEntity
  8
0
  6
Continuous
 62
     7
370
    25
100
AcDbEllipse
 10
6298.5796049134
 20
4487.8269782057
 30
0.0
 11
-2.376487553581683
 21
-0.3472066180365801
 31
0.0
210
0.0
220
0.0
230
1.0
 40
0.7071067812
 41
6.030742433100096
 42
6.535628181259144
  0
LWPOLYLINE
  5
381
330
1F
100
AcDbEntity
  8
0
  6
Continuous
 62
     7
370
    25
100
AcDbPolyline
 90
       12
 70
   128
 43
0.0
 10
6299.5599893561
 20
4486.253913135
 10
6299.4091290763
 20
4486.2365059631
 10
6298.5895903846
 20
4486.2985519066
 10
6297.7984498553
 20
4486.6545446247
 10
6297.4153492313
 20
4487.0325857674
 10
6297.2124629628
 20
4487.4381095417
 10
6297.1611981085
 20
4487.8901597885
 10
6297.2552700146
 20
4488.3052944354
 10
6297.5510553092
 20
4488.7958215551
 10
6298.1166466204
 20
4489.2734820593
 10
6298.8081164889
 20
4489.5625010336
 10
6299.0689650479
 20
4489.6147740641
  0
ELLIPSE
  5
382
330
1F
100
AcDbEntity
  8
0
  6
Continuous
 62
     7
370
    25
100
AcDbEllipse
 10
6290.4563202946
 20
4465.6397457952
 30
0.0
 11
-1.590485231884486
 21
1.799611695643762
 31
0.0
210
0.0
220
0.0
230
1.0
 40
0.7071067812
 41
6.030742433099767
 42
6.535628181259513
  0
LWPOLYLINE
  5
383
330
1F
100
AcDbEntity
  8
0
  6
Continuous
 62
     7
370
    25
100
AcDbPolyline
 90
       11
 70
   128
 43
0.0
 10
6289.6756224145
 20
4463.9586157609
 10
6289.3911909963
 20
4464.3499985973
 10
6289.085818922
 20
4465.1470363647
 10
6289.0611721098
 20
4465.8061073833
 10
6289.2060943358
 20
4466.2985646582
 10
6289.5189798589
 20
4466.7103082043
 10
6289.895234012
 20
4466.9388744049
 10
6290.3182523825
 20
4467.037784172
 10
6290.8352050275
 20
4467.0106163307
 10
6291.6367786224
 20
4466.6970474636
 10
6292.2206576815
 20
4466.2079015466
  0
ELLIPSE
  5
384
330
1F
100
AcDbEntity
  8
0
  6
Continuous
 62
     7
370
    25
100
AcDbEllipse
 10
6250.7102629112
 20
4492.7724247602
 30
0.0
 11
2.255310508144248
 21
-0.8257239489030326
 31
0.0
210
0.0
220
0.0
230
1.0
 40
0.7071067812
 41
6.030742433100056
 42
6.535628181259058
  0
LWPOLYLINE
  5
385
330
1F
100
AcDbEntity
  8
0
  6
Continuous
 62
     7
370
    25
100
AcDbPolyline
 90
       11
 70
   128
 43
0.0
 10
6250.5967367472
 20
4494.6225056185
 10
6251.1451601592
 20
4494.3424883039
 10
6251.7655167652
 20
4493.7485923731
 10
6252.0505444015
 20
4493.1926312661
 10
6252.1242616157
 20
4492.7031380725
 10
6252.0196523611
 20
4492.2160568528
 10
6251.7835180837
 20
4491.8527680813
 10
6251.4427301177
 20
4491.5739581015
 10
6250.8396677915
 20
4491.3347813664
 10
6250.0280830839
 20
4491.2927739851
 10
6249.4289867399
 20
4491.4330149106
  0
ELLIPSE
  5
386
330
1F
100
AcDbEntity
  8
0
  6
Continuous
 62
     7
370
    25
100
AcDbEllipse
 10
6276.5695316914
 20
4508.928803687
 30
0.0
 11
-0.2468110169138527
 21
-2.38900185221064
 31
0.0
210
0.0
220
0.0
230
1.0
 40
0.7071067812
 41
6.030742433099916
 42
6.535628181259266
  0
LWPOLYLINE
  5
387
330
1F
100
AcDbEntity
  8
0
  6
Continuous
 62
     7
370
    25
100
AcDbPolyline
 90
       12
 70
   128
 43
0.0
 10
6278.3351315419
 20
4509.4930239813
 10
6278.3340038787
 20
4509.4823336141
 10
6278.1231606679
 20
4508.7060097507
 10
6277.6318560531
 20
4507.9903569988
 10
6277.1663744276
 20
4507.6551961079
 10
6276.7172712075
 20
4507.5172662396
 10
6276.2460372862
 20
4507.5446097568
 10
6275.8540980984
 20
4507.7133091543
 10
6275.5085932753
 20
4508.0069079525
 10
6275.1447827027
 20
4508.5850688206
 10
6274.9640194832
 20
4509.2544734784
 10
6274.9565727219
 20
4509.8420674688
  0
ELLIPSE
  5
388
330
1F
100
AcDbEntity
  8
0
  6
Continuous
 62
     7
370
    25
100
AcDbEllipse
 10
6296.0836922088
 20
4495.6074458607
 30
0.0
 11
-2.134985098284233
 21
-1.100038252990998
 31
0.0
210
0.0
220
0.0
230
1.0
 40
0.7071067812
 41
6.030742433099967
 42
6.535628181259325
  0
LWPOLYLINE
  5
389
330
1F
100
AcDbEntity
  8
0
  6
Continuous
 62
     7
370
    25
100
AcDbPolyline
 90
       11
 70
   128
 43
0.0
 10
6297.5217301118
 20
4494.4379441027
 10
6296.8526337031
 20
4494.2039239337
 10
6295.9872911361
 20
4494.1840539784
 10
6295.4171281888
 20
4494.3704194643
 10
6295.0303512538
 20
4494.6589360888
 10
6294.7680468266
 20
4495.0671837296
 10
6294.6768453589
 20
4495.4868713147
 10
6294.7166889483
 20
4495.9309596797
 10
6294.9729795362
 20
4496.5440202991
 10
6295.517269978
 20
4497.1622812619
 10
6295.9660410953
 20
4497.4572689841
  0
ELLIPSE
  5
38A
330
1F
100
AcDbEntity
  8
0
  6
Continuous
 62
     7
370
    25
100
AcDbEllipse
 10
6268.4144339314
 20
4508.41925714
 30
0.0
 11
0.5422695181032395
 21
-2.339698548461456
 31
0.0
210
0.0
220
0.0
230
1.0
 40
0.7071067812
 41
6.030742433099564
 42
6.535628181259442
  0
LWPOLYLINE
  5
38B
330
1F
100
AcDbEntity
  8
0
  6
Continuous
 62
     7
370
    25
100
AcDbPolyline
 90
       12
 70
   128
 43
0.0
 10
6269.9011666818
 20
4509.5261957567
 10
6269.9142294458
 20
4509.4665388914
 10
6269.9504029981
 20
4508.6563844271
 10
6269.697468311
 20
4507.8255577034
 10
6269.3608567357
 20
4507.3775107052
 10
6268.97816888
 20
4507.1158539041
 10
6268.526576098
 20
4507.0027215456
 10
6268.1027480202
 20
4507.0445848164
 10
6267.6797400941
 20
4507.2202214572
 10
6267.1482343332
 20
4507.6656191536
 10
6266.7660806449
 20
4508.256238567
 10
6266.5923332627
 20
4508.7593108498
  0
ELLIPSE
  5
38C
330
1F
100
AcDbEntity
  8
0
  6
Continuous
 62
     7
370
    25
100
AcDbEllipse
 10
6283.5266432269
 20
4461.3102154632
 30
0.0
 11
-0.9199753926359336
 21
2.218533480676342
 31
0.0
210
0.0
220
0.0
230
1.0
 40
0.7071067812
 41
6.03074243309993
 42
6.535628181259403
  0
LWPOLYLINE
  5
38D
330
1F
100
AcDbEntity
  8
0
  6
Continuous
 62
     7
370
    25
100
AcDbPolyline
 90
       11
 70
   128
 43
0.0
 10
6282.2423836815
 20
4459.9736658785
 10
6282.0908062922
 20
4460.4852924484
 10
6282.0784711808
 20
4461.3421334313
 10
6282.2792782509
 20
4461.9561471693
 10
6282.5814574555
 20
4462.3621097222
 10
6283.0110022352
 20
4462.6363760382
 10
6283.4514504721
 20
4462.7223372348
 10
6284.0122637021
 20
4462.6290151669
 10
6284.5118554361
 20
4462.3685340002
 10
6285.0053268017
 20
4461.9038366272
 10
6285.3798638184
 20
4461.2747075558
  0
LINE
  5
38E
330
1F
100
AcDbEntity
  8
0
  6
Continuous
 62
     7
370
    25
100
AcDbLine
 10
6278.2834358634
 20
4649.2386196196
 30
0.0
 11
6277.1733666505
 21
4649.5840083051
 31
0.0
  0
ARC
  5
38F
330
1F
100
AcDbEntity
  8
0
  6
Continuous
 62
     7
370
    25
100
AcDbCircle
 10
6274.0187553361
 20
4637.4886196196
 30
0.0
 40
12.49999999999992
100
AcDbArc
 50
78.5216590455
 51
101.4783409545
  0
LWPOLYLINE
  5
390
330
1F
100
AcDbEntity
  8
0
  6
Continuous
 62
     7
370
    25
100
AcDbPolyline
 90
        3
 70
   128
 43
0.0
 10
6270.8641440217
 20
4649.5840083051
 10
6270.132347595
 20
4649.3691008754
 10
6269.7540748088
 20
4649.2386196196
  0
LINE
  5
391
330
1F
100
AcDbEntity
  8
0
  6
Continuous
 62
     7
370
    25
100
AcDbLine
 10
6262.7687553361
 20
4621.7383952693
 30
0.0
 11
6271.4175860259
 21
4621.7383952693
 31
0.0
  0
ARC
  5
392
330
1F
100
AcDbEntity
  8
0
  6
Continuous
 62
     7
370
    25
100
AcDbCircle
 10
6273.3186163002
 20
4663.5574652324
 30
0.0
 40
42.77282915914819
100
AcDbArc
 50
257.8777473608
 51
264.5669236024
  0
LINE
  5
393
330
1F
100
AcDbEntity
  8
0
  6
Continuous
 62
     7
370
    25
100
AcDbLine
 10
6272.2204222114
 20
4620.9461009464
 30
0.0
 11
6269.2687553361
 21
4620.9461009464
 31
0.0
  0
ARC
  5
394
330
1F
100
AcDbEntity
  8
0
  6
Continuous
 62
     7
370
    25
100
AcDbCircle
 10
6273.6525433913
 20
4623.2001835154
 30
0.0
 40
2.670554118839362
100
AcDbArc
 50
213.186950832
 51
237.5703482616
  0
LINE
  5
395
330
1F
100
AcDbEntity
  8
0
  6
Continuous
 62
     7
370
    25
100
AcDbLine
 10
6273.8990085401
 20
4621.7383952693
 30
0.0
 11
6285.2687553361
 21
4621.7383952693
 31
0.0
  0
ARC
  5
396
330
1F
100
AcDbEntity
  8
0
  6
Continuous
 62
     7
370
    25
100
AcDbCircle
 10
6276.1339659056
 20
4623.2001835154
 30
0.0
 40
2.670554118834731
100
AcDbArc
 50
213.186950832
 51
237.5703482616
  0
LINE
  5
397
330
1F
100
AcDbEntity
  8
0
  6
Continuous
 62
     7
370
    25
100
AcDbLine
 10
6278.7687553361
 20
4620.9461009464
 30
0.0
 11
6274.7018447257
 21
4620.9461009464
 31
0.0
  0
ARC
  5
398
330
1F
100
AcDbEntity
  8
0
  6
Continuous
 62
     7
370
    25
100
AcDbCircle
 10
6274.4894536777
 20
4677.0828855352
 30
0.0
 40
56.29636978639518
100
AcDbArc
 50
274.3151548351
 51
280.5512099883
  0
LINE
  5
399
330
1F
100
AcDbEntity
  8
0
  6
Continuous
 62
     7
370
    25
100
AcDbLine
 10
6274.7018447257
 20
4620.9461009464
 30
0.0
 11
6274.7018447257
 21
4621.7383952693
 31
0.0
  0
ARC
  5
39A
330
1F
100
AcDbEntity
  8
0
  6
Continuous
 62
     7
370
    25
100
AcDbCircle
 10
6274.0187553361
 20
4484.2386196196
 30
0.0
 40
57.49999999999988
100
AcDbArc
 50
333.3967100864
 51
356.6104241352
  0
ARC
  5
39B
330
1F
100
AcDbEntity
  8
0
  6
Continuous
 62
     7
370
    25
100
AcDbCircle
 10
6274.0187553361
 20
4484.2386196196
 30
0.0
 40
57.50000000000033
100
AcDbArc
 50
215.7092616232
 51
324.2907383768
  0
ARC
  5
39C
330
1F
100
AcDbEntity
  8
0
  6
Continuous
 62
     7
370
    25
100
AcDbCircle
 10
6274.0187553361
 20
4484.2386196196
 30
0.0
 40
57.50000000000013
100
AcDbArc
 50
133.5268538558
 51
206.6032899136
  0
ARC
  5
39D
330
1F
100
AcDbEntity
  8
0
  6
Continuous
 62
     7
370
    25
100
AcDbCircle
 10
6274.0187553361
 20
4484.2386196196
 30
0.0
 40
57.49999999999928
100
AcDbArc
 50
60.408154206
 51
119.591845794
  0
ARC
  5
39E
330
1F
100
AcDbEntity
  8
0
  6
Continuous
 62
     7
370
    25
100
AcDbCircle
 10
6274.0187553361
 20
4484.2386196196
 30
0.0
 40
57.49999999999998
100
AcDbArc
 50
356.6104241352
 51
46.4731461442
  0
ARC
  5
39F
330
1F
100
AcDbEntity
  8
0
  6
Continuous
 62
     7
370
    25
100
AcDbCircle
 10
6274.0187553361
 20
4484.2386196196
 30
0.0
 40
40.50000000000027
100
AcDbArc
 50
177.0554758442
 51
2.9445241558
  0
ARC
  5
3A0
330
1F
100
AcDbEntity
  8
0
  6
Continuous
 62
     7
370
    25
100
AcDbCircle
 10
6274.0187553361
 20
4484.2386196196
 30
0.0
 40
40.50000000000052
100
AcDbArc
 50
16.9253320748
 51
163.0746679252
  0
LWPOLYLINE
  5
3A1
330
1F
100
AcDbEntity
  8
0
  6
Continuous
 62
     7
370
    25
100
AcDbPolyline
 90
        3
 70
   128
 43
0.0
 10
6302.8449695575
 20
4480.4531694255
 10
6302.676347302
 20
4479.3373256855
 10
6302.2643258698
 20
4477.3489168149
  0
LWPOLYLINE
  5
3A2
330
1F
100
AcDbEntity
  8
0
  6
Continuous
 62
     7
370
    25
100
AcDbPolyline
 90
        3
 70
   128
 43
0.0
 10
6300.0436536842
 20
4471.277719748
 10
6299.5321523842
 20
4470.2977864101
 10
6298.4699751519
 20
4468.5090897782
  0
LWPOLYLINE
  5
3A3
330
1F
100
AcDbEntity
  8
0
  6
Continuous
 62
     7
370
    25
100
AcDbPolyline
 90
        3
 70
   128
 43
0.0
 10
6294.4367379921
 20
4463.5411259604
 10
6293.6231850152
 20
4462.7689527272
 10
6292.0838066683
 20
4461.458492757
  0
LWPOLYLINE
  5
3A4
330
1F
100
AcDbEntity
  8
0
  6
Continuous
 62
     7
370
    25
100
AcDbPolyline
 90
        3
 70
   128
 43
0.0
 10
6286.5869884928
 20
4458.0218353997
 10
6285.5897734963
 20
4457.5666905883
 10
6283.6752375491
 20
4456.815406628
  0
LWPOLYLINE
  5
3A5
330
1F
100
AcDbEntity
  8
0
  6
Continuous
 62
     7
370
    25
100
AcDbPolyline
 90
        3
 70
   128
 43
0.0
 10
6277.4214973816
 20
4455.3647281935
 10
6276.302462617
 20
4455.2547458176
 10
6274.2635123793
 20
4455.1659459637
  0
LWPOLYLINE
  5
3A6
330
1F
100
AcDbEntity
  8
0
  6
Continuous
 62
     7
370
    25
100
AcDbPolyline
 90
        3
 70
   128
 43
0.0
 10
6267.829503186
 20
4455.8313420778
 10
6266.7676766184
 20
4456.0836535045
 10
6264.7930708484
 20
4456.6674933233
  0
LWPOLYLINE
  5
3A7
330
1F
100
AcDbEntity
  8
0
  6
Continuous
 62
     7
370
    25
100
AcDbPolyline
 90
        3
 70
   128
 43
0.0
 10
6258.9626483137
 20
4459.367071601
 10
6258.0186575109
 20
4459.9635886393
 10
6256.3616698723
 20
4461.1408363399
  0
LWPOLYLINE
  5
3A8
330
1F
100
AcDbEntity
  8
0
  6
Continuous
 62
     7
370
    25
100
AcDbPolyline
 90
        3
 70
   128
 43
0.0
 10
6251.6894883249
 20
4465.6191648946
 10
6251.0034972699
 20
4466.4741000466
 10
6249.8046952908
 20
4468.1463992745
  0
LWPOLYLINE
  5
3A9
330
1F
100
AcDbEntity
  8
0
  6
Continuous
 62
     7
370
    25
100
AcDbPolyline
 90
        3
 70
   128
 43
0.0
 10
6246.8614092058
 20
4473.8579254872
 10
6246.4823973589
 20
4474.9096727947
 10
6245.9012608372
 20
4476.8435697472
  0
LWPOLYLINE
  5
3AA
330
1F
100
AcDbEntity
  8
0
  6
Continuous
 62
     7
370
    25
100
AcDbPolyline
 90
        3
 70
   128
 43
0.0
 10
6244.9614347888
 20
4483.2627189487
 10
6244.9452891053
 20
4484.3561816847
 10
6245.0264920517
 20
4486.4132297355
  0
LWPOLYLINE
  5
3AB
330
1F
100
AcDbEntity
  8
0
  6
Continuous
 62
     7
370
    25
100
AcDbPolyline
 90
        3
 70
   128
 43
0.0
 10
6246.2106427362
 20
4492.7232606339
 10
6246.5587420392
 20
4493.7899509008
 10
6247.2974124022
 20
4495.6950628423
  0
LWPOLYLINE
  5
3AC
330
1F
100
AcDbEntity
  8
0
  6
Continuous
 62
     7
370
    25
100
AcDbPolyline
 90
        3
 70
   128
 43
0.0
 10
6250.4824741427
 20
4501.3068277005
 10
6251.1479134998
 20
4502.1886851684
 10
6252.4866565202
 20
4503.774457971
  0
LWPOLYLINE
  5
3AD
330
1F
100
AcDbEntity
  8
0
  6
Continuous
 62
     7
370
    25
100
AcDbPolyline
 90
        3
 70
   128
 43
0.0
 10
6257.278714435
 20
4508.0094271392
 10
6258.215495551
 20
4508.6422513098
 10
6259.9530816126
 20
4509.6834045904
  0
LWPOLYLINE
  5
3AE
330
1F
100
AcDbEntity
  8
0
  6
Continuous
 62
     7
370
    25
100
AcDbPolyline
 90
        3
 70
   128
 43
0.0
 10
6265.9460447645
 20
4512.1690976594
 10
6266.9956060128
 20
4512.4513052963
 10
6269.0180396518
 20
4512.8790299196
  0
LWPOLYLINE
  5
3AF
330
1F
100
AcDbEntity
  8
0
  6
Continuous
 62
     7
370
    25
100
AcDbPolyline
 90
        3
 70
   128
 43
0.0
 10
6275.3967771635
 20
4513.2796477583
 10
6276.5367836791
 20
4513.2030770247
 10
6278.5334535714
 20
4512.9596530159
  0
LWPOLYLINE
  5
3B0
330
1F
100
AcDbEntity
  8
0
  6
Continuous
 62
     7
370
    25
100
AcDbPolyline
 90
        3
 70
   128
 43
0.0
 10
6284.8140773448
 20
4511.2338281247
 10
6285.8050939033
 20
4510.8161003634
 10
6287.6806326235
 20
4509.9024729642
  0
LWPOLYLINE
  5
3B1
330
1F
100
AcDbEntity
  8
0
  6
Continuous
 62
     7
370
    25
100
AcDbPolyline
 90
        3
 70
   128
 43
0.0
 10
6292.9595539104
 20
4506.2959632692
 10
6293.7961714598
 20
4505.5490412714
 10
6295.237122329
 20
4504.114765163
  0
LWPOLYLINE
  5
3B2
330
1F
100
AcDbEntity
  8
0
  6
Continuous
 62
     7
370
    25
100
AcDbPolyline
 90
        3
 70
   128
 43
0.0
 10
6299.1175233459
 20
4498.9128181973
 10
6299.6440591011
 20
4497.9726673282
 10
6300.5566030215
 20
4496.1139259202
  0
LWPOLYLINE
  5
3B3
330
1F
100
AcDbEntity
  8
0
  6
Continuous
 62
     7
370
    25
100
AcDbPolyline
 90
        3
 70
   128
 43
0.0
 10
6302.5118292241
 20
4490.0200554208
 10
6302.7150474618
 20
4488.90799621
 10
6302.9698355755
 20
4486.9060551826
  0
LINE
  5
3B4
330
1F
100
AcDbEntity
  8
0
  6
Continuous
 62
     7
370
    25
100
AcDbLine
 10
6494.0187553361
 20
4648.3029343155
 30
0.0
 11
6494.0187553361
 21
4649.2386196196
 31
0.0
  0
LINE
  5
3B5
330
1F
100
AcDbEntity
  8
0
  6
Continuous
 62
     7
370
    25
100
AcDbLine
 10
6494.0187553361
 20
4648.3029343155
 30
0.0
 11
6054.0187553361
 21
4648.3029343155
 31
0.0
  0
LINE
  5
3B6
330
1F
100
AcDbEntity
  8
0
  6
Continuous
 62
     7
370
    25
100
AcDbLine
 10
6054.0187553361
 20
4648.3029343155
 30
0.0
 11
6054.0187553361
 21
4649.2386196196
 31
0.0
  0
LINE
  5
3B7
330
1F
100
AcDbEntity
  8
0
  6
Continuous
 62
     7
370
    25
100
AcDbLine
 10
6494.0187553361
 20
4649.2386196196
 30
0.0
 11
6054.0187553361
 21
4649.2386196196
 31
0.0
  0
LINE
  5
3B8
330
1F
100
AcDbEntity
  8
0
  6
Continuous
 62
     7
370
    25
100
AcDbLine
 10
6054.0187553361
 20
4647.1743718221
 30
0.0
 11
6054.0187553361
 21
4648.3029343155
 31
0.0
  0
LINE
  5
3B9
330
1F
100
AcDbEntity
  8
0
  6
Continuous
 62
     7
370
    25
100
AcDbLine
 10
6054.0187553361
 20
4647.1743718221
 30
0.0
 11
5992.0115914416
 21
4647.1743718221
 31
0.0
  0
LINE
  5
3BA
330
1F
100
AcDbEntity
  8
0
  6
Continuous
 62
     7
370
    25
100
AcDbLine
 10
5992.0115914416
 20
4647.1743718221
 30
0.0
 11
5989.0187553361
 21
4648.3029343155
 31
0.0
  0
LINE
  5
3BB
330
1F
100
AcDbEntity
  8
0
  6
Continuous
 62
     7
370
    25
100
AcDbLine
 10
6054.0187553361
 20
4648.3029343155
 30
0.0
 11
5989.0187553361
 21
4648.3029343155
 31
0.0
  0
LINE
  5
3BC
330
1F
100
AcDbEntity
  8
0
  6
Continuous
 62
     7
370
    25
100
AcDbLine
 10
5989.0187553361
 20
4648.3029343155
 30
0.0
 11
5989.3715910085
 21
4649.2386196196
 31
0.0
  0
LINE
  5
3BD
330
1F
100
AcDbEntity
  8
0
  6
Continuous
 62
     7
370
    25
100
AcDbLine
 10
6054.0187553361
 20
4649.2386196196
 30
0.0
 11
5989.3715910085
 21
4649.2386196196
 31
0.0
  0
LINE
  5
3BE
330
1F
100
AcDbEntity
  8
0
  6
Continuous
 62
     7
370
    25
100
AcDbLine
 10
6556.0259192306
 20
4647.1743718221
 30
0.0
 11
6559.0187553361
 21
4648.3029343155
 31
0.0
  0
LINE
  5
3BF
330
1F
100
AcDbEntity
  8
0
  6
Continuous
 62
     7
370
    25
100
AcDbLine
 10
6556.0259192306
 20
4647.1743718221
 30
0.0
 11
6494.0187553361
 21
4647.1743718221
 31
0.0
  0
LINE
  5
3C0
330
1F
100
AcDbEntity
  8
0
  6
Continuous
 62
     7
370
    25
100
AcDbLine
 10
6494.0187553361
 20
4647.1743718221
 30
0.0
 11
6494.0187553361
 21
4648.3029343155
 31
0.0
  0
LINE
  5
3C1
330
1F
100
AcDbEntity
  8
0
  6
Continuous
 62
     7
370
    25
100
AcDbLine
 10
6559.0187553361
 20
4648.3029343155
 30
0.0
 11
6494.0187553361
 21
4648.3029343155
 31
0.0
  0
LINE
  5
3C2
330
1F
100
AcDbEntity
  8
0
  6
Continuous
 62
     7
370
    25
100
AcDbLine
 10
6494.0187553361
 20
4647.1743718221
 30
0.0
 11
6054.0187553361
 21
4647.1743718221
 31
0.0
  0
LINE
  5
3C3
330
1F
100
AcDbEntity
  8
0
  6
Continuous
 62
     7
370
    25
100
AcDbLine
 10
6559.0187553361
 20
4648.3029343155
 30
0.0
 11
6558.6659196637
 21
4649.2386196196
 31
0.0
  0
LINE
  5
3C4
330
1F
100
AcDbEntity
  8
0
  6
Continuous
 62
     7
370
    25
100
AcDbLine
 10
6558.6659196637
 20
4649.2386196196
 30
0.0
 11
6494.0187553361
 21
4649.2386196196
 31
0.0
  0
ARC
  5
3C5
330
1F
100
AcDbEntity
  8
0
  6
Continuous
 62
     7
370
    25
100
AcDbCircle
 10
6555.3202478857
 20
4649.0457424302
 30
0.0
 40
2.00000000000121
100
AcDbArc
 50
270.0
 51
290.6608559197
  0
ARC
  5
3C6
330
1F
100
AcDbEntity
  8
0
  6
Continuous
 62
     7
370
    25
100
AcDbCircle
 10
5992.7172627865
 20
4649.0457424302
 30
0.0
 40
2.00000000000121
100
AcDbArc
 50
249.3391440803
 51
270.0
  0
LINE
  5
3C7
330
1F
100
AcDbEntity
  8
0
  6
Continuous
 62
     7
370
    25
100
AcDbLine
 10
6518.7687553361
 20
4649.7386196196
 30
0.0
 11
6524.7687553361
 21
4649.7386196196
 31
0.0
  0
LINE
  5
3C8
330
1F
100
AcDbEntity
  8
0
  6
Continuous
 62
     7
370
    25
100
AcDbLine
 10
6271.0187553361
 20
4649.7386196196
 30
0.0
 11
6277.0187553361
 21
4649.7386196196
 31
0.0
  0
LINE
  5
3C9
330
1F
100
AcDbEntity
  8
0
  6
Continuous
 62
     7
370
    25
100
AcDbLine
 10
6023.2687553361
 20
4649.7386196196
 30
0.0
 11
6029.2687553361
 21
4649.7386196196
 31
0.0
  0
LINE
  5
3CA
330
1F
100
AcDbEntity
  8
0
  6
Continuous
 62
     7
370
    25
100
AcDbLine
 10
6004.0187553361
 20
4647.0457424302
 30
0.0
 11
6004.0187553361
 21
4295.2386196196
 31
0.0
  0
LINE
  5
3CB
330
1F
100
AcDbEntity
  8
0
  6
Continuous
 62
     7
370
    25
100
AcDbLine
 10
6004.0187553361
 20
4295.2386196196
 30
0.0
 11
5994.0187553361
 21
4295.2386196196
 31
0.0
  0
LINE
  5
3CC
330
1F
100
AcDbEntity
  8
0
  6
Continuous
 62
     7
370
    25
100
AcDbLine
 10
5994.0187553361
 20
4647.0457424302
 30
0.0
 11
5994.0187553361
 21
4295.2386196196
 31
0.0
  0
ARC
  5
3CD
330
1F
100
AcDbEntity
  8
0
  6
Continuous
 62
     7
370
    25
100
AcDbCircle
 10
6504.0187553361
 20
4295.2386196196
 30
0.0
 40
40.00000000000091
100
AcDbArc
 50
270.0
 51
0.0
  0
LINE
  5
3CE
330
1F
100
AcDbEntity
  8
0
  6
Continuous
 62
     7
370
    25
100
AcDbLine
 10
6044.0187553361
 20
4255.2386196196
 30
0.0
 11
6158.3227429008
 21
4255.2386196196
 31
0.0
  0
LINE
  5
3CF
330
1F
100
AcDbEntity
  8
0
  6
Continuous
 62
     7
370
    25
100
AcDbLine
 10
6163.0196617638
 20
4255.2386196196
 30
0.0
 11
6384.4193277965
 21
4255.2386196196
 31
0.0
  0
LINE
  5
3D0
330
1F
100
AcDbEntity
  8
0
  6
Continuous
 62
     7
370
    25
100
AcDbLine
 10
6389.1172270146
 20
4255.2386196196
 30
0.0
 11
6504.0187553361
 21
4255.2386196196
 31
0.0
  0
ARC
  5
3D1
330
1F
100
AcDbEntity
  8
0
  6
Continuous
 62
     7
370
    25
100
AcDbCircle
 10
6044.0187553361
 20
4295.2386196196
 30
0.0
 40
40.00000000000091
100
AcDbArc
 50
180.0
 51
270.0
  0
LINE
  5
3D2
330
1F
100
AcDbEntity
  8
0
  6
Continuous
 62
     7
370
    25
100
AcDbLine
 10
6544.0187553361
 20
4295.2386196196
 30
0.0
 11
6544.0187553361
 21
4647.0457424302
 31
0.0
  0
ARC
  5
3D3
330
1F
100
AcDbEntity
  8
0
  6
Continuous
 62
     7
370
    25
100
AcDbCircle
 10
6066.0187553361
 20
4317.2386196196
 30
0.0
 40
50.0
100
AcDbArc
 50
180.0
 51
270.0
  0
LINE
  5
3D4
330
1F
100
AcDbEntity
  8
0
  6
Continuous
 62
     7
370
    25
100
AcDbLine
 10
6066.0187553361
 20
4267.2386196196
 30
0.0
 11
6133.0683745697
 21
4267.2386196196
 31
0.0
  0
LINE
  5
3D5
330
1F
100
AcDbEntity
  8
0
  6
Continuous
 62
     7
370
    25
100
AcDbLine
 10
6142.0777014509
 20
4267.2386196196
 30
0.0
 11
6179.852083722
 21
4267.2386196196
 31
0.0
  0
LINE
  5
3D6
330
1F
100
AcDbEntity
  8
0
  6
Continuous
 62
     7
370
    25
100
AcDbLine
 10
6188.8444119351
 20
4267.2386196196
 30
0.0
 11
6359.1652610382
 21
4267.2386196196
 31
0.0
  0
LINE
  5
3D7
330
1F
100
AcDbEntity
  8
0
  6
Continuous
 62
     7
370
    25
100
AcDbLine
 10
6368.1745449105
 20
4267.2386196196
 30
0.0
 11
6405.9490330591
 21
4267.2386196196
 31
0.0
  0
LINE
  5
3D8
330
1F
100
AcDbEntity
  8
0
  6
Continuous
 62
     7
370
    25
100
AcDbLine
 10
6414.9413121754
 20
4267.2386196196
 30
0.0
 11
6482.0187553361
 21
4267.2386196196
 31
0.0
  0
ARC
  5
3D9
330
1F
100
AcDbEntity
  8
0
  6
Continuous
 62
     7
370
    25
100
AcDbCircle
 10
6482.0187553361
 20
4317.2386196196
 30
0.0
 40
50.0
100
AcDbArc
 50
270.0
 51
0.0
  0
LINE
  5
3DA
330
1F
100
AcDbEntity
  8
0
  6
Continuous
 62
     7
370
    25
100
AcDbLine
 10
6532.0187553361
 20
4317.2386196196
 30
0.0
 11
6532.0187553361
 21
4574.2386196196
 31
0.0
  0
ARC
  5
3DB
330
1F
100
AcDbEntity
  8
0
  6
Continuous
 62
     7
370
    25
100
AcDbCircle
 10
6482.0187553361
 20
4574.2386196196
 30
0.0
 40
50.0
100
AcDbArc
 50
0.0
 51
90.0
  0
LINE
  5
3DC
330
1F
100
AcDbEntity
  8
0
  6
Continuous
 62
     7
370
    25
100
AcDbLine
 10
6482.0187553361
 20
4624.2386196196
 30
0.0
 11
6066.0187553361
 21
4624.2386196196
 31
0.0
  0
ARC
  5
3DD
330
1F
100
AcDbEntity
  8
0
  6
Continuous
 62
     7
370
    25
100
AcDbCircle
 10
6066.0187553361
 20
4574.2386196196
 30
0.0
 40
50.0
100
AcDbArc
 50
90.0
 51
180.0
  0
LINE
  5
3DE
330
1F
100
AcDbEntity
  8
0
  6
Continuous
 62
     7
370
    25
100
AcDbLine
 10
6016.0187553361
 20
4574.2386196196
 30
0.0
 11
6016.0187553361
 21
4317.2386196196
 31
0.0
  0
LINE
  5
3DF
330
1F
100
AcDbEntity
  8
0
  6
Continuous
 62
     7
370
    25
100
AcDbLine
 10
6554.0187553361
 20
4295.2386196196
 30
0.0
 11
6554.0187553361
 21
4647.0457424302
 31
0.0
  0
LINE
  5
3E0
330
1F
100
AcDbEntity
  8
0
  6
Continuous
 62
     7
370
    25
100
AcDbLine
 10
6544.0187553361
 20
4295.2386196196
 30
0.0
 11
6554.0187553361
 21
4295.2386196196
 31
0.0
  0
LINE
  5
3E1
330
1F
100
AcDbEntity
  8
0
  6
Continuous
 62
     7
370
    25
100
AcDbLine
 10
6044.0187553361
 20
4255.2386196196
 30
0.0
 11
6044.0187553361
 21
4245.2386196196
 31
0.0
  0
ARC
  5
3E2
330
1F
100
AcDbEntity
  8
0
  6
Continuous
 62
     7
370
    25
100
AcDbCircle
 10
6044.0187553361
 20
4295.2386196196
 30
0.0
 40
50.00000000000091
100
AcDbArc
 50
180.0
 51
270.0
  0
ARC
  5
3E3
330
1F
100
AcDbEntity
  8
0
  6
Continuous
 62
     7
370
    25
100
AcDbCircle
 10
6504.0187553361
 20
4295.2386196196
 30
0.0
 40
50.0
100
AcDbArc
 50
270.0
 51
0.0
  0
LINE
  5
3E4
330
1F
100
AcDbEntity
  8
0
  6
Continuous
 62
     7
370
    25
100
AcDbLine
 10
6504.0187553361
 20
4255.2386196196
 30
0.0
 11
6504.0187553361
 21
4245.2386196196
 31
0.0
  0
LINE
  5
3E5
330
1F
100
AcDbEntity
  8
0
  6
Continuous
 62
     7
370
    25
100
AcDbLine
 10
6044.0187553361
 20
4245.2386196196
 30
0.0
 11
6504.0187553361
 21
4245.2386196196
 31
0.0
  0
LINE
  5
3E6
330
1F
100
AcDbEntity
  8
0
  6
Continuous
 62
     7
370
    25
100
AcDbLine
 10
6482.0187553361
 20
4624.2386196196
 30
0.0
 11
6482.0187553361
 21
4574.2386196196
 31
0.0
  0
LINE
  5
3E7
330
1F
100
AcDbEntity
  8
0
  6
Continuous
 62
     7
370
    25
100
AcDbLine
 10
6482.0187553361
 20
4574.2386196196
 30
0.0
 11
6066.0187553361
 21
4574.2386196196
 31
0.0
  0
LINE
  5
3E8
330
1F
100
AcDbEntity
  8
0
  6
Continuous
 62
     7
370
    25
100
AcDbLine
 10
6066.0187553361
 20
4624.2386196196
 30
0.0
 11
6066.0187553361
 21
4574.2386196196
 31
0.0
  0
LINE
  5
3E9
330
1F
100
AcDbEntity
  8
0
  6
Continuous
 62
     7
370
    25
100
AcDbLine
 10
6482.0187553361
 20
4574.2386196196
 30
0.0
 11
6532.0187553361
 21
4574.2386196196
 31
0.0
  0
LINE
  5
3EA
330
1F
100
AcDbEntity
  8
0
  6
Continuous
 62
     7
370
    25
100
AcDbLine
 10
6016.0187553361
 20
4574.2386196196
 30
0.0
 11
6066.0187553361
 21
4574.2386196196
 31
0.0
  0
LINE
  5
3EB
330
1F
100
AcDbEntity
  8
0
  6
Continuous
 62
     7
370
    25
100
AcDbLine
 10
6482.0187553361
 20
4317.2386196196
 30
0.0
 11
6532.0187553361
 21
4317.2386196196
 31
0.0
  0
LINE
  5
3EC
330
1F
100
AcDbEntity
  8
0
  6
Continuous
 62
     7
370
    25
100
AcDbLine
 10
6016.0187553361
 20
4317.2386196196
 30
0.0
 11
6066.0187553361
 21
4317.2386196196
 31
0.0
  0
LINE
  5
3ED
330
1F
100
AcDbEntity
  8
0
  6
Continuous
 62
     7
370
    25
100
AcDbLine
 10
6482.0187553361
 20
4317.2386196196
 30
0.0
 11
6482.0187553361
 21
4267.2386196196
 31
0.0
  0
LINE
  5
3EE
330
1F
100
AcDbEntity
  8
0
  6
Continuous
 62
     7
370
    25
100
AcDbLine
 10
6066.0187553361
 20
4317.2386196196
 30
0.0
 11
6066.0187553361
 21
4267.2386196196
 31
0.0
  0
ELLIPSE
  5
3EF
330
1F
100
AcDbEntity
  8
0
  6
Continuous
 62
     7
370
    25
100
AcDbEllipse
 10
6424.3492601294
 20
4302.0581609662
 30
0.0
 11
2.954826720081655
 21
-0.5186519215312728
 31
0.0
210
0.0
220
0.0
230
1.0
 40
0.528796287
 41
6.283004090473881
 42
9.424596744063082
  0
LWPOLYLINE
  5
3F0
330
1F
100
AcDbEntity
  8
0
  6
Continuous
 62
     7
370
    25
100
AcDbPolyline
 90
       13
 70
   128
 43
0.0
 10
6418.7842475021
 20
4287.7361116748
 10
6418.7852357384
 20
4287.7416715123
 10
6418.8074938817
 20
4287.8342651291
 10
6419.1350472622
 20
4288.313859189
 10
6419.7887212978
 20
4288.6716289116
 10
6420.5332417467
 20
4288.8349835573
 10
6421.3714036924
 20
4288.8559504751
 10
6422.2809644122
 20
4288.7273441165
 10
6423.2221740038
 20
4288.4216970335
 10
6424.059856691
 20
4287.9271132498
 10
6424.5859140653
 20
4287.3146164889
 10
6424.6952468018
 20
4286.7066454416
 10
6424.6942487771
 20
4286.7007966628
  0
ELLIPSE
  5
3F1
330
1F
100
AcDbEntity
  8
0
  6
Continuous
 62
     7
370
    25
100
AcDbEllipse
 10
6123.6882505428
 20
4302.0581609662
 30
0.0
 11
2.954826720080746
 21
0.5186519215321823
 31
0.0
210
0.0
220
0.0
230
1.0
 40
0.528796287
 41
0.0001812167056321
 42
3.141773870294887
  0
LWPOLYLINE
  5
3F2
330
1F
100
AcDbEntity
  8
0
  6
Continuous
 62
     7
370
    25
100
AcDbPolyline
 90
       13
 70
   128
 43
0.0
 10
6123.3432618951
 20
4286.7007966628
 10
6123.3422638704
 20
4286.7066454416
 10
6123.4515966069
 20
4287.3146164889
 10
6123.9776539812
 20
4287.9271132498
 10
6124.8153366684
 20
4288.4216970335
 10
6125.75654626
 20
4288.7273441165
 10
6126.6661069798
 20
4288.8559504751
 10
6127.5042689255
 20
4288.8349835573
 10
6128.2487893744
 20
4288.6716289116
 10
6128.90246341
 20
4288.313859189
 10
6129.2300167905
 20
4287.8342651291
 10
6129.2522749338
 20
4287.7416715123
 10
6129.2532631701
 20
4287.7361116748
  0
ELLIPSE
  5
3F3
330
1F
100
AcDbEntity
  8
0
  6
Continuous
 62
     7
370
    25
100
AcDbEllipse
 10
6349.7853937276
 20
4302.0581609662
 30
0.0
 11
2.954835585158435
 21
0.5186014134205834
 31
0.0
210
0.0
220
0.0
230
1.0
 40
0.5288090271
 41
0.0001812111823814
 42
3.141773864772865
  0
LWPOLYLINE
  5
3F4
330
1F
100
AcDbEntity
  8
0
  6
Continuous
 62
     7
370
    25
100
AcDbPolyline
 90
       13
 70
   128
 43
0.0
 10
6355.3500492896
 20
4287.7366532186
 10
6355.3490611369
 20
4287.7422131377
 10
6355.0407613854
 20
4288.2770625575
 10
6354.3388475284
 20
4288.6745357923
 10
6353.3835743075
 20
4288.8551453469
 10
6352.3947352263
 20
4288.8227929917
 10
6351.495524202
 20
4288.6346230634
 10
6350.7140618731
 20
4288.3300017362
 10
6350.0688328979
 20
4287.9232553037
 10
6349.5747720893
 20
4287.3644786754
 10
6349.4286892005
 20
4286.8019240788
 10
6349.4390323955
 20
4286.707288007
 10
6349.4400303336
 20
4286.7014391419
  0
ELLIPSE
  5
3F5
330
1F
100
AcDbEntity
  8
0
  6
Continuous
 62
     7
370
    25
100
AcDbEllipse
 10
6198.2521169446
 20
4302.0581609662
 30
0.0
 11
2.954835585157525
 21
-0.5186014134205834
 31
0.0
210
0.0
220
0.0
230
1.0
 40
0.5288090271
 41
6.283004095996666
 42
9.424596749587097
  0
LWPOLYLINE
  5
3F6
330
1F
100
AcDbEntity
  8
0
  6
Continuous
 62
     7
370
    25
100
AcDbPolyline
 90
       13
 70
   128
 43
0.0
 10
6198.5974803386
 20
4286.7014391419
 10
6198.5984782767
 20
4286.707288007
 10
6198.6088214717
 20
4286.8019240788
 10
6198.4627385829
 20
4287.3644786754
 10
6197.9686777743
 20
4287.9232553037
 10
6197.3234487991
 20
4288.3300017362
 10
6196.5419864702
 20
4288.6346230634
 10
6195.6427754459
 20
4288.8227929917
 10
6194.6539363647
 20
4288.8551453469
 10
6193.6986631438
 20
4288.6745357923
 10
6192.9967492868
 20
4288.2770625575
 10
6192.6884495353
 20
4287.7422131377
 10
6192.6874613826
 20
4287.7366532186
  0
ARC
  5
3F7
330
1F
100
AcDbEntity
  8
0
  6
Continuous
 62
     7
370
    25
100
AcDbCircle
 10
6180.0643242859
 20
4198.2192511526
 30
0.0
 40
367.5732915916657
100
AcDbArc
 50
79.5974753341
 51
80.5327404438
  0
ARC
  5
3F8
330
1F
100
AcDbEntity
  8
0
  6
Continuous
 62
     7
370
    25
100
AcDbCircle
 10
6367.9574438052
 20
4198.3091288763
 30
0.0
 40
367.4820486230102
100
AcDbArc
 50
99.4671434441
 51
100.4026407781
  0
ARC
  5
3F9
330
1F
100
AcDbEntity
  8
0
  6
Continuous
 62
     7
370
    25
100
AcDbCircle
 10
6406.1753872092
 20
4198.3091458384
 30
0.0
 40
367.4831304215816
100
AcDbArc
 50
79.5963822942
 51
80.5318768742
  0
ARC
  5
3FA
330
1F
100
AcDbEntity
  8
0
  6
Continuous
 62
     7
370
    25
100
AcDbCircle
 10
6141.8778691534
 20
4198.2192593931
 30
0.0
 40
367.5743825173083
100
AcDbArc
 50
99.4682392489
 51
100.4035015827
  0
LINE
  5
3FB
330
1F
100
AcDbEntity
  8
0
  6
Continuous
 62
     8
370
    25
100
AcDbLine
 10
6257.2204847118
 20
4622.9422442191
 30
0.0
 11
6290.8170259604
 21
4622.9422442191
 31
0.0
  0
ARC
  5
3FC
330
1F
100
AcDbEntity
  8
0
  6
Continuous
 62
     8
370
    25
100
AcDbCircle
 10
6274.0187553361
 20
4484.2386196196
 30
0.0
 40
45.50000000000039
100
AcDbArc
 50
112.619864948
 51
142.1317448603
  0
ARC
  5
3FD
330
1F
100
AcDbEntity
  8
0
  6
Continuous
 62
     8
370
    25
100
AcDbCircle
 10
6274.0187553361
 20
4484.2386196196
 30
0.0
 40
45.50000000000023
100
AcDbArc
 50
37.8682551397
 51
67.380135052
  0
ARC
  5
3FE
330
1F
100
AcDbEntity
  8
0
  6
Continuous
 62
     8
370
    25
100
AcDbCircle
 10
6274.0187553361
 20
4484.2386196196
 30
0.0
 40
45.50000000000023
100
AcDbArc
 50
197.9983989091
 51
342.0016010909
  0
LINE
  5
3FF
330
1F
100
AcDbEntity
  8
0
  6
Continuous
 62
     8
370
    25
100
AcDbLine
 10
6249.6413430024
 20
4485.6824540507
 30
0.0
 11
6249.6706809071
 21
4486.1132293267
 31
0.0
  0
LWPOLYLINE
  5
400
330
1F
100
AcDbEntity
  8
0
  6
Continuous
 62
     8
370
    25
100
AcDbPolyline
 90
        3
 70
   128
 43
0.0
 10
6250.6503786897
 20
4491.3281797516
 10
6250.6952384967
 20
4491.4743954725
 10
6251.5708986806
 20
4493.8530161958
  0
LWPOLYLINE
  5
401
330
1F
100
AcDbEntity
  8
0
  6
Continuous
 62
     8
370
    25
100
AcDbPolyline
 90
        3
 70
   128
 43
0.0
 10
6254.2569289728
 20
4498.584807571
 10
6254.7767297337
 20
4499.2748206247
 10
6255.9285347098
 20
4500.6424852508
  0
LWPOLYLINE
  5
402
330
1F
100
AcDbEntity
  8
0
  6
Continuous
 62
     8
370
    25
100
AcDbPolyline
 90
        3
 70
   128
 43
0.0
 10
6259.9693572104
 20
4504.2125351661
 10
6261.3590592146
 20
4505.1210281029
 10
6262.2414441718
 20
4505.6310909984
  0
LWPOLYLINE
  5
403
330
1F
100
AcDbEntity
  8
0
  6
Continuous
 62
     8
370
    25
100
AcDbPolyline
 90
        3
 70
   128
 43
0.0
 10
6267.1967660106
 20
4507.6865054858
 10
6269.5867379365
 20
4508.253200851
 10
6269.7538590001
 20
4508.2834433701
  0
LWPOLYLINE
  5
404
330
1F
100
AcDbEntity
  8
0
  6
Continuous
 62
     8
370
    25
100
AcDbPolyline
 90
        3
 70
   128
 43
0.0
 10
6275.2355851718
 20
4508.6284169763
 10
6275.4625897673
 20
4508.6160319533
 10
6277.8689516139
 20
4508.3533221592
  0
LWPOLYLINE
  5
405
330
1F
100
AcDbEntity
  8
0
  6
Continuous
 62
     8
370
    25
100
AcDbPolyline
 90
        3
 70
   128
 43
0.0
 10
6283.0234266228
 20
4506.9379320535
 10
6284.013113528
 20
4506.5199053609
 10
6285.4501318299
 20
4505.8179273334
  0
LWPOLYLINE
  5
406
330
1F
100
AcDbEntity
  8
0
  6
Continuous
 62
     8
370
    25
100
AcDbPolyline
 90
        3
 70
   128
 43
0.0
 10
6289.9499009525
 20
4502.7464960321
 10
6291.2646953942
 20
4501.5279354379
 10
6291.8236770577
 20
4500.9517178494
  0
LWPOLYLINE
  5
407
330
1F
100
AcDbEntity
  8
0
  6
Continuous
 62
     8
370
    25
100
AcDbPolyline
 90
        3
 70
   128
 43
0.0
 10
6295.0890796733
 20
4496.5830241123
 10
6296.2748652936
 20
4494.2889161084
 10
6296.3085768717
 20
4494.213926425
  0
LWPOLYLINE
  5
408
330
1F
100
AcDbEntity
  8
0
  6
Continuous
 62
     8
370
    25
100
AcDbPolyline
 90
        3
 70
   128
 43
0.0
 10
6297.9466466209
 20
4489.1170321296
 10
6298.0333365676
 20
4488.6706370192
 10
6298.3332319639
 20
4486.5077860452
  0
LWPOLYLINE
  5
409
330
1F
100
AcDbEntity
  8
0
  6
Continuous
 62
     8
370
    25
100
AcDbPolyline
 90
        3
 70
   128
 43
0.0
 10
6298.2252871444
 20
4481.0157780527
 10
6298.0443938782
 20
4479.8669400111
 10
6297.7303678988
 20
4478.39890048
  0
LWPOLYLINE
  5
40A
330
1F
100
AcDbEntity
  8
0
  6
Continuous
 62
     8
370
    25
100
AcDbPolyline
 90
        3
 70
   128
 43
0.0
 10
6295.8815881274
 20
4473.3593074955
 10
6294.9328986601
 20
4471.6314193365
 10
6294.5633668101
 20
4471.0377927767
  0
LINE
  5
40B
330
1F
100
AcDbEntity
  8
0
  6
Continuous
 62
     8
370
    25
100
AcDbLine
 10
6291.1515381251
 20
4466.8371643971
 30
0.0
 11
6289.1872653431
 21
4465.1007202019
 31
0.0
  0
LWPOLYLINE
  5
40C
330
1F
100
AcDbEntity
  8
0
  6
Continuous
 62
     8
370
    25
100
AcDbPolyline
 90
        3
 70
   128
 43
0.0
 10
6284.5771856446
 20
4462.2190274486
 10
6284.0690518249
 20
4461.9825096621
 10
6282.0836228603
 20
4461.1886564575
  0
LWPOLYLINE
  5
40D
330
1F
100
AcDbEntity
  8
0
  6
Continuous
 62
     8
370
    25
100
AcDbPolyline
 90
        3
 70
   128
 43
0.0
 10
6276.8925087257
 20
4459.9881674298
 10
6275.5238204395
 20
4459.8649110591
 10
6274.2492341054
 20
4459.8195743989
  0
LWPOLYLINE
  5
40E
330
1F
100
AcDbEntity
  8
0
  6
Continuous
 62
     8
370
    25
100
AcDbPolyline
 90
        3
 70
   128
 43
0.0
 10
6268.8218148264
 20
4460.3778841051
 10
6266.7829794832
 20
4460.9151027801
 10
6266.2820669785
 20
4461.0764404645
  0
LINE
  5
40F
330
1F
100
AcDbEntity
  8
0
  6
Continuous
 62
     8
370
    25
100
AcDbLine
 10
6261.3501831022
 20
4463.3615947475
 30
0.0
 11
6259.1537571483
 21
4464.8640301057
 31
0.0
  0
LWPOLYLINE
  5
410
330
1F
100
AcDbEntity
  8
0
  6
Continuous
 62
     8
370
    25
100
AcDbPolyline
 90
        3
 70
   128
 43
0.0
 10
6255.2941575353
 20
4468.5627678994
 10
6254.8145608657
 20
4469.1541307421
 10
6253.7001876839
 20
4470.6924504741
  0
LWPOLYLINE
  5
411
330
1F
100
AcDbEntity
  8
0
  6
Continuous
 62
     8
370
    25
100
AcDbPolyline
 90
        3
 70
   128
 43
0.0
 10
6251.1956139657
 20
4475.5525901504
 10
6250.7134881041
 20
4476.9442787174
 10
6250.3852704917
 20
4478.0903447343
  0
LINE
  5
412
330
1F
100
AcDbEntity
  8
0
  6
Continuous
 62
     8
370
    25
100
AcDbLine
 10
6249.6132450731
 20
4483.3936588178
 30
0.0
 11
6249.6413430024
 21
4485.6824540507
 31
0.0
  0
LINE
  5
413
330
1F
100
AcDbEntity
  8
0
  6
Continuous
 62
     8
370
    25
100
AcDbLine
 10
6494.0187553361
 20
4647.0457424302
 30
0.0
 11
6494.0187553361
 21
4647.1743718221
 31
0.0
  0
LINE
  5
414
330
1F
100
AcDbEntity
  8
0
  6
Continuous
 62
     8
370
    25
100
AcDbLine
 10
6054.0187553361
 20
4647.0457424302
 30
0.0
 11
6054.0187553361
 21
4647.1743718221
 31
0.0
  0
LINE
  5
415
330
1F
100
AcDbEntity
  8
0
  6
Continuous
 62
     8
370
    25
100
AcDbLine
 10
6482.0187553361
 20
4317.2386196196
 30
0.0
 11
6482.0187553361
 21
4526.2386196196
 31
0.0
  0
LINE
  5
416
330
1F
100
AcDbEntity
  8
0
  6
Continuous
 62
     8
370
    25
100
AcDbLine
 10
6482.0187553361
 20
4534.2386196196
 30
0.0
 11
6482.0187553361
 21
4574.2386196196
 31
0.0
  0
LINE
  5
417
330
1F
100
AcDbEntity
  8
0
  6
Continuous
 62
     8
370
    25
100
AcDbLine
 10
6066.0187553361
 20
4574.2386196196
 30
0.0
 11
6066.0187553361
 21
4534.2386196196
 31
0.0
  0
LINE
  5
418
330
1F
100
AcDbEntity
  8
0
  6
Continuous
 62
     8
370
    25
100
AcDbLine
 10
6066.0187553361
 20
4526.2386196196
 30
0.0
 11
6066.0187553361
 21
4317.2386196196
 31
0.0
  0
LINE
  5
419
330
1F
100
AcDbEntity
  8
0
  6
Continuous
 62
     8
370
    25
100
AcDbLine
 10
6066.0187553361
 20
4317.2386196196
 30
0.0
 11
6117.9833511716
 21
4317.2386196196
 31
0.0
  0
LINE
  5
41A
330
1F
100
AcDbEntity
  8
0
  6
Continuous
 62
     8
370
    25
100
AcDbLine
 10
6124.0747131509
 20
4317.2386196196
 30
0.0
 11
6197.865396291
 21
4317.2386196196
 31
0.0
  0
LINE
  5
41B
330
1F
100
AcDbEntity
  8
0
  6
Continuous
 62
     8
370
    25
100
AcDbLine
 10
6203.9567400518
 20
4317.2386196196
 30
0.0
 11
6344.0807706204
 21
4317.2386196196
 31
0.0
  0
LINE
  5
41C
330
1F
100
AcDbEntity
  8
0
  6
Continuous
 62
     8
370
    25
100
AcDbLine
 10
6350.1721143812
 20
4317.2386196196
 30
0.0
 11
6423.9627975213
 21
4317.2386196196
 31
0.0
  0
LINE
  5
41D
330
1F
100
AcDbEntity
  8
0
  6
Continuous
 62
     8
370
    25
100
AcDbLine
 10
6430.0541595006
 20
4317.2386196196
 30
0.0
 11
6482.0187553361
 21
4317.2386196196
 31
0.0
  0
ENDSEC
  0
SECTION
  2
OBJECTS
  0
DICTIONARY
  5
C
330
0
100
AcDbDictionary
281
     1
  3
ACAD_GROUP
350
D
  3
ACAD_LAYOUT
350
1A
  3
ACAD_MLINESTYLE
350
17
  3
ACAD_PLOTSETTINGS
350
19
  3
ACAD_PLOTSTYLENAME
350
E
  3
ACAD_SCALELIST
350
47
  3
DWGPROPS
350
41E
  0
DICTIONARY
  5
D
102
{ACAD_REACTORS
330
C
102
}
330
C
100
AcDbDictionary
281
     1
  0
DICTIONARY
  5
1A
102
{ACAD_REACTORS
330
C
102
}
330
C
100
AcDbDictionary
281
     1
  3
Layout1
350
1E
  3
Layout2
350
26
  3
Model
350
22
  0
DICTIONARY
  5
17
102
{ACAD_REACTORS
330
C
102
}
330
C
100
AcDbDictionary
281
     1
  3
Standard
350
18
  0
DICTIONARY
  5
19
102
{ACAD_REACTORS
330
C
102
}
330
C
100
AcDbDictionary
281
     1
  0
ACDBDICTIONARYWDFLT
  5
E
102
{ACAD_REACTORS
330
C
102
}
330
C
100
AcDbDictionary
281
     1
  3
Normal
350
F
100
AcDbDictionaryWithDefault
340
F
  0
DICTIONARY
  5
47
102
{ACAD_REACTORS
330
C
102
}
330
C
100
AcDbDictionary
281
     1
  3
A0
350
48
  3
A1
350
49
  3
A2
350
4A
  3
A3
350
4B
  3
A4
350
4C
  3
A5
350
4D
  3
A6
350
4E
  3
A7
350
4F
  3
A8
350
50
  3
A9
350
51
  3
B0
350
52
  3
B1
350
53
  3
B2
350
54
  3
B3
350
55
  3
B4
350
56
  3
B5
350
57
  3
B6
350
58
  3
B7
350
59
  3
B8
350
5A
  3
B9
350
5B
  3
C0
350
5C
  3
C1
350
5D
  3
C2
350
5E
  3
C3
350
5F
  3
C4
350
60
  3
C5
350
61
  3
C6
350
62
  3
C7
350
63
  3
C8
350
64
  3
C9
350
65
  3
D0
350
66
  3
D1
350
67
  3
D2
350
68
  0
XRECORD
  5
41E
102
{ACAD_REACTORS
330
C
102
}
330
C
100
AcDbXrecord
280
     1
  1
DWGPROPS COOKIE
  2

  3

  4

  6

  7

  8
radek.stransky
  9

300
=
301
=
302
=
303
=
304
=
305
=
306
=
307
=
308
=
309
=
 40
0.0
 41
2459625.225031447
 42
2459625.225031956
  1

 90
        0
  0
LAYOUT
  5
1E
102
{ACAD_REACTORS
330
1A
102
}
330
1A
100
AcDbPlotSettings
  1

  2
none_device
  4

  6

 40
0.0
 41
0.0
 42
0.0
 43
0.0
 44
0.0
 45
0.0
 46
0.0
 47
0.0
 48
0.0
 49
0.0
140
0.0
141
0.0
142
1.0
143
1.0
 70
   688
 72
     1
 73
     0
 74
     5
  7

 75
    16
147
1.0
148
0.0
149
0.0
100
AcDbLayout
  1
Layout1
 70
     1
 71
     1
 10
0.0
 20
0.0
 11
420.0
 21
297.0
 12
0.0
 22
0.0
 32
0.0
 14
1.0000000000E+20
 24
1.0000000000E+20
 34
1.0000000000E+20
 15
-1.0000000000E+20
 25
-1.0000000000E+20
 35
-1.0000000000E+20
146
0.0
 13
0.0
 23
0.0
 33
0.0
 16
1.0
 26
0.0
 36
0.0
 17
0.0
 27
1.0
 37
0.0
 76
     0
330
1B
  0
LAYOUT
  5
26
102
{ACAD_REACTORS
330
1A
102
}
330
1A
100
AcDbPlotSettings
  1

  2
none_device
  4

  6

 40
0.0
 41
0.0
 42
0.0
 43
0.0
 44
0.0
 45
0.0
 46
0.0
 47
0.0
 48
0.0
 49
0.0
140
0.0
141
0.0
142
1.0
143
1.0
 70
   688
 72
     1
 73
     0
 74
     5
  7

 75
    16
147
1.0
148
0.0
149
0.0
100
AcDbLayout
  1
Layout2
 70
     1
 71
     2
 10
0.0
 20
0.0
 11
0.0
 21
0.0
 12
0.0
 22
0.0
 32
0.0
 14
0.0
 24
0.0
 34
0.0
 15
0.0
 25
0.0
 35
0.0
146
0.0
 13
0.0
 23
0.0
 33
0.0
 16
1.0
 26
0.0
 36
0.0
 17
0.0
 27
1.0
 37
0.0
 76
     0
330
23
  0
LAYOUT
  5
22
102
{ACAD_REACTORS
330
1A
102
}
330
1A
100
AcDbPlotSettings
  1

  2
none_device
  4
Letter_(8.50_x_11.00_Inches)
  6

 40
6.35
 41
6.35
 42
6.35000508
 43
6.35000508
 44
215.9
 45
279.4
 46
0.0
 47
0.0
 48
0.0
 49
0.0
140
0.0
141
0.0
142
1.0
143
1.0
 70
  1712
 72
     1
 73
     0
 74
     0
  7

 75
     0
147
1.0
148
0.0
149
0.0
100
AcDbLayout
  1
Model
 70
     1
 71
     0
 10
0.0
 20
0.0
 11
20000.0
 21
10000.0
 12
0.0
 22
0.0
 32
0.0
 14
0.0
 24
0.0
 34
0.0
 15
20000.0
 25
10000.0
 35
0.0
146
0.0
 13
0.0
 23
0.0
 33
0.0
 16
1.0
 26
0.0
 36
0.0
 17
0.0
 27
1.0
 37
0.0
 76
     0
330
1F
331
29
  0
MLINESTYLE
  5
18
102
{ACAD_REACTORS
330
17
102
}
330
17
100
AcDbMlineStyle
  2
Standard
 70
     0
  3

 62
   256
 51
90.0
 52
90.0
 71
     2
 49
0.5
 62
   256
  6
BYLAYER
 49
-0.5
 62
   256
  6
BYLAYER
  0
ACDBPLACEHOLDER
  5
F
102
{ACAD_REACTORS
330
E
102
}
330
E
  0
SCALE
  5
48
102
{ACAD_REACTORS
330
47
102
}
330
47
100
AcDbScale
 70
     0
300
1:1
140
1.0
141
1.0
290
     1
  0
SCALE
  5
49
102
{ACAD_REACTORS
330
47
102
}
330
47
100
AcDbScale
 70
     0
300
1:2
140
1.0
141
2.0
290
     0
  0
SCALE
  5
4A
102
{ACAD_REACTORS
330
47
102
}
330
47
100
AcDbScale
 70
     0
300
1:4
140
1.0
141
4.0
290
     0
  0
SCALE
  5
4B
102
{ACAD_REACTORS
330
47
102
}
330
47
100
AcDbScale
 70
     0
300
1:5
140
1.0
141
5.0
290
     0
  0
SCALE
  5
4C
102
{ACAD_REACTORS
330
47
102
}
330
47
100
AcDbScale
 70
     0
300
1:8
140
1.0
141
8.0
290
     0
  0
SCALE
  5
4D
102
{ACAD_REACTORS
330
47
102
}
330
47
100
AcDbScale
 70
     0
300
1:10
140
1.0
141
10.0
290
     0
  0
SCALE
  5
4E
102
{ACAD_REACTORS
330
47
102
}
330
47
100
AcDbScale
 70
     0
300
1:16
140
1.0
141
16.0
290
     0
  0
SCALE
  5
4F
102
{ACAD_REACTORS
330
47
102
}
330
47
100
AcDbScale
 70
     0
300
1:20
140
1.0
141
20.0
290
     0
  0
SCALE
  5
50
102
{ACAD_REACTORS
330
47
102
}
330
47
100
AcDbScale
 70
     0
300
1:30
140
1.0
141
30.0
290
     0
  0
SCALE
  5
51
102
{ACAD_REACTORS
330
47
102
}
330
47
100
AcDbScale
 70
     0
300
1:40
140
1.0
141
40.0
290
     0
  0
SCALE
  5
52
102
{ACAD_REACTORS
330
47
102
}
330
47
100
AcDbScale
 70
     0
300
1:50
140
1.0
141
50.0
290
     0
  0
SCALE
  5
53
102
{ACAD_REACTORS
330
47
102
}
330
47
100
AcDbScale
 70
     0
300
1:100
140
1.0
141
100.0
290
     0
  0
SCALE
  5
54
102
{ACAD_REACTORS
330
47
102
}
330
47
100
AcDbScale
 70
     0
300
2:1
140
2.0
141
1.0
290
     0
  0
SCALE
  5
55
102
{ACAD_REACTORS
330
47
102
}
330
47
100
AcDbScale
 70
     0
300
4:1
140
4.0
141
1.0
290
     0
  0
SCALE
  5
56
102
{ACAD_REACTORS
330
47
102
}
330
47
100
AcDbScale
 70
     0
300
8:1
140
8.0
141
1.0
290
     0
  0
SCALE
  5
57
102
{ACAD_REACTORS
330
47
102
}
330
47
100
AcDbScale
 70
     0
300
10:1
140
10.0
141
1.0
290
     0
  0
SCALE
  5
58
102
{ACAD_REACTORS
330
47
102
}
330
47
100
AcDbScale
 70
     0
300
100:1
140
100.0
141
1.0
290
     0
  0
SCALE
  5
59
102
{ACAD_REACTORS
330
47
102
}
330
47
100
AcDbScale
 70
     0
300
1/128" = 1'-0"
140
0.0078125
141
12.0
290
     0
  0
SCALE
  5
5A
102
{ACAD_REACTORS
330
47
102
}
330
47
100
AcDbScale
 70
     0
300
1/64" = 1'-0"
140
0.015625
141
12.0
290
     0
  0
SCALE
  5
5B
102
{ACAD_REACTORS
330
47
102
}
330
47
100
AcDbScale
 70
     0
300
1/32" = 1'-0"
140
0.03125
141
12.0
290
     0
  0
SCALE
  5
5C
102
{ACAD_REACTORS
330
47
102
}
330
47
100
AcDbScale
 70
     0
300
1/16" = 1'-0"
140
0.0625
141
12.0
290
     0
  0
SCALE
  5
5D
102
{ACAD_REACTORS
330
47
102
}
330
47
100
AcDbScale
 70
     0
300
3/32" = 1'-0"
140
0.09375
141
12.0
290
     0
  0
SCALE
  5
5E
102
{ACAD_REACTORS
330
47
102
}
330
47
100
AcDbScale
 70
     0
300
1/8" = 1'-0"
140
0.125
141
12.0
290
     0
  0
SCALE
  5
5F
102
{ACAD_REACTORS
330
47
102
}
330
47
100
AcDbScale
 70
     0
300
3/16" = 1'-0"
140
0.1875
141
12.0
290
     0
  0
SCALE
  5
60
102
{ACAD_REACTORS
330
47
102
}
330
47
100
AcDbScale
 70
     0
300
1/4" = 1'-0"
140
0.25
141
12.0
290
     0
  0
SCALE
  5
61
102
{ACAD_REACTORS
330
47
102
}
330
47
100
AcDbScale
 70
     0
300
3/8" = 1'-0"
140
0.375
141
12.0
290
     0
  0
SCALE
  5
62
102
{ACAD_REACTORS
330
47
102
}
330
47
100
AcDbScale
 70
     0
300
1/2" = 1'-0"
140
0.5
141
12.0
290
     0
  0
SCALE
  5
63
102
{ACAD_REACTORS
330
47
102
}
330
47
100
AcDbScale
 70
     0
300
3/4" = 1'-0"
140
0.75
141
12.0
290
     0
  0
SCALE
  5
64
102
{ACAD_REACTORS
330
47
102
}
330
47
100
AcDbScale
 70
     0
300
1" = 1'-0"
140
1.0
141
12.0
290
     0
  0
SCALE
  5
65
102
{ACAD_REACTORS
330
47
102
}
330
47
100
AcDbScale
 70
     0
300
1-1/2" = 1'-0"
140
1.5
141
12.0
290
     0
  0
SCALE
  5
66
102
{ACAD_REACTORS
330
47
102
}
330
47
100
AcDbScale
 70
     0
300
3" = 1'-0"
140
3.0
141
12.0
290
     0
  0
SCALE
  5
67
102
{ACAD_REACTORS
330
47
102
}
330
47
100
AcDbScale
 70
     0
300
6" = 1'-0"
140
6.0
141
12.0
290
     0
  0
SCALE
  5
68
102
{ACAD_REACTORS
330
47
102
}
330
47
100
AcDbScale
 70
     0
300
1'-0" = 1'-0"
140
12.0
141
12.0
290
     0
  0
ENDSEC
  0
EOF
