  0
SECTION
  2
HEADER
  9
$ACADVER
  1
AC1015
  9
$ACADMAINTVER
 70
     6
  9
$DWGCODEPAGE
  3
ANSI_1250
  9
$INSBASE
 10
0.0
 20
0.0
 30
0.0
  9
$EXTMIN
 10
8810.1332523286
 20
4144.1235837626
 30
0.0
  9
$EXTMAX
 10
11270.2222128181
 20
5609.2330756144
 30
0.0
  9
$LIMMIN
 10
0.0
 20
0.0
  9
$LIMMAX
 10
420.0
 20
297.0
  9
$ORTHOMODE
 70
     0
  9
$REGENMODE
 70
     1
  9
$FILLMODE
 70
     1
  9
$QTEXTMODE
 70
     0
  9
$MIRRTEXT
 70
     1
  9
$LTSCALE
 40
1.0
  9
$ATTMODE
 70
     1
  9
$TEXTSIZE
 40
3.5
  9
$TRACEWID
 40
1.0
  9
$TEXTSTYLE
  7
Standard
  9
$CLAYER
  8
0
  9
$CELTYPE
  6
ByLayer
  9
$CECOLOR
 62
   256
  9
$CELTSCALE
 40
1.0
  9
$DISPSILH
 70
     0
  9
$DIMSCALE
 40
1.0
  9
$DIMASZ
 40
3.302
  9
$DIMEXO
 40
0.0
  9
$DIMDLI
 40
3.75
  9
$DIMRND
 40
0.0
  9
$DIMDLE
 40
0.0
  9
$DIMEXE
 40
1.0
  9
$DIMTP
 40
0.0
  9
$DIMTM
 40
0.0
  9
$DIMTXT
 40
3.5
  9
$DIMCEN
 40
2.5
  9
$DIMTSZ
 40
0.0
  9
$DIMTOL
 70
     0
  9
$DIMLIM
 70
     0
  9
$DIMTIH
 70
     1
  9
$DIMTOH
 70
     1
  9
$DIMSE1
 70
     0
  9
$DIMSE2
 70
     0
  9
$DIMTAD
 70
     1
  9
$DIMZIN
 70
     0
  9
$DIMBLK
  1

  9
$DIMASO
 70
     1
  9
$DIMSHO
 70
     1
  9
$DIMPOST
  1

  9
$DIMAPOST
  1

  9
$DIMALT
 70
     0
  9
$DIMALTD
 70
     3
  9
$DIMALTF
 40
0.0393700787
  9
$DIMLFAC
 40
1.0
  9
$DIMTOFL
 70
     1
  9
$DIMTVP
 40
0.0
  9
$DIMTIX
 70
     0
  9
$DIMSOXD
 70
     0
  9
$DIMSAH
 70
     0
  9
$DIMBLK1
  1

  9
$DIMBLK2
  1

  9
$DIMSTYLE
  2
ISO-25
  9
$DIMCLRD
 70
     0
  9
$DIMCLRE
 70
     0
  9
$DIMCLRT
 70
     0
  9
$DIMTFAC
 40
1.0
  9
$DIMGAP
 40
1.524
  9
$DIMJUST
 70
     0
  9
$DIMSD1
 70
     0
  9
$DIMSD2
 70
     0
  9
$DIMTOLJ
 70
     0
  9
$DIMTZIN
 70
     0
  9
$DIMALTZ
 70
     0
  9
$DIMALTTZ
 70
     0
  9
$DIMUPT
 70
     0
  9
$DIMDEC
 70
     2
  9
$DIMTDEC
 70
     2
  9
$DIMALTU
 70
     2
  9
$DIMALTTD
 70
     3
  9
$DIMTXSTY
  7
Standard
  9
$DIMAUNIT
 70
     0
  9
$DIMADEC
 70
     2
  9
$DIMALTRND
 40
0.0
  9
$DIMAZIN
 70
     0
  9
$DIMDSEP
 70
    44
  9
$DIMATFIT
 70
     3
  9
$DIMFRAC
 70
     0
  9
$DIMLDRBLK
  1

  9
$DIMLUNIT
 70
     2
  9
$DIMLWD
 70
    -2
  9
$DIMLWE
 70
    -2
  9
$DIMTMOVE
 70
     0
  9
$LUNITS
 70
     2
  9
$LUPREC
 70
     2
  9
$SKETCHINC
 40
1.0
  9
$FILLETRAD
 40
10.0
  9
$AUNITS
 70
     0
  9
$AUPREC
 70
     2
  9
$MENU
  1
.
  9
$ELEVATION
 40
0.0
  9
$PELEVATION
 40
0.0
  9
$THICKNESS
 40
0.0
  9
$LIMCHECK
 70
     0
  9
$CHAMFERA
 40
0.0
  9
$CHAMFERB
 40
0.0
  9
$CHAMFERC
 40
0.0
  9
$CHAMFERD
 40
0.0
  9
$SKPOLY
 70
     0
  9
$TDCREATE
 40
2459094.362360382
  9
$TDUCREATE
 40
2459094.279027048
  9
$TDUPDATE
 40
2459094.362411771
  9
$TDUUPDATE
 40
2459094.279078437
  9
$TDINDWG
 40
0.0000000116
  9
$TDUSRTIMER
 40
0.0000000116
  9
$USRTIMER
 70
     1
  9
$ANGBASE
 50
0.0
  9
$ANGDIR
 70
     0
  9
$PDMODE
 70
     0
  9
$PDSIZE
 40
-1.0
  9
$PLINEWID
 40
0.0
  9
$SPLFRAME
 70
     0
  9
$SPLINETYPE
 70
     6
  9
$SPLINESEGS
 70
     8
  9
$HANDSEED
  5
2E7
  9
$SURFTAB1
 70
     6
  9
$SURFTAB2
 70
     6
  9
$SURFTYPE
 70
     6
  9
$SURFU
 70
     6
  9
$SURFV
 70
     6
  9
$UCSBASE
  2

  9
$UCSNAME
  2

  9
$UCSORG
 10
0.0
 20
0.0
 30
0.0
  9
$UCSXDIR
 10
1.0
 20
0.0
 30
0.0
  9
$UCSYDIR
 10
0.0
 20
1.0
 30
0.0
  9
$UCSORTHOREF
  2

  9
$UCSORTHOVIEW
 70
     0
  9
$UCSORGTOP
 10
0.0
 20
0.0
 30
0.0
  9
$UCSORGBOTTOM
 10
0.0
 20
0.0
 30
0.0
  9
$UCSORGLEFT
 10
0.0
 20
0.0
 30
0.0
  9
$UCSORGRIGHT
 10
0.0
 20
0.0
 30
0.0
  9
$UCSORGFRONT
 10
0.0
 20
0.0
 30
0.0
  9
$UCSORGBACK
 10
0.0
 20
0.0
 30
0.0
  9
$PUCSBASE
  2

  9
$PUCSNAME
  2

  9
$PUCSORG
 10
0.0
 20
0.0
 30
0.0
  9
$PUCSXDIR
 10
1.0
 20
0.0
 30
0.0
  9
$PUCSYDIR
 10
0.0
 20
1.0
 30
0.0
  9
$PUCSORTHOREF
  2

  9
$PUCSORTHOVIEW
 70
     0
  9
$PUCSORGTOP
 10
0.0
 20
0.0
 30
0.0
  9
$PUCSORGBOTTOM
 10
0.0
 20
0.0
 30
0.0
  9
$PUCSORGLEFT
 10
0.0
 20
0.0
 30
0.0
  9
$PUCSORGRIGHT
 10
0.0
 20
0.0
 30
0.0
  9
$PUCSORGFRONT
 10
0.0
 20
0.0
 30
0.0
  9
$PUCSORGBACK
 10
0.0
 20
0.0
 30
0.0
  9
$USERI1
 70
     0
  9
$USERI2
 70
     0
  9
$USERI3
 70
     0
  9
$USERI4
 70
     0
  9
$USERI5
 70
     0
  9
$USERR1
 40
0.0
  9
$USERR2
 40
0.0
  9
$USERR3
 40
0.0
  9
$USERR4
 40
0.0
  9
$USERR5
 40
0.0
  9
$WORLDVIEW
 70
     1
  9
$SHADEDGE
 70
     3
  9
$SHADEDIF
 70
    70
  9
$TILEMODE
 70
     1
  9
$MAXACTVP
 70
    64
  9
$PINSBASE
 10
0.0
 20
0.0
 30
0.0
  9
$PLIMCHECK
 70
     0
  9
$PEXTMIN
 10
1.0000000000E+20
 20
1.0000000000E+20
 30
1.0000000000E+20
  9
$PEXTMAX
 10
-1.0000000000E+20
 20
-1.0000000000E+20
 30
-1.0000000000E+20
  9
$PLIMMIN
 10
0.0
 20
0.0
  9
$PLIMMAX
 10
420.0
 20
297.0
  9
$UNITMODE
 70
     0
  9
$VISRETAIN
 70
     1
  9
$PLINEGEN
 70
     0
  9
$PSLTSCALE
 70
     1
  9
$TREEDEPTH
 70
  3020
  9
$CMLSTYLE
  2
Standard
  9
$CMLJUST
 70
     0
  9
$CMLSCALE
 40
20.0
  9
$PROXYGRAPHICS
 70
     1
  9
$MEASUREMENT
 70
     1
  9
$CELWEIGHT
370
    -1
  9
$ENDCAPS
280
     0
  9
$JOINSTYLE
280
     0
  9
$LWDISPLAY
290
     1
  9
$INSUNITS
 70
     4
  9
$HYPERLINKBASE
  1

  9
$STYLESHEET
  1

  9
$XEDIT
290
     1
  9
$CEPSNTYPE
380
     0
  9
$PSTYLEMODE
290
     1
  9
$FINGERPRINTGUID
  2
{d57d2dd7-38ad-4152-9a5e-4f98ae5276c2}
  9
$VERSIONGUID
  2
{FAEB1C32-E019-11D5-929B-00C0DF256EC4}
  9
$EXTNAMES
290
     1
  9
$PSVPSCALE
 40
0.0
  9
$OLESTARTUP
290
     0
  0
ENDSEC
  0
SECTION
  2
CLASSES
  0
CLASS
  1
ACDBDICTIONARYWDFLT
  2
AcDbDictionaryWithDefault
  3
ObjectDBX Classes
 90
        0
280
     0
281
     0
  0
CLASS
  1
VISUALSTYLE
  2
AcDbVisualStyle
  3
ObjectDBX Classes
 90
     4095
280
     0
281
     0
  0
CLASS
  1
MATERIAL
  2
AcDbMaterial
  3
ObjectDBX Classes
 90
     1153
280
     0
281
     0
  0
CLASS
  1
SCALE
  2
AcDbScale
  3
ObjectDBX Classes
 90
     1153
280
     0
281
     0
  0
CLASS
  1
TABLESTYLE
  2
AcDbTableStyle
  3
ObjectDBX Classes
 90
     4095
280
     0
281
     0
  0
CLASS
  1
MLEADERSTYLE
  2
AcDbMLeaderStyle
  3
ACDB_MLEADERSTYLE_CLASS
 90
     4095
280
     0
281
     0
  0
CLASS
  1
SUN
  2
AcDbSun
  3
SCENEOE
 90
     1153
280
     0
281
     0
  0
CLASS
  1
ACDBPLACEHOLDER
  2
AcDbPlaceHolder
  3
ObjectDBX Classes
 90
        0
280
     0
281
     0
  0
CLASS
  1
LAYOUT
  2
AcDbLayout
  3
ObjectDBX Classes
 90
        0
280
     0
281
     0
  0
ENDSEC
  0
SECTION
  2
TABLES
  0
TABLE
  2
VPORT
  5
8
330
0
100
AcDbSymbolTable
 70
     1
  0
VPORT
  5
29
330
8
100
AcDbSymbolTableRecord
100
AcDbViewportTableRecord
  2
*Active
 70
     0
 10
0.0
 20
0.0
 11
1.0
 21
1.0
 12
10040.1777325733
 22
4876.6783296885
 13
0.0
 23
0.0
 14
10.0
 24
10.0
 15
10.0
 25
10.0
 16
0.0
 26
0.0
 36
1.0
 17
0.0
 27
0.0
 37
0.0
 40
1494.4116816888
 41
1.6791161167
 42
50.0
 43
0.0
 44
0.0
 50
0.0
 51
0.0
 71
     0
 72
   100
 73
     1
 74
     3
 75
     0
 76
     0
 77
     0
 78
     0
281
     0
 65
     1
110
0.0
120
0.0
130
0.0
111
1.0
121
0.0
131
0.0
112
0.0
122
1.0
132
0.0
 79
     0
146
0.0
  0
ENDTAB
  0
TABLE
  2
LTYPE
  5
5
330
0
100
AcDbSymbolTable
 70
     6
  0
LTYPE
  5
14
330
5
100
AcDbSymbolTableRecord
100
AcDbLinetypeTableRecord
  2
ByBlock
 70
     0
  3

 72
    65
 73
     0
 40
0.0
  0
LTYPE
  5
15
330
5
100
AcDbSymbolTableRecord
100
AcDbLinetypeTableRecord
  2
ByLayer
 70
     0
  3

 72
    65
 73
     0
 40
0.0
  0
LTYPE
  5
16
330
5
100
AcDbSymbolTableRecord
100
AcDbLinetypeTableRecord
  2
Continuous
 70
     0
  3
Solid line
 72
    65
 73
     0
 40
0.0
  0
LTYPE
  5
6E
330
5
100
AcDbSymbolTableRecord
100
AcDbLinetypeTableRecord
  2
HIDDEN
 70
     0
  3
Hidden __ __ __ __ __ __ __ __ __ __ __ __ __ __
 72
    65
 73
     2
 40
1.905
 49
1.27
 74
     0
 49
-0.635
 74
     0
  0
LTYPE
  5
6F
330
5
100
AcDbSymbolTableRecord
100
AcDbLinetypeTableRecord
  2
PHANTOM
 70
     0
  3
Phantom ______  __  __  ______  __  __  ______
 72
    65
 73
     6
 40
12.7
 49
6.35
 74
     0
 49
-1.27
 74
     0
 49
1.27
 74
     0
 49
-1.27
 74
     0
 49
1.27
 74
     0
 49
-1.27
 74
     0
  0
LTYPE
  5
70
330
5
100
AcDbSymbolTableRecord
100
AcDbLinetypeTableRecord
  2
CENTER
 70
     0
  3
Center ____ _ ____ _ ____ _ ____ _ ____ _ ____
 72
    65
 73
     4
 40
10.16
 49
6.35
 74
     0
 49
-1.27
 74
     0
 49
1.27
 74
     0
 49
-1.27
 74
     0
  0
LTYPE
  5
71
330
5
100
AcDbSymbolTableRecord
100
AcDbLinetypeTableRecord
  2
CENTERX2
 70
     0
  3
Center (2x) ________  __  ________  __  _____
 72
    65
 73
     4
 40
20.32
 49
12.7
 74
     0
 49
-2.54
 74
     0
 49
2.54
 74
     0
 49
-2.54
 74
     0
  0
LTYPE
  5
72
330
5
100
AcDbSymbolTableRecord
100
AcDbLinetypeTableRecord
  2
DOT2
 70
     0
  3
Dot (.5x) ........................................
 72
    65
 73
     2
 40
0.635
 49
0.0
 74
     0
 49
-0.635
 74
     0
  0
ENDTAB
  0
TABLE
  2
LAYER
  5
2
330
0
100
AcDbSymbolTable
 70
     1
  0
LAYER
  5
10
330
2
100
AcDbSymbolTableRecord
100
AcDbLayerTableRecord
  2
0
 70
     0
 62
     7
  6
Continuous
370
    -3
390
F
  0
ENDTAB
  0
TABLE
  2
STYLE
  5
3
330
0
100
AcDbSymbolTable
 70
     1
  0
STYLE
  5
11
330
3
100
AcDbSymbolTableRecord
100
AcDbTextStyleTableRecord
  2
Standard
 70
     0
 40
0.0
 41
1.0
 50
0.0
 71
     0
 42
3.5
  3
txt
  4

  0
ENDTAB
  0
TABLE
  2
VIEW
  5
6
330
0
100
AcDbSymbolTable
 70
     0
  0
ENDTAB
  0
TABLE
  2
UCS
  5
7
330
0
100
AcDbSymbolTable
 70
     0
  0
ENDTAB
  0
TABLE
  2
APPID
  5
9
330
0
100
AcDbSymbolTable
 70
     1
  0
APPID
  5
12
330
9
100
AcDbSymbolTableRecord
100
AcDbRegAppTableRecord
  2
ACAD
 70
     0
  0
ENDTAB
  0
TABLE
  2
DIMSTYLE
  5
A
330
0
100
AcDbSymbolTable
 70
     1
100
AcDbDimStyleTable
  0
DIMSTYLE
105
27
330
A
100
AcDbSymbolTableRecord
100
AcDbDimStyleTableRecord
  2
ISO-25
 70
     0
 41
2.5
 42
0.625
 43
3.75
 44
1.25
 73
     0
 74
     0
 77
     1
 78
     8
140
2.5
141
2.5
143
0.0393700787
147
0.625
171
     3
172
     1
178
     0
271
     2
272
     2
274
     3
278
    44
283
     0
284
     8
340
11
  0
ENDTAB
  0
TABLE
  2
BLOCK_RECORD
  5
1
330
0
100
AcDbSymbolTable
 70
     1
  0
BLOCK_RECORD
  5
1F
330
1
100
AcDbSymbolTableRecord
100
AcDbBlockTableRecord
  2
*Model_Space
340
22
  0
BLOCK_RECORD
  5
1B
330
1
100
AcDbSymbolTableRecord
100
AcDbBlockTableRecord
  2
*Paper_Space
340
1E
  0
BLOCK_RECORD
  5
23
330
1
100
AcDbSymbolTableRecord
100
AcDbBlockTableRecord
  2
*Paper_Space0
340
26
  0
ENDTAB
  0
ENDSEC
  0
SECTION
  2
BLOCKS
  0
BLOCK
  5
20
330
1F
100
AcDbEntity
  8
0
100
AcDbBlockBegin
  2
*Model_Space
 70
     0
 10
0.0
 20
0.0
 30
0.0
  3
*Model_Space
  1

  0
ENDBLK
  5
21
330
1F
100
AcDbEntity
  8
0
100
AcDbBlockEnd
  0
BLOCK
  5
1C
330
1B
100
AcDbEntity
 67
     1
  8
0
100
AcDbBlockBegin
  2
*Paper_Space
 70
     0
 10
0.0
 20
0.0
 30
0.0
  3
*Paper_Space
  1

  0
ENDBLK
  5
1D
330
1B
100
AcDbEntity
 67
     1
  8
0
100
AcDbBlockEnd
  0
BLOCK
  5
24
330
23
100
AcDbEntity
  8
0
100
AcDbBlockBegin
  2
*Paper_Space0
 70
     0
 10
0.0
 20
0.0
 30
0.0
  3
*Paper_Space0
  1

  0
ENDBLK
  5
25
330
23
100
AcDbEntity
  8
0
100
AcDbBlockEnd
  0
ENDSEC
  0
SECTION
  2
ENTITIES
  0
CIRCLE
  5
73
330
1F
100
AcDbEntity
  8
0
  6
Continuous
 62
     7
100
AcDbCircle
 10
9842.4332284867
 20
5058.2666754679
 30
0.0
 40
3.0
  0
CIRCLE
  5
74
330
1F
100
AcDbEntity
  8
0
  6
Continuous
 62
     7
100
AcDbCircle
 10
9842.4332284867
 20
4838.2666754679
 30
0.0
 40
3.0
  0
CIRCLE
  5
75
330
1F
100
AcDbEntity
  8
0
  6
Continuous
 62
     7
100
AcDbCircle
 10
9577.8332284867
 20
4838.2666754679
 30
0.0
 40
3.0
  0
CIRCLE
  5
76
330
1F
100
AcDbEntity
  8
0
  6
Continuous
 62
     7
100
AcDbCircle
 10
9577.8332284867
 20
5058.2666754679
 30
0.0
 40
3.0
  0
ARC
  5
77
330
1F
100
AcDbEntity
  8
0
  6
Continuous
 62
     7
100
AcDbCircle
 10
11231.41271056
 20
5090.2166754548
 30
0.0
 40
1.95000000000123
100
AcDbArc
 50
270.0002666178
 51
314.9999999765
  0
ARC
  5
78
330
1F
100
AcDbEntity
  8
0
  6
Continuous
 62
     7
100
AcDbCircle
 10
11012.1719802108
 20
5607.2830746482
 30
0.0
 40
1.950000000001646
100
AcDbArc
 50
70.0000336361
 51
180.000722583
  0
ARC
  5
79
330
1F
100
AcDbEntity
  8
0
  6
Continuous
 62
     7
100
AcDbCircle
 10
11217.2222216396
 20
5481.5171124672
 30
0.0
 40
49.99999999999957
100
AcDbArc
 50
0.0000205157
 51
69.9999993492
  0
ARC
  5
7A
330
1F
100
AcDbEntity
  8
0
  6
Continuous
 62
     7
100
AcDbCircle
 10
11265.2722216396
 20
5124.0761808883
 30
0.0
 40
1.949999999997181
100
AcDbArc
 50
314.9997992693
 51
359.9999198061
  0
ARC
  5
7B
330
1F
100
AcDbEntity
  8
0
  6
Continuous
 62
     7
100
AcDbCircle
 10
11267.9722128181
 20
5226.0184591674
 30
0.0
 40
2.250000000000973
100
AcDbArc
 50
0.0002193078
 51
109.4710701872
  0
ARC
  5
7C
330
1F
100
AcDbEntity
  8
0
  6
Continuous
 62
     7
100
AcDbCircle
 10
11267.9722128181
 20
5226.0184591674
 30
0.0
 40
0.7500044108499814
100
AcDbArc
 50
0.0006579194
 51
179.999849552
  0
ARC
  5
7D
330
1F
100
AcDbEntity
  8
0
  6
Continuous
 62
     7
100
AcDbCircle
 10
9710.1332284867
 20
4252.8738156511
 30
0.0
 40
15.00000000000098
100
AcDbArc
 50
270.0
 51
298.0052543395
  0
ARC
  5
7E
330
1F
100
AcDbEntity
  8
0
  6
Continuous
 62
     7
100
AcDbCircle
 10
9710.1332284867
 20
4252.8738156511
 30
0.0
 40
15.00000000000296
100
AcDbArc
 50
335.7391704773
 51
28.0052543395
  0
ARC
  5
7F
330
1F
100
AcDbEntity
  8
0
  6
Continuous
 62
     7
100
AcDbCircle
 10
9710.1332284867
 20
4252.8738156511
 30
0.0
 40
15.00000000000059
100
AcDbArc
 50
61.9947456605
 51
84.2608295227
  0
ARC
  5
80
330
1F
100
AcDbEntity
  8
0
  6
Continuous
 62
     7
100
AcDbCircle
 10
9710.1332284867
 20
4252.8738156511
 30
0.0
 40
15.00000000000023
100
AcDbArc
 50
95.7391704773
 51
118.0052543395
  0
ARC
  5
81
330
1F
100
AcDbEntity
  8
0
  6
Continuous
 62
     7
100
AcDbCircle
 10
9710.1332284867
 20
4252.8738156511
 30
0.0
 40
15.00000000000135
100
AcDbArc
 50
151.9947456605
 51
204.2608295227
  0
ARC
  5
82
330
1F
100
AcDbEntity
  8
0
  6
Continuous
 62
     7
100
AcDbCircle
 10
9710.1332284867
 20
4252.8738156511
 30
0.0
 40
15.0
100
AcDbArc
 50
241.9947456605
 51
270.0
  0
ARC
  5
83
330
1F
100
AcDbEntity
  8
0
  6
Continuous
 62
     7
100
AcDbCircle
 10
9710.1332284867
 20
4252.8738156511
 30
0.0
 40
5.250000000000414
100
AcDbArc
 50
286.1516182809
 51
89.7251968774
  0
ARC
  5
84
330
1F
100
AcDbEntity
  8
0
  6
Continuous
 62
     7
100
AcDbCircle
 10
9710.1332284867
 20
4252.8738156511
 30
0.0
 40
5.25000000000028
100
AcDbArc
 50
106.1516182809
 51
269.7251968774
  0
ARC
  5
85
330
1F
100
AcDbEntity
  8
0
  6
Continuous
 62
     7
100
AcDbCircle
 10
9710.1332284867
 20
4252.8738156511
 30
0.0
 40
5.250000000000289
100
AcDbArc
 50
89.7251968774
 51
106.1516182809
  0
ARC
  5
86
330
1F
100
AcDbEntity
  8
0
  6
Continuous
 62
     7
100
AcDbCircle
 10
9710.1332284867
 20
4252.8738156511
 30
0.0
 40
5.250000000000414
100
AcDbArc
 50
269.7251968774
 51
286.1516182809
  0
CIRCLE
  5
87
330
1F
100
AcDbEntity
  8
0
  6
Continuous
 62
     7
100
AcDbCircle
 10
9710.1332284867
 20
4252.8738156511
 30
0.0
 40
24.5
  0
CIRCLE
  5
88
330
1F
100
AcDbEntity
  8
0
  6
Continuous
 62
     7
100
AcDbCircle
 10
9710.1332284867
 20
4252.8738156511
 30
0.0
 40
35.0
  0
CIRCLE
  5
89
330
1F
100
AcDbEntity
  8
0
  6
Continuous
 62
     7
100
AcDbCircle
 10
9710.1332284867
 20
4252.8738156511
 30
0.0
 40
22.5
  0
CIRCLE
  5
8A
330
1F
100
AcDbEntity
  8
0
  6
Continuous
 62
     7
100
AcDbCircle
 10
9710.1332284867
 20
4252.8738156511
 30
0.0
 40
21.5
  0
CIRCLE
  5
8B
330
1F
100
AcDbEntity
  8
0
  6
Continuous
 62
     7
100
AcDbCircle
 10
9710.1332284867
 20
4252.8738156511
 30
0.0
 40
19.55298992456301
  0
CIRCLE
  5
8C
330
1F
100
AcDbEntity
  8
0
  6
Continuous
 62
     7
100
AcDbCircle
 10
9710.1332284867
 20
4252.8738156511
 30
0.0
 40
6.182050807570704
  0
ARC
  5
8D
330
1F
100
AcDbEntity
  8
0
  6
Continuous
 62
     7
100
AcDbCircle
 10
9710.1332284867
 20
4252.8738156511
 30
0.0
 40
19.49999999995923
100
AcDbArc
 50
166.9496950603
 51
193.0503049397
  0
ARC
  5
8E
330
1F
100
AcDbEntity
  8
0
  6
Continuous
 62
     7
100
AcDbCircle
 10
9695.0335596161
 20
4249.3738156511
 30
0.0
 40
3.999999999971891
100
AcDbArc
 50
193.0503049397
 51
13.0503049397
  0
ARC
  5
8F
330
1F
100
AcDbEntity
  8
0
  6
Continuous
 62
     7
100
AcDbCircle
 10
9710.1332284867
 20
4252.8738156511
 30
0.0
 40
11.50000000000004
100
AcDbArc
 50
166.9496950603
 51
193.0503049397
  0
ARC
  5
90
330
1F
100
AcDbEntity
  8
0
  6
Continuous
 62
     7
100
AcDbCircle
 10
9695.0335596162
 20
4256.3738156511
 30
0.0
 40
4.000000000001475
100
AcDbArc
 50
346.9496950603
 51
166.9496950603
  0
ARC
  5
91
330
1F
100
AcDbEntity
  8
0
  6
Continuous
 62
     7
100
AcDbCircle
 10
9710.1332284867
 20
4252.8738156511
 30
0.0
 40
19.49999999995991
100
AcDbArc
 50
256.9496950603
 51
283.0503049397
  0
ARC
  5
92
330
1F
100
AcDbEntity
  8
0
  6
Continuous
 62
     7
100
AcDbCircle
 10
9713.6332284867
 20
4237.7741467805
 30
0.0
 40
3.999999999969914
100
AcDbArc
 50
283.0503049397
 51
103.0503049398
  0
ARC
  5
93
330
1F
100
AcDbEntity
  8
0
  6
Continuous
 62
     7
100
AcDbCircle
 10
9710.1332284867
 20
4252.8738156511
 30
0.0
 40
11.49999999999983
100
AcDbArc
 50
256.9496950603
 51
283.0503049397
  0
ARC
  5
94
330
1F
100
AcDbEntity
  8
0
  6
Continuous
 62
     7
100
AcDbCircle
 10
9706.6332284867
 20
4237.7741467806
 30
0.0
 40
4.000000000000795
100
AcDbArc
 50
76.9496950603
 51
256.9496950603
  0
ARC
  5
95
330
1F
100
AcDbEntity
  8
0
  6
Continuous
 62
     7
100
AcDbCircle
 10
9710.1332284867
 20
4252.8738156511
 30
0.0
 40
19.49999999996101
100
AcDbArc
 50
346.9496950603
 51
13.0503049397
  0
ARC
  5
96
330
1F
100
AcDbEntity
  8
0
  6
Continuous
 62
     7
100
AcDbCircle
 10
9725.2328973572
 20
4256.3738156511
 30
0.0
 40
3.999999999970325
100
AcDbArc
 50
13.0503049397
 51
193.0503049397
  0
ARC
  5
97
330
1F
100
AcDbEntity
  8
0
  6
Continuous
 62
     7
100
AcDbCircle
 10
9710.1332284867
 20
4252.8738156511
 30
0.0
 40
11.50000000000004
100
AcDbArc
 50
346.9496950603
 51
13.0503049397
  0
ARC
  5
98
330
1F
100
AcDbEntity
  8
0
  6
Continuous
 62
     7
100
AcDbCircle
 10
9725.2328973572
 20
4249.3738156511
 30
0.0
 40
4.000000000001475
100
AcDbArc
 50
166.9496950603
 51
346.9496950603
  0
ARC
  5
99
330
1F
100
AcDbEntity
  8
0
  6
Continuous
 62
     7
100
AcDbCircle
 10
9710.1332284867
 20
4252.8738156511
 30
0.0
 40
19.50000000008572
100
AcDbArc
 50
76.9496950604
 51
103.0503049396
  0
ARC
  5
9A
330
1F
100
AcDbEntity
  8
0
  6
Continuous
 62
     7
100
AcDbCircle
 10
9706.6332284866
 20
4267.9734845217
 30
0.0
 40
4.000000000015575
100
AcDbArc
 50
103.0503049395
 51
283.0503049395
  0
ARC
  5
9B
330
1F
100
AcDbEntity
  8
0
  6
Continuous
 62
     7
100
AcDbCircle
 10
9710.1332284867
 20
4252.8738156511
 30
0.0
 40
11.50000000005572
100
AcDbArc
 50
76.9496950604
 51
103.0503049397
  0
ARC
  5
9C
330
1F
100
AcDbEntity
  8
0
  6
Continuous
 62
     7
100
AcDbCircle
 10
9713.6332284867
 20
4267.9734845217
 30
0.0
 40
4.000000000001681
100
AcDbArc
 50
256.9496950603
 51
76.9496950603
  0
CIRCLE
  5
9D
330
1F
100
AcDbEntity
  8
0
  6
Continuous
 62
     7
100
AcDbCircle
 10
9710.1332284867
 20
4252.8738156511
 30
0.0
 40
5.682050807568885
  0
ARC
  5
9E
330
1F
100
AcDbEntity
  8
0
  6
Continuous
 62
     7
100
AcDbCircle
 10
9110.1332344472
 20
4364.1241542414
 30
0.0
 40
27.00000000000268
100
AcDbArc
 50
207.8409954059
 51
332.1590045941
  0
ARC
  5
9F
330
1F
100
AcDbEntity
  8
0
  6
Continuous
 62
     7
100
AcDbCircle
 10
10310.1332225262
 20
4364.1241542414
 30
0.0
 40
27.00000000000225
100
AcDbArc
 50
207.8409954059
 51
332.1590045942
  0
ARC
  5
A0
330
1F
100
AcDbEntity
  8
0
  6
Continuous
 62
     7
100
AcDbCircle
 10
9710.1332284867
 20
4364.1241507146
 30
0.0
 40
27.00000000000196
100
AcDbArc
 50
207.840986942
 51
332.159013058
  0
ARC
  5
A1
330
1F
100
AcDbEntity
  8
0
  6
Continuous
 62
     7
100
AcDbCircle
 10
9110.1332344472
 20
5528.2666804294
 30
0.0
 40
25.00000000000206
100
AcDbArc
 50
17.2563813775
 51
162.7436186225
  0
ARC
  5
A2
330
1F
100
AcDbEntity
  8
0
  6
Continuous
 62
     7
100
AcDbCircle
 10
9110.1332344472
 20
5528.2666804294
 30
0.0
 40
25.00000000001096
100
AcDbArc
 50
197.2563813776
 51
342.7436186224
  0
ARC
  5
A3
330
1F
100
AcDbEntity
  8
0
  6
Continuous
 62
     7
100
AcDbCircle
 10
9710.1332284867
 20
5528.2666744329
 30
0.0
 40
25.00000000000032
100
AcDbArc
 50
17.2563813775
 51
162.7436186225
  0
ARC
  5
A4
330
1F
100
AcDbEntity
  8
0
  6
Continuous
 62
     7
100
AcDbCircle
 10
9710.1332284867
 20
5528.2666744329
 30
0.0
 40
25.0000000000095
100
AcDbArc
 50
197.2563813776
 51
342.7436186224
  0
ARC
  5
A5
330
1F
100
AcDbEntity
  8
0
  6
Continuous
 62
     7
100
AcDbCircle
 10
10310.1332225262
 20
5528.2666804294
 30
0.0
 40
25.00000000000206
100
AcDbArc
 50
17.2563813775
 51
162.7436186225
  0
ARC
  5
A6
330
1F
100
AcDbEntity
  8
0
  6
Continuous
 62
     7
100
AcDbCircle
 10
10310.1332225262
 20
5528.2666804294
 30
0.0
 40
25.00000000001096
100
AcDbArc
 50
197.2563813776
 51
342.7436186224
  0
LINE
  5
A7
330
1F
100
AcDbEntity
  8
0
  6
Continuous
 62
     7
100
AcDbLine
 10
10610.1332046448
 20
5609.2330756144
 30
0.0
 11
10608.6332537591
 21
5609.2330756144
 31
0.0
  0
LINE
  5
A8
330
1F
100
AcDbEntity
  8
0
  6
Continuous
 62
     7
100
AcDbLine
 10
8811.6332032143
 20
5609.2330756144
 30
0.0
 11
8810.1332523286
 21
5609.2330756144
 31
0.0
  0
LINE
  5
A9
330
1F
100
AcDbEntity
  8
0
  6
Continuous
 62
     7
100
AcDbLine
 10
10608.6332537591
 20
5228.2684537129
 30
0.0
 11
8811.6332032143
 21
5228.2684537129
 31
0.0
  0
LINE
  5
AA
330
1F
100
AcDbEntity
  8
0
  6
Continuous
 62
     7
100
AcDbLine
 10
10608.6332537591
 20
5609.2330756144
 30
0.0
 11
8811.6332032143
 21
5609.2330756144
 31
0.0
  0
LINE
  5
AB
330
1F
100
AcDbEntity
  8
0
  6
Continuous
 62
     7
100
AcDbLine
 10
10610.1332046448
 20
5124.076178159
 30
0.0
 11
10608.6332537591
 21
5124.076178159
 31
0.0
  0
LINE
  5
AC
330
1F
100
AcDbEntity
  8
0
  6
Continuous
 62
     7
100
AcDbLine
 10
10610.1332046448
 20
5122.6973178343
 30
0.0
 11
10610.1332046448
 21
5124.076178159
 31
0.0
  0
LINE
  5
AD
330
1F
100
AcDbEntity
  8
0
  6
Continuous
 62
     7
100
AcDbLine
 10
10610.1332046448
 20
5122.6973178343
 30
0.0
 11
10608.6332537591
 21
5122.6973178343
 31
0.0
  0
LINE
  5
AE
330
1F
100
AcDbEntity
  8
0
  6
Continuous
 62
     7
100
AcDbLine
 10
10608.6332537591
 20
5122.6973178343
 30
0.0
 11
10608.6332537591
 21
5124.076178159
 31
0.0
  0
LINE
  5
AF
330
1F
100
AcDbEntity
  8
0
  6
Continuous
 62
     7
100
AcDbLine
 10
10610.1332046448
 20
5481.5171303706
 30
0.0
 11
10608.6332537591
 21
5481.5171303706
 31
0.0
  0
LINE
  5
B0
330
1F
100
AcDbEntity
  8
0
  6
Continuous
 62
     7
100
AcDbLine
 10
10610.1332046448
 20
5124.076178159
 30
0.0
 11
10610.1332046448
 21
5481.5171303706
 31
0.0
  0
LINE
  5
B1
330
1F
100
AcDbEntity
  8
0
  6
Continuous
 62
     7
100
AcDbLine
 10
10608.6332537591
 20
5124.076178159
 30
0.0
 11
10608.6332537591
 21
5212.8684612469
 31
0.0
  0
LINE
  5
B2
330
1F
100
AcDbEntity
  8
0
  6
Continuous
 62
     7
100
AcDbLine
 10
10608.6332537591
 20
5228.2684537129
 30
0.0
 11
10608.6332537591
 21
5481.5171303706
 31
0.0
  0
LINE
  5
B3
330
1F
100
AcDbEntity
  8
0
  6
Continuous
 62
     7
100
AcDbLine
 10
10610.1332046448
 20
5528.5017433123
 30
0.0
 11
10608.6332537591
 21
5528.5017433123
 31
0.0
  0
LINE
  5
B4
330
1F
100
AcDbEntity
  8
0
  6
Continuous
 62
     7
100
AcDbLine
 10
10610.1332046448
 20
5481.5171303706
 30
0.0
 11
10610.1332046448
 21
5528.5017433123
 31
0.0
  0
LINE
  5
B5
330
1F
100
AcDbEntity
  8
0
  6
Continuous
 62
     7
100
AcDbLine
 10
10608.6332537591
 20
5481.5171303706
 30
0.0
 11
10608.6332537591
 21
5528.5017433123
 31
0.0
  0
LINE
  5
B6
330
1F
100
AcDbEntity
  8
0
  6
Continuous
 62
     7
100
AcDbLine
 10
10610.1332046448
 20
5088.837817231
 30
0.0
 11
10608.6332537591
 21
5088.837817231
 31
0.0
  0
LINE
  5
B7
330
1F
100
AcDbEntity
  8
0
  6
Continuous
 62
     7
100
AcDbLine
 10
10610.1332046448
 20
5088.837817231
 30
0.0
 11
10610.1332046448
 21
5122.6973178343
 31
0.0
  0
LINE
  5
B8
330
1F
100
AcDbEntity
  8
0
  6
Continuous
 62
     7
100
AcDbLine
 10
10608.6332537591
 20
5088.837817231
 30
0.0
 11
10608.6332537591
 21
5122.6973178343
 31
0.0
  0
LINE
  5
B9
330
1F
100
AcDbEntity
  8
0
  6
Continuous
 62
     7
100
AcDbLine
 10
10610.1332046448
 20
5609.1154756503
 30
0.0
 11
10608.6332537591
 21
5609.1154756503
 31
0.0
  0
LINE
  5
BA
330
1F
100
AcDbEntity
  8
0
  6
Continuous
 62
     7
100
AcDbLine
 10
10610.1332046448
 20
5528.5017433123
 30
0.0
 11
10610.1332046448
 21
5609.1154756503
 31
0.0
  0
LINE
  5
BB
330
1F
100
AcDbEntity
  8
0
  6
Continuous
 62
     7
100
AcDbLine
 10
10608.6332537591
 20
5528.5017433123
 30
0.0
 11
10608.6332537591
 21
5609.1154756503
 31
0.0
  0
LINE
  5
BC
330
1F
100
AcDbEntity
  8
0
  6
Continuous
 62
     7
100
AcDbLine
 10
10610.1332046448
 20
5088.2666754549
 30
0.0
 11
10608.6332537591
 21
5088.2666754549
 31
0.0
  0
LINE
  5
BD
330
1F
100
AcDbEntity
  8
0
  6
Continuous
 62
     7
100
AcDbLine
 10
10610.1332046448
 20
5088.2666754549
 30
0.0
 11
10610.1332046448
 21
5088.837817231
 31
0.0
  0
LINE
  5
BE
330
1F
100
AcDbEntity
  8
0
  6
Continuous
 62
     7
100
AcDbLine
 10
10608.6332537591
 20
5088.2666754549
 30
0.0
 11
10608.6332537591
 21
5088.837817231
 31
0.0
  0
LINE
  5
BF
330
1F
100
AcDbEntity
  8
0
  6
Continuous
 62
     7
100
AcDbLine
 10
10610.1332046448
 20
5609.1154756503
 30
0.0
 11
10610.1332046448
 21
5609.2330756144
 31
0.0
  0
LINE
  5
C0
330
1F
100
AcDbEntity
  8
0
  6
Continuous
 62
     7
100
AcDbLine
 10
10608.6332537591
 20
5609.1154756503
 30
0.0
 11
10608.6332537591
 21
5609.2330756144
 31
0.0
  0
LINE
  5
C1
330
1F
100
AcDbEntity
  8
0
  6
Continuous
 62
     7
100
AcDbLine
 10
9826.3832293808
 20
4808.2666637854
 30
0.0
 11
9826.3832293808
 21
5088.2666754549
 31
0.0
  0
LINE
  5
C2
330
1F
100
AcDbEntity
  8
0
  6
Continuous
 62
     7
100
AcDbLine
 10
9593.8832275926
 20
4808.2666637854
 30
0.0
 11
9826.3832293808
 21
4808.2666637854
 31
0.0
  0
LINE
  5
C3
330
1F
100
AcDbEntity
  8
0
  6
Continuous
 62
     7
100
AcDbLine
 10
9593.8832275926
 20
4808.2666637854
 30
0.0
 11
9593.8832275926
 21
5088.2666754549
 31
0.0
  0
LINE
  5
C4
330
1F
100
AcDbEntity
  8
0
  6
Continuous
 62
     7
100
AcDbLine
 10
9827.6332281887
 20
4808.2666637854
 30
0.0
 11
9827.6332281887
 21
5088.2666754549
 31
0.0
  0
LINE
  5
C5
330
1F
100
AcDbEntity
  8
0
  6
Continuous
 62
     7
100
AcDbLine
 10
9826.3832293808
 20
4808.2666637854
 30
0.0
 11
9827.6332281887
 21
4808.2666637854
 31
0.0
  0
LINE
  5
C6
330
1F
100
AcDbEntity
  8
0
  6
Continuous
 62
     7
100
AcDbLine
 10
9592.6332287847
 20
4808.2666637854
 30
0.0
 11
9593.8832275926
 21
4808.2666637854
 31
0.0
  0
LINE
  5
C7
330
1F
100
AcDbEntity
  8
0
  6
Continuous
 62
     7
100
AcDbLine
 10
9592.6332287847
 20
4808.2666637854
 30
0.0
 11
9592.6332287847
 21
5088.2666754549
 31
0.0
  0
LINE
  5
C8
330
1F
100
AcDbEntity
  8
0
  6
Continuous
 62
     7
100
AcDbLine
 10
9828.0832283556
 20
4808.2666637854
 30
0.0
 11
9828.0832283556
 21
5088.2666754549
 31
0.0
  0
LINE
  5
C9
330
1F
100
AcDbEntity
  8
0
  6
Continuous
 62
     7
100
AcDbLine
 10
9827.6332281887
 20
4808.2666637854
 30
0.0
 11
9828.0832283556
 21
4808.2666637854
 31
0.0
  0
LINE
  5
CA
330
1F
100
AcDbEntity
  8
0
  6
Continuous
 62
     7
100
AcDbLine
 10
9592.1832286178
 20
4808.2666637854
 30
0.0
 11
9592.1832286178
 21
5088.2666754549
 31
0.0
  0
LINE
  5
CB
330
1F
100
AcDbEntity
  8
0
  6
Continuous
 62
     7
100
AcDbLine
 10
9592.1832286178
 20
4808.2666637854
 30
0.0
 11
9592.6332287847
 21
4808.2666637854
 31
0.0
  0
LINE
  5
CC
330
1F
100
AcDbEntity
  8
0
  6
Continuous
 62
     7
100
AcDbLine
 10
9857.8332253157
 20
4808.2666637854
 30
0.0
 11
9857.8332253157
 21
5088.2666754549
 31
0.0
  0
LINE
  5
CD
330
1F
100
AcDbEntity
  8
0
  6
Continuous
 62
     7
100
AcDbLine
 10
9828.0832283556
 20
4808.2666637854
 30
0.0
 11
9857.8332253157
 21
4808.2666637854
 31
0.0
  0
LINE
  5
CE
330
1F
100
AcDbEntity
  8
0
  6
Continuous
 62
     7
100
AcDbLine
 10
9562.4332316577
 20
4808.2666637854
 30
0.0
 11
9592.1832286178
 21
4808.2666637854
 31
0.0
  0
LINE
  5
CF
330
1F
100
AcDbEntity
  8
0
  6
Continuous
 62
     7
100
AcDbLine
 10
9562.4332316577
 20
4808.2666637854
 30
0.0
 11
9562.4332316577
 21
5088.2666754549
 31
0.0
  0
LINE
  5
D0
330
1F
100
AcDbEntity
  8
0
  6
Continuous
 62
     7
100
AcDbLine
 10
8810.1332523286
 20
5122.6973178343
 30
0.0
 11
8811.6332032143
 21
5122.6973178343
 31
0.0
  0
LINE
  5
D1
330
1F
100
AcDbEntity
  8
0
  6
Continuous
 62
     7
100
AcDbLine
 10
8810.1332523286
 20
5122.6973178343
 30
0.0
 11
8810.1332523286
 21
5124.076178159
 31
0.0
  0
LINE
  5
D2
330
1F
100
AcDbEntity
  8
0
  6
Continuous
 62
     7
100
AcDbLine
 10
8810.1332523286
 20
5124.076178159
 30
0.0
 11
8811.6332032143
 21
5124.076178159
 31
0.0
  0
LINE
  5
D3
330
1F
100
AcDbEntity
  8
0
  6
Continuous
 62
     7
100
AcDbLine
 10
8811.6332032143
 20
5122.6973178343
 30
0.0
 11
8811.6332032143
 21
5124.076178159
 31
0.0
  0
LINE
  5
D4
330
1F
100
AcDbEntity
  8
0
  6
Continuous
 62
     7
100
AcDbLine
 10
8810.1332523286
 20
5124.076178159
 30
0.0
 11
8810.1332523286
 21
5481.5171303706
 31
0.0
  0
LINE
  5
D5
330
1F
100
AcDbEntity
  8
0
  6
Continuous
 62
     7
100
AcDbLine
 10
8810.1332523286
 20
5481.5171303706
 30
0.0
 11
8811.6332032143
 21
5481.5171303706
 31
0.0
  0
LINE
  5
D6
330
1F
100
AcDbEntity
  8
0
  6
Continuous
 62
     7
100
AcDbLine
 10
8811.6332032143
 20
5124.076178159
 30
0.0
 11
8811.6332032143
 21
5212.8684612469
 31
0.0
  0
LINE
  5
D7
330
1F
100
AcDbEntity
  8
0
  6
Continuous
 62
     7
100
AcDbLine
 10
8811.6332032143
 20
5228.2684537129
 30
0.0
 11
8811.6332032143
 21
5481.5171303706
 31
0.0
  0
LINE
  5
D8
330
1F
100
AcDbEntity
  8
0
  6
Continuous
 62
     7
100
AcDbLine
 10
8810.1332523286
 20
5528.5017433123
 30
0.0
 11
8811.6332032143
 21
5528.5017433123
 31
0.0
  0
LINE
  5
D9
330
1F
100
AcDbEntity
  8
0
  6
Continuous
 62
     7
100
AcDbLine
 10
8810.1332523286
 20
5481.5171303706
 30
0.0
 11
8810.1332523286
 21
5528.5017433123
 31
0.0
  0
LINE
  5
DA
330
1F
100
AcDbEntity
  8
0
  6
Continuous
 62
     7
100
AcDbLine
 10
8811.6332032143
 20
5481.5171303706
 30
0.0
 11
8811.6332032143
 21
5528.5017433123
 31
0.0
  0
LINE
  5
DB
330
1F
100
AcDbEntity
  8
0
  6
Continuous
 62
     7
100
AcDbLine
 10
8810.1332523286
 20
5088.837817231
 30
0.0
 11
8811.6332032143
 21
5088.837817231
 31
0.0
  0
LINE
  5
DC
330
1F
100
AcDbEntity
  8
0
  6
Continuous
 62
     7
100
AcDbLine
 10
8810.1332523286
 20
5088.837817231
 30
0.0
 11
8810.1332523286
 21
5122.6973178343
 31
0.0
  0
LINE
  5
DD
330
1F
100
AcDbEntity
  8
0
  6
Continuous
 62
     7
100
AcDbLine
 10
8811.6332032143
 20
5088.837817231
 30
0.0
 11
8811.6332032143
 21
5122.6973178343
 31
0.0
  0
LINE
  5
DE
330
1F
100
AcDbEntity
  8
0
  6
Continuous
 62
     7
100
AcDbLine
 10
8810.1332523286
 20
5609.1154756503
 30
0.0
 11
8811.6332032143
 21
5609.1154756503
 31
0.0
  0
LINE
  5
DF
330
1F
100
AcDbEntity
  8
0
  6
Continuous
 62
     7
100
AcDbLine
 10
8810.1332523286
 20
5528.5017433123
 30
0.0
 11
8810.1332523286
 21
5609.1154756503
 31
0.0
  0
LINE
  5
E0
330
1F
100
AcDbEntity
  8
0
  6
Continuous
 62
     7
100
AcDbLine
 10
8811.6332032143
 20
5528.5017433123
 30
0.0
 11
8811.6332032143
 21
5609.1154756503
 31
0.0
  0
LINE
  5
E1
330
1F
100
AcDbEntity
  8
0
  6
Continuous
 62
     7
100
AcDbLine
 10
8810.1332523286
 20
5088.2666754549
 30
0.0
 11
8811.6332032143
 21
5088.2666754549
 31
0.0
  0
LINE
  5
E2
330
1F
100
AcDbEntity
  8
0
  6
Continuous
 62
     7
100
AcDbLine
 10
8810.1332523286
 20
5088.2666754549
 30
0.0
 11
8810.1332523286
 21
5088.837817231
 31
0.0
  0
LINE
  5
E3
330
1F
100
AcDbEntity
  8
0
  6
Continuous
 62
     7
100
AcDbLine
 10
8811.6332032143
 20
5088.2666754549
 30
0.0
 11
8811.6332032143
 21
5088.837817231
 31
0.0
  0
LINE
  5
E4
330
1F
100
AcDbEntity
  8
0
  6
Continuous
 62
     7
100
AcDbLine
 10
8810.1332523286
 20
5609.1154756503
 30
0.0
 11
8810.1332523286
 21
5609.2330756144
 31
0.0
  0
LINE
  5
E5
330
1F
100
AcDbEntity
  8
0
  6
Continuous
 62
     7
100
AcDbLine
 10
8811.6332032143
 20
5609.1154756503
 30
0.0
 11
8811.6332032143
 21
5609.2330756144
 31
0.0
  0
LINE
  5
E6
330
1F
100
AcDbEntity
  8
0
  6
Continuous
 62
     7
100
AcDbLine
 10
10608.6332537591
 20
5226.0184677796
 30
0.0
 11
8811.6332032143
 21
5226.0184677796
 31
0.0
  0
LINE
  5
E7
330
1F
100
AcDbEntity
  8
0
  6
Continuous
 62
     7
100
AcDbLine
 10
10608.6332537591
 20
5212.8684612469
 30
0.0
 11
8811.6332032143
 21
5212.8684612469
 31
0.0
  0
LINE
  5
E8
330
1F
100
AcDbEntity
  8
0
  6
Continuous
 62
     7
100
AcDbLine
 10
10608.6332537591
 20
5212.8684612469
 30
0.0
 11
10608.6332537591
 21
5226.0184677796
 31
0.0
  0
LINE
  5
E9
330
1F
100
AcDbEntity
  8
0
  6
Continuous
 62
     7
100
AcDbLine
 10
8811.6332032143
 20
5212.8684612469
 30
0.0
 11
8811.6332032143
 21
5226.0184677796
 31
0.0
  0
LINE
  5
EA
330
1F
100
AcDbEntity
  8
0
  6
Continuous
 62
     7
100
AcDbLine
 10
8811.6332032143
 20
5226.0184677796
 30
0.0
 11
8811.6332032143
 21
5228.2684537129
 31
0.0
  0
LINE
  5
EB
330
1F
100
AcDbEntity
  8
0
  6
Continuous
 62
     7
100
AcDbLine
 10
10608.6332537591
 20
5226.0184677796
 30
0.0
 11
10608.6332537591
 21
5228.2684537129
 31
0.0
  0
LINE
  5
EC
330
1F
100
AcDbEntity
  8
0
  6
Continuous
 62
     7
100
AcDbLine
 10
10608.6332537591
 20
5124.076178159
 30
0.0
 11
8811.6332032143
 21
5124.076178159
 31
0.0
  0
LINE
  5
ED
330
1F
100
AcDbEntity
  8
0
  6
Continuous
 62
     7
100
AcDbLine
 10
10608.6332537591
 20
5122.6973178343
 30
0.0
 11
8811.6332032143
 21
5122.6973178343
 31
0.0
  0
LINE
  5
EE
330
1F
100
AcDbEntity
  8
0
  6
Continuous
 62
     7
100
AcDbLine
 10
10608.6332537591
 20
5088.837817231
 30
0.0
 11
8811.6332032143
 21
5088.837817231
 31
0.0
  0
LINE
  5
EF
330
1F
100
AcDbEntity
  8
0
  6
Continuous
 62
     7
100
AcDbLine
 10
10608.6332537591
 20
5088.2666754549
 30
0.0
 11
8811.6332032143
 21
5088.2666754549
 31
0.0
  0
LINE
  5
F0
330
1F
100
AcDbEntity
  8
0
  6
Continuous
 62
     7
100
AcDbLine
 10
10608.6332537591
 20
5591.5960612254
 30
0.0
 11
8811.6332032143
 21
5591.5960612254
 31
0.0
  0
LINE
  5
F1
330
1F
100
AcDbEntity
  8
0
  6
Continuous
 62
     7
100
AcDbLine
 10
10608.6332537591
 20
5593.4284868197
 30
0.0
 11
8811.6332032143
 21
5593.4284868197
 31
0.0
  0
LINE
  5
F2
330
1F
100
AcDbEntity
  8
0
  6
Continuous
 62
     7
100
AcDbLine
 10
10608.6332537591
 20
5609.1154756503
 30
0.0
 11
8811.6332032143
 21
5609.1154756503
 31
0.0
  0
LINE
  5
F3
330
1F
100
AcDbEntity
  8
0
  6
Continuous
 62
     7
100
AcDbLine
 10
10608.6332537591
 20
5593.4284868197
 30
0.0
 11
10608.6332537591
 21
5609.1154756503
 31
0.0
  0
LINE
  5
F4
330
1F
100
AcDbEntity
  8
0
  6
Continuous
 62
     7
100
AcDbLine
 10
8811.6332032143
 20
5593.4284868197
 30
0.0
 11
8811.6332032143
 21
5609.1154756503
 31
0.0
  0
LINE
  5
F5
330
1F
100
AcDbEntity
  8
0
  6
Continuous
 62
     7
100
AcDbLine
 10
9698.1332283824
 20
5099.3737083407
 30
0.0
 11
9722.133228591
 21
5099.3737083407
 31
0.0
  0
LINE
  5
F6
330
1F
100
AcDbEntity
  8
0
  6
Continuous
 62
     7
100
AcDbLine
 10
9698.1332283824
 20
5102.9092425959
 30
0.0
 11
9698.1332283824
 21
5099.3737083407
 31
0.0
  0
LINE
  5
F7
330
1F
100
AcDbEntity
  8
0
  6
Continuous
 62
     7
100
AcDbLine
 10
9722.133228591
 20
5102.9092425959
 30
0.0
 11
9698.1332283824
 21
5102.9092425959
 31
0.0
  0
LINE
  5
F8
330
1F
100
AcDbEntity
  8
0
  6
Continuous
 62
     7
100
AcDbLine
 10
9722.133228591
 20
5099.3737083407
 30
0.0
 11
9722.133228591
 21
5102.9092425959
 31
0.0
  0
LINE
  5
F9
330
1F
100
AcDbEntity
  8
0
  6
Continuous
 62
     7
100
AcDbLine
 10
9702.2522185355
 20
5101.8485816674
 30
0.0
 11
9702.5178438409
 21
5100.4343683378
 31
0.0
  0
LINE
  5
FA
330
1F
100
AcDbEntity
  8
0
  6
Continuous
 62
     7
100
AcDbLine
 10
9702.2261768936
 20
5101.8485816674
 30
0.0
 11
9702.2522185355
 21
5101.8485816674
 31
0.0
  0
LINE
  5
FB
330
1F
100
AcDbEntity
  8
0
  6
Continuous
 62
     7
100
AcDbLine
 10
9701.4024593293
 20
5100.6882012369
 30
0.0
 11
9702.2261768936
 21
5101.8485816674
 31
0.0
  0
LINE
  5
FC
330
1F
100
AcDbEntity
  8
0
  6
Continuous
 62
     7
100
AcDbLine
 10
9700.5767384901
 20
5101.8485816674
 30
0.0
 11
9701.4024593293
 21
5100.6882012369
 31
0.0
  0
LINE
  5
FD
330
1F
100
AcDbEntity
  8
0
  6
Continuous
 62
     7
100
AcDbLine
 10
9700.551097317
 20
5101.8485816674
 30
0.0
 11
9700.5767384901
 21
5101.8485816674
 31
0.0
  0
LINE
  5
FE
330
1F
100
AcDbEntity
  8
0
  6
Continuous
 62
     7
100
AcDbLine
 10
9700.2870748176
 20
5100.4343683378
 30
0.0
 11
9700.551097317
 21
5101.8485816674
 31
0.0
  0
LINE
  5
FF
330
1F
100
AcDbEntity
  8
0
  6
Continuous
 62
     7
100
AcDbLine
 10
9704.7906802393
 20
5101.8485816674
 30
0.0
 11
9705.0563055447
 21
5100.4343683378
 31
0.0
  0
LINE
  5
100
330
1F
100
AcDbEntity
  8
0
  6
Continuous
 62
     7
100
AcDbLine
 10
9704.7646385974
 20
5101.8485816674
 30
0.0
 11
9704.7906802393
 21
5101.8485816674
 31
0.0
  0
LINE
  5
101
330
1F
100
AcDbEntity
  8
0
  6
Continuous
 62
     7
100
AcDbLine
 10
9703.9409205674
 20
5100.6882012369
 30
0.0
 11
9704.7646385974
 21
5101.8485816674
 31
0.0
  0
LINE
  5
102
330
1F
100
AcDbEntity
  8
0
  6
Continuous
 62
     7
100
AcDbLine
 10
9703.1151997282
 20
5101.8485816674
 30
0.0
 11
9703.9409205674
 21
5100.6882012369
 31
0.0
  0
LINE
  5
103
330
1F
100
AcDbEntity
  8
0
  6
Continuous
 62
     7
100
AcDbLine
 10
9703.0895585551
 20
5101.8485816674
 30
0.0
 11
9703.1151997282
 21
5101.8485816674
 31
0.0
  0
LINE
  5
104
330
1F
100
AcDbEntity
  8
0
  6
Continuous
 62
     7
100
AcDbLine
 10
9702.8255360558
 20
5100.4343683378
 30
0.0
 11
9703.0895585551
 21
5101.8485816674
 31
0.0
  0
LINE
  5
105
330
1F
100
AcDbEntity
  8
0
  6
Continuous
 62
     7
100
AcDbLine
 10
9705.312715879
 20
5100.2349284024
 30
0.0
 11
9706.1492540299
 21
5101.8848436431
 31
0.0
  0
LINE
  5
106
330
1F
100
AcDbEntity
  8
0
  6
Continuous
 62
     7
100
AcDbLine
 10
9706.1492540299
 20
5101.8848436431
 30
0.0
 11
9706.3383567504
 21
5101.8848436431
 31
0.0
  0
LINE
  5
107
330
1F
100
AcDbEntity
  8
0
  6
Continuous
 62
     7
100
AcDbLine
 10
9707.2259190384
 20
5101.0809055076
 30
0.0
 11
9707.953741344
 21
5100.4343683378
 31
0.0
  0
LINE
  5
108
330
1F
100
AcDbEntity
  8
0
  6
Continuous
 62
     7
100
AcDbLine
 10
9706.6716901384
 20
5101.8485816674
 30
0.0
 11
9707.0719304386
 21
5101.8485816674
 31
0.0
  0
LINE
  5
109
330
1F
100
AcDbEntity
  8
0
  6
Continuous
 62
     7
100
AcDbLine
 10
9708.9182268021
 20
5101.0809055076
 30
0.0
 11
9709.6460489913
 21
5100.4343683378
 31
0.0
  0
LINE
  5
10A
330
1F
100
AcDbEntity
  8
0
  6
Continuous
 62
     7
100
AcDbLine
 10
9708.3639976693
 20
5101.8485816674
 30
0.0
 11
9708.7642380859
 21
5101.8485816674
 31
0.0
  0
LINE
  5
10B
330
1F
100
AcDbEntity
  8
0
  6
Continuous
 62
     7
100
AcDbLine
 10
9710.6460489806
 20
5101.0508200632
 30
0.0
 11
9711.4152798088
 21
5101.0508200632
 31
0.0
  0
LINE
  5
10C
330
1F
100
AcDbEntity
  8
0
  6
Continuous
 62
     7
100
AcDbLine
 10
9712.3511771563
 20
5100.4343683378
 30
0.0
 11
9713.0010209869
 21
5101.1521041871
 31
0.0
  0
LINE
  5
10D
330
1F
100
AcDbEntity
  8
0
  6
Continuous
 62
     7
100
AcDbLine
 10
9713.2145525313
 20
5101.1521041871
 30
0.0
 11
9713.8639977559
 21
5100.4343683378
 31
0.0
  0
LINE
  5
10E
330
1F
100
AcDbEntity
  8
0
  6
Continuous
 62
     7
100
AcDbLine
 10
9713.6312253199
 20
5101.8485816674
 30
0.0
 11
9713.8383565827
 21
5101.8485816674
 31
0.0
  0
LINE
  5
10F
330
1F
100
AcDbEntity
  8
0
  6
Continuous
 62
     7
100
AcDbLine
 10
9713.1075875725
 20
5101.2700915815
 30
0.0
 11
9713.6312253199
 21
5101.8485816674
 31
0.0
  0
LINE
  5
110
330
1F
100
AcDbEntity
  8
0
  6
Continuous
 62
     7
100
AcDbLine
 10
9712.5839495923
 20
5101.8485816674
 30
0.0
 11
9713.1075875725
 21
5101.2700915815
 31
0.0
  0
LINE
  5
111
330
1F
100
AcDbEntity
  8
0
  6
Continuous
 62
     7
100
AcDbLine
 10
9712.3768183294
 20
5101.8485816674
 30
0.0
 11
9712.5839495923
 21
5101.8485816674
 31
0.0
  0
LINE
  5
112
330
1F
100
AcDbEntity
  8
0
  6
Continuous
 62
     7
100
AcDbLine
 10
9714.0434850364
 20
5100.4343683378
 30
0.0
 11
9714.693328867
 21
5101.1521041871
 31
0.0
  0
LINE
  5
113
330
1F
100
AcDbEntity
  8
0
  6
Continuous
 62
     7
100
AcDbLine
 10
9714.9068601786
 20
5101.1521041871
 30
0.0
 11
9715.5563054032
 21
5100.4343683378
 31
0.0
  0
LINE
  5
114
330
1F
100
AcDbEntity
  8
0
  6
Continuous
 62
     7
100
AcDbLine
 10
9715.3235329672
 20
5101.8485816674
 30
0.0
 11
9715.5306642301
 21
5101.8485816674
 31
0.0
  0
LINE
  5
115
330
1F
100
AcDbEntity
  8
0
  6
Continuous
 62
     7
100
AcDbLine
 10
9714.799894987
 20
5101.2700915815
 30
0.0
 11
9715.3235329672
 21
5101.8485816674
 31
0.0
  0
LINE
  5
116
330
1F
100
AcDbEntity
  8
0
  6
Continuous
 62
     7
100
AcDbLine
 10
9714.2762574724
 20
5101.8485816674
 30
0.0
 11
9714.799894987
 21
5101.2700915815
 31
0.0
  0
LINE
  5
117
330
1F
100
AcDbEntity
  8
0
  6
Continuous
 62
     7
100
AcDbLine
 10
9714.0691257439
 20
5101.8485816674
 30
0.0
 11
9714.2762574724
 21
5101.8485816674
 31
0.0
  0
LINE
  5
118
330
1F
100
AcDbEntity
  8
0
  6
Continuous
 62
     7
100
AcDbLine
 10
9715.7357926837
 20
5100.4343683378
 30
0.0
 11
9716.3856365143
 21
5101.1521041871
 31
0.0
  0
LINE
  5
119
330
1F
100
AcDbEntity
  8
0
  6
Continuous
 62
     7
100
AcDbLine
 10
9716.599167826
 20
5101.1521041871
 30
0.0
 11
9717.2486130505
 21
5100.4343683378
 31
0.0
  0
LINE
  5
11A
330
1F
100
AcDbEntity
  8
0
  6
Continuous
 62
     7
100
AcDbLine
 10
9717.0158406145
 20
5101.8485816674
 30
0.0
 11
9717.2229718774
 21
5101.8485816674
 31
0.0
  0
LINE
  5
11B
330
1F
100
AcDbEntity
  8
0
  6
Continuous
 62
     7
100
AcDbLine
 10
9716.4922026343
 20
5101.2700915815
 30
0.0
 11
9717.0158406145
 21
5101.8485816674
 31
0.0
  0
LINE
  5
11C
330
1F
100
AcDbEntity
  8
0
  6
Continuous
 62
     7
100
AcDbLine
 10
9715.9685651197
 20
5101.8485816674
 30
0.0
 11
9716.4922026343
 21
5101.2700915815
 31
0.0
  0
LINE
  5
11D
330
1F
100
AcDbEntity
  8
0
  6
Continuous
 62
     7
100
AcDbLine
 10
9715.7614333912
 20
5101.8485816674
 30
0.0
 11
9715.9685651197
 21
5101.8485816674
 31
0.0
  0
LINE
  5
11E
330
1F
100
AcDbEntity
  8
0
  6
Continuous
 62
     7
100
AcDbLine
 10
9717.4281003311
 20
5100.4343683378
 30
0.0
 11
9718.077943696
 21
5101.1521041871
 31
0.0
  0
LINE
  5
11F
330
1F
100
AcDbEntity
  8
0
  6
Continuous
 62
     7
100
AcDbLine
 10
9718.2914754733
 20
5101.1521041871
 30
0.0
 11
9718.9409211635
 21
5100.4343683378
 31
0.0
  0
LINE
  5
120
330
1F
100
AcDbEntity
  8
0
  6
Continuous
 62
     7
100
AcDbLine
 10
9718.7081482618
 20
5101.8485816674
 30
0.0
 11
9718.9152799904
 21
5101.8485816674
 31
0.0
  0
LINE
  5
121
330
1F
100
AcDbEntity
  8
0
  6
Continuous
 62
     7
100
AcDbLine
 10
9718.1845102816
 20
5101.2700915815
 30
0.0
 11
9718.7081482618
 21
5101.8485816674
 31
0.0
  0
LINE
  5
122
330
1F
100
AcDbEntity
  8
0
  6
Continuous
 62
     7
100
AcDbLine
 10
9717.660872767
 20
5101.8485816674
 30
0.0
 11
9718.1845102816
 21
5101.2700915815
 31
0.0
  0
LINE
  5
123
330
1F
100
AcDbEntity
  8
0
  6
Continuous
 62
     7
100
AcDbLine
 10
9717.4537415042
 20
5101.8485816674
 30
0.0
 11
9717.660872767
 21
5101.8485816674
 31
0.0
  0
LINE
  5
124
330
1F
100
AcDbEntity
  8
0
  6
Continuous
 62
     7
100
AcDbLine
 10
9719.1204075127
 20
5100.4343683378
 30
0.0
 11
9719.770251809
 21
5101.1521041871
 31
0.0
  0
LINE
  5
125
330
1F
100
AcDbEntity
  8
0
  6
Continuous
 62
     7
100
AcDbLine
 10
9719.9837835862
 20
5101.1521041871
 30
0.0
 11
9720.6332283451
 21
5100.4343683378
 31
0.0
  0
LINE
  5
126
330
1F
100
AcDbEntity
  8
0
  6
Continuous
 62
     7
100
AcDbLine
 10
9720.4004563748
 20
5101.8485816674
 30
0.0
 11
9720.607587172
 21
5101.8485816674
 31
0.0
  0
LINE
  5
127
330
1F
100
AcDbEntity
  8
0
  6
Continuous
 62
     7
100
AcDbLine
 10
9719.8768183946
 20
5101.2700915815
 30
0.0
 11
9720.4004563748
 21
5101.8485816674
 31
0.0
  0
LINE
  5
128
330
1F
100
AcDbEntity
  8
0
  6
Continuous
 62
     7
100
AcDbLine
 10
9719.3531804144
 20
5101.8485816674
 30
0.0
 11
9719.8768183946
 21
5101.2700915815
 31
0.0
  0
LINE
  5
129
330
1F
100
AcDbEntity
  8
0
  6
Continuous
 62
     7
100
AcDbLine
 10
9719.1460486858
 20
5101.8485816674
 30
0.0
 11
9719.3531804144
 21
5101.8485816674
 31
0.0
  0
LINE
  5
12A
330
1F
100
AcDbEntity
  8
0
  6
Continuous
 62
     7
100
AcDbLine
 10
9722.133228591
 20
5102.9092425959
 30
0.0
 11
9722.133228591
 21
5102.9799532623
 31
0.0
  0
LINE
  5
12B
330
1F
100
AcDbEntity
  8
0
  6
Continuous
 62
     7
100
AcDbLine
 10
9698.1332283824
 20
5102.9092425959
 30
0.0
 11
9698.1332283824
 21
5102.9799532623
 31
0.0
  0
LINE
  5
12C
330
1F
100
AcDbEntity
  8
0
  6
Continuous
 62
     7
100
AcDbLine
 10
9722.133228591
 20
5102.9799532623
 30
0.0
 11
9698.1332283824
 21
5102.9799532623
 31
0.0
  0
LINE
  5
12D
330
1F
100
AcDbEntity
  8
0
  6
Continuous
 62
     7
100
AcDbLine
 10
9706.3383567504
 20
5101.8777730422
 30
0.0
 11
9706.3383567504
 21
5101.8848436431
 31
0.0
  0
LINE
  5
12E
330
1F
100
AcDbEntity
  8
0
  6
Continuous
 62
     7
100
AcDbLine
 10
9706.1492540299
 20
5101.8777730422
 30
0.0
 11
9706.3383567504
 21
5101.8777730422
 31
0.0
  0
LINE
  5
12F
330
1F
100
AcDbEntity
  8
0
  6
Continuous
 62
     7
100
AcDbLine
 10
9706.1492540299
 20
5101.8777730422
 30
0.0
 11
9706.1492540299
 21
5101.8848436431
 31
0.0
  0
LINE
  5
130
330
1F
100
AcDbEntity
  8
0
  6
Continuous
 62
     7
100
AcDbLine
 10
9706.3383567504
 20
5101.8777730422
 30
0.0
 11
9705.5018181338
 21
5100.2278568701
 31
0.0
  0
LINE
  5
131
330
1F
100
AcDbEntity
  8
0
  6
Continuous
 62
     7
100
AcDbLine
 10
9705.5018181338
 20
5100.2278568701
 30
0.0
 11
9705.312715879
 21
5100.2278568701
 31
0.0
  0
LINE
  5
132
330
1F
100
AcDbEntity
  8
0
  6
Continuous
 62
     7
100
AcDbLine
 10
9705.312715879
 20
5100.2278568701
 30
0.0
 11
9706.1492540299
 21
5101.8777730422
 31
0.0
  0
LINE
  5
133
330
1F
100
AcDbEntity
  8
0
  6
Continuous
 62
     7
100
AcDbLine
 10
9705.312715879
 20
5100.2278568701
 30
0.0
 11
9705.312715879
 21
5100.2349284024
 31
0.0
  0
LINE
  5
134
330
1F
100
AcDbEntity
  8
0
  6
Continuous
 62
     7
100
AcDbLine
 10
9708.5434849498
 20
5101.225059341
 30
0.0
 11
9708.9096707416
 21
5101.2230756239
 31
0.0
  0
LINE
  5
135
330
1F
100
AcDbEntity
  8
0
  6
Continuous
 62
     7
100
AcDbLine
 10
9708.9184848949
 20
5101.6964631633
 30
0.0
 11
9708.5434849498
 21
5101.6964631633
 31
0.0
  0
LINE
  5
136
330
1F
100
AcDbEntity
  8
0
  6
Continuous
 62
     7
100
AcDbLine
 10
9708.5434849498
 20
5101.6964631633
 30
0.0
 11
9708.5434849498
 21
5101.225059341
 31
0.0
  0
LINE
  5
137
330
1F
100
AcDbEntity
  8
0
  6
Continuous
 62
     7
100
AcDbLine
 10
9708.3639976693
 20
5101.8415110664
 30
0.0
 11
9708.7642380859
 21
5101.8415110664
 31
0.0
  0
LINE
  5
138
330
1F
100
AcDbEntity
  8
0
  6
Continuous
 62
     7
100
AcDbLine
 10
9708.9112733149
 20
5101.080011438
 30
0.0
 11
9709.6460489913
 21
5100.4272977368
 31
0.0
  0
LINE
  5
139
330
1F
100
AcDbEntity
  8
0
  6
Continuous
 62
     7
100
AcDbLine
 10
9709.6460489913
 20
5100.4272977368
 30
0.0
 11
9709.424093867
 21
5100.4272977368
 31
0.0
  0
LINE
  5
13A
330
1F
100
AcDbEntity
  8
0
  6
Continuous
 62
     7
100
AcDbLine
 10
9709.424093867
 20
5100.4272977368
 30
0.0
 11
9708.6893181906
 21
5101.080011438
 31
0.0
  0
LINE
  5
13B
330
1F
100
AcDbEntity
  8
0
  6
Continuous
 62
     7
100
AcDbLine
 10
9708.6893181906
 20
5101.080011438
 30
0.0
 11
9708.5434849498
 21
5101.080011438
 31
0.0
  0
LINE
  5
13C
330
1F
100
AcDbEntity
  8
0
  6
Continuous
 62
     7
100
AcDbLine
 10
9708.5434849498
 20
5101.080011438
 30
0.0
 11
9708.5434849498
 21
5100.4272977368
 31
0.0
  0
LINE
  5
13D
330
1F
100
AcDbEntity
  8
0
  6
Continuous
 62
     7
100
AcDbLine
 10
9708.5434849498
 20
5100.4272977368
 30
0.0
 11
9708.3639976693
 21
5100.4272977368
 31
0.0
  0
LINE
  5
13E
330
1F
100
AcDbEntity
  8
0
  6
Continuous
 62
     7
100
AcDbLine
 10
9708.3639976693
 20
5100.4272977368
 30
0.0
 11
9708.3639976693
 21
5101.8415110664
 31
0.0
  0
LINE
  5
13F
330
1F
100
AcDbEntity
  8
0
  6
Continuous
 62
     7
100
AcDbLine
 10
9707.0719304386
 20
5101.8415110664
 30
0.0
 11
9707.0719304386
 21
5101.8485816674
 31
0.0
  0
LINE
  5
140
330
1F
100
AcDbEntity
  8
0
  6
Continuous
 62
     7
100
AcDbLine
 10
9706.6716901384
 20
5101.8415110664
 30
0.0
 11
9707.0719304386
 21
5101.8415110664
 31
0.0
  0
LINE
  5
141
330
1F
100
AcDbEntity
  8
0
  6
Continuous
 62
     7
100
AcDbLine
 10
9706.6716901384
 20
5101.8415110664
 30
0.0
 11
9706.6716901384
 21
5101.8485816674
 31
0.0
  0
LINE
  5
142
330
1F
100
AcDbEntity
  8
0
  6
Continuous
 62
     7
100
AcDbLine
 10
9709.2173631311
 20
5101.8222466589
 30
0.0
 11
9709.2173631311
 21
5101.8293181912
 31
0.0
  0
LINE
  5
143
330
1F
100
AcDbEntity
  8
0
  6
Continuous
 62
     7
100
AcDbLine
 10
9708.7642380859
 20
5101.8415110664
 30
0.0
 11
9708.7642380859
 21
5101.8485816674
 31
0.0
  0
LINE
  5
144
330
1F
100
AcDbEntity
  8
0
  6
Continuous
 62
     7
100
AcDbLine
 10
9702.8255360558
 20
5100.4272977368
 30
0.0
 11
9703.0895585551
 21
5101.8415110664
 31
0.0
  0
LINE
  5
145
330
1F
100
AcDbEntity
  8
0
  6
Continuous
 62
     7
100
AcDbLine
 10
9703.0895585551
 20
5101.8415110664
 30
0.0
 11
9703.1151997282
 21
5101.8415110664
 31
0.0
  0
LINE
  5
146
330
1F
100
AcDbEntity
  8
0
  6
Continuous
 62
     7
100
AcDbLine
 10
9703.1151997282
 20
5101.8415110664
 30
0.0
 11
9703.9409205674
 21
5100.6811306359
 31
0.0
  0
LINE
  5
147
330
1F
100
AcDbEntity
  8
0
  6
Continuous
 62
     7
100
AcDbLine
 10
9703.9409205674
 20
5100.6811306359
 30
0.0
 11
9704.7646385974
 21
5101.8415110664
 31
0.0
  0
LINE
  5
148
330
1F
100
AcDbEntity
  8
0
  6
Continuous
 62
     7
100
AcDbLine
 10
9704.7646385974
 20
5101.8415110664
 30
0.0
 11
9704.7906802393
 21
5101.8415110664
 31
0.0
  0
LINE
  5
149
330
1F
100
AcDbEntity
  8
0
  6
Continuous
 62
     7
100
AcDbLine
 10
9704.7906802393
 20
5101.8415110664
 30
0.0
 11
9705.0563055447
 21
5100.4272977368
 31
0.0
  0
LINE
  5
14A
330
1F
100
AcDbEntity
  8
0
  6
Continuous
 62
     7
100
AcDbLine
 10
9705.0563055447
 20
5100.4272977368
 30
0.0
 11
9704.8760168611
 21
5100.4272977368
 31
0.0
  0
LINE
  5
14B
330
1F
100
AcDbEntity
  8
0
  6
Continuous
 62
     7
100
AcDbLine
 10
9704.8760168611
 20
5100.4272977368
 30
0.0
 11
9704.6845103971
 21
5101.4448961721
 31
0.0
  0
LINE
  5
14C
330
1F
100
AcDbEntity
  8
0
  6
Continuous
 62
     7
100
AcDbLine
 10
9704.6845103971
 20
5101.4448961721
 30
0.0
 11
9703.9625551908
 21
5100.4272977368
 31
0.0
  0
LINE
  5
14D
330
1F
100
AcDbEntity
  8
0
  6
Continuous
 62
     7
100
AcDbLine
 10
9703.9625551908
 20
5100.4272977368
 30
0.0
 11
9703.922090622
 21
5100.4272977368
 31
0.0
  0
LINE
  5
14E
330
1F
100
AcDbEntity
  8
0
  6
Continuous
 62
     7
100
AcDbLine
 10
9703.922090622
 20
5100.4272977368
 30
0.0
 11
9703.1973312034
 21
5101.4471630113
 31
0.0
  0
LINE
  5
14F
330
1F
100
AcDbEntity
  8
0
  6
Continuous
 62
     7
100
AcDbLine
 10
9703.1973312034
 20
5101.4471630113
 30
0.0
 11
9703.0062252081
 21
5100.4272977368
 31
0.0
  0
LINE
  5
150
330
1F
100
AcDbEntity
  8
0
  6
Continuous
 62
     7
100
AcDbLine
 10
9703.0062252081
 20
5100.4272977368
 30
0.0
 11
9702.8255360558
 21
5100.4272977368
 31
0.0
  0
LINE
  5
151
330
1F
100
AcDbEntity
  8
0
  6
Continuous
 62
     7
100
AcDbLine
 10
9702.2522185355
 20
5101.8415110664
 30
0.0
 11
9702.2522185355
 21
5101.8485816674
 31
0.0
  0
LINE
  5
152
330
1F
100
AcDbEntity
  8
0
  6
Continuous
 62
     7
100
AcDbLine
 10
9702.2261768936
 20
5101.8415110664
 30
0.0
 11
9702.2522185355
 21
5101.8415110664
 31
0.0
  0
LINE
  5
153
330
1F
100
AcDbEntity
  8
0
  6
Continuous
 62
     7
100
AcDbLine
 10
9702.2261768936
 20
5101.8415110664
 30
0.0
 11
9702.2261768936
 21
5101.8485816674
 31
0.0
  0
LINE
  5
154
330
1F
100
AcDbEntity
  8
0
  6
Continuous
 62
     7
100
AcDbLine
 10
9718.7081482618
 20
5101.8415110664
 30
0.0
 11
9718.7081482618
 21
5101.8485816674
 31
0.0
  0
LINE
  5
155
330
1F
100
AcDbEntity
  8
0
  6
Continuous
 62
     7
100
AcDbLine
 10
9718.1845102816
 20
5101.2630209805
 30
0.0
 11
9718.7081482618
 21
5101.8415110664
 31
0.0
  0
LINE
  5
156
330
1F
100
AcDbEntity
  8
0
  6
Continuous
 62
     7
100
AcDbLine
 10
9718.1845102816
 20
5101.2630209805
 30
0.0
 11
9718.1845102816
 21
5101.2700915815
 31
0.0
  0
LINE
  5
157
330
1F
100
AcDbEntity
  8
0
  6
Continuous
 62
     7
100
AcDbLine
 10
9708.3639976693
 20
5101.8415110664
 30
0.0
 11
9708.3639976693
 21
5101.8485816674
 31
0.0
  0
LINE
  5
158
330
1F
100
AcDbEntity
  8
0
  6
Continuous
 62
     7
100
AcDbLine
 10
9715.7614333912
 20
5101.8415110664
 30
0.0
 11
9715.9685651197
 21
5101.8415110664
 31
0.0
  0
LINE
  5
159
330
1F
100
AcDbEntity
  8
0
  6
Continuous
 62
     7
100
AcDbLine
 10
9715.9685651197
 20
5101.8415110664
 30
0.0
 11
9716.4922026343
 21
5101.2630209805
 31
0.0
  0
LINE
  5
15A
330
1F
100
AcDbEntity
  8
0
  6
Continuous
 62
     7
100
AcDbLine
 10
9716.4922026343
 20
5101.2630209805
 30
0.0
 11
9717.0158406145
 21
5101.8415110664
 31
0.0
  0
LINE
  5
15B
330
1F
100
AcDbEntity
  8
0
  6
Continuous
 62
     7
100
AcDbLine
 10
9717.0158406145
 20
5101.8415110664
 30
0.0
 11
9717.2229718774
 21
5101.8415110664
 31
0.0
  0
LINE
  5
15C
330
1F
100
AcDbEntity
  8
0
  6
Continuous
 62
     7
100
AcDbLine
 10
9717.2229718774
 20
5101.8415110664
 30
0.0
 11
9716.5959687329
 21
5101.1485688867
 31
0.0
  0
LINE
  5
15D
330
1F
100
AcDbEntity
  8
0
  6
Continuous
 62
     7
100
AcDbLine
 10
9716.5959687329
 20
5101.1485688867
 30
0.0
 11
9717.2486130505
 21
5100.4272977368
 31
0.0
  0
LINE
  5
15E
330
1F
100
AcDbEntity
  8
0
  6
Continuous
 62
     7
100
AcDbLine
 10
9717.2486130505
 20
5100.4272977368
 30
0.0
 11
9717.0414817876
 21
5100.4272977368
 31
0.0
  0
LINE
  5
15F
330
1F
100
AcDbEntity
  8
0
  6
Continuous
 62
     7
100
AcDbLine
 10
9717.0414817876
 20
5100.4272977368
 30
0.0
 11
9716.4922026343
 21
5101.0341177241
 31
0.0
  0
LINE
  5
160
330
1F
100
AcDbEntity
  8
0
  6
Continuous
 62
     7
100
AcDbLine
 10
9716.4922026343
 20
5101.0341177241
 30
0.0
 11
9715.9429239466
 21
5100.4272977368
 31
0.0
  0
LINE
  5
161
330
1F
100
AcDbEntity
  8
0
  6
Continuous
 62
     7
100
AcDbLine
 10
9715.9429239466
 20
5100.4272977368
 30
0.0
 11
9715.7357926837
 21
5100.4272977368
 31
0.0
  0
LINE
  5
162
330
1F
100
AcDbEntity
  8
0
  6
Continuous
 62
     7
100
AcDbLine
 10
9715.7357926837
 20
5100.4272977368
 30
0.0
 11
9716.38883747
 21
5101.1485688867
 31
0.0
  0
LINE
  5
163
330
1F
100
AcDbEntity
  8
0
  6
Continuous
 62
     7
100
AcDbLine
 10
9716.38883747
 20
5101.1485688867
 30
0.0
 11
9715.7614333912
 21
5101.8415110664
 31
0.0
  0
LINE
  5
164
330
1F
100
AcDbEntity
  8
0
  6
Continuous
 62
     7
100
AcDbLine
 10
9700.2870748176
 20
5100.4272977368
 30
0.0
 11
9700.551097317
 21
5101.8415110664
 31
0.0
  0
LINE
  5
165
330
1F
100
AcDbEntity
  8
0
  6
Continuous
 62
     7
100
AcDbLine
 10
9700.551097317
 20
5101.8415110664
 30
0.0
 11
9700.5767384901
 21
5101.8415110664
 31
0.0
  0
LINE
  5
166
330
1F
100
AcDbEntity
  8
0
  6
Continuous
 62
     7
100
AcDbLine
 10
9700.5767384901
 20
5101.8415110664
 30
0.0
 11
9701.4024593293
 21
5100.6811306359
 31
0.0
  0
LINE
  5
167
330
1F
100
AcDbEntity
  8
0
  6
Continuous
 62
     7
100
AcDbLine
 10
9701.4024593293
 20
5100.6811306359
 30
0.0
 11
9702.2261768936
 21
5101.8415110664
 31
0.0
  0
LINE
  5
168
330
1F
100
AcDbEntity
  8
0
  6
Continuous
 62
     7
100
AcDbLine
 10
9702.2522185355
 20
5101.8415110664
 30
0.0
 11
9702.5178438409
 21
5100.4272977368
 31
0.0
  0
LINE
  5
169
330
1F
100
AcDbEntity
  8
0
  6
Continuous
 62
     7
100
AcDbLine
 10
9702.5178438409
 20
5100.4272977368
 30
0.0
 11
9702.337555623
 21
5100.4272977368
 31
0.0
  0
LINE
  5
16A
330
1F
100
AcDbEntity
  8
0
  6
Continuous
 62
     7
100
AcDbLine
 10
9702.337555623
 20
5100.4272977368
 30
0.0
 11
9702.1460486933
 21
5101.4448961721
 31
0.0
  0
LINE
  5
16B
330
1F
100
AcDbEntity
  8
0
  6
Continuous
 62
     7
100
AcDbLine
 10
9702.1460486933
 20
5101.4448961721
 30
0.0
 11
9701.4240939527
 21
5100.4272977368
 31
0.0
  0
LINE
  5
16C
330
1F
100
AcDbEntity
  8
0
  6
Continuous
 62
     7
100
AcDbLine
 10
9701.4240939527
 20
5100.4272977368
 30
0.0
 11
9701.3836289182
 21
5100.4272977368
 31
0.0
  0
LINE
  5
16D
330
1F
100
AcDbEntity
  8
0
  6
Continuous
 62
     7
100
AcDbLine
 10
9701.3836289182
 20
5100.4272977368
 30
0.0
 11
9700.6588699653
 21
5101.4471630113
 31
0.0
  0
LINE
  5
16E
330
1F
100
AcDbEntity
  8
0
  6
Continuous
 62
     7
100
AcDbLine
 10
9700.6588699653
 20
5101.4471630113
 30
0.0
 11
9700.4677635043
 21
5100.4272977368
 31
0.0
  0
LINE
  5
16F
330
1F
100
AcDbEntity
  8
0
  6
Continuous
 62
     7
100
AcDbLine
 10
9700.4677635043
 20
5100.4272977368
 30
0.0
 11
9700.2870748176
 21
5100.4272977368
 31
0.0
  0
LINE
  5
170
330
1F
100
AcDbEntity
  8
0
  6
Continuous
 62
     7
100
AcDbLine
 10
9714.0691257439
 20
5101.8415110664
 30
0.0
 11
9714.2762574724
 21
5101.8415110664
 31
0.0
  0
LINE
  5
171
330
1F
100
AcDbEntity
  8
0
  6
Continuous
 62
     7
100
AcDbLine
 10
9714.2762574724
 20
5101.8415110664
 30
0.0
 11
9714.799894987
 21
5101.2630209805
 31
0.0
  0
LINE
  5
172
330
1F
100
AcDbEntity
  8
0
  6
Continuous
 62
     7
100
AcDbLine
 10
9714.799894987
 20
5101.2630209805
 30
0.0
 11
9715.3235329672
 21
5101.8415110664
 31
0.0
  0
LINE
  5
173
330
1F
100
AcDbEntity
  8
0
  6
Continuous
 62
     7
100
AcDbLine
 10
9715.3235329672
 20
5101.8415110664
 30
0.0
 11
9715.5306642301
 21
5101.8415110664
 31
0.0
  0
LINE
  5
174
330
1F
100
AcDbEntity
  8
0
  6
Continuous
 62
     7
100
AcDbLine
 10
9715.5306642301
 20
5101.8415110664
 30
0.0
 11
9714.9036610856
 21
5101.1485688867
 31
0.0
  0
LINE
  5
175
330
1F
100
AcDbEntity
  8
0
  6
Continuous
 62
     7
100
AcDbLine
 10
9714.9036610856
 20
5101.1485688867
 30
0.0
 11
9715.5563054032
 21
5100.4272977368
 31
0.0
  0
LINE
  5
176
330
1F
100
AcDbEntity
  8
0
  6
Continuous
 62
     7
100
AcDbLine
 10
9715.5563054032
 20
5100.4272977368
 30
0.0
 11
9715.3491741403
 21
5100.4272977368
 31
0.0
  0
LINE
  5
177
330
1F
100
AcDbEntity
  8
0
  6
Continuous
 62
     7
100
AcDbLine
 10
9715.3491741403
 20
5100.4272977368
 30
0.0
 11
9714.799894987
 21
5101.0341177241
 31
0.0
  0
LINE
  5
178
330
1F
100
AcDbEntity
  8
0
  6
Continuous
 62
     7
100
AcDbLine
 10
9714.799894987
 20
5101.0341177241
 30
0.0
 11
9714.2506162993
 21
5100.4272977368
 31
0.0
  0
LINE
  5
179
330
1F
100
AcDbEntity
  8
0
  6
Continuous
 62
     7
100
AcDbLine
 10
9714.2506162993
 20
5100.4272977368
 30
0.0
 11
9714.0434850364
 21
5100.4272977368
 31
0.0
  0
LINE
  5
17A
330
1F
100
AcDbEntity
  8
0
  6
Continuous
 62
     7
100
AcDbLine
 10
9714.0434850364
 20
5100.4272977368
 30
0.0
 11
9714.6965298227
 21
5101.1485688867
 31
0.0
  0
LINE
  5
17B
330
1F
100
AcDbEntity
  8
0
  6
Continuous
 62
     7
100
AcDbLine
 10
9714.6965298227
 20
5101.1485688867
 30
0.0
 11
9714.0691257439
 21
5101.8415110664
 31
0.0
  0
LINE
  5
17C
330
1F
100
AcDbEntity
  8
0
  6
Continuous
 62
     7
100
AcDbLine
 10
9718.9152799904
 20
5101.8415110664
 30
0.0
 11
9718.9152799904
 21
5101.8485816674
 31
0.0
  0
LINE
  5
17D
330
1F
100
AcDbEntity
  8
0
  6
Continuous
 62
     7
100
AcDbLine
 10
9718.7081482618
 20
5101.8415110664
 30
0.0
 11
9718.9152799904
 21
5101.8415110664
 31
0.0
  0
LINE
  5
17E
330
1F
100
AcDbEntity
  8
0
  6
Continuous
 62
     7
100
AcDbLine
 10
9713.1075875725
 20
5101.2630209805
 30
0.0
 11
9713.1075875725
 21
5101.2700915815
 31
0.0
  0
LINE
  5
17F
330
1F
100
AcDbEntity
  8
0
  6
Continuous
 62
     7
100
AcDbLine
 10
9712.5839495923
 20
5101.8415110664
 30
0.0
 11
9713.1075875725
 21
5101.2630209805
 31
0.0
  0
LINE
  5
180
330
1F
100
AcDbEntity
  8
0
  6
Continuous
 62
     7
100
AcDbLine
 10
9712.5839495923
 20
5101.8415110664
 30
0.0
 11
9712.5839495923
 21
5101.8485816674
 31
0.0
  0
LINE
  5
181
330
1F
100
AcDbEntity
  8
0
  6
Continuous
 62
     7
100
AcDbLine
 10
9704.7906802393
 20
5101.8415110664
 30
0.0
 11
9704.7906802393
 21
5101.8485816674
 31
0.0
  0
LINE
  5
182
330
1F
100
AcDbEntity
  8
0
  6
Continuous
 62
     7
100
AcDbLine
 10
9704.7646385974
 20
5101.8415110664
 30
0.0
 11
9704.7646385974
 21
5101.8485816674
 31
0.0
  0
LINE
  5
183
330
1F
100
AcDbEntity
  8
0
  6
Continuous
 62
     7
100
AcDbLine
 10
9717.4537415042
 20
5101.8415110664
 30
0.0
 11
9717.660872767
 21
5101.8415110664
 31
0.0
  0
LINE
  5
184
330
1F
100
AcDbEntity
  8
0
  6
Continuous
 62
     7
100
AcDbLine
 10
9717.660872767
 20
5101.8415110664
 30
0.0
 11
9718.1845102816
 21
5101.2630209805
 31
0.0
  0
LINE
  5
185
330
1F
100
AcDbEntity
  8
0
  6
Continuous
 62
     7
100
AcDbLine
 10
9718.9152799904
 20
5101.8415110664
 30
0.0
 11
9718.2882763802
 21
5101.1485688867
 31
0.0
  0
LINE
  5
186
330
1F
100
AcDbEntity
  8
0
  6
Continuous
 62
     7
100
AcDbLine
 10
9718.2882763802
 20
5101.1485688867
 30
0.0
 11
9718.9409211635
 21
5100.4272977368
 31
0.0
  0
LINE
  5
187
330
1F
100
AcDbEntity
  8
0
  6
Continuous
 62
     7
100
AcDbLine
 10
9718.9409211635
 20
5100.4272977368
 30
0.0
 11
9718.733789435
 21
5100.4272977368
 31
0.0
  0
LINE
  5
188
330
1F
100
AcDbEntity
  8
0
  6
Continuous
 62
     7
100
AcDbLine
 10
9718.733789435
 20
5100.4272977368
 30
0.0
 11
9718.1845102816
 21
5101.0341177241
 31
0.0
  0
LINE
  5
189
330
1F
100
AcDbEntity
  8
0
  6
Continuous
 62
     7
100
AcDbLine
 10
9718.1845102816
 20
5101.0341177241
 30
0.0
 11
9717.6352315939
 21
5100.4272977368
 31
0.0
  0
LINE
  5
18A
330
1F
100
AcDbEntity
  8
0
  6
Continuous
 62
     7
100
AcDbLine
 10
9717.6352315939
 20
5100.4272977368
 30
0.0
 11
9717.4281003311
 21
5100.4272977368
 31
0.0
  0
LINE
  5
18B
330
1F
100
AcDbEntity
  8
0
  6
Continuous
 62
     7
100
AcDbLine
 10
9717.4281003311
 20
5100.4272977368
 30
0.0
 11
9718.081145583
 21
5101.1485688867
 31
0.0
  0
LINE
  5
18C
330
1F
100
AcDbEntity
  8
0
  6
Continuous
 62
     7
100
AcDbLine
 10
9718.081145583
 20
5101.1485688867
 30
0.0
 11
9717.4537415042
 21
5101.8415110664
 31
0.0
  0
LINE
  5
18D
330
1F
100
AcDbEntity
  8
0
  6
Continuous
 62
     7
100
AcDbLine
 10
9714.2762574724
 20
5101.8415110664
 30
0.0
 11
9714.2762574724
 21
5101.8485816674
 31
0.0
  0
LINE
  5
18E
330
1F
100
AcDbEntity
  8
0
  6
Continuous
 62
     7
100
AcDbLine
 10
9714.0691257439
 20
5101.8415110664
 30
0.0
 11
9714.0691257439
 21
5101.8485816674
 31
0.0
  0
LINE
  5
18F
330
1F
100
AcDbEntity
  8
0
  6
Continuous
 62
     7
100
AcDbLine
 10
9701.4024593293
 20
5100.6811306359
 30
0.0
 11
9701.4024593293
 21
5100.6882012369
 31
0.0
  0
LINE
  5
190
330
1F
100
AcDbEntity
  8
0
  6
Continuous
 62
     7
100
AcDbLine
 10
9703.9409205674
 20
5100.6811306359
 30
0.0
 11
9703.9409205674
 21
5100.6882012369
 31
0.0
  0
LINE
  5
191
330
1F
100
AcDbEntity
  8
0
  6
Continuous
 62
     7
100
AcDbLine
 10
9703.1151997282
 20
5101.8415110664
 30
0.0
 11
9703.1151997282
 21
5101.8485816674
 31
0.0
  0
LINE
  5
192
330
1F
100
AcDbEntity
  8
0
  6
Continuous
 62
     7
100
AcDbLine
 10
9717.2229718774
 20
5101.8415110664
 30
0.0
 11
9717.2229718774
 21
5101.8485816674
 31
0.0
  0
LINE
  5
193
330
1F
100
AcDbEntity
  8
0
  6
Continuous
 62
     7
100
AcDbLine
 10
9717.0158406145
 20
5101.8415110664
 30
0.0
 11
9717.0158406145
 21
5101.8485816674
 31
0.0
  0
LINE
  5
194
330
1F
100
AcDbEntity
  8
0
  6
Continuous
 62
     7
100
AcDbLine
 10
9706.8511771861
 20
5101.225059341
 30
0.0
 11
9707.2173632107
 21
5101.2230756239
 31
0.0
  0
LINE
  5
195
330
1F
100
AcDbEntity
  8
0
  6
Continuous
 62
     7
100
AcDbLine
 10
9707.2261772475
 20
5101.6964631633
 30
0.0
 11
9706.8511771861
 21
5101.6964631633
 31
0.0
  0
LINE
  5
196
330
1F
100
AcDbEntity
  8
0
  6
Continuous
 62
     7
100
AcDbLine
 10
9706.8511771861
 20
5101.6964631633
 30
0.0
 11
9706.8511771861
 21
5101.225059341
 31
0.0
  0
LINE
  5
197
330
1F
100
AcDbEntity
  8
0
  6
Continuous
 62
     7
100
AcDbLine
 10
9707.2189655512
 20
5101.080011438
 30
0.0
 11
9707.953741344
 21
5100.4272977368
 31
0.0
  0
LINE
  5
198
330
1F
100
AcDbEntity
  8
0
  6
Continuous
 62
     7
100
AcDbLine
 10
9707.953741344
 20
5100.4272977368
 30
0.0
 11
9707.7317862197
 21
5100.4272977368
 31
0.0
  0
LINE
  5
199
330
1F
100
AcDbEntity
  8
0
  6
Continuous
 62
     7
100
AcDbLine
 10
9707.7317862197
 20
5100.4272977368
 30
0.0
 11
9706.9970104269
 21
5101.080011438
 31
0.0
  0
LINE
  5
19A
330
1F
100
AcDbEntity
  8
0
  6
Continuous
 62
     7
100
AcDbLine
 10
9706.9970104269
 20
5101.080011438
 30
0.0
 11
9706.8511771861
 21
5101.080011438
 31
0.0
  0
LINE
  5
19B
330
1F
100
AcDbEntity
  8
0
  6
Continuous
 62
     7
100
AcDbLine
 10
9706.8511771861
 20
5101.080011438
 30
0.0
 11
9706.8511771861
 21
5100.4272977368
 31
0.0
  0
LINE
  5
19C
330
1F
100
AcDbEntity
  8
0
  6
Continuous
 62
     7
100
AcDbLine
 10
9706.8511771861
 20
5100.4272977368
 30
0.0
 11
9706.6716901384
 21
5100.4272977368
 31
0.0
  0
LINE
  5
19D
330
1F
100
AcDbEntity
  8
0
  6
Continuous
 62
     7
100
AcDbLine
 10
9706.6716901384
 20
5100.4272977368
 30
0.0
 11
9706.6716901384
 21
5101.8415110664
 31
0.0
  0
LINE
  5
19E
330
1F
100
AcDbEntity
  8
0
  6
Continuous
 62
     7
100
AcDbLine
 10
9703.0895585551
 20
5101.8415110664
 30
0.0
 11
9703.0895585551
 21
5101.8485816674
 31
0.0
  0
LINE
  5
19F
330
1F
100
AcDbEntity
  8
0
  6
Continuous
 62
     7
100
AcDbLine
 10
9700.5767384901
 20
5101.8415110664
 30
0.0
 11
9700.5767384901
 21
5101.8485816674
 31
0.0
  0
LINE
  5
1A0
330
1F
100
AcDbEntity
  8
0
  6
Continuous
 62
     7
100
AcDbLine
 10
9700.551097317
 20
5101.8415110664
 30
0.0
 11
9700.551097317
 21
5101.8485816674
 31
0.0
  0
LINE
  5
1A1
330
1F
100
AcDbEntity
  8
0
  6
Continuous
 62
     7
100
AcDbLine
 10
9712.3768183294
 20
5101.8415110664
 30
0.0
 11
9712.5839495923
 21
5101.8415110664
 31
0.0
  0
LINE
  5
1A2
330
1F
100
AcDbEntity
  8
0
  6
Continuous
 62
     7
100
AcDbLine
 10
9713.1075875725
 20
5101.2630209805
 30
0.0
 11
9713.6312253199
 21
5101.8415110664
 31
0.0
  0
LINE
  5
1A3
330
1F
100
AcDbEntity
  8
0
  6
Continuous
 62
     7
100
AcDbLine
 10
9713.6312253199
 20
5101.8415110664
 30
0.0
 11
9713.8383565827
 21
5101.8415110664
 31
0.0
  0
LINE
  5
1A4
330
1F
100
AcDbEntity
  8
0
  6
Continuous
 62
     7
100
AcDbLine
 10
9713.8383565827
 20
5101.8415110664
 30
0.0
 11
9713.2113534383
 21
5101.1485688867
 31
0.0
  0
LINE
  5
1A5
330
1F
100
AcDbEntity
  8
0
  6
Continuous
 62
     7
100
AcDbLine
 10
9713.2113534383
 20
5101.1485688867
 30
0.0
 11
9713.8639977559
 21
5100.4272977368
 31
0.0
  0
LINE
  5
1A6
330
1F
100
AcDbEntity
  8
0
  6
Continuous
 62
     7
100
AcDbLine
 10
9713.8639977559
 20
5100.4272977368
 30
0.0
 11
9713.6568662602
 21
5100.4272977368
 31
0.0
  0
LINE
  5
1A7
330
1F
100
AcDbEntity
  8
0
  6
Continuous
 62
     7
100
AcDbLine
 10
9713.6568662602
 20
5100.4272977368
 30
0.0
 11
9713.1075875725
 21
5101.0341177241
 31
0.0
  0
LINE
  5
1A8
330
1F
100
AcDbEntity
  8
0
  6
Continuous
 62
     7
100
AcDbLine
 10
9713.1075875725
 20
5101.0341177241
 30
0.0
 11
9712.558308652
 21
5100.4272977368
 31
0.0
  0
LINE
  5
1A9
330
1F
100
AcDbEntity
  8
0
  6
Continuous
 62
     7
100
AcDbLine
 10
9712.558308652
 20
5100.4272977368
 30
0.0
 11
9712.3511771563
 21
5100.4272977368
 31
0.0
  0
LINE
  5
1AA
330
1F
100
AcDbEntity
  8
0
  6
Continuous
 62
     7
100
AcDbLine
 10
9712.3511771563
 20
5100.4272977368
 30
0.0
 11
9713.0042221754
 21
5101.1485688867
 31
0.0
  0
LINE
  5
1AB
330
1F
100
AcDbEntity
  8
0
  6
Continuous
 62
     7
100
AcDbLine
 10
9713.0042221754
 20
5101.1485688867
 30
0.0
 11
9712.3768183294
 21
5101.8415110664
 31
0.0
  0
LINE
  5
1AC
330
1F
100
AcDbEntity
  8
0
  6
Continuous
 62
     7
100
AcDbLine
 10
9717.660872767
 20
5101.8415110664
 30
0.0
 11
9717.660872767
 21
5101.8485816674
 31
0.0
  0
LINE
  5
1AD
330
1F
100
AcDbEntity
  8
0
  6
Continuous
 62
     7
100
AcDbLine
 10
9715.3235329672
 20
5101.8415110664
 30
0.0
 11
9715.3235329672
 21
5101.8485816674
 31
0.0
  0
LINE
  5
1AE
330
1F
100
AcDbEntity
  8
0
  6
Continuous
 62
     7
100
AcDbLine
 10
9715.5306642301
 20
5101.8415110664
 30
0.0
 11
9715.5306642301
 21
5101.8485816674
 31
0.0
  0
LINE
  5
1AF
330
1F
100
AcDbEntity
  8
0
  6
Continuous
 62
     7
100
AcDbLine
 10
9707.5250554255
 20
5101.8222466589
 30
0.0
 11
9707.5250554255
 21
5101.8293181912
 31
0.0
  0
LINE
  5
1B0
330
1F
100
AcDbEntity
  8
0
  6
Continuous
 62
     7
100
AcDbLine
 10
9715.9685651197
 20
5101.8415110664
 30
0.0
 11
9715.9685651197
 21
5101.8485816674
 31
0.0
  0
LINE
  5
1B1
330
1F
100
AcDbEntity
  8
0
  6
Continuous
 62
     7
100
AcDbLine
 10
9715.7614333912
 20
5101.8415110664
 30
0.0
 11
9715.7614333912
 21
5101.8485816674
 31
0.0
  0
LINE
  5
1B2
330
1F
100
AcDbEntity
  8
0
  6
Continuous
 62
     7
100
AcDbLine
 10
9716.4922026343
 20
5101.2630209805
 30
0.0
 11
9716.4922026343
 21
5101.2700915815
 31
0.0
  0
LINE
  5
1B3
330
1F
100
AcDbEntity
  8
0
  6
Continuous
 62
     7
100
AcDbLine
 10
9712.3768183294
 20
5101.8415110664
 30
0.0
 11
9712.3768183294
 21
5101.8485816674
 31
0.0
  0
LINE
  5
1B4
330
1F
100
AcDbEntity
  8
0
  6
Continuous
 62
     7
100
AcDbLine
 10
9720.4004563748
 20
5101.8415110664
 30
0.0
 11
9720.4004563748
 21
5101.8485816674
 31
0.0
  0
LINE
  5
1B5
330
1F
100
AcDbEntity
  8
0
  6
Continuous
 62
     7
100
AcDbLine
 10
9719.8768183946
 20
5101.2630209805
 30
0.0
 11
9720.4004563748
 21
5101.8415110664
 31
0.0
  0
LINE
  5
1B6
330
1F
100
AcDbEntity
  8
0
  6
Continuous
 62
     7
100
AcDbLine
 10
9719.8768183946
 20
5101.2630209805
 30
0.0
 11
9719.8768183946
 21
5101.2700915815
 31
0.0
  0
LINE
  5
1B7
330
1F
100
AcDbEntity
  8
0
  6
Continuous
 62
     7
100
AcDbLine
 10
9717.4537415042
 20
5101.8415110664
 30
0.0
 11
9717.4537415042
 21
5101.8485816674
 31
0.0
  0
LINE
  5
1B8
330
1F
100
AcDbEntity
  8
0
  6
Continuous
 62
     7
100
AcDbLine
 10
9719.1460486858
 20
5101.8415110664
 30
0.0
 11
9719.3531804144
 21
5101.8415110664
 31
0.0
  0
LINE
  5
1B9
330
1F
100
AcDbEntity
  8
0
  6
Continuous
 62
     7
100
AcDbLine
 10
9719.3531804144
 20
5101.8415110664
 30
0.0
 11
9719.8768183946
 21
5101.2630209805
 31
0.0
  0
LINE
  5
1BA
330
1F
100
AcDbEntity
  8
0
  6
Continuous
 62
     7
100
AcDbLine
 10
9720.4004563748
 20
5101.8415110664
 30
0.0
 11
9720.607587172
 21
5101.8415110664
 31
0.0
  0
LINE
  5
1BB
330
1F
100
AcDbEntity
  8
0
  6
Continuous
 62
     7
100
AcDbLine
 10
9720.607587172
 20
5101.8415110664
 30
0.0
 11
9719.9805844932
 21
5101.1485688867
 31
0.0
  0
LINE
  5
1BC
330
1F
100
AcDbEntity
  8
0
  6
Continuous
 62
     7
100
AcDbLine
 10
9719.9805844932
 20
5101.1485688867
 30
0.0
 11
9720.6332283451
 21
5100.4272977368
 31
0.0
  0
LINE
  5
1BD
330
1F
100
AcDbEntity
  8
0
  6
Continuous
 62
     7
100
AcDbLine
 10
9720.6332283451
 20
5100.4272977368
 30
0.0
 11
9720.4260966166
 21
5100.4272977368
 31
0.0
  0
LINE
  5
1BE
330
1F
100
AcDbEntity
  8
0
  6
Continuous
 62
     7
100
AcDbLine
 10
9720.4260966166
 20
5100.4272977368
 30
0.0
 11
9719.8768183946
 21
5101.0341177241
 31
0.0
  0
LINE
  5
1BF
330
1F
100
AcDbEntity
  8
0
  6
Continuous
 62
     7
100
AcDbLine
 10
9719.8768183946
 20
5101.0341177241
 30
0.0
 11
9719.3275392412
 21
5100.4272977368
 31
0.0
  0
LINE
  5
1C0
330
1F
100
AcDbEntity
  8
0
  6
Continuous
 62
     7
100
AcDbLine
 10
9719.3275392412
 20
5100.4272977368
 30
0.0
 11
9719.1204075127
 21
5100.4272977368
 31
0.0
  0
LINE
  5
1C1
330
1F
100
AcDbEntity
  8
0
  6
Continuous
 62
     7
100
AcDbLine
 10
9719.1204075127
 20
5100.4272977368
 30
0.0
 11
9719.7734527647
 21
5101.1485688867
 31
0.0
  0
LINE
  5
1C2
330
1F
100
AcDbEntity
  8
0
  6
Continuous
 62
     7
100
AcDbLine
 10
9719.7734527647
 20
5101.1485688867
 30
0.0
 11
9719.1460486858
 21
5101.8415110664
 31
0.0
  0
LINE
  5
1C3
330
1F
100
AcDbEntity
  8
0
  6
Continuous
 62
     7
100
AcDbLine
 10
9720.607587172
 20
5101.8415110664
 30
0.0
 11
9720.607587172
 21
5101.8485816674
 31
0.0
  0
LINE
  5
1C4
330
1F
100
AcDbEntity
  8
0
  6
Continuous
 62
     7
100
AcDbLine
 10
9719.3531804144
 20
5101.8415110664
 30
0.0
 11
9719.3531804144
 21
5101.8485816674
 31
0.0
  0
LINE
  5
1C5
330
1F
100
AcDbEntity
  8
0
  6
Continuous
 62
     7
100
AcDbLine
 10
9719.1460486858
 20
5101.8415110664
 30
0.0
 11
9719.1460486858
 21
5101.8485816674
 31
0.0
  0
LINE
  5
1C6
330
1F
100
AcDbEntity
  8
0
  6
Continuous
 62
     7
100
AcDbLine
 10
9714.799894987
 20
5101.2630209805
 30
0.0
 11
9714.799894987
 21
5101.2700915815
 31
0.0
  0
LINE
  5
1C7
330
1F
100
AcDbEntity
  8
0
  6
Continuous
 62
     7
100
AcDbLine
 10
9700.2870748176
 20
5100.4272977368
 30
0.0
 11
9700.2870748176
 21
5100.4343683378
 31
0.0
  0
LINE
  5
1C8
330
1F
100
AcDbEntity
  8
0
  6
Continuous
 62
     7
100
AcDbLine
 10
9702.5178438409
 20
5100.4272977368
 30
0.0
 11
9702.5178438409
 21
5100.4343683378
 31
0.0
  0
LINE
  5
1C9
330
1F
100
AcDbEntity
  8
0
  6
Continuous
 62
     7
100
AcDbLine
 10
9713.6312253199
 20
5101.8415110664
 30
0.0
 11
9713.6312253199
 21
5101.8485816674
 31
0.0
  0
LINE
  5
1CA
330
1F
100
AcDbEntity
  8
0
  6
Continuous
 62
     7
100
AcDbLine
 10
9713.8383565827
 20
5101.8415110664
 30
0.0
 11
9713.8383565827
 21
5101.8485816674
 31
0.0
  0
LINE
  5
1CB
330
1F
100
AcDbEntity
  8
0
  6
Continuous
 62
     7
100
AcDbLine
 10
9702.8255360558
 20
5100.4272977368
 30
0.0
 11
9702.8255360558
 21
5100.4343683378
 31
0.0
  0
LINE
  5
1CC
330
1F
100
AcDbEntity
  8
0
  6
Continuous
 62
     7
100
AcDbLine
 10
9705.0563055447
 20
5100.4272977368
 30
0.0
 11
9705.0563055447
 21
5100.4343683378
 31
0.0
  0
LINE
  5
1CD
330
1F
100
AcDbEntity
  8
0
  6
Continuous
 62
     7
100
AcDbLine
 10
9709.6204079928
 20
5101.4633112134
 30
0.0
 11
9709.6204079928
 21
5101.4703818144
 31
0.0
  0
LINE
  5
1CE
330
1F
100
AcDbEntity
  8
0
  6
Continuous
 62
     7
100
AcDbLine
 10
9707.9281001709
 20
5101.4633112134
 30
0.0
 11
9707.9281001709
 21
5101.4703818144
 31
0.0
  0
LINE
  5
1CF
330
1F
100
AcDbEntity
  8
0
  6
Continuous
 62
     7
100
AcDbLine
 10
9708.5434849498
 20
5101.232129942
 30
0.0
 11
9708.9096707416
 21
5101.2301471563
 31
0.0
  0
LINE
  5
1D0
330
1F
100
AcDbEntity
  8
0
  6
Continuous
 62
     7
100
AcDbLine
 10
9706.8511771861
 20
5101.232129942
 30
0.0
 11
9707.2173632107
 21
5101.2301471563
 31
0.0
  0
LINE
  5
1D1
330
1F
100
AcDbEntity
  8
0
  6
Continuous
 62
     7
100
AcDbLine
 10
9708.9096707416
 20
5101.2230756239
 30
0.0
 11
9708.9096707416
 21
5101.2301471563
 31
0.0
  0
LINE
  5
1D2
330
1F
100
AcDbEntity
  8
0
  6
Continuous
 62
     7
100
AcDbLine
 10
9707.2173632107
 20
5101.2230756239
 30
0.0
 11
9707.2173632107
 21
5101.2301471563
 31
0.0
  0
LINE
  5
1D3
330
1F
100
AcDbEntity
  8
0
  6
Continuous
 62
     7
100
AcDbLine
 10
9717.2486130505
 20
5100.4272977368
 30
0.0
 11
9717.2486130505
 21
5100.4343683378
 31
0.0
  0
LINE
  5
1D4
330
1F
100
AcDbEntity
  8
0
  6
Continuous
 62
     7
100
AcDbLine
 10
9713.8639977559
 20
5100.4272977368
 30
0.0
 11
9713.8639977559
 21
5100.4343683378
 31
0.0
  0
LINE
  5
1D5
330
1F
100
AcDbEntity
  8
0
  6
Continuous
 62
     7
100
AcDbLine
 10
9715.5563054032
 20
5100.4272977368
 30
0.0
 11
9715.5563054032
 21
5100.4343683378
 31
0.0
  0
LINE
  5
1D6
330
1F
100
AcDbEntity
  8
0
  6
Continuous
 62
     7
100
AcDbLine
 10
9717.4281003311
 20
5100.4272977368
 30
0.0
 11
9717.4281003311
 21
5100.4343683378
 31
0.0
  0
LINE
  5
1D7
330
1F
100
AcDbEntity
  8
0
  6
Continuous
 62
     7
100
AcDbLine
 10
9718.9409211635
 20
5100.4272977368
 30
0.0
 11
9718.9409211635
 21
5100.4343683378
 31
0.0
  0
LINE
  5
1D8
330
1F
100
AcDbEntity
  8
0
  6
Continuous
 62
     7
100
AcDbLine
 10
9720.6332283451
 20
5100.4272977368
 30
0.0
 11
9720.6332283451
 21
5100.4343683378
 31
0.0
  0
LINE
  5
1D9
330
1F
100
AcDbEntity
  8
0
  6
Continuous
 62
     7
100
AcDbLine
 10
9714.0434850364
 20
5100.4272977368
 30
0.0
 11
9714.0434850364
 21
5100.4343683378
 31
0.0
  0
LINE
  5
1DA
330
1F
100
AcDbEntity
  8
0
  6
Continuous
 62
     7
100
AcDbLine
 10
9719.1204075127
 20
5100.4272977368
 30
0.0
 11
9719.1204075127
 21
5100.4343683378
 31
0.0
  0
LINE
  5
1DB
330
1F
100
AcDbEntity
  8
0
  6
Continuous
 62
     7
100
AcDbLine
 10
9712.3511771563
 20
5100.4272977368
 30
0.0
 11
9712.3511771563
 21
5100.4343683378
 31
0.0
  0
LINE
  5
1DC
330
1F
100
AcDbEntity
  8
0
  6
Continuous
 62
     7
100
AcDbLine
 10
9715.7357926837
 20
5100.4272977368
 30
0.0
 11
9715.7357926837
 21
5100.4343683378
 31
0.0
  0
LINE
  5
1DD
330
1F
100
AcDbEntity
  8
0
  6
Continuous
 62
     7
100
AcDbLine
 10
9707.953741344
 20
5100.4272977368
 30
0.0
 11
9707.953741344
 21
5100.4343683378
 31
0.0
  0
LINE
  5
1DE
330
1F
100
AcDbEntity
  8
0
  6
Continuous
 62
     7
100
AcDbLine
 10
9709.6460489913
 20
5100.4272977368
 30
0.0
 11
9709.6460489913
 21
5100.4343683378
 31
0.0
  0
LINE
  5
1DF
330
1F
100
AcDbEntity
  8
0
  6
Continuous
 62
     7
100
AcDbLine
 10
9710.6460489806
 20
5101.0437494622
 30
0.0
 11
9711.4152798088
 21
5101.0437494622
 31
0.0
  0
LINE
  5
1E0
330
1F
100
AcDbEntity
  8
0
  6
Continuous
 62
     7
100
AcDbLine
 10
9711.4152798088
 20
5101.0437494622
 30
0.0
 11
9711.4152798088
 21
5100.8987015591
 31
0.0
  0
LINE
  5
1E1
330
1F
100
AcDbEntity
  8
0
  6
Continuous
 62
     7
100
AcDbLine
 10
9711.4152798088
 20
5100.8987015591
 30
0.0
 11
9710.6460489806
 21
5100.8987015591
 31
0.0
  0
LINE
  5
1E2
330
1F
100
AcDbEntity
  8
0
  6
Continuous
 62
     7
100
AcDbLine
 10
9710.6460489806
 20
5100.8987015591
 30
0.0
 11
9710.6460489806
 21
5101.0437494622
 31
0.0
  0
LINE
  5
1E3
330
1F
100
AcDbEntity
  8
0
  6
Continuous
 62
     7
100
AcDbLine
 10
9711.4152798088
 20
5101.0437494622
 30
0.0
 11
9711.4152798088
 21
5101.0508200632
 31
0.0
  0
LINE
  5
1E4
330
1F
100
AcDbEntity
  8
0
  6
Continuous
 62
     7
100
AcDbLine
 10
9710.6460489806
 20
5101.0437494622
 30
0.0
 11
9710.6460489806
 21
5101.0508200632
 31
0.0
  0
LINE
  5
1E5
330
1F
100
AcDbEntity
  8
0
  6
Continuous
 62
     7
100
AcDbLine
 10
11010.221980211
 20
4957.3543312506
 30
0.0
 11
11009.5248144834
 21
4957.3543312506
 31
0.0
  0
LINE
  5
1E6
330
1F
100
AcDbEntity
  8
0
  6
Continuous
 62
     7
100
AcDbLine
 10
11009.5248144834
 20
4877.3543330388
 30
0.0
 11
11010.221980211
 21
4877.3543330388
 31
0.0
  0
LINE
  5
1E7
330
1F
100
AcDbEntity
  8
0
  6
Continuous
 62
     7
100
AcDbLine
 10
11009.5248144834
 20
4937.3543354229
 30
0.0
 11
10999.5248128443
 21
4937.3543354229
 31
0.0
  0
LINE
  5
1E8
330
1F
100
AcDbEntity
  8
0
  6
Continuous
 62
     7
100
AcDbLine
 10
10999.5248128443
 20
4897.3543437676
 30
0.0
 11
11009.5248144834
 21
4897.3543437676
 31
0.0
  0
LINE
  5
1E9
330
1F
100
AcDbEntity
  8
0
  6
Continuous
 62
     7
100
AcDbLine
 10
11011.0219825773
 20
4808.2666637854
 30
0.0
 11
11011.0219825773
 21
5088.2666754549
 31
0.0
  0
LINE
  5
1EA
330
1F
100
AcDbEntity
  8
0
  6
Continuous
 62
     7
100
AcDbLine
 10
11010.221980211
 20
4808.2666637854
 30
0.0
 11
11010.221980211
 21
5088.2666754549
 31
0.0
  0
LINE
  5
1EB
330
1F
100
AcDbEntity
  8
0
  6
Continuous
 62
     7
100
AcDbLine
 10
11010.221980211
 20
4808.2666637854
 30
0.0
 11
11011.0219825773
 21
4808.2666637854
 31
0.0
  0
LINE
  5
1EC
330
1F
100
AcDbEntity
  8
0
  6
Continuous
 62
     7
100
AcDbLine
 10
11011.4719827442
 20
4808.2666637854
 30
0.0
 11
11011.4719827442
 21
5088.2666754549
 31
0.0
  0
LINE
  5
1ED
330
1F
100
AcDbEntity
  8
0
  6
Continuous
 62
     7
100
AcDbLine
 10
11011.0219825773
 20
4808.2666637854
 30
0.0
 11
11011.4719827442
 21
4808.2666637854
 31
0.0
  0
LINE
  5
1EE
330
1F
100
AcDbEntity
  8
0
  6
Continuous
 62
     7
100
AcDbLine
 10
11225.9719778566
 20
4808.2666637854
 30
0.0
 11
11225.9719778566
 21
5088.2666754549
 31
0.0
  0
LINE
  5
1EF
330
1F
100
AcDbEntity
  8
0
  6
Continuous
 62
     7
100
AcDbLine
 10
11011.4719827442
 20
4808.2666637854
 30
0.0
 11
11225.9719778566
 21
4808.2666637854
 31
0.0
  0
LINE
  5
1F0
330
1F
100
AcDbEntity
  8
0
  6
Continuous
 62
     7
100
AcDbLine
 10
11227.2219766645
 20
4808.2666637854
 30
0.0
 11
11227.2219766645
 21
5088.2666754549
 31
0.0
  0
LINE
  5
1F1
330
1F
100
AcDbEntity
  8
0
  6
Continuous
 62
     7
100
AcDbLine
 10
11225.9719778566
 20
4808.2666637854
 30
0.0
 11
11227.2219766645
 21
4808.2666637854
 31
0.0
  0
LINE
  5
1F2
330
1F
100
AcDbEntity
  8
0
  6
Continuous
 62
     7
100
AcDbLine
 10
11012.1719796925
 20
5088.2666754549
 30
0.0
 11
11010.221980211
 21
5088.2666754549
 31
0.0
  0
LINE
  5
1F3
330
1F
100
AcDbEntity
  8
0
  6
Continuous
 62
     7
100
AcDbLine
 10
11010.221980211
 20
5088.2666754549
 30
0.0
 11
11010.221980211
 21
5588.2679464774
 31
0.0
  0
LINE
  5
1F4
330
1F
100
AcDbEntity
  8
0
  6
Continuous
 62
     7
100
AcDbLine
 10
11010.2746148376
 20
5588.2679464774
 30
0.0
 11
11012.1719796925
 21
5588.2679464774
 31
0.0
  0
LINE
  5
1F5
330
1F
100
AcDbEntity
  8
0
  6
Continuous
 62
     7
100
AcDbLine
 10
11012.1719796925
 20
5588.2679464774
 30
0.0
 11
11012.1719796925
 21
5088.2666754549
 31
0.0
  0
LINE
  5
1F6
330
1F
100
AcDbEntity
  8
0
  6
Continuous
 62
     7
100
AcDbLine
 10
11232.7915687828
 20
5088.837817231
 30
0.0
 11
11266.6510750322
 21
5122.6973178343
 31
0.0
  0
LINE
  5
1F7
330
1F
100
AcDbEntity
  8
0
  6
Continuous
 62
     7
100
AcDbLine
 10
11012.1719796925
 20
5088.2666754549
 30
0.0
 11
11231.4127196341
 21
5088.2666754549
 31
0.0
  0
LINE
  5
1F8
330
1F
100
AcDbEntity
  8
0
  6
Continuous
 62
     7
100
AcDbLine
 10
11013.171981719
 20
5588.2679464774
 30
0.0
 11
11012.1719796925
 21
5588.2679464774
 31
0.0
  0
LINE
  5
1F9
330
1F
100
AcDbEntity
  8
0
  6
Continuous
 62
     7
100
AcDbLine
 10
11013.171981719
 20
5590.2679505305
 30
0.0
 11
11013.171981719
 21
5588.2679464774
 31
0.0
  0
LINE
  5
1FA
330
1F
100
AcDbEntity
  8
0
  6
Continuous
 62
     7
100
AcDbLine
 10
11010.221980211
 20
5590.2679505305
 30
0.0
 11
11013.171981719
 21
5590.2679505305
 31
0.0
  0
LINE
  5
1FB
330
1F
100
AcDbEntity
  8
0
  6
Continuous
 62
     7
100
AcDbLine
 10
11010.221980211
 20
5607.2830500559
 30
0.0
 11
11010.221980211
 21
5590.2679505305
 31
0.0
  0
LINE
  5
1FC
330
1F
100
AcDbEntity
  8
0
  6
Continuous
 62
     7
100
AcDbLine
 10
11234.3232293396
 20
5528.5017433123
 30
0.0
 11
11012.8389184146
 21
5609.1154756503
 31
0.0
  0
LINE
  5
1FD
330
1F
100
AcDbEntity
  8
0
  6
Continuous
 62
     7
100
AcDbLine
 10
11267.2222216396
 20
5124.076178159
 30
0.0
 11
11267.2222216396
 21
5481.5171303706
 31
0.0
  0
LINE
  5
1FE
330
1F
100
AcDbEntity
  8
0
  6
Continuous
 62
     7
100
AcDbLine
 10
11010.221980211
 20
5588.2679464774
 30
0.0
 11
11010.2746148376
 21
5588.2679464774
 31
0.0
  0
LINE
  5
1FF
330
1F
100
AcDbEntity
  8
0
  6
Continuous
 62
     7
100
AcDbLine
 10
11010.221980211
 20
5590.2679505305
 30
0.0
 11
11010.221980211
 21
5588.2679464774
 31
0.0
  0
LINE
  5
200
330
1F
100
AcDbEntity
  8
0
  6
Continuous
 62
     7
100
AcDbLine
 10
11011.7219795256
 20
5590.2679505305
 30
0.0
 11
11011.7219795256
 21
5588.2679464774
 31
0.0
  0
LINE
  5
201
330
1F
100
AcDbEntity
  8
0
  6
Continuous
 62
     7
100
AcDbLine
 10
11268.7222172289
 20
5212.8684612469
 30
0.0
 11
11270.2222128181
 21
5212.8684612469
 31
0.0
  0
LINE
  5
202
330
1F
100
AcDbEntity
  8
0
  6
Continuous
 62
     7
100
AcDbLine
 10
11268.7222172289
 20
5212.8684612469
 30
0.0
 11
11268.7222172289
 21
5226.0184677796
 31
0.0
  0
LINE
  5
203
330
1F
100
AcDbEntity
  8
0
  6
Continuous
 62
     7
100
AcDbLine
 10
11270.2222128181
 20
5226.0184677796
 30
0.0
 11
11268.7222172289
 21
5226.0184677796
 31
0.0
  0
LINE
  5
204
330
1F
100
AcDbEntity
  8
0
  6
Continuous
 62
     7
100
AcDbLine
 10
11270.2222128181
 20
5212.8684612469
 30
0.0
 11
11270.2222128181
 21
5226.0184677796
 31
0.0
  0
LINE
  5
205
330
1F
100
AcDbEntity
  8
0
  6
Continuous
 62
     7
100
AcDbLine
 10
11009.5248144834
 20
4957.3543312506
 30
0.0
 11
11009.5248144834
 21
4877.3543330388
 31
0.0
  0
LINE
  5
206
330
1F
100
AcDbEntity
  8
0
  6
Continuous
 62
     7
100
AcDbLine
 10
10999.5248128443
 20
4937.3543354229
 30
0.0
 11
10999.5248128443
 21
4897.3543437676
 31
0.0
  0
LINE
  5
207
330
1F
100
AcDbEntity
  8
0
  6
Continuous
 62
     7
100
AcDbLine
 10
11247.0044155388
 20
5102.9092425959
 30
0.0
 11
11246.9337095289
 21
5102.9799532623
 31
0.0
  0
LINE
  5
208
330
1F
100
AcDbEntity
  8
0
  6
Continuous
 62
     7
100
AcDbLine
 10
11247.0044155388
 20
5102.9092425959
 30
0.0
 11
11243.4688915281
 21
5099.3737083407
 31
0.0
  0
LINE
  5
209
330
1F
100
AcDbEntity
  8
0
  6
Continuous
 62
     7
100
AcDbLine
 10
11243.4688915281
 20
5099.3737083407
 30
0.0
 11
11243.3981706171
 21
5099.4444190071
 31
0.0
  0
LINE
  5
20A
330
1F
100
AcDbEntity
  8
0
  6
Continuous
 62
     7
100
AcDbLine
 10
11245.9508289366
 20
5101.8415110664
 30
0.0
 11
11245.9437657862
 21
5101.8485816674
 31
0.0
  0
LINE
  5
20B
330
1F
100
AcDbEntity
  8
0
  6
Continuous
 62
     7
100
AcDbLine
 10
11244.5366193323
 20
5100.4272977368
 30
0.0
 11
11244.5295412807
 21
5100.4343683378
 31
0.0
  0
LINE
  5
20C
330
1F
100
AcDbEntity
  8
0
  6
Continuous
 62
     7
100
AcDbLine
 10
11244.5366193323
 20
5100.4272977368
 30
0.0
 11
11245.9508289366
 21
5101.8415110664
 31
0.0
  0
LINE
  5
20D
330
1F
100
AcDbEntity
  8
0
  6
Continuous
 62
     7
100
AcDbLine
 10
11245.9870983629
 20
5101.8777730422
 30
0.0
 11
11245.9800203114
 21
5101.8848436431
 31
0.0
  0
LINE
  5
20E
330
1F
100
AcDbEntity
  8
0
  6
Continuous
 62
     7
100
AcDbLine
 10
11244.3371821909
 20
5100.2278568701
 30
0.0
 11
11244.5366193323
 21
5100.4272977368
 31
0.0
  0
LINE
  5
20F
330
1F
100
AcDbEntity
  8
0
  6
Continuous
 62
     7
100
AcDbLine
 10
11245.9508289366
 20
5101.8415110664
 30
0.0
 11
11245.9870983629
 21
5101.8777730422
 31
0.0
  0
LINE
  5
210
330
1F
100
AcDbEntity
  8
0
  6
Continuous
 62
     7
100
AcDbLine
 10
11244.3371821909
 20
5100.2278568701
 30
0.0
 11
11244.3301041393
 21
5100.2349284024
 31
0.0
  0
LINE
  5
211
330
1F
100
AcDbEntity
  8
0
  6
Continuous
 62
     7
100
AcDbLine
 10
9750.1332275926
 20
4404.1238163698
 30
0.0
 11
9750.1332275926
 21
4404.8209820974
 31
0.0
  0
LINE
  5
212
330
1F
100
AcDbEntity
  8
0
  6
Continuous
 62
     7
100
AcDbLine
 10
9670.1332293808
 20
4404.8209820974
 30
0.0
 11
9670.1332293808
 21
4404.1238163698
 31
0.0
  0
LINE
  5
213
330
1F
100
AcDbEntity
  8
0
  6
Continuous
 62
     7
100
AcDbLine
 10
9730.1332280397
 20
4404.8209820974
 30
0.0
 11
9730.1332280397
 21
4414.8209837365
 31
0.0
  0
LINE
  5
214
330
1F
100
AcDbEntity
  8
0
  6
Continuous
 62
     7
100
AcDbLine
 10
9690.1332289337
 20
4414.8209837365
 30
0.0
 11
9690.1332289337
 21
4404.8209820974
 31
0.0
  0
LINE
  5
215
330
1F
100
AcDbEntity
  8
0
  6
Continuous
 62
     7
100
AcDbLine
 10
9085.1332284867
 20
4357.1241495299
 30
0.0
 11
9085.1332284867
 21
4353.915389125
 31
0.0
  0
LINE
  5
216
330
1F
100
AcDbEntity
  8
0
  6
Continuous
 62
     7
100
AcDbLine
 10
9135.1332404076
 20
4353.915389125
 30
0.0
 11
9135.1332404076
 21
4357.1241495299
 31
0.0
  0
LINE
  5
217
330
1F
100
AcDbEntity
  8
0
  6
Continuous
 62
     7
100
AcDbLine
 10
10285.1332165658
 20
4357.1241495299
 30
0.0
 11
10285.1332165658
 21
4353.915389125
 31
0.0
  0
LINE
  5
218
330
1F
100
AcDbEntity
  8
0
  6
Continuous
 62
     7
100
AcDbLine
 10
10335.1332284867
 20
4353.915389125
 30
0.0
 11
10335.1332284867
 21
4357.1241495299
 31
0.0
  0
LINE
  5
219
330
1F
100
AcDbEntity
  8
0
  6
Continuous
 62
     7
100
AcDbLine
 10
9685.1332281142
 20
4357.1241495299
 30
0.0
 11
9685.1332281142
 21
4353.915389125
 31
0.0
  0
LINE
  5
21A
330
1F
100
AcDbEntity
  8
0
  6
Continuous
 62
     7
100
AcDbLine
 10
9735.1332288592
 20
4353.915389125
 30
0.0
 11
9735.1332288592
 21
4357.1241495299
 31
0.0
  0
LINE
  5
21B
330
1F
100
AcDbEntity
  8
0
  6
Continuous
 62
     7
100
AcDbLine
 10
9630.3240172922
 20
4404.1238163698
 30
0.0
 11
9630.3238310277
 21
4404.1241479206
 31
0.0
  0
LINE
  5
21C
330
1F
100
AcDbEntity
  8
0
  6
Continuous
 62
     7
100
AcDbLine
 10
9560.6332309901
 20
4404.1241479206
 30
0.0
 11
9539.9426259457
 21
4404.1241479206
 31
0.0
  0
LINE
  5
21D
330
1F
100
AcDbEntity
  8
0
  6
Continuous
 62
     7
100
AcDbLine
 10
9560.6335588156
 20
4404.1238163698
 30
0.0
 11
9560.6332309901
 21
4404.1241479206
 31
0.0
  0
LINE
  5
21E
330
1F
100
AcDbEntity
  8
0
  6
Continuous
 62
     7
100
AcDbLine
 10
9609.6332259833
 20
4404.1241479206
 30
0.0
 11
9609.6328981578
 21
4404.1238163698
 31
0.0
  0
LINE
  5
21F
330
1F
100
AcDbEntity
  8
0
  6
Continuous
 62
     7
100
AcDbLine
 10
9630.3238310277
 20
4404.1241479206
 30
0.0
 11
9609.6332259833
 21
4404.1241479206
 31
0.0
  0
LINE
  5
220
330
1F
100
AcDbEntity
  8
0
  6
Continuous
 62
     7
100
AcDbLine
 10
9539.9426259457
 20
4404.1241479206
 30
0.0
 11
9539.9424322306
 21
4404.1238163698
 31
0.0
  0
LINE
  5
221
330
1F
100
AcDbEntity
  8
0
  6
Continuous
 62
     7
100
AcDbLine
 10
9885.3240199744
 20
4404.1238163698
 30
0.0
 11
9885.3238262593
 21
4404.1241479206
 31
0.0
  0
LINE
  5
222
330
1F
100
AcDbEntity
  8
0
  6
Continuous
 62
     7
100
AcDbLine
 10
9864.6332212149
 20
4404.1241479206
 30
0.0
 11
9864.6328933894
 21
4404.1238163698
 31
0.0
  0
LINE
  5
223
330
1F
100
AcDbEntity
  8
0
  6
Continuous
 62
     7
100
AcDbLine
 10
9794.9426286279
 20
4404.1241479206
 30
0.0
 11
9794.9424349128
 21
4404.1238163698
 31
0.0
  0
LINE
  5
224
330
1F
100
AcDbEntity
  8
0
  6
Continuous
 62
     7
100
AcDbLine
 10
9885.3238262593
 20
4404.1241479206
 30
0.0
 11
9864.6332212149
 21
4404.1241479206
 31
0.0
  0
LINE
  5
225
330
1F
100
AcDbEntity
  8
0
  6
Continuous
 62
     7
100
AcDbLine
 10
9815.6335614979
 20
4404.1238163698
 30
0.0
 11
9815.6332262217
 21
4404.1241479206
 31
0.0
  0
LINE
  5
226
330
1F
100
AcDbEntity
  8
0
  6
Continuous
 62
     7
100
AcDbLine
 10
9815.6332262217
 20
4404.1241479206
 30
0.0
 11
9794.9426286279
 21
4404.1241479206
 31
0.0
  0
LINE
  5
227
330
1F
100
AcDbEntity
  8
0
  6
Continuous
 62
     7
100
AcDbLine
 10
9035.8238555848
 20
4404.1241479206
 30
0.0
 11
9015.1332356393
 21
4404.1241479206
 31
0.0
  0
LINE
  5
228
330
1F
100
AcDbEntity
  8
0
  6
Continuous
 62
     7
100
AcDbLine
 10
9015.1332356393
 20
4404.1241479206
 30
0.0
 11
9015.1328780114
 21
4404.1238163698
 31
0.0
  0
LINE
  5
229
330
1F
100
AcDbEntity
  8
0
  6
Continuous
 62
     7
100
AcDbLine
 10
9035.8240343987
 20
4404.1238163698
 30
0.0
 11
9035.8238555848
 21
4404.1241479206
 31
0.0
  0
LINE
  5
22A
330
1F
100
AcDbEntity
  8
0
  6
Continuous
 62
     7
100
AcDbLine
 10
10405.133578962
 20
4404.1238163698
 30
0.0
 11
10405.1332213341
 21
4404.1241479206
 31
0.0
  0
LINE
  5
22B
330
1F
100
AcDbEntity
  8
0
  6
Continuous
 62
     7
100
AcDbLine
 10
10405.1332213341
 20
4404.1241479206
 30
0.0
 11
10384.4426013886
 21
4404.1241479206
 31
0.0
  0
LINE
  5
22C
330
1F
100
AcDbEntity
  8
0
  6
Continuous
 62
     7
100
AcDbLine
 10
10384.4426013886
 20
4404.1241479206
 30
0.0
 11
10384.4424225747
 21
4404.1238163698
 31
0.0
  0
LINE
  5
22D
330
1F
100
AcDbEntity
  8
0
  6
Continuous
 62
     7
100
AcDbLine
 10
10610.1332046448
 20
4404.1238163698
 30
0.0
 11
10608.6332537591
 21
4404.1238163698
 31
0.0
  0
LINE
  5
22E
330
1F
100
AcDbEntity
  8
0
  6
Continuous
 62
     7
100
AcDbLine
 10
10610.1332046448
 20
4401.5068781662
 30
0.0
 11
10608.6332537591
 21
4401.5068781662
 31
0.0
  0
LINE
  5
22F
330
1F
100
AcDbEntity
  8
0
  6
Continuous
 62
     7
100
AcDbLine
 10
10608.6332537591
 20
4401.5068781662
 30
0.0
 11
10608.6332537591
 21
4404.1238163698
 31
0.0
  0
LINE
  5
230
330
1F
100
AcDbEntity
  8
0
  6
Continuous
 62
     7
100
AcDbLine
 10
10610.1332046448
 20
4401.5068781662
 30
0.0
 11
10610.1332046448
 21
4404.1238163698
 31
0.0
  0
LINE
  5
231
330
1F
100
AcDbEntity
  8
0
  6
Continuous
 62
     7
100
AcDbLine
 10
10610.1332046448
 20
4180.0225672412
 30
0.0
 11
10608.6332537591
 21
4180.0225672412
 31
0.0
  0
LINE
  5
232
330
1F
100
AcDbEntity
  8
0
  6
Continuous
 62
     7
100
AcDbLine
 10
10608.6332537591
 20
4180.0225672412
 30
0.0
 11
10608.6332537591
 21
4401.5068781662
 31
0.0
  0
LINE
  5
233
330
1F
100
AcDbEntity
  8
0
  6
Continuous
 62
     7
100
AcDbLine
 10
10610.1332046448
 20
4180.0225672412
 30
0.0
 11
10610.1332046448
 21
4401.5068781662
 31
0.0
  0
LINE
  5
234
330
1F
100
AcDbEntity
  8
0
  6
Continuous
 62
     7
100
AcDbLine
 10
10610.1332046448
 20
4147.1235749411
 30
0.0
 11
10608.6332537591
 21
4147.1235749411
 31
0.0
  0
LINE
  5
235
330
1F
100
AcDbEntity
  8
0
  6
Continuous
 62
     7
100
AcDbLine
 10
10608.6332537591
 20
4147.1235749411
 30
0.0
 11
10608.6332537591
 21
4180.0225672412
 31
0.0
  0
LINE
  5
236
330
1F
100
AcDbEntity
  8
0
  6
Continuous
 62
     7
100
AcDbLine
 10
10610.1332046448
 20
4147.1235749411
 30
0.0
 11
10610.1332046448
 21
4180.0225672412
 31
0.0
  0
LINE
  5
237
330
1F
100
AcDbEntity
  8
0
  6
Continuous
 62
     7
100
AcDbLine
 10
8810.1332523286
 20
4401.5068781662
 30
0.0
 11
8811.6332032143
 21
4401.5068781662
 31
0.0
  0
LINE
  5
238
330
1F
100
AcDbEntity
  8
0
  6
Continuous
 62
     7
100
AcDbLine
 10
8810.1332523286
 20
4404.1238163698
 30
0.0
 11
8811.6332032143
 21
4404.1238163698
 31
0.0
  0
LINE
  5
239
330
1F
100
AcDbEntity
  8
0
  6
Continuous
 62
     7
100
AcDbLine
 10
8811.6332032143
 20
4401.5068781662
 30
0.0
 11
8811.6332032143
 21
4404.1238163698
 31
0.0
  0
LINE
  5
23A
330
1F
100
AcDbEntity
  8
0
  6
Continuous
 62
     7
100
AcDbLine
 10
8810.1332523286
 20
4401.5068781662
 30
0.0
 11
8810.1332523286
 21
4404.1238163698
 31
0.0
  0
LINE
  5
23B
330
1F
100
AcDbEntity
  8
0
  6
Continuous
 62
     7
100
AcDbLine
 10
8810.1332523286
 20
4180.0225672412
 30
0.0
 11
8811.6332032143
 21
4180.0225672412
 31
0.0
  0
LINE
  5
23C
330
1F
100
AcDbEntity
  8
0
  6
Continuous
 62
     7
100
AcDbLine
 10
8811.6332032143
 20
4180.0225672412
 30
0.0
 11
8811.6332032143
 21
4401.5068781662
 31
0.0
  0
LINE
  5
23D
330
1F
100
AcDbEntity
  8
0
  6
Continuous
 62
     7
100
AcDbLine
 10
8810.1332523286
 20
4180.0225672412
 30
0.0
 11
8810.1332523286
 21
4401.5068781662
 31
0.0
  0
LINE
  5
23E
330
1F
100
AcDbEntity
  8
0
  6
Continuous
 62
     7
100
AcDbLine
 10
8810.1332523286
 20
4147.1235749411
 30
0.0
 11
8811.6332032143
 21
4147.1235749411
 31
0.0
  0
LINE
  5
23F
330
1F
100
AcDbEntity
  8
0
  6
Continuous
 62
     7
100
AcDbLine
 10
8811.6332032143
 20
4147.1235749411
 30
0.0
 11
8811.6332032143
 21
4180.0225672412
 31
0.0
  0
LINE
  5
240
330
1F
100
AcDbEntity
  8
0
  6
Continuous
 62
     7
100
AcDbLine
 10
8810.1332523286
 20
4147.1235749411
 30
0.0
 11
8810.1332523286
 21
4180.0225672412
 31
0.0
  0
LINE
  5
241
330
1F
100
AcDbEntity
  8
0
  6
Continuous
 62
     7
100
AcDbLine
 10
10608.6332537591
 20
4404.1238163698
 30
0.0
 11
8811.6332032143
 21
4404.1238163698
 31
0.0
  0
LINE
  5
242
330
1F
100
AcDbEntity
  8
0
  6
Continuous
 62
     7
100
AcDbLine
 10
10608.6332537591
 20
4401.5068781662
 30
0.0
 11
8811.6332032143
 21
4401.5068781662
 31
0.0
  0
LINE
  5
243
330
1F
100
AcDbEntity
  8
0
  6
Continuous
 62
     7
100
AcDbLine
 10
10608.6332537591
 20
4358.4072102892
 30
0.0
 11
8811.6332032143
 21
4358.4072102892
 31
0.0
  0
LINE
  5
244
330
1F
100
AcDbEntity
  8
0
  6
Continuous
 62
     7
100
AcDbLine
 10
8811.6332032143
 20
4358.4072102892
 30
0.0
 11
8811.6332032143
 21
4401.5068781662
 31
0.0
  0
LINE
  5
245
330
1F
100
AcDbEntity
  8
0
  6
Continuous
 62
     7
100
AcDbLine
 10
10608.6332537591
 20
4358.4072102892
 30
0.0
 11
10608.6332537591
 21
4401.5068781662
 31
0.0
  0
LINE
  5
246
330
1F
100
AcDbEntity
  8
0
  6
Continuous
 62
     7
100
AcDbLine
 10
10608.6332537591
 20
4357.1241495299
 30
0.0
 11
8811.6332032143
 21
4357.1241495299
 31
0.0
  0
LINE
  5
247
330
1F
100
AcDbEntity
  8
0
  6
Continuous
 62
     7
100
AcDbLine
 10
10608.6332537591
 20
4148.6235854316
 30
0.0
 11
8811.6332032143
 21
4148.6235854316
 31
0.0
  0
LINE
  5
248
330
1F
100
AcDbEntity
  8
0
  6
Continuous
 62
     7
100
AcDbLine
 10
10608.6332537591
 20
4144.1235837626
 30
0.0
 11
8811.6332032143
 21
4144.1235837626
 31
0.0
  0
LINE
  5
249
330
1F
100
AcDbEntity
  8
0
  6
Continuous
 62
     7
100
AcDbLine
 10
8811.6332032143
 20
4144.1235837626
 30
0.0
 11
8811.6332032143
 21
4147.1235749411
 31
0.0
  0
LINE
  5
24A
330
1F
100
AcDbEntity
  8
0
  6
Continuous
 62
     7
100
AcDbLine
 10
10608.6332537591
 20
4144.1235837626
 30
0.0
 11
10608.6332537591
 21
4147.1235749411
 31
0.0
  0
LINE
  5
24B
330
1F
100
AcDbEntity
  8
0
  6
Continuous
 62
     7
100
AcDbLine
 10
10608.6332537591
 20
4148.7553862023
 30
0.0
 11
8811.6332032143
 21
4148.7553862023
 31
0.0
  0
LINE
  5
24C
330
1F
100
AcDbEntity
  8
0
  6
Continuous
 62
     7
100
AcDbLine
 10
10608.6332537591
 20
4323.132846235
 30
0.0
 11
8811.6332032143
 21
4323.132846235
 31
0.0
  0
LINE
  5
24D
330
1F
100
AcDbEntity
  8
0
  6
Continuous
 62
     7
100
AcDbLine
 10
10608.6332537591
 20
4182.6148775506
 30
0.0
 11
8811.6332032143
 21
4182.6148775506
 31
0.0
  0
LINE
  5
24E
330
1F
100
AcDbEntity
  8
0
  6
Continuous
 62
     7
100
AcDbLine
 10
10608.6332537591
 20
4322.8146468389
 30
0.0
 11
8811.6332032143
 21
4322.8146468389
 31
0.0
  0
LINE
  5
24F
330
1F
100
AcDbEntity
  8
0
  6
Continuous
 62
     7
100
AcDbLine
 10
10608.6332537591
 20
4182.9330769467
 30
0.0
 11
8811.6332032143
 21
4182.9330769467
 31
0.0
  0
LINE
  5
250
330
1F
100
AcDbEntity
  8
0
  6
Continuous
 62
     7
100
AcDbLine
 10
9746.4438081145
 20
4404.8209820974
 30
0.0
 11
9670.1332293808
 21
4404.8209820974
 31
0.0
  0
LINE
  5
251
330
1F
100
AcDbEntity
  8
0
  6
Continuous
 62
     7
100
AcDbLine
 10
9750.1332275926
 20
4404.8209820974
 30
0.0
 11
9746.4438081145
 21
4404.8209820974
 31
0.0
  0
LINE
  5
252
330
1F
100
AcDbEntity
  8
0
  6
Continuous
 62
     7
100
AcDbLine
 10
9728.2885183006
 20
4414.8209837365
 30
0.0
 11
9690.1332289337
 21
4414.8209837365
 31
0.0
  0
LINE
  5
253
330
1F
100
AcDbEntity
  8
0
  6
Continuous
 62
     7
100
AcDbLine
 10
9730.1332280397
 20
4414.8209837365
 30
0.0
 11
9728.2885183006
 21
4414.8209837365
 31
0.0
  0
LINE
  5
254
330
1F
100
AcDbEntity
  8
0
  6
Continuous
 62
     7
100
AcDbLine
 10
9694.2701842993
 20
4245.447337358
 30
0.0
 11
9698.8156801447
 21
4248.0716777134
 31
0.0
  0
LINE
  5
255
330
1F
100
AcDbEntity
  8
0
  6
Continuous
 62
     7
100
AcDbLine
 10
9721.4507768287
 20
4248.0716777134
 30
0.0
 11
9725.9962726741
 21
4245.447337358
 31
0.0
  0
LINE
  5
256
330
1F
100
AcDbEntity
  8
0
  6
Continuous
 62
     7
100
AcDbLine
 10
9708.6332284737
 20
4264.2755729246
 30
0.0
 11
9708.6332284737
 21
4272.3160383391
 31
0.0
  0
LINE
  5
257
330
1F
100
AcDbEntity
  8
0
  6
Continuous
 62
     7
100
AcDbLine
 10
9711.6332284997
 20
4272.3160383391
 30
0.0
 11
9711.6332284997
 21
4264.2755729246
 31
0.0
  0
LINE
  5
258
330
1F
100
AcDbEntity
  8
0
  6
Continuous
 62
     7
100
AcDbLine
 10
9711.5936740914
 20
4247.8310387736
 30
0.0
 11
9711.4318227752
 21
4248.991720109
 31
0.0
  0
LINE
  5
259
330
1F
100
AcDbEntity
  8
0
  6
Continuous
 62
     7
100
AcDbLine
 10
9711.4318227752
 20
4248.991720109
 30
0.0
 11
9711.2550596132
 21
4250.2593469906
 31
0.0
  0
LINE
  5
25A
330
1F
100
AcDbEntity
  8
0
  6
Continuous
 62
     7
100
AcDbLine
 10
9711.2550596132
 20
4250.2593469906
 30
0.0
 11
9711.06812734
 21
4251.5998927045
 31
0.0
  0
LINE
  5
25B
330
1F
100
AcDbEntity
  8
0
  6
Continuous
 62
     7
100
AcDbLine
 10
9711.06812734
 20
4251.5998927045
 30
0.0
 11
9710.8760413023
 21
4252.9773932981
 31
0.0
  0
LINE
  5
25C
330
1F
100
AcDbEntity
  8
0
  6
Continuous
 62
     7
100
AcDbLine
 10
9710.8760413023
 20
4252.9773932981
 30
0.0
 11
9710.6839552646
 21
4254.3549013424
 31
0.0
  0
LINE
  5
25D
330
1F
100
AcDbEntity
  8
0
  6
Continuous
 62
     7
100
AcDbLine
 10
9710.6839552646
 20
4254.3549013424
 30
0.0
 11
9710.4970229914
 21
4255.6954470563
 31
0.0
  0
LINE
  5
25E
330
1F
100
AcDbEntity
  8
0
  6
Continuous
 62
     7
100
AcDbLine
 10
9710.4970229914
 20
4255.6954470563
 30
0.0
 11
9710.320259873
 21
4256.9630739379
 31
0.0
  0
LINE
  5
25F
330
1F
100
AcDbEntity
  8
0
  6
Continuous
 62
     7
100
AcDbLine
 10
9710.320259873
 20
4256.9630739379
 30
0.0
 11
9710.1584085414
 21
4258.1237552664
 31
0.0
  0
LINE
  5
260
330
1F
100
AcDbEntity
  8
0
  6
Continuous
 62
     7
100
AcDbLine
 10
9708.6727828819
 20
4257.9165925285
 30
0.0
 11
9708.8346341982
 21
4256.7559105444
 31
0.0
  0
LINE
  5
261
330
1F
100
AcDbEntity
  8
0
  6
Continuous
 62
     7
100
AcDbLine
 10
9708.8346341982
 20
4256.7559105444
 30
0.0
 11
9709.0113973602
 21
4255.4882911134
 31
0.0
  0
LINE
  5
262
330
1F
100
AcDbEntity
  8
0
  6
Continuous
 62
     7
100
AcDbLine
 10
9709.0113973602
 20
4255.4882911134
 30
0.0
 11
9709.1983296334
 21
4254.1477379489
 31
0.0
  0
LINE
  5
263
330
1F
100
AcDbEntity
  8
0
  6
Continuous
 62
     7
100
AcDbLine
 10
9709.1983296334
 20
4254.1477379489
 30
0.0
 11
9709.3904156711
 21
4252.7702373552
 31
0.0
  0
LINE
  5
264
330
1F
100
AcDbEntity
  8
0
  6
Continuous
 62
     7
100
AcDbLine
 10
9709.3904156711
 20
4252.7702373552
 30
0.0
 11
9709.5825017088
 21
4251.392729311
 31
0.0
  0
LINE
  5
265
330
1F
100
AcDbEntity
  8
0
  6
Continuous
 62
     7
100
AcDbLine
 10
9709.5825017088
 20
4251.392729311
 30
0.0
 11
9709.769433982
 21
4250.0521835971
 31
0.0
  0
LINE
  5
266
330
1F
100
AcDbEntity
  8
0
  6
Continuous
 62
     7
100
AcDbLine
 10
9709.769433982
 20
4250.0521835971
 30
0.0
 11
9709.9461971004
 21
4248.7845567155
 31
0.0
  0
LINE
  5
267
330
1F
100
AcDbEntity
  8
0
  6
Continuous
 62
     7
100
AcDbLine
 10
9709.9461971004
 20
4248.7845567155
 30
0.0
 11
9710.108048432
 21
4247.6238760357
 31
0.0
  0
LINE
  5
268
330
1F
100
AcDbEntity
  8
0
  6
Continuous
 62
     7
100
AcDbLine
 10
9134.0079047143
 20
4351.5146292846
 30
0.0
 11
9086.2585641801
 21
4351.5146292846
 31
0.0
  0
LINE
  5
269
330
1F
100
AcDbEntity
  8
0
  6
Continuous
 62
     7
100
AcDbLine
 10
10334.0078927933
 20
4351.5146292846
 30
0.0
 11
10286.2585522591
 21
4351.5146292846
 31
0.0
  0
LINE
  5
26A
330
1F
100
AcDbEntity
  8
0
  6
Continuous
 62
     7
100
AcDbLine
 10
9734.0079006165
 20
4351.5146292846
 30
0.0
 11
9686.2585563569
 21
4351.5146292846
 31
0.0
  0
LINE
  5
26B
330
1F
100
AcDbEntity
  8
0
  6
Continuous
 62
     7
100
AcDbLine
 10
10608.6332537591
 20
4356.9923475805
 30
0.0
 11
10335.1332284867
 21
4356.9923475805
 31
0.0
  0
LINE
  5
26C
330
1F
100
AcDbEntity
  8
0
  6
Continuous
 62
     7
100
AcDbLine
 10
10285.1332165658
 20
4356.9923475805
 30
0.0
 11
9735.1332288592
 21
4356.9923475805
 31
0.0
  0
LINE
  5
26D
330
1F
100
AcDbEntity
  8
0
  6
Continuous
 62
     7
100
AcDbLine
 10
9685.1332281142
 20
4356.9923475805
 30
0.0
 11
9135.1332404076
 21
4356.9923475805
 31
0.0
  0
LINE
  5
26E
330
1F
100
AcDbEntity
  8
0
  6
Continuous
 62
     7
100
AcDbLine
 10
9085.1332284867
 20
4356.9923475805
 30
0.0
 11
8811.6332032143
 21
4356.9923475805
 31
0.0
  0
LINE
  5
26F
330
1F
100
AcDbEntity
  8
0
  6
Continuous
 62
     7
100
AcDbLine
 10
9710.1332284867
 20
4272.3738175917
 30
0.0
 11
9710.1332284867
 21
4264.3738162804
 31
0.0
  0
LINE
  5
270
330
1F
100
AcDbEntity
  8
0
  6
Continuous
 62
     7
100
AcDbLine
 10
9707.5225542053
 20
5101.8293181912
 30
0.0
 11
9707.8449228107
 21
5101.6776615848
 31
0.0
  0
LINE
  5
271
330
1F
100
AcDbEntity
  8
0
  6
Continuous
 62
     7
100
AcDbLine
 10
9707.8449228107
 20
5101.6776615848
 30
0.0
 11
9707.9281001709
 21
5101.4703818144
 31
0.0
  0
LINE
  5
272
330
1F
100
AcDbEntity
  8
0
  6
Continuous
 62
     7
100
AcDbLine
 10
9707.0686052307
 20
5101.8485816674
 30
0.0
 11
9707.3263237082
 21
5101.8447425862
 31
0.0
  0
LINE
  5
273
330
1F
100
AcDbEntity
  8
0
  6
Continuous
 62
     7
100
AcDbLine
 10
9707.3263237082
 20
5101.8447425862
 30
0.0
 11
9707.5250554255
 21
5101.8293181912
 31
0.0
  0
LINE
  5
274
330
1F
100
AcDbEntity
  8
0
  6
Continuous
 62
     7
100
AcDbLine
 10
9709.2162797912
 20
5101.8293181912
 30
0.0
 11
9709.5372305262
 21
5101.6776615743
 31
0.0
  0
LINE
  5
275
330
1F
100
AcDbEntity
  8
0
  6
Continuous
 62
     7
100
AcDbLine
 10
9709.5372305262
 20
5101.6776615743
 30
0.0
 11
9709.6204079928
 21
5101.4703818144
 31
0.0
  0
LINE
  5
276
330
1F
100
AcDbEntity
  8
0
  6
Continuous
 62
     7
100
AcDbLine
 10
9708.7623308166
 20
5101.8485816674
 30
0.0
 11
9709.0186313886
 21
5101.8447425904
 31
0.0
  0
LINE
  5
277
330
1F
100
AcDbEntity
  8
0
  6
Continuous
 62
     7
100
AcDbLine
 10
9709.0186313886
 20
5101.8447425904
 30
0.0
 11
9709.2173631311
 21
5101.8293181912
 31
0.0
  0
LINE
  5
278
330
1F
100
AcDbEntity
  8
0
  6
Continuous
 62
     7
100
AcDbLine
 10
9708.9072893127
 20
5101.2230756239
 30
0.0
 11
9709.2607838495
 21
5101.2604248996
 31
0.0
  0
LINE
  5
279
330
1F
100
AcDbEntity
  8
0
  6
Continuous
 62
     7
100
AcDbLine
 10
9709.2607838495
 20
5101.2604248996
 30
0.0
 11
9709.3922418205
 21
5101.342900588
 31
0.0
  0
LINE
  5
27A
330
1F
100
AcDbEntity
  8
0
  6
Continuous
 62
     7
100
AcDbLine
 10
9709.3922418205
 20
5101.342900588
 30
0.0
 11
9709.4409207705
 21
5101.4635943355
 31
0.0
  0
LINE
  5
27B
330
1F
100
AcDbEntity
  8
0
  6
Continuous
 62
     7
100
AcDbLine
 10
9709.4375322326
 20
5101.4635943355
 30
0.0
 11
9709.3921480016
 21
5101.5805100737
 31
0.0
  0
LINE
  5
27C
330
1F
100
AcDbEntity
  8
0
  6
Continuous
 62
     7
100
AcDbLine
 10
9709.3921480016
 20
5101.5805100737
 30
0.0
 11
9709.2636612559
 21
5101.6621038407
 31
0.0
  0
LINE
  5
27D
330
1F
100
AcDbEntity
  8
0
  6
Continuous
 62
     7
100
AcDbLine
 10
9709.2636612559
 20
5101.6621038407
 30
0.0
 11
9708.9184848949
 21
5101.6964631633
 31
0.0
  0
LINE
  5
27E
330
1F
100
AcDbEntity
  8
0
  6
Continuous
 62
     7
100
AcDbLine
 10
9708.7623308166
 20
5101.8415110664
 30
0.0
 11
9709.0186313825
 21
5101.8376710585
 31
0.0
  0
LINE
  5
27F
330
1F
100
AcDbEntity
  8
0
  6
Continuous
 62
     7
100
AcDbLine
 10
9709.0186313825
 20
5101.8376710585
 30
0.0
 11
9709.2173631311
 21
5101.8222466589
 31
0.0
  0
LINE
  5
280
330
1F
100
AcDbEntity
  8
0
  6
Continuous
 62
     7
100
AcDbLine
 10
9709.2162797912
 20
5101.8222466589
 30
0.0
 11
9709.5372262078
 21
5101.6705946257
 31
0.0
  0
LINE
  5
281
330
1F
100
AcDbEntity
  8
0
  6
Continuous
 62
     7
100
AcDbLine
 10
9709.5372262078
 20
5101.6705946257
 30
0.0
 11
9709.6204079928
 21
5101.4633112134
 31
0.0
  0
LINE
  5
282
330
1F
100
AcDbEntity
  8
0
  6
Continuous
 62
     7
100
AcDbLine
 10
9709.6168230041
 20
5101.4633112134
 30
0.0
 11
9709.5669802031
 21
5101.2901639602
 31
0.0
  0
LINE
  5
283
330
1F
100
AcDbEntity
  8
0
  6
Continuous
 62
     7
100
AcDbLine
 10
9709.5669802031
 20
5101.2901639602
 30
0.0
 11
9709.3994733104
 21
5101.1576627601
 31
0.0
  0
LINE
  5
284
330
1F
100
AcDbEntity
  8
0
  6
Continuous
 62
     7
100
AcDbLine
 10
9709.3994733104
 20
5101.1576627601
 30
0.0
 11
9708.9112733149
 21
5101.080011438
 31
0.0
  0
LINE
  5
285
330
1F
100
AcDbEntity
  8
0
  6
Continuous
 62
     7
100
AcDbLine
 10
9707.2135637268
 20
5101.2230756239
 30
0.0
 11
9707.5684762452
 21
5101.2604248943
 31
0.0
  0
LINE
  5
286
330
1F
100
AcDbEntity
  8
0
  6
Continuous
 62
     7
100
AcDbLine
 10
9707.5684762452
 20
5101.2604248943
 30
0.0
 11
9707.6999340918
 21
5101.3429006295
 31
0.0
  0
LINE
  5
287
330
1F
100
AcDbEntity
  8
0
  6
Continuous
 62
     7
100
AcDbLine
 10
9707.6999340918
 20
5101.3429006295
 30
0.0
 11
9707.7486131231
 21
5101.4635943355
 31
0.0
  0
LINE
  5
288
330
1F
100
AcDbEntity
  8
0
  6
Continuous
 62
     7
100
AcDbLine
 10
9707.747621344
 20
5101.4635943355
 30
0.0
 11
9707.6998402672
 21
5101.5805100419
 31
0.0
  0
LINE
  5
289
330
1F
100
AcDbEntity
  8
0
  6
Continuous
 62
     7
100
AcDbLine
 10
9707.6998402672
 20
5101.5805100419
 30
0.0
 11
9707.5713535579
 21
5101.6621038173
 31
0.0
  0
LINE
  5
28A
330
1F
100
AcDbEntity
  8
0
  6
Continuous
 62
     7
100
AcDbLine
 10
9707.5713535579
 20
5101.6621038173
 30
0.0
 11
9707.2261772475
 21
5101.6964631633
 31
0.0
  0
LINE
  5
28B
330
1F
100
AcDbEntity
  8
0
  6
Continuous
 62
     7
100
AcDbLine
 10
9707.0686052307
 20
5101.8415110664
 30
0.0
 11
9707.3263237021
 21
5101.8376710544
 31
0.0
  0
LINE
  5
28C
330
1F
100
AcDbEntity
  8
0
  6
Continuous
 62
     7
100
AcDbLine
 10
9707.3263237021
 20
5101.8376710544
 30
0.0
 11
9707.5250554255
 21
5101.8222466589
 31
0.0
  0
LINE
  5
28D
330
1F
100
AcDbEntity
  8
0
  6
Continuous
 62
     7
100
AcDbLine
 10
9707.5225542053
 20
5101.8222466589
 30
0.0
 11
9707.8449184924
 21
5101.6705946362
 31
0.0
  0
LINE
  5
28E
330
1F
100
AcDbEntity
  8
0
  6
Continuous
 62
     7
100
AcDbLine
 10
9707.8449184924
 20
5101.6705946362
 30
0.0
 11
9707.9281001709
 21
5101.4633112134
 31
0.0
  0
LINE
  5
28F
330
1F
100
AcDbEntity
  8
0
  6
Continuous
 62
     7
100
AcDbLine
 10
9707.9269121154
 20
5101.4633112134
 30
0.0
 11
9707.8746724386
 21
5101.2901639546
 31
0.0
  0
LINE
  5
290
330
1F
100
AcDbEntity
  8
0
  6
Continuous
 62
     7
100
AcDbLine
 10
9707.8746724386
 20
5101.2901639546
 30
0.0
 11
9707.7071655484
 21
5101.1576627462
 31
0.0
  0
LINE
  5
291
330
1F
100
AcDbEntity
  8
0
  6
Continuous
 62
     7
100
AcDbLine
 10
9707.7071655484
 20
5101.1576627462
 30
0.0
 11
9707.2189655512
 21
5101.080011438
 31
0.0
  0
LINE
  5
292
330
1F
100
AcDbEntity
  8
0
  6
Continuous
 62
     7
100
AcDbLine
 10
9708.9072893127
 20
5101.2301471563
 30
0.0
 11
9709.2607818927
 21
5101.2674948173
 31
0.0
  0
LINE
  5
293
330
1F
100
AcDbEntity
  8
0
  6
Continuous
 62
     7
100
AcDbLine
 10
9709.2607818927
 20
5101.2674948173
 30
0.0
 11
9709.3922372871
 21
5101.3499657465
 31
0.0
  0
LINE
  5
294
330
1F
100
AcDbEntity
  8
0
  6
Continuous
 62
     7
100
AcDbLine
 10
9709.3922372871
 20
5101.3499657465
 30
0.0
 11
9709.4409207705
 21
5101.4706649364
 31
0.0
  0
LINE
  5
295
330
1F
100
AcDbEntity
  8
0
  6
Continuous
 62
     7
100
AcDbLine
 10
9707.2135637268
 20
5101.2301471563
 30
0.0
 11
9707.5684742884
 21
5101.267494812
 31
0.0
  0
LINE
  5
296
330
1F
100
AcDbEntity
  8
0
  6
Continuous
 62
     7
100
AcDbLine
 10
9707.5684742884
 20
5101.267494812
 30
0.0
 11
9707.6999295584
 21
5101.349965788
 31
0.0
  0
LINE
  5
297
330
1F
100
AcDbEntity
  8
0
  6
Continuous
 62
     7
100
AcDbLine
 10
9707.6999295584
 20
5101.349965788
 30
0.0
 11
9707.7486131231
 21
5101.4706649364
 31
0.0
  0
LINE
  5
298
330
1F
100
AcDbEntity
  8
0
  6
Continuous
 62
     7
100
AcDbLine
 10
9086.2571428283
 20
4351.5146292846
 30
0.0
 11
9085.1827790671
 21
4353.8047670779
 31
0.0
  0
LINE
  5
299
330
1F
100
AcDbEntity
  8
0
  6
Continuous
 62
     7
100
AcDbLine
 10
9085.1827790671
 20
4353.8047670779
 30
0.0
 11
9085.116346678
 21
4353.9651975497
 31
0.0
  0
LINE
  5
29A
330
1F
100
AcDbEntity
  8
0
  6
Continuous
 62
     7
100
AcDbLine
 10
9085.116346678
 20
4353.9651975497
 30
0.0
 11
9085.1147968845
 21
4353.9692358376
 31
0.0
  0
LINE
  5
29B
330
1F
100
AcDbEntity
  8
0
  6
Continuous
 62
     7
100
AcDbLine
 10
9085.1147968845
 20
4353.9692358376
 30
0.0
 11
9085.1147782886
 21
4353.9693877939
 31
0.0
  0
LINE
  5
29C
330
1F
100
AcDbEntity
  8
0
  6
Continuous
 62
     7
100
AcDbLine
 10
9085.1147782886
 20
4353.9693877939
 30
0.0
 11
9085.1151524595
 21
4353.9686322807
 31
0.0
  0
LINE
  5
29D
330
1F
100
AcDbEntity
  8
0
  6
Continuous
 62
     7
100
AcDbLine
 10
9085.1151524595
 20
4353.9686322807
 30
0.0
 11
9085.1163765636
 21
4353.9658813871
 31
0.0
  0
LINE
  5
29E
330
1F
100
AcDbEntity
  8
0
  6
Continuous
 62
     7
100
AcDbLine
 10
9085.1163765636
 20
4353.9658813871
 30
0.0
 11
9085.1377584397
 21
4353.915389125
 31
0.0
  0
LINE
  5
29F
330
1F
100
AcDbEntity
  8
0
  6
Continuous
 62
     7
100
AcDbLine
 10
9135.1272294983
 20
4353.915389125
 30
0.0
 11
9134.7576086938
 21
4353.0489493933
 31
0.0
  0
LINE
  5
2A0
330
1F
100
AcDbEntity
  8
0
  6
Continuous
 62
     7
100
AcDbLine
 10
9134.7576086938
 20
4353.0489493933
 30
0.0
 11
9134.0079047143
 21
4351.5146292846
 31
0.0
  0
LINE
  5
2A1
330
1F
100
AcDbEntity
  8
0
  6
Continuous
 62
     7
100
AcDbLine
 10
10286.2585522591
 20
4351.5146292846
 30
0.0
 11
10285.1827671462
 21
4353.8047670779
 31
0.0
  0
LINE
  5
2A2
330
1F
100
AcDbEntity
  8
0
  6
Continuous
 62
     7
100
AcDbLine
 10
10285.1827671462
 20
4353.8047670779
 30
0.0
 11
10285.1163347571
 21
4353.9651975497
 31
0.0
  0
LINE
  5
2A3
330
1F
100
AcDbEntity
  8
0
  6
Continuous
 62
     7
100
AcDbLine
 10
10285.1163347571
 20
4353.9651975497
 30
0.0
 11
10285.1147849636
 21
4353.9692358376
 31
0.0
  0
LINE
  5
2A4
330
1F
100
AcDbEntity
  8
0
  6
Continuous
 62
     7
100
AcDbLine
 10
10285.1147849636
 20
4353.9692358376
 30
0.0
 11
10285.1147663677
 21
4353.9693877939
 31
0.0
  0
LINE
  5
2A5
330
1F
100
AcDbEntity
  8
0
  6
Continuous
 62
     7
100
AcDbLine
 10
10285.1147663677
 20
4353.9693877939
 30
0.0
 11
10285.1151405385
 21
4353.9686322807
 31
0.0
  0
LINE
  5
2A6
330
1F
100
AcDbEntity
  8
0
  6
Continuous
 62
     7
100
AcDbLine
 10
10285.1151405385
 20
4353.9686322807
 30
0.0
 11
10285.1163646427
 21
4353.9658813871
 31
0.0
  0
LINE
  5
2A7
330
1F
100
AcDbEntity
  8
0
  6
Continuous
 62
     7
100
AcDbLine
 10
10285.1163646427
 20
4353.9658813871
 30
0.0
 11
10285.1377465188
 21
4353.915389125
 31
0.0
  0
LINE
  5
2A8
330
1F
100
AcDbEntity
  8
0
  6
Continuous
 62
     7
100
AcDbLine
 10
10335.1279924377
 20
4353.915389125
 30
0.0
 11
10334.7575967729
 21
4353.0489493933
 31
0.0
  0
LINE
  5
2A9
330
1F
100
AcDbEntity
  8
0
  6
Continuous
 62
     7
100
AcDbLine
 10
10334.7575967729
 20
4353.0489493933
 30
0.0
 11
10334.0078927933
 21
4351.5146292846
 31
0.0
  0
LINE
  5
2AA
330
1F
100
AcDbEntity
  8
0
  6
Continuous
 62
     7
100
AcDbLine
 10
9686.2556169494
 20
4351.5146292846
 30
0.0
 11
9685.1827173613
 21
4353.8047661949
 31
0.0
  0
LINE
  5
2AB
330
1F
100
AcDbEntity
  8
0
  6
Continuous
 62
     7
100
AcDbLine
 10
9685.1827173613
 20
4353.8047661949
 30
0.0
 11
9685.1162891518
 21
4353.9651971046
 31
0.0
  0
LINE
  5
2AC
330
1F
100
AcDbEntity
  8
0
  6
Continuous
 62
     7
100
AcDbLine
 10
9685.1162891518
 20
4353.9651971046
 30
0.0
 11
9685.1147430763
 21
4353.9692354756
 31
0.0
  0
LINE
  5
2AD
330
1F
100
AcDbEntity
  8
0
  6
Continuous
 62
     7
100
AcDbLine
 10
9685.1147430763
 20
4353.9692354756
 30
0.0
 11
9685.1147259237
 21
4353.9693874597
 31
0.0
  0
LINE
  5
2AE
330
1F
100
AcDbEntity
  8
0
  6
Continuous
 62
     7
100
AcDbLine
 10
9685.1147259237
 20
4353.9693874597
 30
0.0
 11
9685.115102183
 21
4353.9686319836
 31
0.0
  0
LINE
  5
2AF
330
1F
100
AcDbEntity
  8
0
  6
Continuous
 62
     7
100
AcDbLine
 10
9685.115102183
 20
4353.9686319836
 30
0.0
 11
9685.1163293705
 21
4353.9658811394
 31
0.0
  0
LINE
  5
2B0
330
1F
100
AcDbEntity
  8
0
  6
Continuous
 62
     7
100
AcDbLine
 10
9685.1163293705
 20
4353.9658811394
 30
0.0
 11
9685.1377338528
 21
4353.915389125
 31
0.0
  0
LINE
  5
2B1
330
1F
100
AcDbEntity
  8
0
  6
Continuous
 62
     7
100
AcDbLine
 10
9735.1257036194
 20
4353.915389125
 30
0.0
 11
9734.7576222213
 21
4353.0489487302
 31
0.0
  0
LINE
  5
2B2
330
1F
100
AcDbEntity
  8
0
  6
Continuous
 62
     7
100
AcDbLine
 10
9734.7576222213
 20
4353.0489487302
 30
0.0
 11
9734.0079006165
 21
4351.5146292846
 31
0.0
  0
LINE
  5
2B3
330
1F
100
AcDbEntity
  8
0
  6
Continuous
 62
     7
100
AcDbLine
 10
9103.25694627
 20
5523.7666804294
 30
0.0
 11
9103.3126959397
 21
5523.996584845
 31
0.0
  0
LINE
  5
2B4
330
1F
100
AcDbEntity
  8
0
  6
Continuous
 62
     7
100
AcDbLine
 10
9116.7813504213
 20
5523.996584845
 30
0.0
 11
9117.0149547907
 21
5523.7666804294
 31
0.0
  0
LINE
  5
2B5
330
1F
100
AcDbEntity
  8
0
  6
Continuous
 62
     7
100
AcDbLine
 10
9117.6832344471
 20
5534.6166804294
 30
0.0
 11
9102.5832344471
 21
5534.6166804294
 31
0.0
  0
LINE
  5
2B6
330
1F
100
AcDbEntity
  8
0
  6
Continuous
 62
     7
100
AcDbLine
 10
9117.6832344471
 20
5524.0166804294
 30
0.0
 11
9102.5832344471
 21
5524.0166804294
 31
0.0
  0
LINE
  5
2B7
330
1F
100
AcDbEntity
  8
0
  6
Continuous
 62
     7
100
AcDbLine
 10
9102.2295102335
 20
5523.996584845
 30
0.0
 11
9117.8471457029
 21
5523.996584845
 31
0.0
  0
LINE
  5
2B8
330
1F
100
AcDbEntity
  8
0
  6
Continuous
 62
     7
100
AcDbLine
 10
9111.0538724402
 20
5523.996584845
 30
0.0
 11
9110.6556663115
 21
5523.7666804294
 31
0.0
  0
LINE
  5
2B9
330
1F
100
AcDbEntity
  8
0
  6
Continuous
 62
     7
100
AcDbLine
 10
9112.5108025828
 20
5523.7666804294
 30
0.0
 11
9112.1125964541
 21
5523.996584845
 31
0.0
  0
LINE
  5
2BA
330
1F
100
AcDbEntity
  8
0
  6
Continuous
 62
     7
100
AcDbLine
 10
9102.6332344471
 20
5534.7666804294
 30
0.0
 11
9117.6332344471
 21
5534.7666804294
 31
0.0
  0
LINE
  5
2BB
330
1F
100
AcDbEntity
  8
0
  6
Continuous
 62
     7
100
AcDbLine
 10
9117.6332344471
 20
5523.7666804294
 30
0.0
 11
9102.6332344471
 21
5523.7666804294
 31
0.0
  0
LINE
  5
2BC
330
1F
100
AcDbEntity
  8
0
  6
Continuous
 62
     7
100
AcDbLine
 10
9086.2585616745
 20
5520.8504819423
 30
0.0
 11
9134.0079072198
 21
5520.8504819423
 31
0.0
  0
LINE
  5
2BD
330
1F
100
AcDbEntity
  8
0
  6
Continuous
 62
     7
100
AcDbLine
 10
9134.0079072198
 20
5535.6828789165
 30
0.0
 11
9086.2585616745
 21
5535.6828789165
 31
0.0
  0
LINE
  5
2BE
330
1F
100
AcDbEntity
  8
0
  6
Continuous
 62
     7
100
AcDbLine
 10
9703.2569403095
 20
5523.7666744329
 30
0.0
 11
9703.3126899792
 21
5523.9965788485
 31
0.0
  0
LINE
  5
2BF
330
1F
100
AcDbEntity
  8
0
  6
Continuous
 62
     7
100
AcDbLine
 10
9716.7813444608
 20
5523.9965788485
 30
0.0
 11
9717.0149488302
 21
5523.7666744329
 31
0.0
  0
LINE
  5
2C0
330
1F
100
AcDbEntity
  8
0
  6
Continuous
 62
     7
100
AcDbLine
 10
9717.6832284866
 20
5534.6166744329
 30
0.0
 11
9702.5832284866
 21
5534.6166744329
 31
0.0
  0
LINE
  5
2C1
330
1F
100
AcDbEntity
  8
0
  6
Continuous
 62
     7
100
AcDbLine
 10
9717.6832284866
 20
5524.0166744329
 30
0.0
 11
9702.5832284866
 21
5524.0166744329
 31
0.0
  0
LINE
  5
2C2
330
1F
100
AcDbEntity
  8
0
  6
Continuous
 62
     7
100
AcDbLine
 10
9702.229504273
 20
5523.9965788485
 30
0.0
 11
9717.8471397424
 21
5523.9965788485
 31
0.0
  0
LINE
  5
2C3
330
1F
100
AcDbEntity
  8
0
  6
Continuous
 62
     7
100
AcDbLine
 10
9711.0538664797
 20
5523.9965788485
 30
0.0
 11
9710.655660351
 21
5523.7666744329
 31
0.0
  0
LINE
  5
2C4
330
1F
100
AcDbEntity
  8
0
  6
Continuous
 62
     7
100
AcDbLine
 10
9712.5107966223
 20
5523.7666744329
 30
0.0
 11
9712.1125904936
 21
5523.9965788485
 31
0.0
  0
LINE
  5
2C5
330
1F
100
AcDbEntity
  8
0
  6
Continuous
 62
     7
100
AcDbLine
 10
9702.6332284866
 20
5534.7666744329
 30
0.0
 11
9717.6332284866
 21
5534.7666744329
 31
0.0
  0
LINE
  5
2C6
330
1F
100
AcDbEntity
  8
0
  6
Continuous
 62
     7
100
AcDbLine
 10
9717.6332284866
 20
5523.7666744329
 30
0.0
 11
9702.6332284866
 21
5523.7666744329
 31
0.0
  0
LINE
  5
2C7
330
1F
100
AcDbEntity
  8
0
  6
Continuous
 62
     7
100
AcDbLine
 10
9686.258555714
 20
5520.8504759458
 30
0.0
 11
9734.0079012593
 21
5520.8504759458
 31
0.0
  0
LINE
  5
2C8
330
1F
100
AcDbEntity
  8
0
  6
Continuous
 62
     7
100
AcDbLine
 10
9734.0079012593
 20
5535.68287292
 30
0.0
 11
9686.258555714
 21
5535.68287292
 31
0.0
  0
LINE
  5
2C9
330
1F
100
AcDbEntity
  8
0
  6
Continuous
 62
     7
100
AcDbLine
 10
10303.256934349
 20
5523.7666804294
 30
0.0
 11
10303.3126840187
 21
5523.996584845
 31
0.0
  0
LINE
  5
2CA
330
1F
100
AcDbEntity
  8
0
  6
Continuous
 62
     7
100
AcDbLine
 10
10316.7813385003
 20
5523.996584845
 30
0.0
 11
10317.0149428697
 21
5523.7666804294
 31
0.0
  0
LINE
  5
2CB
330
1F
100
AcDbEntity
  8
0
  6
Continuous
 62
     7
100
AcDbLine
 10
10317.6832225261
 20
5534.6166804294
 30
0.0
 11
10302.5832225261
 21
5534.6166804294
 31
0.0
  0
LINE
  5
2CC
330
1F
100
AcDbEntity
  8
0
  6
Continuous
 62
     7
100
AcDbLine
 10
10317.6832225261
 20
5524.0166804294
 30
0.0
 11
10302.5832225261
 21
5524.0166804294
 31
0.0
  0
LINE
  5
2CD
330
1F
100
AcDbEntity
  8
0
  6
Continuous
 62
     7
100
AcDbLine
 10
10302.2294983125
 20
5523.996584845
 30
0.0
 11
10317.8471337819
 21
5523.996584845
 31
0.0
  0
LINE
  5
2CE
330
1F
100
AcDbEntity
  8
0
  6
Continuous
 62
     7
100
AcDbLine
 10
10311.0538605192
 20
5523.996584845
 30
0.0
 11
10310.6556543905
 21
5523.7666804294
 31
0.0
  0
LINE
  5
2CF
330
1F
100
AcDbEntity
  8
0
  6
Continuous
 62
     7
100
AcDbLine
 10
10312.5107906618
 20
5523.7666804294
 30
0.0
 11
10312.1125845331
 21
5523.996584845
 31
0.0
  0
LINE
  5
2D0
330
1F
100
AcDbEntity
  8
0
  6
Continuous
 62
     7
100
AcDbLine
 10
10302.6332225261
 20
5534.7666804294
 30
0.0
 11
10317.6332225261
 21
5534.7666804294
 31
0.0
  0
LINE
  5
2D1
330
1F
100
AcDbEntity
  8
0
  6
Continuous
 62
     7
100
AcDbLine
 10
10317.6332225261
 20
5523.7666804294
 30
0.0
 11
10302.6332225261
 21
5523.7666804294
 31
0.0
  0
LINE
  5
2D2
330
1F
100
AcDbEntity
  8
0
  6
Continuous
 62
     7
100
AcDbLine
 10
10286.2585497535
 20
5520.8504819423
 30
0.0
 11
10334.0078952988
 21
5520.8504819423
 31
0.0
  0
LINE
  5
2D3
330
1F
100
AcDbEntity
  8
0
  6
Continuous
 62
     7
100
AcDbLine
 10
10334.0078952988
 20
5535.6828789165
 30
0.0
 11
10286.2585497535
 21
5535.6828789165
 31
0.0
  0
LWPOLYLINE
  5
2D4
330
1F
100
AcDbEntity
  8
0
  6
Continuous
 62
     7
100
AcDbPolyline
 90
        5
 70
   128
 43
0.0
 10
9102.5772094727
 20
5524.0166804294
 10
9098.8862363585
 20
5525.5210663558
 10
9097.2836821423
 20
5529.3222706951
 10
9098.8887975688
 20
5533.1166329429
 10
9102.5832344471
 20
5534.6166804294
  0
LWPOLYLINE
  5
2D5
330
1F
100
AcDbEntity
  8
0
  6
Continuous
 62
     7
100
AcDbPolyline
 90
        5
 70
   128
 43
0.0
 10
9117.67578125
 20
5534.6166804294
 10
9121.3783588915
 20
5533.1161579445
 10
9122.9830265163
 20
5529.31368604
 10
9121.3789404393
 20
5525.517753158
 10
9117.6832344471
 20
5524.0166804294
  0
LWPOLYLINE
  5
2D6
330
1F
100
AcDbEntity
  8
0
  6
Continuous
 62
     7
100
AcDbPolyline
 90
        5
 70
   128
 43
0.0
 10
9102.6306152344
 20
5523.7666804294
 10
9098.7925472878
 20
5525.3319725643
 10
9097.133696526
 20
5529.2721908961
 10
9098.7951297194
 20
5533.205891135
 10
9102.6332344471
 20
5534.7666804294
  0
LWPOLYLINE
  5
2D7
330
1F
100
AcDbEntity
  8
0
  6
Continuous
 62
     7
100
AcDbPolyline
 90
        5
 70
   128
 43
0.0
 10
9117.6300048828
 20
5534.7666804294
 10
9121.4739216066
 20
5533.2013882945
 10
9123.1327723683
 20
5529.2611699626
 10
9121.4713391749
 20
5525.3274697237
 10
9117.6332344471
 20
5523.7666804294
  0
LWPOLYLINE
  5
2D8
330
1F
100
AcDbEntity
  8
0
  6
Continuous
 62
     7
100
AcDbPolyline
 90
        3
 70
   128
 43
0.0
 10
9134.0026855469
 20
5535.6828789165
 10
9135.1140952686
 20
5527.3090602871
 10
9134.0079072198
 20
5520.8504819423
  0
LWPOLYLINE
  5
2D9
330
1F
100
AcDbEntity
  8
0
  6
Continuous
 62
     7
100
AcDbPolyline
 90
        3
 70
   128
 43
0.0
 10
9086.2579345703
 20
5520.8504819423
 10
9085.1523736257
 20
5529.2243005717
 10
9086.2585616745
 20
5535.6828789165
  0
LWPOLYLINE
  5
2DA
330
1F
100
AcDbEntity
  8
0
  6
Continuous
 62
     7
100
AcDbPolyline
 90
        5
 70
   128
 43
0.0
 10
9702.5756835938
 20
5524.0166744329
 10
9698.886230398
 20
5525.5210603593
 10
9697.2836761818
 20
5529.3222646985
 10
9698.8887916083
 20
5533.1166269464
 10
9702.5832284866
 20
5534.6166744329
  0
LWPOLYLINE
  5
2DB
330
1F
100
AcDbEntity
  8
0
  6
Continuous
 62
     7
100
AcDbPolyline
 90
        5
 70
   128
 43
0.0
 10
9717.6818847656
 20
5534.6166744329
 10
9721.378352931
 20
5533.116151948
 10
9722.9830205558
 20
5529.3136800435
 10
9721.3789344788
 20
5525.5177471615
 10
9717.6832284866
 20
5524.0166744329
  0
LWPOLYLINE
  5
2DC
330
1F
100
AcDbEntity
  8
0
  6
Continuous
 62
     7
100
AcDbPolyline
 90
        5
 70
   128
 43
0.0
 10
9702.6290893555
 20
5523.7666744329
 10
9698.7925413273
 20
5525.3319665678
 10
9697.1336905655
 20
5529.2721848996
 10
9698.7951237589
 20
5533.2058851385
 10
9702.6332284866
 20
5534.7666744329
  0
LWPOLYLINE
  5
2DD
330
1F
100
AcDbEntity
  8
0
  6
Continuous
 62
     7
100
AcDbPolyline
 90
        5
 70
   128
 43
0.0
 10
9717.6284790039
 20
5534.7666744329
 10
9721.4739156461
 20
5533.201382298
 10
9723.1327664078
 20
5529.2611639661
 10
9721.4713332144
 20
5525.3274637272
 10
9717.6332284866
 20
5523.7666744329
  0
LWPOLYLINE
  5
2DE
330
1F
100
AcDbEntity
  8
0
  6
Continuous
 62
     7
100
AcDbPolyline
 90
        3
 70
   128
 43
0.0
 10
9734.001159668
 20
5535.68287292
 10
9735.1140893081
 20
5527.3090542906
 10
9734.0079012593
 20
5520.8504759458
  0
LWPOLYLINE
  5
2DF
330
1F
100
AcDbEntity
  8
0
  6
Continuous
 62
     7
100
AcDbPolyline
 90
        3
 70
   128
 43
0.0
 10
9686.2564086914
 20
5520.8504759458
 10
9685.1523676652
 20
5529.2242945751
 10
9686.258555714
 20
5535.68287292
  0
LWPOLYLINE
  5
2E0
330
1F
100
AcDbEntity
  8
0
  6
Continuous
 62
     7
100
AcDbPolyline
 90
        5
 70
   128
 43
0.0
 10
10302.5817871094
 20
5524.0166804294
 10
10298.8862244375
 20
5525.5210663558
 10
10297.2836702213
 20
5529.3222706951
 10
10298.8887856478
 20
5533.1166329429
 10
10302.5832225261
 20
5534.6166804294
  0
LWPOLYLINE
  5
2E1
330
1F
100
AcDbEntity
  8
0
  6
Continuous
 62
     7
100
AcDbPolyline
 90
        5
 70
   128
 43
0.0
 10
10317.6803588867
 20
5534.6166804294
 10
10321.3783469705
 20
5533.1161579445
 10
10322.9830145953
 20
5529.31368604
 10
10321.3789285183
 20
5525.517753158
 10
10317.6832225261
 20
5524.0166804294
  0
LWPOLYLINE
  5
2E2
330
1F
100
AcDbEntity
  8
0
  6
Continuous
 62
     7
100
AcDbPolyline
 90
        5
 70
   128
 43
0.0
 10
10302.6275634766
 20
5523.7666804294
 10
10298.7925353668
 20
5525.3319725643
 10
10297.133684605
 20
5529.2721908961
 10
10298.7951177984
 20
5533.205891135
 10
10302.6332225261
 20
5534.7666804294
  0
LWPOLYLINE
  5
2E3
330
1F
100
AcDbEntity
  8
0
  6
Continuous
 62
     7
100
AcDbPolyline
 90
        5
 70
   128
 43
0.0
 10
10317.626953125
 20
5534.7666804294
 10
10321.4739096856
 20
5533.2013882945
 10
10323.1327604473
 20
5529.2611699626
 10
10321.4713272539
 20
5525.3274697237
 10
10317.6332225261
 20
5523.7666804294
  0
LWPOLYLINE
  5
2E4
330
1F
100
AcDbEntity
  8
0
  6
Continuous
 62
     7
100
AcDbPolyline
 90
        3
 70
   128
 43
0.0
 10
10334.0072631836
 20
5535.6828789165
 10
10335.1140833476
 20
5527.3090602871
 10
10334.0078952988
 20
5520.8504819423
  0
LWPOLYLINE
  5
2E5
330
1F
100
AcDbEntity
  8
0
  6
Continuous
 62
     7
100
AcDbPolyline
 90
        3
 70
   128
 43
0.0
 10
10286.2548828125
 20
5520.8504819423
 10
10285.1523617047
 20
5529.2243005717
 10
10286.2585497535
 20
5535.6828789165
  0
ENDSEC
  0
SECTION
  2
OBJECTS
  0
DICTIONARY
  5
C
330
0
100
AcDbDictionary
281
     1
  3
ACAD_GROUP
350
D
  3
ACAD_LAYOUT
350
1A
  3
ACAD_MLINESTYLE
350
17
  3
ACAD_PLOTSETTINGS
350
19
  3
ACAD_PLOTSTYLENAME
350
E
  3
ACAD_SCALELIST
350
47
  3
DWGPROPS
350
2E6
  0
DICTIONARY
  5
D
102
{ACAD_REACTORS
330
C
102
}
330
C
100
AcDbDictionary
281
     1
  0
DICTIONARY
  5
1A
102
{ACAD_REACTORS
330
C
102
}
330
C
100
AcDbDictionary
281
     1
  3
Layout1
350
1E
  3
Layout2
350
26
  3
Model
350
22
  0
DICTIONARY
  5
17
102
{ACAD_REACTORS
330
C
102
}
330
C
100
AcDbDictionary
281
     1
  3
Standard
350
18
  0
DICTIONARY
  5
19
102
{ACAD_REACTORS
330
C
102
}
330
C
100
AcDbDictionary
281
     1
  0
ACDBDICTIONARYWDFLT
  5
E
102
{ACAD_REACTORS
330
C
102
}
330
C
100
AcDbDictionary
281
     1
  3
Normal
350
F
100
AcDbDictionaryWithDefault
340
F
  0
DICTIONARY
  5
47
102
{ACAD_REACTORS
330
C
102
}
330
C
100
AcDbDictionary
281
     1
  3
A0
350
48
  3
A1
350
49
  3
A2
350
4A
  3
A3
350
4B
  3
A4
350
4C
  3
A5
350
4D
  3
A6
350
4E
  3
A7
350
4F
  3
A8
350
50
  3
A9
350
51
  3
B0
350
52
  3
B1
350
53
  3
B2
350
54
  3
B3
350
55
  3
B4
350
56
  3
B5
350
57
  3
B6
350
58
  3
B7
350
59
  3
B8
350
5A
  3
B9
350
5B
  3
C0
350
5C
  3
C1
350
5D
  3
C2
350
5E
  3
C3
350
5F
  3
C4
350
60
  3
C5
350
61
  3
C6
350
62
  3
C7
350
63
  3
C8
350
64
  3
C9
350
65
  3
D0
350
66
  3
D1
350
67
  3
D2
350
68
  0
XRECORD
  5
2E6
102
{ACAD_REACTORS
330
C
102
}
330
C
100
AcDbXrecord
280
     1
  1
DWGPROPS COOKIE
  2

  3

  4

  6

  7

  8
radek.stransky
  9

300
=
301
=
302
=
303
=
304
=
305
=
306
=
307
=
308
=
309
=
 40
0.0
 41
2459094.279027048
 42
2459094.279078437
  1

 90
        0
  0
LAYOUT
  5
1E
102
{ACAD_REACTORS
330
1A
102
}
330
1A
100
AcDbPlotSettings
  1

  2
none_device
  4

  6

 40
0.0
 41
0.0
 42
0.0
 43
0.0
 44
0.0
 45
0.0
 46
0.0
 47
0.0
 48
0.0
 49
0.0
140
0.0
141
0.0
142
1.0
143
1.0
 70
   688
 72
     1
 73
     0
 74
     5
  7

 75
    16
147
1.0
148
0.0
149
0.0
100
AcDbLayout
  1
Layout1
 70
     1
 71
     1
 10
0.0
 20
0.0
 11
420.0
 21
297.0
 12
0.0
 22
0.0
 32
0.0
 14
1.0000000000E+20
 24
1.0000000000E+20
 34
1.0000000000E+20
 15
-1.0000000000E+20
 25
-1.0000000000E+20
 35
-1.0000000000E+20
146
0.0
 13
0.0
 23
0.0
 33
0.0
 16
1.0
 26
0.0
 36
0.0
 17
0.0
 27
1.0
 37
0.0
 76
     0
330
1B
  0
LAYOUT
  5
26
102
{ACAD_REACTORS
330
1A
102
}
330
1A
100
AcDbPlotSettings
  1

  2
none_device
  4

  6

 40
0.0
 41
0.0
 42
0.0
 43
0.0
 44
0.0
 45
0.0
 46
0.0
 47
0.0
 48
0.0
 49
0.0
140
0.0
141
0.0
142
1.0
143
1.0
 70
   688
 72
     1
 73
     0
 74
     5
  7

 75
    16
147
1.0
148
0.0
149
0.0
100
AcDbLayout
  1
Layout2
 70
     1
 71
     2
 10
0.0
 20
0.0
 11
0.0
 21
0.0
 12
0.0
 22
0.0
 32
0.0
 14
0.0
 24
0.0
 34
0.0
 15
0.0
 25
0.0
 35
0.0
146
0.0
 13
0.0
 23
0.0
 33
0.0
 16
1.0
 26
0.0
 36
0.0
 17
0.0
 27
1.0
 37
0.0
 76
     0
330
23
  0
LAYOUT
  5
22
102
{ACAD_REACTORS
330
1A
102
}
330
1A
100
AcDbPlotSettings
  1

  2
none_device
  4
ANSI_A_(11.00_x_8.50_Inches)
  6

 40
6.35
 41
19.05
 42
6.35000508
 43
19.05000254
 44
279.4
 45
215.9
 46
-995.541455857
 47
-459.4210204389
 48
0.0
 49
0.0
140
0.0
141
0.0
142
0.0044266692
143
1.0
 70
  1696
 72
     0
 73
     0
 74
     0
  7

 75
     0
147
0.0179189148
148
-1300.4909072572
149
0.0
100
AcDbLayout
  1
Model
 70
     1
 71
     0
 10
0.0
 20
0.0
 11
420.0
 21
297.0
 12
0.0
 22
0.0
 32
0.0
 14
8810.1332523286
 24
4144.1235837626
 34
0.0
 15
11270.2222128181
 25
5609.2330756144
 35
0.0
146
0.0
 13
0.0
 23
0.0
 33
0.0
 16
1.0
 26
0.0
 36
0.0
 17
0.0
 27
1.0
 37
0.0
 76
     0
330
1F
331
29
  0
MLINESTYLE
  5
18
102
{ACAD_REACTORS
330
17
102
}
330
17
100
AcDbMlineStyle
  2
Standard
 70
     0
  3

 62
   256
 51
90.0
 52
90.0
 71
     2
 49
0.5
 62
   256
  6
BYLAYER
 49
-0.5
 62
   256
  6
BYLAYER
  0
ACDBPLACEHOLDER
  5
F
102
{ACAD_REACTORS
330
E
102
}
330
E
  0
SCALE
  5
48
102
{ACAD_REACTORS
330
47
102
}
330
47
100
AcDbScale
 70
     0
300
1:1
140
1.0
141
1.0
290
     1
  0
SCALE
  5
49
102
{ACAD_REACTORS
330
47
102
}
330
47
100
AcDbScale
 70
     0
300
1:2
140
1.0
141
2.0
290
     0
  0
SCALE
  5
4A
102
{ACAD_REACTORS
330
47
102
}
330
47
100
AcDbScale
 70
     0
300
1:4
140
1.0
141
4.0
290
     0
  0
SCALE
  5
4B
102
{ACAD_REACTORS
330
47
102
}
330
47
100
AcDbScale
 70
     0
300
1:5
140
1.0
141
5.0
290
     0
  0
SCALE
  5
4C
102
{ACAD_REACTORS
330
47
102
}
330
47
100
AcDbScale
 70
     0
300
1:8
140
1.0
141
8.0
290
     0
  0
SCALE
  5
4D
102
{ACAD_REACTORS
330
47
102
}
330
47
100
AcDbScale
 70
     0
300
1:10
140
1.0
141
10.0
290
     0
  0
SCALE
  5
4E
102
{ACAD_REACTORS
330
47
102
}
330
47
100
AcDbScale
 70
     0
300
1:16
140
1.0
141
16.0
290
     0
  0
SCALE
  5
4F
102
{ACAD_REACTORS
330
47
102
}
330
47
100
AcDbScale
 70
     0
300
1:20
140
1.0
141
20.0
290
     0
  0
SCALE
  5
50
102
{ACAD_REACTORS
330
47
102
}
330
47
100
AcDbScale
 70
     0
300
1:30
140
1.0
141
30.0
290
     0
  0
SCALE
  5
51
102
{ACAD_REACTORS
330
47
102
}
330
47
100
AcDbScale
 70
     0
300
1:40
140
1.0
141
40.0
290
     0
  0
SCALE
  5
52
102
{ACAD_REACTORS
330
47
102
}
330
47
100
AcDbScale
 70
     0
300
1:50
140
1.0
141
50.0
290
     0
  0
SCALE
  5
53
102
{ACAD_REACTORS
330
47
102
}
330
47
100
AcDbScale
 70
     0
300
1:100
140
1.0
141
100.0
290
     0
  0
SCALE
  5
54
102
{ACAD_REACTORS
330
47
102
}
330
47
100
AcDbScale
 70
     0
300
2:1
140
2.0
141
1.0
290
     0
  0
SCALE
  5
55
102
{ACAD_REACTORS
330
47
102
}
330
47
100
AcDbScale
 70
     0
300
4:1
140
4.0
141
1.0
290
     0
  0
SCALE
  5
56
102
{ACAD_REACTORS
330
47
102
}
330
47
100
AcDbScale
 70
     0
300
8:1
140
8.0
141
1.0
290
     0
  0
SCALE
  5
57
102
{ACAD_REACTORS
330
47
102
}
330
47
100
AcDbScale
 70
     0
300
10:1
140
10.0
141
1.0
290
     0
  0
SCALE
  5
58
102
{ACAD_REACTORS
330
47
102
}
330
47
100
AcDbScale
 70
     0
300
100:1
140
100.0
141
1.0
290
     0
  0
SCALE
  5
59
102
{ACAD_REACTORS
330
47
102
}
330
47
100
AcDbScale
 70
     0
300
1/128" = 1'-0"
140
0.0078125
141
12.0
290
     0
  0
SCALE
  5
5A
102
{ACAD_REACTORS
330
47
102
}
330
47
100
AcDbScale
 70
     0
300
1/64" = 1'-0"
140
0.015625
141
12.0
290
     0
  0
SCALE
  5
5B
102
{ACAD_REACTORS
330
47
102
}
330
47
100
AcDbScale
 70
     0
300
1/32" = 1'-0"
140
0.03125
141
12.0
290
     0
  0
SCALE
  5
5C
102
{ACAD_REACTORS
330
47
102
}
330
47
100
AcDbScale
 70
     0
300
1/16" = 1'-0"
140
0.0625
141
12.0
290
     0
  0
SCALE
  5
5D
102
{ACAD_REACTORS
330
47
102
}
330
47
100
AcDbScale
 70
     0
300
3/32" = 1'-0"
140
0.09375
141
12.0
290
     0
  0
SCALE
  5
5E
102
{ACAD_REACTORS
330
47
102
}
330
47
100
AcDbScale
 70
     0
300
1/8" = 1'-0"
140
0.125
141
12.0
290
     0
  0
SCALE
  5
5F
102
{ACAD_REACTORS
330
47
102
}
330
47
100
AcDbScale
 70
     0
300
3/16" = 1'-0"
140
0.1875
141
12.0
290
     0
  0
SCALE
  5
60
102
{ACAD_REACTORS
330
47
102
}
330
47
100
AcDbScale
 70
     0
300
1/4" = 1'-0"
140
0.25
141
12.0
290
     0
  0
SCALE
  5
61
102
{ACAD_REACTORS
330
47
102
}
330
47
100
AcDbScale
 70
     0
300
3/8" = 1'-0"
140
0.375
141
12.0
290
     0
  0
SCALE
  5
62
102
{ACAD_REACTORS
330
47
102
}
330
47
100
AcDbScale
 70
     0
300
1/2" = 1'-0"
140
0.5
141
12.0
290
     0
  0
SCALE
  5
63
102
{ACAD_REACTORS
330
47
102
}
330
47
100
AcDbScale
 70
     0
300
3/4" = 1'-0"
140
0.75
141
12.0
290
     0
  0
SCALE
  5
64
102
{ACAD_REACTORS
330
47
102
}
330
47
100
AcDbScale
 70
     0
300
1" = 1'-0"
140
1.0
141
12.0
290
     0
  0
SCALE
  5
65
102
{ACAD_REACTORS
330
47
102
}
330
47
100
AcDbScale
 70
     0
300
1-1/2" = 1'-0"
140
1.5
141
12.0
290
     0
  0
SCALE
  5
66
102
{ACAD_REACTORS
330
47
102
}
330
47
100
AcDbScale
 70
     0
300
3" = 1'-0"
140
3.0
141
12.0
290
     0
  0
SCALE
  5
67
102
{ACAD_REACTORS
330
47
102
}
330
47
100
AcDbScale
 70
     0
300
6" = 1'-0"
140
6.0
141
12.0
290
     0
  0
SCALE
  5
68
102
{ACAD_REACTORS
330
47
102
}
330
47
100
AcDbScale
 70
     0
300
1'-0" = 1'-0"
140
12.0
141
12.0
290
     0
  0
ENDSEC
  0
EOF
