  0
SECTION
  2
HEADER
  9
$ACADVER
  1
AC1015
  9
$ACADMAINTVER
 70
     6
  9
$DWGCODEPAGE
  3
ANSI_1250
  9
$INSBASE
 10
0.0
 20
0.0
 30
0.0
  9
$EXTMIN
 10
0.0
 20
0.0
 30
0.0
  9
$EXTMAX
 10
20000.0
 20
10000.0
 30
0.0
  9
$LIMMIN
 10
0.0
 20
0.0
  9
$LIMMAX
 10
20000.0
 20
10000.0
  9
$ORTHOMODE
 70
     0
  9
$REGENMODE
 70
     1
  9
$FILLMODE
 70
     1
  9
$QTEXTMODE
 70
     0
  9
$MIRRTEXT
 70
     1
  9
$LTSCALE
 40
1.0
  9
$ATTMODE
 70
     1
  9
$TEXTSIZE
 40
2.0
  9
$TRACEWID
 40
1.0
  9
$TEXTSTYLE
  7
Standard
  9
$CLAYER
  8
0
  9
$CELTYPE
  6
ByLayer
  9
$CECOLOR
 62
   256
  9
$CELTSCALE
 40
1.0
  9
$DISPSILH
 70
     0
  9
$DIMSCALE
 40
1.0
  9
$DIMASZ
 40
2.0
  9
$DIMEXO
 40
1.0
  9
$DIMDLI
 40
3.75
  9
$DIMRND
 40
0.0
  9
$DIMDLE
 40
0.0
  9
$DIMEXE
 40
1.0
  9
$DIMTP
 40
0.0
  9
$DIMTM
 40
0.0
  9
$DIMTXT
 40
2.0
  9
$DIMCEN
 40
2.5
  9
$DIMTSZ
 40
0.0
  9
$DIMTOL
 70
     0
  9
$DIMLIM
 70
     0
  9
$DIMTIH
 70
     1
  9
$DIMTOH
 70
     1
  9
$DIMSE1
 70
     0
  9
$DIMSE2
 70
     0
  9
$DIMTAD
 70
     1
  9
$DIMZIN
 70
     0
  9
$DIMBLK
  1

  9
$DIMASO
 70
     1
  9
$DIMSHO
 70
     1
  9
$DIMPOST
  1

  9
$DIMAPOST
  1

  9
$DIMALT
 70
     0
  9
$DIMALTD
 70
     3
  9
$DIMALTF
 40
0.0393700787
  9
$DIMLFAC
 40
1.0
  9
$DIMTOFL
 70
     1
  9
$DIMTVP
 40
0.0
  9
$DIMTIX
 70
     0
  9
$DIMSOXD
 70
     0
  9
$DIMSAH
 70
     0
  9
$DIMBLK1
  1

  9
$DIMBLK2
  1

  9
$DIMSTYLE
  2
ISO-25
  9
$DIMCLRD
 70
     0
  9
$DIMCLRE
 70
     0
  9
$DIMCLRT
 70
     0
  9
$DIMTFAC
 40
1.0
  9
$DIMGAP
 40
1.524
  9
$DIMJUST
 70
     0
  9
$DIMSD1
 70
     0
  9
$DIMSD2
 70
     0
  9
$DIMTOLJ
 70
     0
  9
$DIMTZIN
 70
     0
  9
$DIMALTZ
 70
     0
  9
$DIMALTTZ
 70
     0
  9
$DIMUPT
 70
     0
  9
$DIMDEC
 70
     2
  9
$DIMTDEC
 70
     0
  9
$DIMALTU
 70
     2
  9
$DIMALTTD
 70
     3
  9
$DIMTXSTY
  7
Standard
  9
$DIMAUNIT
 70
     0
  9
$DIMADEC
 70
     2
  9
$DIMALTRND
 40
0.0
  9
$DIMAZIN
 70
     0
  9
$DIMDSEP
 70
    44
  9
$DIMATFIT
 70
     3
  9
$DIMFRAC
 70
     0
  9
$DIMLDRBLK
  1

  9
$DIMLUNIT
 70
     2
  9
$DIMLWD
 70
    -2
  9
$DIMLWE
 70
    -2
  9
$DIMTMOVE
 70
     0
  9
$LUNITS
 70
     2
  9
$LUPREC
 70
     3
  9
$SKETCHINC
 40
1.0
  9
$FILLETRAD
 40
10.0
  9
$AUNITS
 70
     0
  9
$AUPREC
 70
     2
  9
$MENU
  1
.
  9
$ELEVATION
 40
0.0
  9
$PELEVATION
 40
0.0
  9
$THICKNESS
 40
0.0
  9
$LIMCHECK
 70
     0
  9
$CHAMFERA
 40
0.0
  9
$CHAMFERB
 40
0.0
  9
$CHAMFERC
 40
0.0
  9
$CHAMFERD
 40
0.0
  9
$SKPOLY
 70
     0
  9
$TDCREATE
 40
2459592.269884549
  9
$TDUCREATE
 40
2459592.228217882
  9
$TDUPDATE
 40
2459592.269885093
  9
$TDUUPDATE
 40
2459592.228218426
  9
$TDINDWG
 40
0.0000000116
  9
$TDUSRTIMER
 40
0.0000000116
  9
$USRTIMER
 70
     1
  9
$ANGBASE
 50
0.0
  9
$ANGDIR
 70
     0
  9
$PDMODE
 70
     0
  9
$PDSIZE
 40
-1.0
  9
$PLINEWID
 40
0.0
  9
$SPLFRAME
 70
     0
  9
$SPLINETYPE
 70
     6
  9
$SPLINESEGS
 70
     8
  9
$HANDSEED
  5
435
  9
$SURFTAB1
 70
     6
  9
$SURFTAB2
 70
     6
  9
$SURFTYPE
 70
     6
  9
$SURFU
 70
     6
  9
$SURFV
 70
     6
  9
$UCSBASE
  2

  9
$UCSNAME
  2

  9
$UCSORG
 10
0.0
 20
0.0
 30
0.0
  9
$UCSXDIR
 10
1.0
 20
0.0
 30
0.0
  9
$UCSYDIR
 10
0.0
 20
1.0
 30
0.0
  9
$UCSORTHOREF
  2

  9
$UCSORTHOVIEW
 70
     0
  9
$UCSORGTOP
 10
0.0
 20
0.0
 30
0.0
  9
$UCSORGBOTTOM
 10
0.0
 20
0.0
 30
0.0
  9
$UCSORGLEFT
 10
0.0
 20
0.0
 30
0.0
  9
$UCSORGRIGHT
 10
0.0
 20
0.0
 30
0.0
  9
$UCSORGFRONT
 10
0.0
 20
0.0
 30
0.0
  9
$UCSORGBACK
 10
0.0
 20
0.0
 30
0.0
  9
$PUCSBASE
  2

  9
$PUCSNAME
  2

  9
$PUCSORG
 10
0.0
 20
0.0
 30
0.0
  9
$PUCSXDIR
 10
1.0
 20
0.0
 30
0.0
  9
$PUCSYDIR
 10
0.0
 20
1.0
 30
0.0
  9
$PUCSORTHOREF
  2

  9
$PUCSORTHOVIEW
 70
     0
  9
$PUCSORGTOP
 10
0.0
 20
0.0
 30
0.0
  9
$PUCSORGBOTTOM
 10
0.0
 20
0.0
 30
0.0
  9
$PUCSORGLEFT
 10
0.0
 20
0.0
 30
0.0
  9
$PUCSORGRIGHT
 10
0.0
 20
0.0
 30
0.0
  9
$PUCSORGFRONT
 10
0.0
 20
0.0
 30
0.0
  9
$PUCSORGBACK
 10
0.0
 20
0.0
 30
0.0
  9
$USERI1
 70
     0
  9
$USERI2
 70
     0
  9
$USERI3
 70
     0
  9
$USERI4
 70
     0
  9
$USERI5
 70
     0
  9
$USERR1
 40
0.0
  9
$USERR2
 40
0.0
  9
$USERR3
 40
0.0
  9
$USERR4
 40
0.0
  9
$USERR5
 40
0.0
  9
$WORLDVIEW
 70
     1
  9
$SHADEDGE
 70
     3
  9
$SHADEDIF
 70
    70
  9
$TILEMODE
 70
     1
  9
$MAXACTVP
 70
    64
  9
$PINSBASE
 10
0.0
 20
0.0
 30
0.0
  9
$PLIMCHECK
 70
     0
  9
$PEXTMIN
 10
1.0000000000E+20
 20
1.0000000000E+20
 30
1.0000000000E+20
  9
$PEXTMAX
 10
-1.0000000000E+20
 20
-1.0000000000E+20
 30
-1.0000000000E+20
  9
$PLIMMIN
 10
0.0
 20
0.0
  9
$PLIMMAX
 10
420.0
 20
297.0
  9
$UNITMODE
 70
     0
  9
$VISRETAIN
 70
     1
  9
$PLINEGEN
 70
     0
  9
$PSLTSCALE
 70
     1
  9
$TREEDEPTH
 70
  3020
  9
$CMLSTYLE
  2
Standard
  9
$CMLJUST
 70
     0
  9
$CMLSCALE
 40
20.0
  9
$PROXYGRAPHICS
 70
     1
  9
$MEASUREMENT
 70
     1
  9
$CELWEIGHT
370
    -1
  9
$ENDCAPS
280
     0
  9
$JOINSTYLE
280
     0
  9
$LWDISPLAY
290
     1
  9
$INSUNITS
 70
     4
  9
$HYPERLINKBASE
  1

  9
$STYLESHEET
  1

  9
$XEDIT
290
     1
  9
$CEPSNTYPE
380
     0
  9
$PSTYLEMODE
290
     1
  9
$FINGERPRINTGUID
  2
{8b495401-01dc-4b2a-8b38-1ee83dd8161c}
  9
$VERSIONGUID
  2
{FAEB1C32-E019-11D5-929B-00C0DF256EC4}
  9
$EXTNAMES
290
     1
  9
$PSVPSCALE
 40
0.0
  9
$OLESTARTUP
290
     0
  0
ENDSEC
  0
SECTION
  2
CLASSES
  0
CLASS
  1
ACDBDICTIONARYWDFLT
  2
AcDbDictionaryWithDefault
  3
ObjectDBX Classes
 90
        0
280
     0
281
     0
  0
CLASS
  1
VISUALSTYLE
  2
AcDbVisualStyle
  3
ObjectDBX Classes
 90
     4095
280
     0
281
     0
  0
CLASS
  1
MATERIAL
  2
AcDbMaterial
  3
ObjectDBX Classes
 90
     1153
280
     0
281
     0
  0
CLASS
  1
SCALE
  2
AcDbScale
  3
ObjectDBX Classes
 90
     1153
280
     0
281
     0
  0
CLASS
  1
TABLESTYLE
  2
AcDbTableStyle
  3
ObjectDBX Classes
 90
     4095
280
     0
281
     0
  0
CLASS
  1
MLEADERSTYLE
  2
AcDbMLeaderStyle
  3
ACDB_MLEADERSTYLE_CLASS
 90
     4095
280
     0
281
     0
  0
CLASS
  1
SUN
  2
AcDbSun
  3
SCENEOE
 90
     1153
280
     0
281
     0
  0
CLASS
  1
ACDBPLACEHOLDER
  2
AcDbPlaceHolder
  3
ObjectDBX Classes
 90
        0
280
     0
281
     0
  0
CLASS
  1
LAYOUT
  2
AcDbLayout
  3
ObjectDBX Classes
 90
        0
280
     0
281
     0
  0
ENDSEC
  0
SECTION
  2
TABLES
  0
TABLE
  2
VPORT
  5
8
330
0
100
AcDbSymbolTable
 70
     1
  0
VPORT
  5
29
330
8
100
AcDbSymbolTableRecord
100
AcDbViewportTableRecord
  2
*Active
 70
     0
 10
0.0
 20
0.0
 11
1.0
 21
1.0
 12
10000.0
 22
5000.0
 13
0.0
 23
0.0
 14
10.0
 24
10.0
 15
10.0
 25
10.0
 16
0.0
 26
0.0
 36
1.0
 17
0.0
 27
0.0
 37
0.0
 40
10000.0
 41
2.0
 42
50.0
 43
0.0
 44
0.0
 50
0.0
 51
0.0
 71
     0
 72
  2000
 73
     1
 74
     3
 75
     0
 76
     0
 77
     0
 78
     0
281
     0
 65
     1
110
0.0
120
0.0
130
0.0
111
1.0
121
0.0
131
0.0
112
0.0
122
1.0
132
0.0
 79
     0
146
0.0
  0
ENDTAB
  0
TABLE
  2
LTYPE
  5
5
330
0
100
AcDbSymbolTable
 70
     6
  0
LTYPE
  5
14
330
5
100
AcDbSymbolTableRecord
100
AcDbLinetypeTableRecord
  2
ByBlock
 70
     0
  3

 72
    65
 73
     0
 40
0.0
  0
LTYPE
  5
15
330
5
100
AcDbSymbolTableRecord
100
AcDbLinetypeTableRecord
  2
ByLayer
 70
     0
  3

 72
    65
 73
     0
 40
0.0
  0
LTYPE
  5
16
330
5
100
AcDbSymbolTableRecord
100
AcDbLinetypeTableRecord
  2
Continuous
 70
     0
  3
Solid line
 72
    65
 73
     0
 40
0.0
  0
LTYPE
  5
6E
330
5
100
AcDbSymbolTableRecord
100
AcDbLinetypeTableRecord
  2
HIDDEN
 70
     0
  3
Hidden __ __ __ __ __ __ __ __ __ __ __ __ __ __
 72
    65
 73
     2
 40
1.905
 49
1.27
 74
     0
 49
-0.635
 74
     0
  0
LTYPE
  5
6F
330
5
100
AcDbSymbolTableRecord
100
AcDbLinetypeTableRecord
  2
PHANTOM
 70
     0
  3
Phantom ______  __  __  ______  __  __  ______
 72
    65
 73
     6
 40
12.7
 49
6.35
 74
     0
 49
-1.27
 74
     0
 49
1.27
 74
     0
 49
-1.27
 74
     0
 49
1.27
 74
     0
 49
-1.27
 74
     0
  0
LTYPE
  5
70
330
5
100
AcDbSymbolTableRecord
100
AcDbLinetypeTableRecord
  2
CENTER
 70
     0
  3
Center ____ _ ____ _ ____ _ ____ _ ____ _ ____
 72
    65
 73
     4
 40
10.16
 49
6.35
 74
     0
 49
-1.27
 74
     0
 49
1.27
 74
     0
 49
-1.27
 74
     0
  0
LTYPE
  5
71
330
5
100
AcDbSymbolTableRecord
100
AcDbLinetypeTableRecord
  2
CENTERX2
 70
     0
  3
Center (2x) ________  __  ________  __  _____
 72
    65
 73
     4
 40
20.32
 49
12.7
 74
     0
 49
-2.54
 74
     0
 49
2.54
 74
     0
 49
-2.54
 74
     0
  0
LTYPE
  5
72
330
5
100
AcDbSymbolTableRecord
100
AcDbLinetypeTableRecord
  2
DOT2
 70
     0
  3
Dot (.5x) ........................................
 72
    65
 73
     2
 40
0.635
 49
0.0
 74
     0
 49
-0.635
 74
     0
  0
ENDTAB
  0
TABLE
  2
LAYER
  5
2
330
0
100
AcDbSymbolTable
 70
    13
  0
LAYER
  5
10
330
2
100
AcDbSymbolTableRecord
100
AcDbLayerTableRecord
  2
0
 70
     0
 62
     7
  6
Continuous
370
    -3
390
F
  0
LAYER
  5
73
330
2
100
AcDbSymbolTableRecord
100
AcDbLayerTableRecord
  2
FORMAT
 70
     0
 62
     7
  6
Continuous
370
    -3
390
F
  0
LAYER
  5
74
330
2
100
AcDbSymbolTableRecord
100
AcDbLayerTableRecord
  2
OSA
 70
     0
 62
     7
  6
CENTER
370
    -3
390
F
  0
LAYER
  5
75
330
2
100
AcDbSymbolTableRecord
100
AcDbLayerTableRecord
  2
0_35
 70
     0
 62
     7
  6
Continuous
370
    35
390
F
  0
LAYER
  5
76
330
2
100
AcDbSymbolTableRecord
100
AcDbLayerTableRecord
  2
0_5
 70
     0
 62
     7
  6
Continuous
370
    50
390
F
  0
LAYER
  5
77
330
2
100
AcDbSymbolTableRecord
100
AcDbLayerTableRecord
  2
0_25
 70
     0
 62
     7
  6
Continuous
370
    25
390
F
  0
LAYER
  5
78
330
2
100
AcDbSymbolTableRecord
100
AcDbLayerTableRecord
  2
0_18
 70
     0
 62
     7
  6
Continuous
370
    -3
390
F
  0
LAYER
  5
79
330
2
100
AcDbSymbolTableRecord
100
AcDbLayerTableRecord
  2
SLD-0
 70
     0
 62
   179
  6
Continuous
370
    -3
390
F
  0
LAYER
  5
7A
330
2
100
AcDbSymbolTableRecord
100
AcDbLayerTableRecord
  2
KOTY
 70
     0
 62
     7
  6
Continuous
370
    -3
390
F
  0
LAYER
  5
7B
330
2
100
AcDbSymbolTableRecord
100
AcDbLayerTableRecord
  2
SILNA
 70
     0
 62
   179
  6
Continuous
370
    -3
390
F
  0
LAYER
  5
7C
330
2
100
AcDbSymbolTableRecord
100
AcDbLayerTableRecord
  2
0_18_1
 70
     0
 62
   179
  6
Continuous
370
    -3
390
F
  0
LAYER
  5
7D
330
2
100
AcDbSymbolTableRecord
100
AcDbLayerTableRecord
  2
0_35_1
 70
     0
 62
   179
  6
Continuous
370
    35
390
F
  0
LAYER
  5
7E
330
2
100
AcDbSymbolTableRecord
100
AcDbLayerTableRecord
  2
0_5_1
 70
     0
 62
   179
  6
Continuous
370
    50
390
F
  0
ENDTAB
  0
TABLE
  2
STYLE
  5
3
330
0
100
AcDbSymbolTable
 70
     1
  0
STYLE
  5
11
330
3
100
AcDbSymbolTableRecord
100
AcDbTextStyleTableRecord
  2
Standard
 70
     0
 40
0.0
 41
1.0
 50
0.0
 71
     0
 42
2.0
  3
txt
  4

  0
ENDTAB
  0
TABLE
  2
VIEW
  5
6
330
0
100
AcDbSymbolTable
 70
     0
  0
ENDTAB
  0
TABLE
  2
UCS
  5
7
330
0
100
AcDbSymbolTable
 70
     0
  0
ENDTAB
  0
TABLE
  2
APPID
  5
9
330
0
100
AcDbSymbolTable
 70
     1
  0
APPID
  5
12
330
9
100
AcDbSymbolTableRecord
100
AcDbRegAppTableRecord
  2
ACAD
 70
     0
  0
ENDTAB
  0
TABLE
  2
DIMSTYLE
  5
A
330
0
100
AcDbSymbolTable
 70
     1
100
AcDbDimStyleTable
  0
DIMSTYLE
105
27
330
A
100
AcDbSymbolTableRecord
100
AcDbDimStyleTableRecord
  2
ISO-25
 70
     0
 41
2.5
 42
0.625
 43
3.75
 44
1.25
 73
     0
 74
     0
 77
     1
 78
     8
140
2.5
141
2.5
143
0.0393700787
147
0.625
171
     3
172
     1
178
     0
271
     2
272
     2
274
     3
278
    44
283
     0
284
     8
340
11
  0
ENDTAB
  0
TABLE
  2
BLOCK_RECORD
  5
1
330
0
100
AcDbSymbolTable
 70
     1
  0
BLOCK_RECORD
  5
1F
330
1
100
AcDbSymbolTableRecord
100
AcDbBlockTableRecord
  2
*Model_Space
340
22
  0
BLOCK_RECORD
  5
1B
330
1
100
AcDbSymbolTableRecord
100
AcDbBlockTableRecord
  2
*Paper_Space
340
1E
  0
BLOCK_RECORD
  5
23
330
1
100
AcDbSymbolTableRecord
100
AcDbBlockTableRecord
  2
*Paper_Space0
340
26
  0
ENDTAB
  0
ENDSEC
  0
SECTION
  2
BLOCKS
  0
BLOCK
  5
20
330
1F
100
AcDbEntity
  8
0
100
AcDbBlockBegin
  2
*Model_Space
 70
     0
 10
0.0
 20
0.0
 30
0.0
  3
*Model_Space
  1

  0
ENDBLK
  5
21
330
1F
100
AcDbEntity
  8
0
100
AcDbBlockEnd
  0
BLOCK
  5
1C
330
1B
100
AcDbEntity
 67
     1
  8
0
100
AcDbBlockBegin
  2
*Paper_Space
 70
     0
 10
0.0
 20
0.0
 30
0.0
  3
*Paper_Space
  1

  0
ENDBLK
  5
1D
330
1B
100
AcDbEntity
 67
     1
  8
0
100
AcDbBlockEnd
  0
BLOCK
  5
24
330
23
100
AcDbEntity
  8
0
100
AcDbBlockBegin
  2
*Paper_Space0
 70
     0
 10
0.0
 20
0.0
 30
0.0
  3
*Paper_Space0
  1

  0
ENDBLK
  5
25
330
23
100
AcDbEntity
  8
0
100
AcDbBlockEnd
  0
ENDSEC
  0
SECTION
  2
ENTITIES
  0
LINE
  5
7F
330
1F
100
AcDbEntity
  8
0
  6
Continuous
 62
     7
370
    25
100
AcDbLine
 10
6302.7317556055
 20
5145.348497727
 30
0.0
 11
6301.7317556055
 21
5146.348497727
 31
0.0
  0
LINE
  5
80
330
1F
100
AcDbEntity
  8
0
  6
Continuous
 62
     7
370
    25
100
AcDbLine
 10
6243.7317556055
 20
5146.348497727
 30
0.0
 11
6242.7317556055
 21
5145.348497727
 31
0.0
  0
LINE
  5
81
330
1F
100
AcDbEntity
  8
0
  6
Continuous
 62
     7
370
    25
100
AcDbLine
 10
6302.7317556055
 20
5141.848497727
 30
0.0
 11
6302.7317556055
 21
5145.348497727
 31
0.0
  0
LINE
  5
82
330
1F
100
AcDbEntity
  8
0
  6
Continuous
 62
     7
370
    25
100
AcDbLine
 10
6242.7317556055
 20
5145.348497727
 30
0.0
 11
6242.7317556055
 21
5141.848497727
 31
0.0
  0
LINE
  5
83
330
1F
100
AcDbEntity
  8
0
  6
Continuous
 62
     7
370
    25
100
AcDbLine
 10
6301.0040849805
 20
5158.248497727
 30
0.0
 11
6302.9681231577
 21
5158.248497727
 31
0.0
  0
LINE
  5
84
330
1F
100
AcDbEntity
  8
0
  6
Continuous
 62
     7
370
    25
100
AcDbLine
 10
6302.9681231577
 20
5179.248497727
 30
0.0
 11
6300.3835356442
 21
5179.248497727
 31
0.0
  0
LINE
  5
85
330
1F
100
AcDbEntity
  8
0
  6
Continuous
 62
     7
370
    25
100
AcDbLine
 10
6307.5350077
 20
5158.4050722767
 30
0.0
 11
6314.1973979678
 21
5158.4050722767
 31
0.0
  0
LINE
  5
86
330
1F
100
AcDbEntity
  8
0
  6
Continuous
 62
     7
370
    25
100
AcDbLine
 10
6314.1695947951
 20
5179.0919231774
 30
0.0
 11
6307.5072045273
 21
5179.0919231774
 31
0.0
  0
LINE
  5
87
330
1F
100
AcDbEntity
  8
0
  6
Continuous
 62
     7
370
    25
100
AcDbLine
 10
6264.3461619444
 20
5258.9158123511
 30
0.0
 11
6264.3463909262
 21
5258.7532406113
 31
0.0
  0
LINE
  5
88
330
1F
100
AcDbEntity
  8
0
  6
Continuous
 62
     7
370
    25
100
AcDbLine
 10
6282.8463725755
 20
5258.7792977757
 30
0.0
 11
6282.8461435937
 21
5258.9418695155
 31
0.0
  0
LINE
  5
89
330
1F
100
AcDbEntity
  8
0
  6
Continuous
 62
     7
370
    25
100
AcDbLine
 10
6261.486694379
 20
5265.6355568637
 30
0.0
 11
6261.4921631027
 21
5261.7528900462
 31
0.0
  0
LINE
  5
8A
330
1F
100
AcDbEntity
  8
0
  6
Continuous
 62
     7
370
    25
100
AcDbLine
 10
6285.692139098
 20
5261.7869756342
 30
0.0
 11
6285.6867025475
 21
5265.6468002178
 31
0.0
  0
LINE
  5
8B
330
1F
100
AcDbEntity
  8
0
  6
Continuous
 62
     7
370
    25
100
AcDbLine
 10
6262.5966402151
 20
5258.5750188584
 30
0.0
 11
6262.5971555663
 21
5258.2091314802
 31
0.0
  0
LINE
  5
8C
330
1F
100
AcDbEntity
  8
0
  6
Continuous
 62
     7
370
    25
100
AcDbLine
 10
6284.5971337438
 20
5258.2401183784
 30
0.0
 11
6284.5966183926
 21
5258.6060057566
 31
0.0
  0
LWPOLYLINE
  5
8D
330
1F
100
AcDbEntity
  8
0
  6
Continuous
 62
     7
370
    25
100
AcDbPolyline
 90
       75
 70
   128
 43
0.0
 10
6255.7097422387
 20
5281.3160032224
 10
6255.5411752731
 20
5280.8947201865
 10
6255.3333036239
 20
5280.3979287009
 10
6255.1423125933
 20
5279.9451017601
 10
6254.9675124876
 20
5279.5222265479
 10
6254.769384291
 20
5279.0205509621
 10
6254.5953097188
 20
5278.5500369196
 10
6254.4450750438
 20
5278.1150515087
 10
6254.3188009818
 20
5277.7252726705
 10
6254.2167798414
 20
5277.3926123014
 10
6254.1185604979
 20
5277.0567302504
 10
6254.0073349227
 20
5276.6576630368
 10
6253.8833254792
 20
5276.1885650819
 10
6253.7399881565
 20
5275.6134279441
 10
6253.5832611594
 20
5274.9424340221
 10
6253.4132320924
 20
5274.1637377228
 10
6253.2357025018
 20
5273.3012580325
 10
6253.0596212696
 20
5272.4087318847
 10
6252.8854553416
 20
5271.5040518074
 10
6252.7763806099
 20
5270.9292798801
 10
6252.6695374308
 20
5270.3594759725
 10
6252.5554503186
 20
5269.7399291168
 10
6252.4212260332
 20
5268.9949073966
 10
6252.2683115431
 20
5268.124864725
 10
6252.1129265131
 20
5267.2157001024
 10
6251.9589470831
 20
5266.2873726129
 10
6251.8063443781
 20
5265.3375553664
 10
6251.5661652569
 20
5263.7753000526
 10
6251.3231819863
 20
5262.1001976307
 10
6251.0994351485
 20
5260.4624608598
 10
6250.9217505255
 20
5259.0791792839
 10
6250.7710164872
 20
5257.8246227576
 10
6250.6284050291
 20
5256.549158477
 10
6250.4933697302
 20
5255.244573416
 10
6250.3556477513
 20
5253.7989633737
 10
6250.2057041094
 20
5252.0715908503
 10
6250.0462898822
 20
5250.0600753848
 10
6249.8752582191
 20
5247.777930895
 10
6249.6935192851
 20
5245.3084214275
 10
6249.5101578855
 20
5242.7918455759
 10
6249.2450010953
 20
5239.0423480573
 10
6248.9943799965
 20
5235.2915397469
 10
6248.7576469971
 20
5231.5463698554
 10
6248.5326316168
 20
5227.9574537959
 10
6248.3005647789
 20
5224.4264306468
 10
6248.0572031056
 20
5221.0947307959
 10
6247.8439750462
 20
5218.4107170924
 10
6247.617632273
 20
5215.6451951109
 10
6247.3713500849
 20
5212.5852423366
 10
6247.1087345102
 20
5209.2349410613
 10
6246.9647679422
 20
5207.3577748663
 10
6246.8487625191
 20
5205.8230932041
 10
6246.7427027985
 20
5204.4020963943
 10
6246.6187507322
 20
5202.7188833018
 10
6246.4837551319
 20
5200.8570037041
 10
6246.218077666
 20
5197.1005560533
 10
6245.9464720845
 20
5193.1251243318
 10
6245.6856349926
 20
5189.1681922145
 10
6245.4359875811
 20
5185.2425749815
 10
6245.207139143
 20
5181.4281830602
 10
6245.00505827
 20
5177.3522769827
 10
6244.8967164473
 20
5174.6668163732
 10
6244.7992716533
 20
5171.8528885178
 10
6244.7179834905
 20
5169.1653967727
 10
6244.6534224439
 20
5166.782107308
 10
6244.6055030847
 20
5164.8577569801
 10
6244.5816136034
 20
5163.8460336679
 10
6244.5519897189
 20
5162.5410618878
 10
6244.5155565229
 20
5160.856949015
 10
6244.4723244266
 20
5158.7405898601
 10
6244.4328512891
 20
5156.6916160966
 10
6244.38904064
 20
5154.2814448791
 10
6244.340899203
 20
5151.4608029592
 10
6244.2884339567
 20
5148.1721028275
 10
6244.2613527666
 20
5146.348497727
  0
LWPOLYLINE
  5
8E
330
1F
100
AcDbEntity
  8
0
  6
Continuous
 62
     7
370
    25
100
AcDbPolyline
 90
       61
 70
   128
 43
0.0
 10
6300.4695828601
 20
5177.3552253519
 10
6300.4037394746
 20
5178.8442611649
 10
6300.3109578539
 20
5180.70062814
 10
6300.2196846195
 20
5182.354264964
 10
6300.0448238665
 20
5185.2651306825
 10
6299.875865819
 20
5187.9795095618
 10
6299.5888769082
 20
5192.4532984697
 10
6299.3207513707
 20
5196.4907340264
 10
6299.0209113647
 20
5200.8610059815
 10
6298.7483674475
 20
5204.7171086613
 10
6298.4996618002
 20
5208.1520364708
 10
6298.2429704254
 20
5211.6240845977
 10
6297.9701208927
 20
5215.2419721139
 10
6297.8277001998
 20
5217.1034135173
 10
6297.6814661283
 20
5219.0352673127
 10
6297.5486524481
 20
5220.8602896298
 10
6297.4478361706
 20
5222.3217644633
 10
6297.378672685
 20
5223.3754363492
 10
6297.3241796897
 20
5224.240652488
 10
6297.2535684213
 20
5225.4106014261
 10
6297.1657085475
 20
5226.9320971366
 10
6297.060792727
 20
5228.8203379587
 10
6296.9390013676
 20
5231.0696089815
 10
6296.8028379736
 20
5233.6045636321
 10
6296.6687188142
 20
5236.0652425918
 10
6296.5398080028
 20
5238.3626755909
 10
6296.3477485311
 20
5241.702470462
 10
6296.1684734587
 20
5244.7948731752
 10
6296.0017887161
 20
5247.7070470318
 10
6295.846564057
 20
5250.3827291288
 10
6295.6998610701
 20
5252.6864025668
 10
6295.5401556255
 20
5254.8541613258
 10
6295.3667524885
 20
5256.8894099979
 10
6295.1754712492
 20
5258.8588273753
 10
6295.0316746737
 20
5260.2118097161
 10
6294.866503344
 20
5261.6806183901
 10
6294.6856912841
 20
5263.2027631324
 10
6294.5279026629
 20
5264.4666922535
 10
6294.4004510802
 20
5265.4491630629
 10
6294.2500393185
 20
5266.5700818306
 10
6294.0588196283
 20
5267.9413590496
 10
6293.8306819038
 20
5269.5059051421
 10
6293.6151600676
 20
5270.9208719347
 10
6293.4149172731
 20
5272.1883280932
 10
6293.2286999657
 20
5273.3321843113
 10
6293.0576175478
 20
5274.3587194494
 10
6292.8938601284
 20
5275.3259667063
 10
6292.739078823
 20
5276.2149246319
 10
6292.5918279365
 20
5277.0032026206
 10
6292.4521952478
 20
5277.6707805316
 10
6292.3228732363
 20
5278.2308514821
 10
6292.2047788732
 20
5278.703928549
 10
6292.1340411537
 20
5278.9736075126
 10
6292.0685597663
 20
5279.2161277419
 10
6292.0049818037
 20
5279.4463884284
 10
6291.932045083
 20
5279.7058785235
 10
6291.8491431303
 20
5279.9982221371
 10
6291.7566410404
 20
5280.3262959163
 10
6291.6609100288
 20
5280.6740101908
 10
6291.556875336
 20
5281.0679945128
 10
6291.5378987798
 20
5281.1444754629
  0
LWPOLYLINE
  5
8F
330
1F
100
AcDbEntity
  8
0
  6
Continuous
 62
     7
370
    25
100
AcDbPolyline
 90
        5
 70
   128
 43
0.0
 10
6301.2023957749
 20
5146.348497727
 10
6301.162095074
 20
5149.0841452936
 10
6301.0929358686
 20
5153.3602911114
 10
6301.0243879961
 20
5157.2130968029
 10
6300.9720836807
 20
5159.8804806749
  0
ARC
  5
90
330
1F
100
AcDbEntity
  8
0
  6
Continuous
 62
     7
370
    25
100
AcDbCircle
 10
6273.4318870435
 20
5044.9637680807
 30
0.0
 40
239.2182113742805
100
AcDbArc
 50
88.693772484
 51
89.9383814878
  0
LWPOLYLINE
  5
91
330
1F
100
AcDbEntity
  8
0
  6
Continuous
 62
     7
370
    25
100
AcDbPolyline
 90
       22
 70
   128
 43
0.0
 10
6291.5495010599
 20
5280.972016722
 10
6291.4889936536
 20
5281.292155106
 10
6291.275528696
 20
5281.7896320777
 10
6291.0090163203
 20
5282.1591305417
 10
6290.8586990146
 20
5282.3144554015
 10
6290.7094048172
 20
5282.4465179832
 10
6290.2218931343
 20
5282.7640383363
 10
6289.8975849588
 20
5282.9042307586
 10
6289.6929427514
 20
5282.9734838838
 10
6289.628878218
 20
5282.9943222095
 10
6289.5087616327
 20
5283.0356321875
 10
6289.3344377785
 20
5283.0906871025
 10
6288.57740584
 20
5283.2814569263
 10
6287.7587927025
 20
5283.436068966
 10
6286.7890773372
 20
5283.5812505311
 10
6285.7126926323
 20
5283.7117828954
 10
6284.512937611
 20
5283.8302521891
 10
6283.1859237978
 20
5283.9349250341
 10
6282.0173783858
 20
5284.005469112
 10
6280.73728072
 20
5284.0636516901
 10
6279.3383927024
 20
5284.1096813327
 10
6278.8851044621
 20
5284.1198156164
  0
LWPOLYLINE
  5
92
330
1F
100
AcDbEntity
  8
0
  6
Continuous
 62
     7
370
    25
100
AcDbPolyline
 90
       25
 70
   128
 43
0.0
 10
6268.6074479168
 20
5284.1231021702
 10
6268.3023696427
 20
5284.1168623512
 10
6266.860309215
 20
5284.0725139529
 10
6265.5554838274
 20
5284.0165965806
 10
6264.3673786252
 20
5283.9487966076
 10
6263.1643853689
 20
5283.8596753571
 10
6261.9847953582
 20
5283.7515213435
 10
6260.8747230308
 20
5283.6274179862
 10
6259.7982654054
 20
5283.4792656474
 10
6258.8808934279
 20
5283.320077151
 10
6258.0874914072
 20
5283.1391194567
 10
6257.6550582788
 20
5283.0092043647
 10
6257.6537575959
 20
5283.0087628489
 10
6257.6536424119
 20
5283.0087237324
 10
6257.653627299
 20
5283.0087185998
 10
6257.6536252453
 20
5283.0087179023
 10
6257.5564353753
 20
5282.9783695696
 10
6257.3470780581
 20
5282.9107165137
 10
6256.9806383681
 20
5282.7555009203
 10
6256.5374782714
 20
5282.4747590749
 10
6256.3072384457
 20
5282.2736351371
 10
6256.1733496973
 20
5282.131641527
 10
6256.0090113345
 20
5281.9171221466
 10
6255.7471938959
 20
5281.3948249484
 10
6255.696379176
 20
5281.183463093
  0
ARC
  5
93
330
1F
100
AcDbEntity
  8
0
  6
Continuous
 62
     7
370
    25
100
AcDbCircle
 10
6273.8968437362
 20
5047.8840401009
 30
0.0
 40
236.2982694721323
100
AcDbArc
 50
90.050364543
 51
91.2826389784
  0
LINE
  5
94
330
1F
100
AcDbEntity
  8
0
  6
Continuous
 62
     7
370
    25
100
AcDbLine
 10
6299.1798882783
 20
5145.348497727
 30
0.0
 11
6242.7317556055
 21
5145.348497727
 31
0.0
  0
LINE
  5
95
330
1F
100
AcDbEntity
  8
0
  6
Continuous
 62
     7
370
    25
100
AcDbLine
 10
6302.7317556055
 20
5145.348497727
 30
0.0
 11
6299.1798882783
 21
5145.348497727
 31
0.0
  0
LINE
  5
96
330
1F
100
AcDbEntity
  8
0
  6
Continuous
 62
     7
370
    25
100
AcDbLine
 10
6298.2982838559
 20
5146.348497727
 30
0.0
 11
6243.7317556055
 21
5146.348497727
 31
0.0
  0
LINE
  5
97
330
1F
100
AcDbEntity
  8
0
  6
Continuous
 62
     7
370
    25
100
AcDbLine
 10
6301.7317556055
 20
5146.348497727
 30
0.0
 11
6298.2982838559
 21
5146.348497727
 31
0.0
  0
LINE
  5
98
330
1F
100
AcDbEntity
  8
0
  6
Continuous
 62
     7
370
    25
100
AcDbLine
 10
6299.1798882783
 20
5141.848497727
 30
0.0
 11
6242.7317556055
 21
5141.848497727
 31
0.0
  0
LINE
  5
99
330
1F
100
AcDbEntity
  8
0
  6
Continuous
 62
     7
370
    25
100
AcDbLine
 10
6302.7317556055
 20
5141.848497727
 30
0.0
 11
6299.1798882783
 21
5141.848497727
 31
0.0
  0
LWPOLYLINE
  5
9A
330
1F
100
AcDbEntity
  8
0
  6
Continuous
 62
     7
370
    25
100
AcDbPolyline
 90
        8
 70
   128
 43
0.0
 10
6301.9717476508
 20
5179.1638943285
 10
6302.2871399611
 20
5179.2222677909
 10
6303.1421891205
 20
5179.2467819206
 10
6304.0107220053
 20
5179.2135824823
 10
6305.0090512042
 20
5179.1576712405
 10
6306.052429415
 20
5179.1081432829
 10
6307.172409439
 20
5179.0814119154
 10
6307.5061351745
 20
5179.0798789813
  0
LINE
  5
9B
330
1F
100
AcDbEntity
  8
0
  6
Continuous
 62
     7
370
    25
100
AcDbLine
 10
6314.2575297706
 20
5163.813683934
 30
0.0
 11
6307.5951395028
 21
5163.813683934
 31
0.0
  0
ARC
  5
9C
330
1F
100
AcDbEntity
  8
0
  6
Continuous
 62
     7
370
    25
100
AcDbCircle
 10
6081.6165077879
 20
5163.6612044844
 30
0.0
 40
232.6410719523349
100
AcDbArc
 50
358.7083554975
 51
0.0375532552
  0
LINE
  5
9D
330
1F
100
AcDbEntity
  8
0
  6
Continuous
 62
     7
370
    25
100
AcDbLine
 10
6307.5360770528
 20
5158.4171164728
 30
0.0
 11
6314.1984673206
 21
5158.4171164728
 31
0.0
  0
ARC
  5
9E
330
1F
100
AcDbEntity
  8
0
  6
Continuous
 62
     7
370
    25
100
AcDbCircle
 10
6308.4348723445
 20
5068.542269973
 30
0.0
 40
89.8793405980155
100
AcDbArc
 50
90.572968547
 51
93.4870641076
  0
LWPOLYLINE
  5
9F
330
1F
100
AcDbEntity
  8
0
  6
Continuous
 62
     7
370
    25
100
AcDbPolyline
 90
        5
 70
   128
 43
0.0
 10
6300.7589206629
 20
5160.7124089779
 10
6300.9373220458
 20
5160.4745381014
 10
6300.9808038791
 20
5160.2248027899
 10
6300.8849065673
 20
5159.9938115887
 10
6300.8764693693
 20
5159.9866451321
  0
LWPOLYLINE
  5
A0
330
1F
100
AcDbEntity
  8
0
  6
Continuous
 62
     7
370
    25
100
AcDbPolyline
 90
       26
 70
   128
 43
0.0
 10
6307.5120436776
 20
5178.7840789148
 10
6307.2106112051
 20
5178.7850920299
 10
6306.2287700795
 20
5178.8016760363
 10
6305.2564545046
 20
5178.8326559047
 10
6304.3815470137
 20
5178.8598711504
 10
6303.5699101075
 20
5178.861770401
 10
6302.820900352
 20
5178.8034514444
 10
6302.1978687615
 20
5178.6460270675
 10
6301.7310485612
 20
5178.3722748469
 10
6301.3889178288
 20
5177.9628641432
 10
6301.1042682816
 20
5177.2347134114
 10
6300.9498776835
 20
5176.2827975645
 10
6300.8910886782
 20
5175.2002207531
 10
6300.9000854636
 20
5173.9519234078
 10
6300.9644546084
 20
5172.7737746285
 10
6301.0991895145
 20
5171.506506582
 10
6301.2842291593
 20
5170.42402632
 10
6301.5663184493
 20
5169.3173785363
 10
6301.9183908414
 20
5168.3582503757
 10
6302.3980230822
 20
5167.4310099116
 10
6302.9939824486
 20
5166.6139130641
 10
6303.7406045435
 20
5165.8953586477
 10
6304.5864883375
 20
5165.338065362
 10
6305.5534803299
 20
5164.9264129327
 10
6306.5438929524
 20
5164.6899378175
 10
6307.5946905539
 20
5164.6083263709
  0
ARC
  5
A1
330
1F
100
AcDbEntity
  8
0
  6
Continuous
 62
     7
370
    25
100
AcDbCircle
 10
6222.7574037649
 20
5164.1630745282
 30
0.0
 40
84.83845518942857
100
AcDbArc
 50
359.7640378648
 51
0.3007028884
  0
LWPOLYLINE
  5
A2
330
1F
100
AcDbEntity
  8
0
  6
Continuous
 62
     7
370
    25
100
AcDbPolyline
 90
        3
 70
   128
 43
0.0
 10
6307.5072045273
 20
5179.0919231774
 10
6307.506968034
 20
5179.0913386005
 10
6307.5061351745
 20
5179.0798789813
  0
LINE
  5
A3
330
1F
100
AcDbEntity
  8
0
  6
Continuous
 62
     7
370
    25
100
AcDbLine
 10
6307.5120436776
 20
5178.7840789148
 30
0.0
 11
6307.5946905539
 21
5164.6083263709
 31
0.0
  0
LWPOLYLINE
  5
A4
330
1F
100
AcDbEntity
  8
0
  6
Continuous
 62
     7
370
    25
100
AcDbPolyline
 90
        6
 70
   128
 43
0.0
 10
6315.7482302873
 20
5164.846002551
 10
6315.6717051861
 20
5164.5185070693
 10
6315.4479095854
 20
5164.2256323038
 10
6315.1214160578
 20
5164.0056403492
 10
6314.7160493897
 20
5163.8640198013
 10
6314.2575297706
 20
5163.813683934
  0
ARC
  5
A5
330
1F
100
AcDbEntity
  8
0
  6
Continuous
 62
     7
370
    25
100
AcDbCircle
 10
6122.1682734249
 20
5164.4587789575
 30
0.0
 40
193.5803441493398
100
AcDbArc
 50
358.6312984987
 51
0.1146102541
  0
ARC
  5
A6
330
1F
100
AcDbEntity
  8
0
  6
Continuous
 62
     7
370
    25
100
AcDbCircle
 10
6314.2379092101
 20
5159.8725461831
 30
0.0
 40
1.455964046392906
100
AcDbArc
 50
268.4476743747
 51
358.5185297386
  0
LINE
  5
A7
330
1F
100
AcDbEntity
  8
0
  6
Continuous
 62
     7
370
    25
100
AcDbLine
 10
6307.5946905539
 20
5164.6083263709
 30
0.0
 11
6314.2570808217
 21
5164.6083263709
 31
0.0
  0
ARC
  5
A8
330
1F
100
AcDbEntity
  8
0
  6
Continuous
 62
     7
370
    25
100
AcDbCircle
 10
6229.4197939068
 20
5164.163074528
 30
0.0
 40
84.8384553153527
100
AcDbArc
 50
359.7640378652
 51
0.300702888
  0
ARC
  5
A9
330
1F
100
AcDbEntity
  8
0
  6
Continuous
 62
     7
370
    25
100
AcDbCircle
 10
6314.2947971999
 20
5165.3161721963
 30
0.0
 40
0.7088499402632131
100
AcDbArc
 50
266.949974709
 51
357.7350681548
  0
LWPOLYLINE
  5
AA
330
1F
100
AcDbEntity
  8
0
  6
Continuous
 62
     7
370
    25
100
AcDbPolyline
 90
        9
 70
   128
 43
0.0
 10
6315.7482302873
 20
5164.846002551
 10
6315.7347637788
 20
5164.9322628562
 10
6315.6929936208
 20
5165.0152082262
 10
6315.624525017
 20
5165.091651117
 10
6315.5319891776
 20
5165.1586538712
 10
6315.418942203
 20
5165.2136416105
 10
6315.2897284249
 20
5165.2545011869
 10
6315.1493134563
 20
5165.2796623899
 10
6315.0030933659
 20
5165.2881582884
  0
LINE
  5
AB
330
1F
100
AcDbEntity
  8
0
  6
Continuous
 62
     7
370
    25
100
AcDbLine
 10
6315.0030933659
 20
5165.2881582884
 30
0.0
 11
6314.9283735446
 21
5178.1042469973
 31
0.0
  0
LINE
  5
AC
330
1F
100
AcDbEntity
  8
0
  6
Continuous
 62
     7
370
    25
100
AcDbLine
 10
6314.1744339454
 20
5178.7840789148
 30
0.0
 11
6307.5120436776
 21
5178.7840789148
 31
0.0
  0
ARC
  5
AD
330
1F
100
AcDbEntity
  8
0
  6
Continuous
 62
     7
370
    25
100
AcDbCircle
 10
6314.1997640126
 20
5178.054191388
 30
0.0
 40
0.7303269227193349
100
AcDbArc
 50
3.9300554727
 51
91.9875990129
  0
LWPOLYLINE
  5
AE
330
1F
100
AcDbEntity
  8
0
  6
Continuous
 62
     7
370
    25
100
AcDbPolyline
 90
        9
 70
   128
 43
0.0
 10
6314.9283735446
 20
5178.1042469973
 10
6315.074593635
 20
5178.0957510988
 10
6315.2150086035
 20
5178.0705898959
 10
6315.3442223816
 20
5178.0297303195
 10
6315.4572693563
 20
5177.9747425802
 10
6315.5498051957
 20
5177.907739826
 10
6315.6182737994
 20
5177.8312969351
 10
6315.6600439574
 20
5177.7483515651
 10
6315.6735104659
 20
5177.6620912599
  0
LINE
  5
AF
330
1F
100
AcDbEntity
  8
0
  6
Continuous
 62
     7
370
    25
100
AcDbLine
 10
6315.6735104659
 20
5177.6620912599
 30
0.0
 11
6315.7482302873
 21
5164.846002551
 31
0.0
  0
LWPOLYLINE
  5
B0
330
1F
100
AcDbEntity
  8
0
  6
Continuous
 62
     7
370
    25
100
AcDbPolyline
 90
        3
 70
   128
 43
0.0
 10
6300.8978962328
 20
5160.527106375
 10
6300.8812979809
 20
5160.4944458838
 10
6300.8441150151
 20
5160.4591000092
  0
LWPOLYLINE
  5
B1
330
1F
100
AcDbEntity
  8
0
  6
Continuous
 62
     7
370
    25
100
AcDbPolyline
 90
        3
 70
   128
 43
0.0
 10
6300.9533384072
 20
5160.3200981651
 10
6300.9266491621
 20
5160.1102722096
 10
6300.8489928962
 20
5160.0356842481
  0
LWPOLYLINE
  5
B2
330
1F
100
AcDbEntity
  8
0
  6
Continuous
 62
     7
370
    25
100
AcDbPolyline
 90
        3
 70
   128
 43
0.0
 10
6307.5360770528
 20
5158.4171164728
 10
6307.5352441933
 20
5158.4056568536
 10
6307.5350077
 20
5158.4050722767
  0
LWPOLYLINE
  5
B3
330
1F
100
AcDbEntity
  8
0
  6
Continuous
 62
     7
370
    25
100
AcDbPolyline
 90
        3
 70
   128
 43
0.0
 10
6314.1973979678
 20
5158.4050722767
 10
6314.1976344612
 20
5158.4056568536
 10
6314.1984673206
 20
5158.4171164728
  0
ARC
  5
B4
330
1F
100
AcDbEntity
  8
0
  6
Continuous
 62
     7
370
    25
100
AcDbCircle
 10
6314.2067901209
 20
5177.6128305843
 30
0.0
 40
1.467547336463846
100
AcDbArc
 50
1.9235898042
 51
91.4940935963
  0
ARC
  5
B5
330
1F
100
AcDbEntity
  8
0
  6
Continuous
 62
     7
370
    25
100
AcDbCircle
 10
6272.9263111488
 20
5173.349026575
 30
0.0
 40
10.90321983451602
100
AcDbArc
 50
359.999987658
 51
359.9976160272
  0
LINE
  5
B6
330
1F
100
AcDbEntity
  8
0
  6
Continuous
 62
     7
370
    25
100
AcDbLine
 10
6283.8295309833
 20
5173.3490242264
 30
0.0
 11
6283.55426167
 21
5173.3490242379
 31
0.0
  0
LWPOLYLINE
  5
B7
330
1F
100
AcDbEntity
  8
0
  6
Continuous
 62
     7
370
    25
100
AcDbPolyline
 90
       40
 70
   128
 43
0.0
 10
6283.55426167
 20
5173.3490242379
 10
6283.4234635535
 20
5174.9736675123
 10
6283.0418663164
 20
5176.5494630622
 10
6282.4251179686
 20
5178.0268470157
 10
6281.5956379106
 20
5179.3821035914
 10
6280.4953535012
 20
5180.6674550772
 10
6279.2024777941
 20
5181.7606251603
 10
6277.63237133
 20
5182.6896476
 10
6275.91284071
 20
5183.3437212401
 10
6274.1637091145
 20
5183.6863161006
 10
6272.3751694551
 20
5183.7389761705
 10
6270.7134786257
 20
5183.5184209833
 10
6269.1131387329
 20
5183.0485352553
 10
6267.6029614396
 20
5182.3346026105
 10
6266.230192266
 20
5181.4027393397
 10
6264.9485668331
 20
5180.1869368272
 10
6263.8871138576
 20
5178.7728030779
 10
6263.0615739138
 20
5177.1449075329
 10
6262.5315173083
 20
5175.3822455504
 10
6262.3335986305
 20
5173.700924393
 10
6262.4147627453
 20
5172.0079676838
 10
6262.7345531368
 20
5170.4971422272
 10
6263.2721092561
 20
5169.0607410086
 10
6264.0526692982
 20
5167.6684598677
 10
6265.0314622427
 20
5166.4170587165
 10
6266.3207625297
 20
5165.2237309022
 10
6267.7950346858
 20
5164.2542922402
 10
6269.4766034318
 20
5163.5188983011
 10
6271.2714934991
 20
5163.0745894737
 10
6273.0079126125
 20
5162.9434240991
 10
6274.7418590057
 20
5163.0898857347
 10
6276.3492946167
 20
5163.4883612298
 10
6277.8660137946
 20
5164.1220591894
 10
6279.3072918587
 20
5165.0130216375
 10
6280.5824660462
 20
5166.1160914783
 10
6281.7263408384
 20
5167.5010650953
 10
6282.6198079128
 20
5169.0704187688
 10
6283.2217281757
 20
5170.7647071809
 10
6283.5232295846
 20
5172.5518998635
 10
6283.5542616608
 20
5173.348593715
  0
LWPOLYLINE
  5
B8
330
1F
100
AcDbEntity
  8
0
  6
Continuous
 62
     7
370
    25
100
AcDbPolyline
 90
        9
 70
   128
 43
0.0
 10
6283.5542616608
 20
5173.348593715
 10
6283.6131173149
 20
5173.3485905215
 10
6283.6666666356
 20
5173.3485873878
 10
6283.7139075543
 20
5173.3485843724
 10
6283.7539560513
 20
5173.348581532
 10
6283.7860626991
 20
5173.3485789194
 10
6283.8096266857
 20
5173.3485765838
 10
6283.8242070582
 20
5173.3485745687
 10
6283.8295309739
 20
5173.348572912
  0
ARC
  5
B9
330
1F
100
AcDbEntity
  8
0
  6
Continuous
 62
     7
370
    25
100
AcDbCircle
 10
6272.9354627105
 20
5173.3508933223
 30
0.0
 40
10.95234811313665
100
AcDbArc
 50
238.2435822975
 51
265.1753221427
  0
ARC
  5
BA
330
1F
100
AcDbEntity
  8
0
  6
Continuous
 62
     7
370
    25
100
AcDbCircle
 10
6272.9513036124
 20
5173.2806656223
 30
0.0
 40
10.88372319608142
100
AcDbArc
 50
265.0611307545
 51
3.1889132814
  0
LINE
  5
BB
330
1F
100
AcDbEntity
  8
0
  6
Continuous
 62
     7
370
    25
100
AcDbLine
 10
6283.8295309833
 20
5173.3490242264
 30
0.0
 11
6283.8295309739
 21
5173.348572912
 31
0.0
  0
LINE
  5
BC
330
1F
100
AcDbEntity
  8
0
  6
Continuous
 62
     7
370
    25
100
AcDbLine
 10
6283.5542616608
 20
5173.348593715
 30
0.0
 11
6283.55426167
 21
5173.3490242379
 31
0.0
  0
LINE
  5
BD
330
1F
100
AcDbEntity
  8
0
  6
Continuous
 62
     7
370
    25
100
AcDbLine
 10
6264.3468701566
 20
5258.7699885054
 30
0.0
 11
6264.4090108582
 21
5258.9402984578
 31
0.0
  0
LWPOLYLINE
  5
BE
330
1F
100
AcDbEntity
  8
0
  6
Continuous
 62
     7
370
    25
100
AcDbPolyline
 90
       27
 70
   128
 43
0.0
 10
6282.7832259523
 20
5258.9661784804
 10
6282.831528866
 20
5258.8698432765
 10
6282.8189472601
 20
5258.6552730978
 10
6282.6417887542
 20
5258.4426836471
 10
6282.3032147461
 20
5258.2358685881
 10
6281.8092670969
 20
5258.0385185404
 10
6281.1687603141
 20
5257.8541552205
 10
6280.3931242564
 20
5257.6860685959
 10
6279.4962001678
 20
5257.5372581766
 10
6278.4939936797
 20
5257.4103794881
 10
6277.4043891907
 20
5257.3076966834
 10
6276.2468307187
 20
5257.2310421398
 10
6275.0419749222
 20
5257.1817837593
 10
6273.8113224812
 20
5257.1608005588
 10
6272.5768344178
 20
5257.1684669843
 10
6271.3605402007
 20
5257.204646228
 10
6270.184144629
 20
5257.2686926705
 10
6269.0686405097
 20
5257.3594634015
 10
6268.03393404
 20
5257.4753386152
 10
6267.0984895815
 20
5257.6142505157
 10
6266.2790001627
 20
5257.7737202168
 10
6265.5900895917
 20
5257.9509019778
 10
6265.044051494
 20
5258.1426339862
 10
6264.6506299323
 20
5258.3454947796
 10
6264.4168455237
 20
5258.5558643024
 10
6264.3468701566
 20
5258.7699885054
 10
6264.3468701566
 20
5258.7699885054
  0
ARC
  5
BF
330
1F
100
AcDbEntity
  8
0
  6
Continuous
 62
     7
370
    25
100
AcDbCircle
 10
6265.5367136444
 20
5258.5387583395
 30
0.0
 40
0.7275265753139011
100
AcDbArc
 50
116.1285851421
 51
161.4849222171
  0
LWPOLYLINE
  5
C0
330
1F
100
AcDbEntity
  8
0
  6
Continuous
 62
     7
370
    25
100
AcDbPolyline
 90
       28
 70
   128
 43
0.0
 10
6281.9752108568
 20
5259.2155423449
 10
6282.0455001597
 20
5259.1728153228
 10
6282.2765575786
 20
5258.9696776817
 10
6282.3459197454
 20
5258.7627509254
 10
6282.2522945742
 20
5258.5558897077
 10
6281.9974261246
 20
5258.3529474618
 10
6281.5860621137
 20
5258.1577046178
 10
6281.0258654748
 20
5257.9737981803
 10
6280.3272716111
 20
5257.8046539784
 10
6279.5032940048
 20
5257.6534228485
 10
6278.5692817994
 20
5257.5229219404
 10
6277.5426338752
 20
5257.4155822392
 10
6276.4424747405
 20
5257.3334032803
 10
6275.2892982785
 20
5257.2779159022
 10
6274.1045859847
 20
5257.25015373
 10
6272.9104068075
 20
5257.2506339202
 10
6271.7290060456
 20
5257.2793475278
 10
6270.5823909599
 20
5257.3357596728
 10
6269.49192082
 20
5257.4188195034
 10
6268.4779090212
 20
5257.5269797723
 10
6267.5592446849
 20
5257.6582256584
 10
6266.7530407894
 20
5257.8101122989
 10
6266.074315388
 20
5257.9798103333
 10
6265.5357118506
 20
5258.1641586083
 10
6265.147263342
 20
5258.3597230641
 10
6264.9162059231
 20
5258.5628607052
 10
6264.8468437563
 20
5258.7697874616
 10
6264.8468437563
 20
5258.7697874616
  0
LWPOLYLINE
  5
C1
330
1F
100
AcDbEntity
  8
0
  6
Continuous
 62
     7
370
    25
100
AcDbPolyline
 90
       24
 70
   128
 43
0.0
 10
6282.3047111401
 20
5258.9262563033
 10
6282.2518784446
 20
5258.8513320336
 10
6281.997009995
 20
5258.6483897877
 10
6281.5856459842
 20
5258.4531469437
 10
6281.0254493452
 20
5258.2692405062
 10
6280.3268554816
 20
5258.1000963043
 10
6279.5028778752
 20
5257.9488651744
 10
6278.5688656698
 20
5257.8183642663
 10
6277.5422177456
 20
5257.7110245651
 10
6276.442058611
 20
5257.6288456062
 10
6275.2888821489
 20
5257.5733582281
 10
6274.1041698551
 20
5257.5455960559
 10
6272.9099906779
 20
5257.5460762461
 10
6271.7285899161
 20
5257.5747898537
 10
6270.5819748304
 20
5257.6312019987
 10
6269.4915046904
 20
5257.7142618293
 10
6268.4774928917
 20
5257.8224220983
 10
6267.5588285554
 20
5257.9536679843
 10
6266.7526246599
 20
5258.1055546248
 10
6266.0738992584
 20
5258.2752526592
 10
6265.535295721
 20
5258.4596009342
 10
6265.1468472124
 20
5258.6551653901
 10
6264.9157897935
 20
5258.8583030311
 10
6264.887636232
 20
5258.9017244096
  0
LWPOLYLINE
  5
C2
330
1F
100
AcDbEntity
  8
0
  6
Continuous
 62
     7
370
    25
100
AcDbPolyline
 90
        3
 70
   128
 43
0.0
 10
6265.5963880262
 20
5259.0649282216
 10
6265.6894046609
 20
5259.2625966488
 10
6265.743650037
 20
5259.3166654121
  0
LWPOLYLINE
  5
C3
330
1F
100
AcDbEntity
  8
0
  6
Continuous
 62
     7
370
    25
100
AcDbPolyline
 90
       26
 70
   128
 43
0.0
 10
6281.4475318478
 20
5259.3387842789
 10
6281.5257115201
 20
5259.2562287271
 10
6281.5955432163
 20
5259.0584948171
 10
6281.5025265817
 20
5258.86082639
 10
6281.2485551665
 20
5258.6672474047
 10
6280.8387990964
 20
5258.4816985713
 10
6280.2815998234
 20
5258.3079571289
 10
6279.5883003178
 20
5258.1495599522
 10
6278.7730141582
 20
5258.0097315511
 10
6277.8523382198
 20
5257.8913184284
 10
6276.8450148097
 20
5257.7967311339
 10
6275.7715501276
 20
5257.7278951921
 10
6274.6537968188
 20
5257.6862119044
 10
6273.5145091173
 20
5257.6725298222
 10
6272.3768796354
 20
5257.6871274733
 10
6271.2640672286
 20
5257.7297076916
 10
6270.1987255484
 20
5257.7994036667
 10
6269.2025418793
 20
5257.8947965894
 10
6268.2957956479
 20
5258.0139445351
 10
6267.4969455928
 20
5258.154421995
 10
6266.8222539974
 20
5258.3133692532
 10
6266.2854556369
 20
5258.4875506019
 10
6265.8974781778
 20
5258.6734202111
 10
6265.6662197225
 20
5258.8671943117
 10
6265.5963880262
 20
5259.0649282216
 10
6265.5963880262
 20
5259.0649282216
  0
LWPOLYLINE
  5
C4
330
1F
100
AcDbEntity
  8
0
  6
Continuous
 62
     7
370
    25
100
AcDbPolyline
 90
       21
 70
   128
 43
0.0
 10
6281.4689618415
 20
5259.3190030358
 10
6281.2478616172
 20
5259.1596512812
 10
6280.8381055471
 20
5258.9741024478
 10
6280.2809062741
 20
5258.8003610054
 10
6279.5876067685
 20
5258.6419638288
 10
6278.772320609
 20
5258.5021354276
 10
6277.8516446706
 20
5258.3837223049
 10
6276.8443212604
 20
5258.2891350104
 10
6275.7708565783
 20
5258.2202990687
 10
6274.6531032695
 20
5258.1786157809
 10
6273.513815568
 20
5258.1649336987
 10
6272.3761860861
 20
5258.1795313498
 10
6271.2633736793
 20
5258.2221115681
 10
6270.1980319991
 20
5258.2918075432
 10
6269.20184833
 20
5258.3872004659
 10
6268.2951020987
 20
5258.5063484116
 10
6267.4962520436
 20
5258.6468258715
 10
6266.8215604481
 20
5258.8057731297
 10
6266.2847620876
 20
5258.9799544784
 10
6265.8967846285
 20
5259.1658240876
 10
6265.7222758518
 20
5259.2968238795
  0
LINE
  5
C5
330
1F
100
AcDbEntity
  8
0
  6
Continuous
 62
     7
370
    25
100
AcDbLine
 10
6273.0923591639
 20
5259.5041886631
 30
0.0
 11
6273.5893934552
 21
5259.4538598425
 31
0.0
  0
LINE
  5
C6
330
1F
100
AcDbEntity
  8
0
  6
Continuous
 62
     7
370
    25
100
AcDbLine
 10
6273.5893934552
 20
5259.4538598425
 30
0.0
 11
6274.0923063633
 21
5259.5037865753
 31
0.0
  0
LINE
  5
C7
330
1F
100
AcDbEntity
  8
0
  6
Continuous
 62
     7
370
    25
100
AcDbLine
 10
6274.0923063633
 20
5259.5037865753
 30
0.0
 11
6274.0981849801
 21
5259.6040421287
 31
0.0
  0
LINE
  5
C8
330
1F
100
AcDbEntity
  8
0
  6
Continuous
 62
     7
370
    25
100
AcDbLine
 10
6274.0981849801
 20
5259.6040421287
 30
0.0
 11
6273.6011506888
 21
5259.6543709492
 31
0.0
  0
LINE
  5
C9
330
1F
100
AcDbEntity
  8
0
  6
Continuous
 62
     7
370
    25
100
AcDbLine
 10
6273.6011506888
 20
5259.6543709492
 30
0.0
 11
6273.0982377807
 21
5259.6044442164
 31
0.0
  0
LINE
  5
CA
330
1F
100
AcDbEntity
  8
0
  6
Continuous
 62
     7
370
    25
100
AcDbLine
 10
6273.0982377807
 20
5259.6044442164
 30
0.0
 11
6273.0923591639
 21
5259.5041886631
 31
0.0
  0
LINE
  5
CB
330
1F
100
AcDbEntity
  8
0
  6
Continuous
 62
     7
370
    25
100
AcDbLine
 10
6267.0503499266
 20
5258.7847612057
 30
0.0
 11
6267.5473842179
 21
5258.7344323851
 31
0.0
  0
LINE
  5
CC
330
1F
100
AcDbEntity
  8
0
  6
Continuous
 62
     7
370
    25
100
AcDbLine
 10
6267.5473842179
 20
5258.7344323851
 30
0.0
 11
6268.050297126
 21
5258.7843591179
 31
0.0
  0
LINE
  5
CD
330
1F
100
AcDbEntity
  8
0
  6
Continuous
 62
     7
370
    25
100
AcDbLine
 10
6268.050297126
 20
5258.7843591179
 30
0.0
 11
6268.0561757428
 21
5258.8846146712
 31
0.0
  0
LINE
  5
CE
330
1F
100
AcDbEntity
  8
0
  6
Continuous
 62
     7
370
    25
100
AcDbLine
 10
6268.0561757428
 20
5258.8846146712
 30
0.0
 11
6267.5591414515
 21
5258.9349434918
 31
0.0
  0
LINE
  5
CF
330
1F
100
AcDbEntity
  8
0
  6
Continuous
 62
     7
370
    25
100
AcDbLine
 10
6267.5591414515
 20
5258.9349434918
 30
0.0
 11
6267.0562285434
 21
5258.885016759
 31
0.0
  0
LINE
  5
D0
330
1F
100
AcDbEntity
  8
0
  6
Continuous
 62
     7
370
    25
100
AcDbLine
 10
6267.0562285434
 20
5258.885016759
 30
0.0
 11
6267.0503499266
 21
5258.7847612057
 31
0.0
  0
LINE
  5
D1
330
1F
100
AcDbEntity
  8
0
  6
Continuous
 62
     7
370
    25
100
AcDbLine
 10
6280.2919789995
 20
5259.5012936311
 30
0.0
 11
6280.7890132908
 21
5259.4509648105
 31
0.0
  0
LINE
  5
D2
330
1F
100
AcDbEntity
  8
0
  6
Continuous
 62
     7
370
    25
100
AcDbLine
 10
6280.7890132908
 20
5259.4509648105
 30
0.0
 11
6280.8429144915
 21
5259.456315858
 31
0.0
  0
LINE
  5
D3
330
1F
100
AcDbEntity
  8
0
  6
Continuous
 62
     7
370
    25
100
AcDbLine
 10
6280.2946305232
 20
5259.5465134478
 30
0.0
 11
6280.2919789995
 21
5259.5012936311
 31
0.0
  0
LINE
  5
D4
330
1F
100
AcDbEntity
  8
0
  6
Continuous
 62
     7
370
    25
100
AcDbLine
 10
6272.4606463135
 20
5258.9630499277
 30
0.0
 11
6272.9576806048
 21
5258.9127211071
 31
0.0
  0
LINE
  5
D5
330
1F
100
AcDbEntity
  8
0
  6
Continuous
 62
     7
370
    25
100
AcDbLine
 10
6272.9576806048
 20
5258.9127211071
 30
0.0
 11
6273.4605935129
 21
5258.9626478399
 31
0.0
  0
LINE
  5
D6
330
1F
100
AcDbEntity
  8
0
  6
Continuous
 62
     7
370
    25
100
AcDbLine
 10
6273.4605935129
 20
5258.9626478399
 30
0.0
 11
6273.4664721297
 21
5259.0629033932
 31
0.0
  0
LINE
  5
D7
330
1F
100
AcDbEntity
  8
0
  6
Continuous
 62
     7
370
    25
100
AcDbLine
 10
6273.4664721297
 20
5259.0629033932
 30
0.0
 11
6272.9694378384
 21
5259.1132322138
 31
0.0
  0
LINE
  5
D8
330
1F
100
AcDbEntity
  8
0
  6
Continuous
 62
     7
370
    25
100
AcDbLine
 10
6272.9694378384
 20
5259.1132322138
 30
0.0
 11
6272.4665249303
 21
5259.063305481
 31
0.0
  0
LINE
  5
D9
330
1F
100
AcDbEntity
  8
0
  6
Continuous
 62
     7
370
    25
100
AcDbLine
 10
6272.4665249303
 20
5259.063305481
 30
0.0
 11
6272.4606463135
 21
5258.9630499277
 31
0.0
  0
LINE
  5
DA
330
1F
100
AcDbEntity
  8
0
  6
Continuous
 62
     7
370
    25
100
AcDbLine
 10
6271.8712595041
 20
5259.1437511764
 30
0.0
 11
6272.3682937954
 21
5259.0934223558
 31
0.0
  0
LINE
  5
DB
330
1F
100
AcDbEntity
  8
0
  6
Continuous
 62
     7
370
    25
100
AcDbLine
 10
6272.3682937954
 20
5259.0934223558
 30
0.0
 11
6272.8712067035
 21
5259.1433490886
 31
0.0
  0
LINE
  5
DC
330
1F
100
AcDbEntity
  8
0
  6
Continuous
 62
     7
370
    25
100
AcDbLine
 10
6272.8712067035
 20
5259.1433490886
 30
0.0
 11
6272.8770853203
 21
5259.2436046419
 31
0.0
  0
LINE
  5
DD
330
1F
100
AcDbEntity
  8
0
  6
Continuous
 62
     7
370
    25
100
AcDbLine
 10
6272.8770853203
 20
5259.2436046419
 30
0.0
 11
6272.3800510291
 21
5259.2939334625
 31
0.0
  0
LINE
  5
DE
330
1F
100
AcDbEntity
  8
0
  6
Continuous
 62
     7
370
    25
100
AcDbLine
 10
6272.3800510291
 20
5259.2939334625
 30
0.0
 11
6271.877138121
 21
5259.2440067297
 31
0.0
  0
LINE
  5
DF
330
1F
100
AcDbEntity
  8
0
  6
Continuous
 62
     7
370
    25
100
AcDbLine
 10
6271.877138121
 20
5259.2440067297
 30
0.0
 11
6271.8712595041
 21
5259.1437511764
 31
0.0
  0
LINE
  5
E0
330
1F
100
AcDbEntity
  8
0
  6
Continuous
 62
     7
370
    25
100
AcDbLine
 10
6273.6394199322
 20
5258.6016474303
 30
0.0
 11
6274.1364542235
 21
5258.5513186097
 31
0.0
  0
LINE
  5
E1
330
1F
100
AcDbEntity
  8
0
  6
Continuous
 62
     7
370
    25
100
AcDbLine
 10
6274.1364542235
 20
5258.5513186097
 30
0.0
 11
6274.6393671316
 21
5258.6012453425
 31
0.0
  0
LINE
  5
E2
330
1F
100
AcDbEntity
  8
0
  6
Continuous
 62
     7
370
    25
100
AcDbLine
 10
6274.6393671316
 20
5258.6012453425
 30
0.0
 11
6274.6452457484
 21
5258.7015008958
 31
0.0
  0
LINE
  5
E3
330
1F
100
AcDbEntity
  8
0
  6
Continuous
 62
     7
370
    25
100
AcDbLine
 10
6274.6452457484
 20
5258.7015008958
 30
0.0
 11
6274.1482114571
 21
5258.7518297164
 31
0.0
  0
LINE
  5
E4
330
1F
100
AcDbEntity
  8
0
  6
Continuous
 62
     7
370
    25
100
AcDbLine
 10
6274.1482114571
 20
5258.7518297164
 30
0.0
 11
6273.645298549
 21
5258.7019029836
 31
0.0
  0
LINE
  5
E5
330
1F
100
AcDbEntity
  8
0
  6
Continuous
 62
     7
370
    25
100
AcDbLine
 10
6273.645298549
 20
5258.7019029836
 30
0.0
 11
6273.6394199322
 21
5258.6016474303
 31
0.0
  0
LINE
  5
E6
330
1F
100
AcDbEntity
  8
0
  6
Continuous
 62
     7
370
    25
100
AcDbLine
 10
6273.0500331229
 20
5258.782348679
 30
0.0
 11
6273.5470674142
 21
5258.7320198584
 31
0.0
  0
LINE
  5
E7
330
1F
100
AcDbEntity
  8
0
  6
Continuous
 62
     7
370
    25
100
AcDbLine
 10
6273.5470674142
 20
5258.7320198584
 30
0.0
 11
6274.0499803223
 21
5258.7819465912
 31
0.0
  0
LINE
  5
E8
330
1F
100
AcDbEntity
  8
0
  6
Continuous
 62
     7
370
    25
100
AcDbLine
 10
6274.0499803223
 20
5258.7819465912
 30
0.0
 11
6274.0558589391
 21
5258.8822021445
 31
0.0
  0
LINE
  5
E9
330
1F
100
AcDbEntity
  8
0
  6
Continuous
 62
     7
370
    25
100
AcDbLine
 10
6274.0558589391
 20
5258.8822021445
 30
0.0
 11
6273.5588246478
 21
5258.9325309651
 31
0.0
  0
LINE
  5
EA
330
1F
100
AcDbEntity
  8
0
  6
Continuous
 62
     7
370
    25
100
AcDbLine
 10
6273.5588246478
 20
5258.9325309651
 30
0.0
 11
6273.0559117397
 21
5258.8826042323
 31
0.0
  0
LINE
  5
EB
330
1F
100
AcDbEntity
  8
0
  6
Continuous
 62
     7
370
    25
100
AcDbLine
 10
6273.0559117397
 20
5258.8826042323
 30
0.0
 11
6273.0500331229
 21
5258.782348679
 31
0.0
  0
LINE
  5
EC
330
1F
100
AcDbEntity
  8
0
  6
Continuous
 62
     7
370
    25
100
AcDbLine
 10
6270.103099076
 20
5259.6858549225
 30
0.0
 11
6270.6001333673
 21
5259.6355261019
 31
0.0
  0
LINE
  5
ED
330
1F
100
AcDbEntity
  8
0
  6
Continuous
 62
     7
370
    25
100
AcDbLine
 10
6270.6001333673
 20
5259.6355261019
 30
0.0
 11
6271.1030462754
 21
5259.6854528347
 31
0.0
  0
LINE
  5
EE
330
1F
100
AcDbEntity
  8
0
  6
Continuous
 62
     7
370
    25
100
AcDbLine
 10
6271.1030462754
 20
5259.6854528347
 30
0.0
 11
6271.1089248922
 21
5259.785708388
 31
0.0
  0
LINE
  5
EF
330
1F
100
AcDbEntity
  8
0
  6
Continuous
 62
     7
370
    25
100
AcDbLine
 10
6271.1089248922
 20
5259.785708388
 30
0.0
 11
6270.611890601
 21
5259.8360372086
 31
0.0
  0
LINE
  5
F0
330
1F
100
AcDbEntity
  8
0
  6
Continuous
 62
     7
370
    25
100
AcDbLine
 10
6270.611890601
 20
5259.8360372086
 30
0.0
 11
6270.1089776929
 21
5259.7861104758
 31
0.0
  0
LINE
  5
F1
330
1F
100
AcDbEntity
  8
0
  6
Continuous
 62
     7
370
    25
100
AcDbLine
 10
6270.1089776929
 20
5259.7861104758
 30
0.0
 11
6270.103099076
 21
5259.6858549225
 31
0.0
  0
LINE
  5
F2
330
1F
100
AcDbEntity
  8
0
  6
Continuous
 62
     7
370
    25
100
AcDbLine
 10
6269.7596509145
 20
5259.841652855
 30
0.0
 11
6270.010746558
 21
5259.8162273506
 31
0.0
  0
LINE
  5
F3
330
1F
100
AcDbEntity
  8
0
  6
Continuous
 62
     7
370
    25
100
AcDbLine
 10
6270.010746558
 20
5259.8162273506
 30
0.0
 11
6270.5136594661
 21
5259.8661540834
 31
0.0
  0
LINE
  5
F4
330
1F
100
AcDbEntity
  8
0
  6
Continuous
 62
     7
370
    25
100
AcDbLine
 10
6270.5136594661
 20
5259.8661540834
 30
0.0
 11
6270.5150903267
 21
5259.8905563748
 31
0.0
  0
LINE
  5
F5
330
1F
100
AcDbEntity
  8
0
  6
Continuous
 62
     7
370
    25
100
AcDbLine
 10
6271.2818726948
 20
5259.3244524251
 30
0.0
 11
6271.7789069861
 21
5259.2741236045
 31
0.0
  0
LINE
  5
F6
330
1F
100
AcDbEntity
  8
0
  6
Continuous
 62
     7
370
    25
100
AcDbLine
 10
6271.7789069861
 20
5259.2741236045
 30
0.0
 11
6272.2818198942
 21
5259.3240503373
 31
0.0
  0
LINE
  5
F7
330
1F
100
AcDbEntity
  8
0
  6
Continuous
 62
     7
370
    25
100
AcDbLine
 10
6272.2818198942
 20
5259.3240503373
 30
0.0
 11
6272.287698511
 21
5259.4243058906
 31
0.0
  0
LINE
  5
F8
330
1F
100
AcDbEntity
  8
0
  6
Continuous
 62
     7
370
    25
100
AcDbLine
 10
6272.287698511
 20
5259.4243058906
 30
0.0
 11
6271.7906642197
 21
5259.4746347112
 31
0.0
  0
LINE
  5
F9
330
1F
100
AcDbEntity
  8
0
  6
Continuous
 62
     7
370
    25
100
AcDbLine
 10
6271.7906642197
 20
5259.4746347112
 30
0.0
 11
6271.2877513116
 21
5259.4247079784
 31
0.0
  0
LINE
  5
FA
330
1F
100
AcDbEntity
  8
0
  6
Continuous
 62
     7
370
    25
100
AcDbLine
 10
6271.2877513116
 20
5259.4247079784
 30
0.0
 11
6271.2818726948
 21
5259.3244524251
 31
0.0
  0
LINE
  5
FB
330
1F
100
AcDbEntity
  8
0
  6
Continuous
 62
     7
370
    25
100
AcDbLine
 10
6270.6924858854
 20
5259.5051536738
 30
0.0
 11
6271.1895201767
 21
5259.4548248532
 31
0.0
  0
LINE
  5
FC
330
1F
100
AcDbEntity
  8
0
  6
Continuous
 62
     7
370
    25
100
AcDbLine
 10
6271.1895201767
 20
5259.4548248532
 30
0.0
 11
6271.6924330848
 21
5259.504751586
 31
0.0
  0
LINE
  5
FD
330
1F
100
AcDbEntity
  8
0
  6
Continuous
 62
     7
370
    25
100
AcDbLine
 10
6271.6924330848
 20
5259.504751586
 30
0.0
 11
6271.6983117016
 21
5259.6050071393
 31
0.0
  0
LINE
  5
FE
330
1F
100
AcDbEntity
  8
0
  6
Continuous
 62
     7
370
    25
100
AcDbLine
 10
6271.6983117016
 20
5259.6050071393
 30
0.0
 11
6271.2012774103
 21
5259.6553359599
 31
0.0
  0
LINE
  5
FF
330
1F
100
AcDbEntity
  8
0
  6
Continuous
 62
     7
370
    25
100
AcDbLine
 10
6271.2012774103
 20
5259.6553359599
 30
0.0
 11
6270.6983645022
 21
5259.6054092271
 31
0.0
  0
LINE
  5
100
330
1F
100
AcDbEntity
  8
0
  6
Continuous
 62
     7
370
    25
100
AcDbLine
 10
6270.6983645022
 20
5259.6054092271
 30
0.0
 11
6270.6924858854
 21
5259.5051536738
 31
0.0
  0
LINE
  5
101
330
1F
100
AcDbEntity
  8
0
  6
Continuous
 62
     7
370
    25
100
AcDbLine
 10
6269.4925492462
 20
5259.5056361791
 30
0.0
 11
6269.9895835374
 21
5259.4553073585
 31
0.0
  0
LINE
  5
102
330
1F
100
AcDbEntity
  8
0
  6
Continuous
 62
     7
370
    25
100
AcDbLine
 10
6269.9895835374
 20
5259.4553073585
 30
0.0
 11
6270.4924964455
 21
5259.5052340913
 31
0.0
  0
LINE
  5
103
330
1F
100
AcDbEntity
  8
0
  6
Continuous
 62
     7
370
    25
100
AcDbLine
 10
6270.4924964455
 20
5259.5052340913
 30
0.0
 11
6270.4983750623
 21
5259.6054896447
 31
0.0
  0
LINE
  5
104
330
1F
100
AcDbEntity
  8
0
  6
Continuous
 62
     7
370
    25
100
AcDbLine
 10
6270.4983750623
 20
5259.6054896447
 30
0.0
 11
6270.0013407711
 21
5259.6558184652
 31
0.0
  0
LINE
  5
105
330
1F
100
AcDbEntity
  8
0
  6
Continuous
 62
     7
370
    25
100
AcDbLine
 10
6270.0013407711
 20
5259.6558184652
 30
0.0
 11
6269.498427863
 21
5259.6058917325
 31
0.0
  0
LINE
  5
106
330
1F
100
AcDbEntity
  8
0
  6
Continuous
 62
     7
370
    25
100
AcDbLine
 10
6269.498427863
 20
5259.6058917325
 30
0.0
 11
6269.4925492462
 21
5259.5056361791
 31
0.0
  0
LINE
  5
107
330
1F
100
AcDbEntity
  8
0
  6
Continuous
 62
     7
370
    25
100
AcDbLine
 10
6268.9031624368
 20
5259.6863374278
 30
0.0
 11
6269.4001967281
 21
5259.6360086072
 31
0.0
  0
LINE
  5
108
330
1F
100
AcDbEntity
  8
0
  6
Continuous
 62
     7
370
    25
100
AcDbLine
 10
6269.4001967281
 20
5259.6360086072
 30
0.0
 11
6269.9031096362
 21
5259.68593534
 31
0.0
  0
LINE
  5
109
330
1F
100
AcDbEntity
  8
0
  6
Continuous
 62
     7
370
    25
100
AcDbLine
 10
6269.9031096362
 20
5259.68593534
 30
0.0
 11
6269.908988253
 21
5259.7861908934
 31
0.0
  0
LINE
  5
10A
330
1F
100
AcDbEntity
  8
0
  6
Continuous
 62
     7
370
    25
100
AcDbLine
 10
6269.908988253
 20
5259.7861908934
 30
0.0
 11
6269.5310386987
 21
5259.8244614023
 31
0.0
  0
LINE
  5
10B
330
1F
100
AcDbEntity
  8
0
  6
Continuous
 62
     7
370
    25
100
AcDbLine
 10
6268.9081592802
 20
5259.7715549749
 30
0.0
 11
6268.9031624368
 21
5259.6863374278
 31
0.0
  0
LINE
  5
10C
330
1F
100
AcDbEntity
  8
0
  6
Continuous
 62
     7
370
    25
100
AcDbLine
 10
6270.6713228649
 20
5259.1442336817
 30
0.0
 11
6271.1683571562
 21
5259.0939048611
 31
0.0
  0
LINE
  5
10D
330
1F
100
AcDbEntity
  8
0
  6
Continuous
 62
     7
370
    25
100
AcDbLine
 10
6271.1683571562
 20
5259.0939048611
 30
0.0
 11
6271.6712700643
 21
5259.1438315939
 31
0.0
  0
LINE
  5
10E
330
1F
100
AcDbEntity
  8
0
  6
Continuous
 62
     7
370
    25
100
AcDbLine
 10
6271.6712700643
 20
5259.1438315939
 30
0.0
 11
6271.6771486811
 21
5259.2440871473
 31
0.0
  0
LINE
  5
10F
330
1F
100
AcDbEntity
  8
0
  6
Continuous
 62
     7
370
    25
100
AcDbLine
 10
6271.6771486811
 20
5259.2440871473
 30
0.0
 11
6271.1801143898
 21
5259.2944159678
 31
0.0
  0
LINE
  5
110
330
1F
100
AcDbEntity
  8
0
  6
Continuous
 62
     7
370
    25
100
AcDbLine
 10
6271.1801143898
 20
5259.2944159678
 30
0.0
 11
6270.6772014817
 21
5259.2444892351
 31
0.0
  0
LINE
  5
111
330
1F
100
AcDbEntity
  8
0
  6
Continuous
 62
     7
370
    25
100
AcDbLine
 10
6270.6772014817
 20
5259.2444892351
 30
0.0
 11
6270.6713228649
 21
5259.1442336817
 31
0.0
  0
LINE
  5
112
330
1F
100
AcDbEntity
  8
0
  6
Continuous
 62
     7
370
    25
100
AcDbLine
 10
6270.0819360555
 20
5259.3249349304
 30
0.0
 11
6270.5789703468
 21
5259.2746061098
 31
0.0
  0
LINE
  5
113
330
1F
100
AcDbEntity
  8
0
  6
Continuous
 62
     7
370
    25
100
AcDbLine
 10
6270.5789703468
 20
5259.2746061098
 30
0.0
 11
6271.0818832549
 21
5259.3245328426
 31
0.0
  0
LINE
  5
114
330
1F
100
AcDbEntity
  8
0
  6
Continuous
 62
     7
370
    25
100
AcDbLine
 10
6271.0818832549
 20
5259.3245328426
 30
0.0
 11
6271.0877618717
 21
5259.424788396
 31
0.0
  0
LINE
  5
115
330
1F
100
AcDbEntity
  8
0
  6
Continuous
 62
     7
370
    25
100
AcDbLine
 10
6271.0877618717
 20
5259.424788396
 30
0.0
 11
6270.5907275804
 21
5259.4751172165
 31
0.0
  0
LINE
  5
116
330
1F
100
AcDbEntity
  8
0
  6
Continuous
 62
     7
370
    25
100
AcDbLine
 10
6270.5907275804
 20
5259.4751172165
 30
0.0
 11
6270.0878146723
 21
5259.4251904838
 31
0.0
  0
LINE
  5
117
330
1F
100
AcDbEntity
  8
0
  6
Continuous
 62
     7
370
    25
100
AcDbLine
 10
6270.0878146723
 20
5259.4251904838
 30
0.0
 11
6270.0819360555
 21
5259.3249349304
 31
0.0
  0
LINE
  5
118
330
1F
100
AcDbEntity
  8
0
  6
Continuous
 62
     7
370
    25
100
AcDbLine
 10
6274.2288067416
 20
5258.4209461816
 30
0.0
 11
6274.7258410329
 21
5258.370617361
 31
0.0
  0
LINE
  5
119
330
1F
100
AcDbEntity
  8
0
  6
Continuous
 62
     7
370
    25
100
AcDbLine
 10
6274.7258410329
 20
5258.370617361
 30
0.0
 11
6275.228753941
 21
5258.4205440938
 31
0.0
  0
LINE
  5
11A
330
1F
100
AcDbEntity
  8
0
  6
Continuous
 62
     7
370
    25
100
AcDbLine
 10
6275.228753941
 20
5258.4205440938
 30
0.0
 11
6275.2346325578
 21
5258.5207996472
 31
0.0
  0
LINE
  5
11B
330
1F
100
AcDbEntity
  8
0
  6
Continuous
 62
     7
370
    25
100
AcDbLine
 10
6275.2346325578
 20
5258.5207996472
 30
0.0
 11
6274.7375982665
 21
5258.5711284677
 31
0.0
  0
LINE
  5
11C
330
1F
100
AcDbEntity
  8
0
  6
Continuous
 62
     7
370
    25
100
AcDbLine
 10
6274.7375982665
 20
5258.5711284677
 30
0.0
 11
6274.2346853584
 21
5258.5212017349
 31
0.0
  0
LINE
  5
11D
330
1F
100
AcDbEntity
  8
0
  6
Continuous
 62
     7
370
    25
100
AcDbLine
 10
6274.2346853584
 20
5258.5212017349
 30
0.0
 11
6274.2288067416
 21
5258.4209461816
 31
0.0
  0
LINE
  5
11E
330
1F
100
AcDbEntity
  8
0
  6
Continuous
 62
     7
370
    25
100
AcDbLine
 10
6270.7136489059
 20
5259.8660736658
 30
0.0
 11
6271.2106831972
 21
5259.8157448453
 31
0.0
  0
LINE
  5
11F
330
1F
100
AcDbEntity
  8
0
  6
Continuous
 62
     7
370
    25
100
AcDbLine
 10
6271.2106831972
 20
5259.8157448453
 30
0.0
 11
6271.7135961053
 21
5259.865671578
 31
0.0
  0
LINE
  5
120
330
1F
100
AcDbEntity
  8
0
  6
Continuous
 62
     7
370
    25
100
AcDbLine
 10
6271.7135961053
 20
5259.865671578
 30
0.0
 11
6271.7182615382
 21
5259.9452371574
 31
0.0
  0
LINE
  5
121
330
1F
100
AcDbEntity
  8
0
  6
Continuous
 62
     7
370
    25
100
AcDbLine
 10
6270.71573183
 20
5259.9015964281
 30
0.0
 11
6270.7136489059
 21
5259.8660736658
 31
0.0
  0
LINE
  5
122
330
1F
100
AcDbEntity
  8
0
  6
Continuous
 62
     7
370
    25
100
AcDbLine
 10
6271.8924225247
 20
5259.5046711684
 30
0.0
 11
6272.389456816
 21
5259.4543423479
 31
0.0
  0
LINE
  5
123
330
1F
100
AcDbEntity
  8
0
  6
Continuous
 62
     7
370
    25
100
AcDbLine
 10
6272.389456816
 20
5259.4543423479
 30
0.0
 11
6272.8923697241
 21
5259.5042690807
 31
0.0
  0
LINE
  5
124
330
1F
100
AcDbEntity
  8
0
  6
Continuous
 62
     7
370
    25
100
AcDbLine
 10
6272.8923697241
 20
5259.5042690807
 30
0.0
 11
6272.8982483409
 21
5259.604524634
 31
0.0
  0
LINE
  5
125
330
1F
100
AcDbEntity
  8
0
  6
Continuous
 62
     7
370
    25
100
AcDbLine
 10
6272.8982483409
 20
5259.604524634
 30
0.0
 11
6272.4012140496
 21
5259.6548534546
 31
0.0
  0
LINE
  5
126
330
1F
100
AcDbEntity
  8
0
  6
Continuous
 62
     7
370
    25
100
AcDbLine
 10
6272.4012140496
 20
5259.6548534546
 30
0.0
 11
6271.8983011415
 21
5259.6049267218
 31
0.0
  0
LINE
  5
127
330
1F
100
AcDbEntity
  8
0
  6
Continuous
 62
     7
370
    25
100
AcDbLine
 10
6271.8983011415
 20
5259.6049267218
 30
0.0
 11
6271.8924225247
 21
5259.5046711684
 31
0.0
  0
LINE
  5
128
330
1F
100
AcDbEntity
  8
0
  6
Continuous
 62
     7
370
    25
100
AcDbLine
 10
6271.3030357153
 20
5259.6853724171
 30
0.0
 11
6271.8000700066
 21
5259.6350435966
 31
0.0
  0
LINE
  5
129
330
1F
100
AcDbEntity
  8
0
  6
Continuous
 62
     7
370
    25
100
AcDbLine
 10
6271.8000700066
 20
5259.6350435966
 30
0.0
 11
6272.3029829147
 21
5259.6849703294
 31
0.0
  0
LINE
  5
12A
330
1F
100
AcDbEntity
  8
0
  6
Continuous
 62
     7
370
    25
100
AcDbLine
 10
6272.3029829147
 20
5259.6849703294
 30
0.0
 11
6272.3088615315
 21
5259.7852258827
 31
0.0
  0
LINE
  5
12B
330
1F
100
AcDbEntity
  8
0
  6
Continuous
 62
     7
370
    25
100
AcDbLine
 10
6272.3088615315
 20
5259.7852258827
 30
0.0
 11
6271.8118272402
 21
5259.8355547033
 31
0.0
  0
LINE
  5
12C
330
1F
100
AcDbEntity
  8
0
  6
Continuous
 62
     7
370
    25
100
AcDbLine
 10
6271.8118272402
 20
5259.8355547033
 30
0.0
 11
6271.3089143321
 21
5259.7856279705
 31
0.0
  0
LINE
  5
12D
330
1F
100
AcDbEntity
  8
0
  6
Continuous
 62
     7
370
    25
100
AcDbLine
 10
6271.3089143321
 20
5259.7856279705
 30
0.0
 11
6271.3030357153
 21
5259.6853724171
 31
0.0
  0
LINE
  5
12E
330
1F
100
AcDbEntity
  8
0
  6
Continuous
 62
     7
370
    25
100
AcDbLine
 10
6276.0392932108
 20
5258.6006824196
 30
0.0
 11
6276.536327502
 21
5258.550353599
 31
0.0
  0
LINE
  5
12F
330
1F
100
AcDbEntity
  8
0
  6
Continuous
 62
     7
370
    25
100
AcDbLine
 10
6276.536327502
 20
5258.550353599
 30
0.0
 11
6277.0392404101
 21
5258.6002803318
 31
0.0
  0
LINE
  5
130
330
1F
100
AcDbEntity
  8
0
  6
Continuous
 62
     7
370
    25
100
AcDbLine
 10
6277.0392404101
 20
5258.6002803318
 30
0.0
 11
6277.0451190269
 21
5258.7005358852
 31
0.0
  0
LINE
  5
131
330
1F
100
AcDbEntity
  8
0
  6
Continuous
 62
     7
370
    25
100
AcDbLine
 10
6277.0451190269
 20
5258.7005358852
 30
0.0
 11
6276.5480847357
 21
5258.7508647057
 31
0.0
  0
LINE
  5
132
330
1F
100
AcDbEntity
  8
0
  6
Continuous
 62
     7
370
    25
100
AcDbLine
 10
6276.5480847357
 20
5258.7508647057
 30
0.0
 11
6276.0451718276
 21
5258.700937973
 31
0.0
  0
LINE
  5
133
330
1F
100
AcDbEntity
  8
0
  6
Continuous
 62
     7
370
    25
100
AcDbLine
 10
6276.0451718276
 20
5258.700937973
 30
0.0
 11
6276.0392932108
 21
5258.6006824196
 31
0.0
  0
LINE
  5
134
330
1F
100
AcDbEntity
  8
0
  6
Continuous
 62
     7
370
    25
100
AcDbLine
 10
6276.6286800201
 20
5258.4199811709
 30
0.0
 11
6277.1257143114
 21
5258.3696523503
 31
0.0
  0
LINE
  5
135
330
1F
100
AcDbEntity
  8
0
  6
Continuous
 62
     7
370
    25
100
AcDbLine
 10
6277.1257143114
 20
5258.3696523503
 30
0.0
 11
6277.6286272195
 21
5258.4195790831
 31
0.0
  0
LINE
  5
136
330
1F
100
AcDbEntity
  8
0
  6
Continuous
 62
     7
370
    25
100
AcDbLine
 10
6277.6286272195
 20
5258.4195790831
 30
0.0
 11
6277.6345058363
 21
5258.5198346365
 31
0.0
  0
LINE
  5
137
330
1F
100
AcDbEntity
  8
0
  6
Continuous
 62
     7
370
    25
100
AcDbLine
 10
6277.6345058363
 20
5258.5198346365
 30
0.0
 11
6277.137471545
 21
5258.570163457
 31
0.0
  0
LINE
  5
138
330
1F
100
AcDbEntity
  8
0
  6
Continuous
 62
     7
370
    25
100
AcDbLine
 10
6277.137471545
 20
5258.570163457
 30
0.0
 11
6276.6345586369
 21
5258.5202367243
 31
0.0
  0
LINE
  5
139
330
1F
100
AcDbEntity
  8
0
  6
Continuous
 62
     7
370
    25
100
AcDbLine
 10
6276.6345586369
 20
5258.5202367243
 30
0.0
 11
6276.6286800201
 21
5258.4199811709
 31
0.0
  0
LINE
  5
13A
330
1F
100
AcDbEntity
  8
0
  6
Continuous
 62
     7
370
    25
100
AcDbLine
 10
6274.8393565715
 20
5258.6011649249
 30
0.0
 11
6275.3363908628
 21
5258.5508361044
 31
0.0
  0
LINE
  5
13B
330
1F
100
AcDbEntity
  8
0
  6
Continuous
 62
     7
370
    25
100
AcDbLine
 10
6275.3363908628
 20
5258.5508361044
 30
0.0
 11
6275.8393037709
 21
5258.6007628372
 31
0.0
  0
LINE
  5
13C
330
1F
100
AcDbEntity
  8
0
  6
Continuous
 62
     7
370
    25
100
AcDbLine
 10
6275.8393037709
 20
5258.6007628372
 30
0.0
 11
6275.8451823877
 21
5258.7010183905
 31
0.0
  0
LINE
  5
13D
330
1F
100
AcDbEntity
  8
0
  6
Continuous
 62
     7
370
    25
100
AcDbLine
 10
6275.8451823877
 20
5258.7010183905
 30
0.0
 11
6275.3481480964
 21
5258.7513472111
 31
0.0
  0
LINE
  5
13E
330
1F
100
AcDbEntity
  8
0
  6
Continuous
 62
     7
370
    25
100
AcDbLine
 10
6275.3481480964
 20
5258.7513472111
 30
0.0
 11
6274.8452351883
 21
5258.7014204783
 31
0.0
  0
LINE
  5
13F
330
1F
100
AcDbEntity
  8
0
  6
Continuous
 62
     7
370
    25
100
AcDbLine
 10
6274.8452351883
 20
5258.7014204783
 30
0.0
 11
6274.8393565715
 21
5258.6011649249
 31
0.0
  0
LINE
  5
140
330
1F
100
AcDbEntity
  8
0
  6
Continuous
 62
     7
370
    25
100
AcDbLine
 10
6275.4287433809
 20
5258.4204636762
 30
0.0
 11
6275.9257776721
 21
5258.3701348557
 31
0.0
  0
LINE
  5
141
330
1F
100
AcDbEntity
  8
0
  6
Continuous
 62
     7
370
    25
100
AcDbLine
 10
6275.9257776721
 20
5258.3701348557
 30
0.0
 11
6276.4286905802
 21
5258.4200615885
 31
0.0
  0
LINE
  5
142
330
1F
100
AcDbEntity
  8
0
  6
Continuous
 62
     7
370
    25
100
AcDbLine
 10
6276.4286905802
 20
5258.4200615885
 30
0.0
 11
6276.4345691971
 21
5258.5203171418
 31
0.0
  0
LINE
  5
143
330
1F
100
AcDbEntity
  8
0
  6
Continuous
 62
     7
370
    25
100
AcDbLine
 10
6276.4345691971
 20
5258.5203171418
 30
0.0
 11
6275.9375349058
 21
5258.5706459624
 31
0.0
  0
LINE
  5
144
330
1F
100
AcDbEntity
  8
0
  6
Continuous
 62
     7
370
    25
100
AcDbLine
 10
6275.9375349058
 20
5258.5706459624
 30
0.0
 11
6275.4346219977
 21
5258.5207192296
 31
0.0
  0
LINE
  5
145
330
1F
100
AcDbEntity
  8
0
  6
Continuous
 62
     7
370
    25
100
AcDbLine
 10
6275.4346219977
 20
5258.5207192296
 30
0.0
 11
6275.4287433809
 21
5258.4204636762
 31
0.0
  0
LINE
  5
146
330
1F
100
AcDbEntity
  8
0
  6
Continuous
 62
     7
370
    25
100
AcDbLine
 10
6273.0711961434
 20
5259.143268671
 30
0.0
 11
6273.5682304347
 21
5259.0929398505
 31
0.0
  0
LINE
  5
147
330
1F
100
AcDbEntity
  8
0
  6
Continuous
 62
     7
370
    25
100
AcDbLine
 10
6273.5682304347
 20
5259.0929398505
 30
0.0
 11
6274.0711433428
 21
5259.1428665833
 31
0.0
  0
LINE
  5
148
330
1F
100
AcDbEntity
  8
0
  6
Continuous
 62
     7
370
    25
100
AcDbLine
 10
6274.0711433428
 20
5259.1428665833
 30
0.0
 11
6274.0770219596
 21
5259.2431221366
 31
0.0
  0
LINE
  5
149
330
1F
100
AcDbEntity
  8
0
  6
Continuous
 62
     7
370
    25
100
AcDbLine
 10
6274.0770219596
 20
5259.2431221366
 30
0.0
 11
6273.5799876683
 21
5259.2934509572
 31
0.0
  0
LINE
  5
14A
330
1F
100
AcDbEntity
  8
0
  6
Continuous
 62
     7
370
    25
100
AcDbLine
 10
6273.5799876683
 20
5259.2934509572
 30
0.0
 11
6273.0770747602
 21
5259.2435242244
 31
0.0
  0
LINE
  5
14B
330
1F
100
AcDbEntity
  8
0
  6
Continuous
 62
     7
370
    25
100
AcDbLine
 10
6273.0770747602
 20
5259.2435242244
 30
0.0
 11
6273.0711961434
 21
5259.143268671
 31
0.0
  0
LINE
  5
14C
330
1F
100
AcDbEntity
  8
0
  6
Continuous
 62
     7
370
    25
100
AcDbLine
 10
6272.481809334
 20
5259.3239699197
 30
0.0
 11
6272.9788436253
 21
5259.2736410992
 31
0.0
  0
LINE
  5
14D
330
1F
100
AcDbEntity
  8
0
  6
Continuous
 62
     7
370
    25
100
AcDbLine
 10
6272.9788436253
 20
5259.2736410992
 30
0.0
 11
6273.4817565334
 21
5259.323567832
 31
0.0
  0
LINE
  5
14E
330
1F
100
AcDbEntity
  8
0
  6
Continuous
 62
     7
370
    25
100
AcDbLine
 10
6273.4817565334
 20
5259.323567832
 30
0.0
 11
6273.4876351502
 21
5259.4238233853
 31
0.0
  0
LINE
  5
14F
330
1F
100
AcDbEntity
  8
0
  6
Continuous
 62
     7
370
    25
100
AcDbLine
 10
6273.4876351502
 20
5259.4238233853
 30
0.0
 11
6272.9906008589
 21
5259.4741522059
 31
0.0
  0
LINE
  5
150
330
1F
100
AcDbEntity
  8
0
  6
Continuous
 62
     7
370
    25
100
AcDbLine
 10
6272.9906008589
 20
5259.4741522059
 30
0.0
 11
6272.4876879508
 21
5259.4242254731
 31
0.0
  0
LINE
  5
151
330
1F
100
AcDbEntity
  8
0
  6
Continuous
 62
     7
370
    25
100
AcDbLine
 10
6272.4876879508
 20
5259.4242254731
 30
0.0
 11
6272.481809334
 21
5259.3239699197
 31
0.0
  0
LINE
  5
152
330
1F
100
AcDbEntity
  8
0
  6
Continuous
 62
     7
370
    25
100
AcDbLine
 10
6274.2499697621
 20
5258.7818661736
 30
0.0
 11
6274.7470040534
 21
5258.7315373531
 31
0.0
  0
LINE
  5
153
330
1F
100
AcDbEntity
  8
0
  6
Continuous
 62
     7
370
    25
100
AcDbLine
 10
6274.7470040534
 20
5258.7315373531
 30
0.0
 11
6275.2499169615
 21
5258.7814640859
 31
0.0
  0
LINE
  5
154
330
1F
100
AcDbEntity
  8
0
  6
Continuous
 62
     7
370
    25
100
AcDbLine
 10
6275.2499169615
 20
5258.7814640859
 30
0.0
 11
6275.2557955783
 21
5258.8817196392
 31
0.0
  0
LINE
  5
155
330
1F
100
AcDbEntity
  8
0
  6
Continuous
 62
     7
370
    25
100
AcDbLine
 10
6275.2557955783
 20
5258.8817196392
 30
0.0
 11
6274.758761287
 21
5258.9320484598
 31
0.0
  0
LINE
  5
156
330
1F
100
AcDbEntity
  8
0
  6
Continuous
 62
     7
370
    25
100
AcDbLine
 10
6274.758761287
 20
5258.9320484598
 30
0.0
 11
6274.2558483789
 21
5258.882121727
 31
0.0
  0
LINE
  5
157
330
1F
100
AcDbEntity
  8
0
  6
Continuous
 62
     7
370
    25
100
AcDbLine
 10
6274.2558483789
 20
5258.882121727
 30
0.0
 11
6274.2499697621
 21
5258.7818661736
 31
0.0
  0
LINE
  5
158
330
1F
100
AcDbEntity
  8
0
  6
Continuous
 62
     7
370
    25
100
AcDbLine
 10
6273.6605829528
 20
5258.9625674223
 30
0.0
 11
6274.157617244
 21
5258.9122386018
 31
0.0
  0
LINE
  5
159
330
1F
100
AcDbEntity
  8
0
  6
Continuous
 62
     7
370
    25
100
AcDbLine
 10
6274.157617244
 20
5258.9122386018
 30
0.0
 11
6274.6605301521
 21
5258.9621653346
 31
0.0
  0
LINE
  5
15A
330
1F
100
AcDbEntity
  8
0
  6
Continuous
 62
     7
370
    25
100
AcDbLine
 10
6274.6605301521
 20
5258.9621653346
 30
0.0
 11
6274.666408769
 21
5259.0624208879
 31
0.0
  0
LINE
  5
15B
330
1F
100
AcDbEntity
  8
0
  6
Continuous
 62
     7
370
    25
100
AcDbLine
 10
6274.666408769
 20
5259.0624208879
 30
0.0
 11
6274.1693744777
 21
5259.1127497085
 31
0.0
  0
LINE
  5
15C
330
1F
100
AcDbEntity
  8
0
  6
Continuous
 62
     7
370
    25
100
AcDbLine
 10
6274.1693744777
 20
5259.1127497085
 30
0.0
 11
6273.6664615696
 21
5259.0628229757
 31
0.0
  0
LINE
  5
15D
330
1F
100
AcDbEntity
  8
0
  6
Continuous
 62
     7
370
    25
100
AcDbLine
 10
6273.6664615696
 20
5259.0628229757
 30
0.0
 11
6273.6605829528
 21
5258.9625674223
 31
0.0
  0
LINE
  5
15E
330
1F
100
AcDbEntity
  8
0
  6
Continuous
 62
     7
370
    25
100
AcDbLine
 10
6269.4502232051
 20
5258.783796195
 30
0.0
 11
6269.9472574964
 21
5258.7334673744
 31
0.0
  0
LINE
  5
15F
330
1F
100
AcDbEntity
  8
0
  6
Continuous
 62
     7
370
    25
100
AcDbLine
 10
6269.9472574964
 20
5258.7334673744
 30
0.0
 11
6270.4501704045
 21
5258.7833941072
 31
0.0
  0
LINE
  5
160
330
1F
100
AcDbEntity
  8
0
  6
Continuous
 62
     7
370
    25
100
AcDbLine
 10
6270.4501704045
 20
5258.7833941072
 30
0.0
 11
6270.4560490213
 21
5258.8836496606
 31
0.0
  0
LINE
  5
161
330
1F
100
AcDbEntity
  8
0
  6
Continuous
 62
     7
370
    25
100
AcDbLine
 10
6270.4560490213
 20
5258.8836496606
 30
0.0
 11
6269.95901473
 21
5258.9339784811
 31
0.0
  0
LINE
  5
162
330
1F
100
AcDbEntity
  8
0
  6
Continuous
 62
     7
370
    25
100
AcDbLine
 10
6269.95901473
 20
5258.9339784811
 30
0.0
 11
6269.4561018219
 21
5258.8840517483
 31
0.0
  0
LINE
  5
163
330
1F
100
AcDbEntity
  8
0
  6
Continuous
 62
     7
370
    25
100
AcDbLine
 10
6269.4561018219
 20
5258.8840517483
 30
0.0
 11
6269.4502232051
 21
5258.783796195
 31
0.0
  0
LINE
  5
164
330
1F
100
AcDbEntity
  8
0
  6
Continuous
 62
     7
370
    25
100
AcDbLine
 10
6268.8608363957
 20
5258.9644974437
 30
0.0
 11
6269.357870687
 21
5258.9141686231
 31
0.0
  0
LINE
  5
165
330
1F
100
AcDbEntity
  8
0
  6
Continuous
 62
     7
370
    25
100
AcDbLine
 10
6269.357870687
 20
5258.9141686231
 30
0.0
 11
6269.8607835951
 21
5258.9640953559
 31
0.0
  0
LINE
  5
166
330
1F
100
AcDbEntity
  8
0
  6
Continuous
 62
     7
370
    25
100
AcDbLine
 10
6269.8607835951
 20
5258.9640953559
 30
0.0
 11
6269.8666622119
 21
5259.0643509093
 31
0.0
  0
LINE
  5
167
330
1F
100
AcDbEntity
  8
0
  6
Continuous
 62
     7
370
    25
100
AcDbLine
 10
6269.8666622119
 20
5259.0643509093
 30
0.0
 11
6269.3696279206
 21
5259.1146797298
 31
0.0
  0
LINE
  5
168
330
1F
100
AcDbEntity
  8
0
  6
Continuous
 62
     7
370
    25
100
AcDbLine
 10
6269.3696279206
 20
5259.1146797298
 30
0.0
 11
6268.8667150125
 21
5259.064752997
 31
0.0
  0
LINE
  5
169
330
1F
100
AcDbEntity
  8
0
  6
Continuous
 62
     7
370
    25
100
AcDbLine
 10
6268.8667150125
 20
5259.064752997
 30
0.0
 11
6268.8608363957
 21
5258.9644974437
 31
0.0
  0
LINE
  5
16A
330
1F
100
AcDbEntity
  8
0
  6
Continuous
 62
     7
370
    25
100
AcDbLine
 10
6270.6289968238
 20
5258.4223936976
 30
0.0
 11
6271.1260311151
 21
5258.372064877
 31
0.0
  0
LINE
  5
16B
330
1F
100
AcDbEntity
  8
0
  6
Continuous
 62
     7
370
    25
100
AcDbLine
 10
6271.1260311151
 20
5258.372064877
 30
0.0
 11
6271.6289440232
 21
5258.4219916098
 31
0.0
  0
LINE
  5
16C
330
1F
100
AcDbEntity
  8
0
  6
Continuous
 62
     7
370
    25
100
AcDbLine
 10
6271.6289440232
 20
5258.4219916098
 30
0.0
 11
6271.63482264
 21
5258.5222471632
 31
0.0
  0
LINE
  5
16D
330
1F
100
AcDbEntity
  8
0
  6
Continuous
 62
     7
370
    25
100
AcDbLine
 10
6271.63482264
 20
5258.5222471632
 30
0.0
 11
6271.1377883487
 21
5258.5725759837
 31
0.0
  0
LINE
  5
16E
330
1F
100
AcDbEntity
  8
0
  6
Continuous
 62
     7
370
    25
100
AcDbLine
 10
6271.1377883487
 20
5258.5725759837
 30
0.0
 11
6270.6348754406
 21
5258.5226492509
 31
0.0
  0
LINE
  5
16F
330
1F
100
AcDbEntity
  8
0
  6
Continuous
 62
     7
370
    25
100
AcDbLine
 10
6270.6348754406
 20
5258.5226492509
 30
0.0
 11
6270.6289968238
 21
5258.4223936976
 31
0.0
  0
LINE
  5
170
330
1F
100
AcDbEntity
  8
0
  6
Continuous
 62
     7
370
    25
100
AcDbLine
 10
6270.0396100145
 20
5258.6030949463
 30
0.0
 11
6270.5366443057
 21
5258.5527661257
 31
0.0
  0
LINE
  5
171
330
1F
100
AcDbEntity
  8
0
  6
Continuous
 62
     7
370
    25
100
AcDbLine
 10
6270.5366443057
 20
5258.5527661257
 30
0.0
 11
6271.0395572138
 21
5258.6026928585
 31
0.0
  0
LINE
  5
172
330
1F
100
AcDbEntity
  8
0
  6
Continuous
 62
     7
370
    25
100
AcDbLine
 10
6271.0395572138
 20
5258.6026928585
 30
0.0
 11
6271.0454358307
 21
5258.7029484119
 31
0.0
  0
LINE
  5
173
330
1F
100
AcDbEntity
  8
0
  6
Continuous
 62
     7
370
    25
100
AcDbLine
 10
6271.0454358307
 20
5258.7029484119
 30
0.0
 11
6270.5484015394
 21
5258.7532772324
 31
0.0
  0
LINE
  5
174
330
1F
100
AcDbEntity
  8
0
  6
Continuous
 62
     7
370
    25
100
AcDbLine
 10
6270.5484015394
 20
5258.7532772324
 30
0.0
 11
6270.0454886313
 21
5258.7033504996
 31
0.0
  0
LINE
  5
175
330
1F
100
AcDbEntity
  8
0
  6
Continuous
 62
     7
370
    25
100
AcDbLine
 10
6270.0454886313
 20
5258.7033504996
 30
0.0
 11
6270.0396100145
 21
5258.6030949463
 31
0.0
  0
LINE
  5
176
330
1F
100
AcDbEntity
  8
0
  6
Continuous
 62
     7
370
    25
100
AcDbLine
 10
6267.0926759676
 20
5259.5066011898
 30
0.0
 11
6267.5897102589
 21
5259.4562723692
 31
0.0
  0
LINE
  5
177
330
1F
100
AcDbEntity
  8
0
  6
Continuous
 62
     7
370
    25
100
AcDbLine
 10
6267.5897102589
 20
5259.4562723692
 30
0.0
 11
6268.092623167
 21
5259.506199102
 31
0.0
  0
LINE
  5
178
330
1F
100
AcDbEntity
  8
0
  6
Continuous
 62
     7
370
    25
100
AcDbLine
 10
6268.092623167
 20
5259.506199102
 30
0.0
 11
6268.0985017838
 21
5259.6064546554
 31
0.0
  0
LINE
  5
179
330
1F
100
AcDbEntity
  8
0
  6
Continuous
 62
     7
370
    25
100
AcDbLine
 10
6268.0985017838
 20
5259.6064546554
 30
0.0
 11
6267.7283349287
 21
5259.6439371018
 31
0.0
  0
LINE
  5
17A
330
1F
100
AcDbEntity
  8
0
  6
Continuous
 62
     7
370
    25
100
AcDbLine
 10
6267.0956820573
 20
5259.5578678718
 30
0.0
 11
6267.0926759676
 21
5259.5066011898
 31
0.0
  0
LINE
  5
17B
330
1F
100
AcDbEntity
  8
0
  6
Continuous
 62
     7
370
    25
100
AcDbLine
 10
6268.2714495864
 20
5259.1451986924
 30
0.0
 11
6268.7684838777
 21
5259.0948698718
 31
0.0
  0
LINE
  5
17C
330
1F
100
AcDbEntity
  8
0
  6
Continuous
 62
     7
370
    25
100
AcDbLine
 10
6268.7684838777
 20
5259.0948698718
 30
0.0
 11
6269.2713967857
 21
5259.1447966046
 31
0.0
  0
LINE
  5
17D
330
1F
100
AcDbEntity
  8
0
  6
Continuous
 62
     7
370
    25
100
AcDbLine
 10
6269.2713967857
 20
5259.1447966046
 30
0.0
 11
6269.2772754026
 21
5259.245052158
 31
0.0
  0
LINE
  5
17E
330
1F
100
AcDbEntity
  8
0
  6
Continuous
 62
     7
370
    25
100
AcDbLine
 10
6269.2772754026
 20
5259.245052158
 30
0.0
 11
6268.7802411113
 21
5259.2953809785
 31
0.0
  0
LINE
  5
17F
330
1F
100
AcDbEntity
  8
0
  6
Continuous
 62
     7
370
    25
100
AcDbLine
 10
6268.7802411113
 20
5259.2953809785
 30
0.0
 11
6268.2773282032
 21
5259.2454542457
 31
0.0
  0
LINE
  5
180
330
1F
100
AcDbEntity
  8
0
  6
Continuous
 62
     7
370
    25
100
AcDbLine
 10
6268.2773282032
 20
5259.2454542457
 30
0.0
 11
6268.2714495864
 21
5259.1451986924
 31
0.0
  0
LINE
  5
181
330
1F
100
AcDbEntity
  8
0
  6
Continuous
 62
     7
370
    25
100
AcDbLine
 10
6267.682062777
 20
5259.3258999411
 30
0.0
 11
6268.1790970683
 21
5259.2755711205
 31
0.0
  0
LINE
  5
182
330
1F
100
AcDbEntity
  8
0
  6
Continuous
 62
     7
370
    25
100
AcDbLine
 10
6268.1790970683
 20
5259.2755711205
 30
0.0
 11
6268.6820099764
 21
5259.3254978533
 31
0.0
  0
LINE
  5
183
330
1F
100
AcDbEntity
  8
0
  6
Continuous
 62
     7
370
    25
100
AcDbLine
 10
6268.6820099764
 20
5259.3254978533
 30
0.0
 11
6268.6878885932
 21
5259.4257534067
 31
0.0
  0
LINE
  5
184
330
1F
100
AcDbEntity
  8
0
  6
Continuous
 62
     7
370
    25
100
AcDbLine
 10
6268.6878885932
 20
5259.4257534067
 30
0.0
 11
6268.1908543019
 21
5259.4760822272
 31
0.0
  0
LINE
  5
185
330
1F
100
AcDbEntity
  8
0
  6
Continuous
 62
     7
370
    25
100
AcDbLine
 10
6268.1908543019
 20
5259.4760822272
 30
0.0
 11
6267.6879413938
 21
5259.4261554944
 31
0.0
  0
LINE
  5
186
330
1F
100
AcDbEntity
  8
0
  6
Continuous
 62
     7
370
    25
100
AcDbLine
 10
6267.6879413938
 20
5259.4261554944
 30
0.0
 11
6267.682062777
 21
5259.3258999411
 31
0.0
  0
LINE
  5
187
330
1F
100
AcDbEntity
  8
0
  6
Continuous
 62
     7
370
    25
100
AcDbLine
 10
6268.8396733752
 20
5258.6035774516
 30
0.0
 11
6269.3367076665
 21
5258.5532486311
 31
0.0
  0
LINE
  5
188
330
1F
100
AcDbEntity
  8
0
  6
Continuous
 62
     7
370
    25
100
AcDbLine
 10
6269.3367076665
 20
5258.5532486311
 30
0.0
 11
6269.8396205746
 21
5258.6031753638
 31
0.0
  0
LINE
  5
189
330
1F
100
AcDbEntity
  8
0
  6
Continuous
 62
     7
370
    25
100
AcDbLine
 10
6269.8396205746
 20
5258.6031753638
 30
0.0
 11
6269.8454991914
 21
5258.7034309172
 31
0.0
  0
LINE
  5
18A
330
1F
100
AcDbEntity
  8
0
  6
Continuous
 62
     7
370
    25
100
AcDbLine
 10
6269.8454991914
 20
5258.7034309172
 30
0.0
 11
6269.3484649001
 21
5258.7537597378
 31
0.0
  0
LINE
  5
18B
330
1F
100
AcDbEntity
  8
0
  6
Continuous
 62
     7
370
    25
100
AcDbLine
 10
6269.3484649001
 20
5258.7537597378
 30
0.0
 11
6268.845551992
 21
5258.703833005
 31
0.0
  0
LINE
  5
18C
330
1F
100
AcDbEntity
  8
0
  6
Continuous
 62
     7
370
    25
100
AcDbLine
 10
6268.845551992
 20
5258.703833005
 30
0.0
 11
6268.8396733752
 21
5258.6035774516
 31
0.0
  0
LINE
  5
18D
330
1F
100
AcDbEntity
  8
0
  6
Continuous
 62
     7
370
    25
100
AcDbLine
 10
6268.2502865658
 20
5258.7842787003
 30
0.0
 11
6268.7473208571
 21
5258.7339498798
 31
0.0
  0
LINE
  5
18E
330
1F
100
AcDbEntity
  8
0
  6
Continuous
 62
     7
370
    25
100
AcDbLine
 10
6268.7473208571
 20
5258.7339498798
 30
0.0
 11
6269.2502337652
 21
5258.7838766125
 31
0.0
  0
LINE
  5
18F
330
1F
100
AcDbEntity
  8
0
  6
Continuous
 62
     7
370
    25
100
AcDbLine
 10
6269.2502337652
 20
5258.7838766125
 30
0.0
 11
6269.256112382
 21
5258.8841321659
 31
0.0
  0
LINE
  5
190
330
1F
100
AcDbEntity
  8
0
  6
Continuous
 62
     7
370
    25
100
AcDbLine
 10
6269.256112382
 20
5258.8841321659
 30
0.0
 11
6268.7590780908
 21
5258.9344609865
 31
0.0
  0
LINE
  5
191
330
1F
100
AcDbEntity
  8
0
  6
Continuous
 62
     7
370
    25
100
AcDbLine
 10
6268.7590780908
 20
5258.9344609865
 30
0.0
 11
6268.2561651827
 21
5258.8845342537
 31
0.0
  0
LINE
  5
192
330
1F
100
AcDbEntity
  8
0
  6
Continuous
 62
     7
370
    25
100
AcDbLine
 10
6268.2561651827
 20
5258.8845342537
 30
0.0
 11
6268.2502865658
 21
5258.7842787003
 31
0.0
  0
LINE
  5
193
330
1F
100
AcDbEntity
  8
0
  6
Continuous
 62
     7
370
    25
100
AcDbLine
 10
6269.4290601846
 20
5258.4228762029
 30
0.0
 11
6269.9260944759
 21
5258.3725473824
 31
0.0
  0
LINE
  5
194
330
1F
100
AcDbEntity
  8
0
  6
Continuous
 62
     7
370
    25
100
AcDbLine
 10
6269.9260944759
 20
5258.3725473824
 30
0.0
 11
6270.429007384
 21
5258.4224741151
 31
0.0
  0
LINE
  5
195
330
1F
100
AcDbEntity
  8
0
  6
Continuous
 62
     7
370
    25
100
AcDbLine
 10
6270.429007384
 20
5258.4224741151
 30
0.0
 11
6270.4348860008
 21
5258.5227296685
 31
0.0
  0
LINE
  5
196
330
1F
100
AcDbEntity
  8
0
  6
Continuous
 62
     7
370
    25
100
AcDbLine
 10
6270.4348860008
 20
5258.5227296685
 30
0.0
 11
6269.9378517095
 21
5258.5730584891
 31
0.0
  0
LINE
  5
197
330
1F
100
AcDbEntity
  8
0
  6
Continuous
 62
     7
370
    25
100
AcDbLine
 10
6269.9378517095
 20
5258.5730584891
 30
0.0
 11
6269.4349388014
 21
5258.5231317563
 31
0.0
  0
LINE
  5
198
330
1F
100
AcDbEntity
  8
0
  6
Continuous
 62
     7
370
    25
100
AcDbLine
 10
6269.4349388014
 20
5258.5231317563
 30
0.0
 11
6269.4290601846
 21
5258.4228762029
 31
0.0
  0
LINE
  5
199
330
1F
100
AcDbEntity
  8
0
  6
Continuous
 62
     7
370
    25
100
AcDbLine
 10
6266.4609631172
 20
5258.9654624544
 30
0.0
 11
6266.9579974085
 21
5258.9151336338
 31
0.0
  0
LINE
  5
19A
330
1F
100
AcDbEntity
  8
0
  6
Continuous
 62
     7
370
    25
100
AcDbLine
 10
6266.9579974085
 20
5258.9151336338
 30
0.0
 11
6267.4609103166
 21
5258.9650603666
 31
0.0
  0
LINE
  5
19B
330
1F
100
AcDbEntity
  8
0
  6
Continuous
 62
     7
370
    25
100
AcDbLine
 10
6267.4609103166
 20
5258.9650603666
 30
0.0
 11
6267.4667889334
 21
5259.0653159199
 31
0.0
  0
LINE
  5
19C
330
1F
100
AcDbEntity
  8
0
  6
Continuous
 62
     7
370
    25
100
AcDbLine
 10
6267.4667889334
 20
5259.0653159199
 30
0.0
 11
6266.9697546421
 21
5259.1156447405
 31
0.0
  0
LINE
  5
19D
330
1F
100
AcDbEntity
  8
0
  6
Continuous
 62
     7
370
    25
100
AcDbLine
 10
6266.9697546421
 20
5259.1156447405
 30
0.0
 11
6266.466841734
 21
5259.0657180077
 31
0.0
  0
LINE
  5
19E
330
1F
100
AcDbEntity
  8
0
  6
Continuous
 62
     7
370
    25
100
AcDbLine
 10
6266.466841734
 20
5259.0657180077
 30
0.0
 11
6266.4609631172
 21
5258.9654624544
 31
0.0
  0
LINE
  5
19F
330
1F
100
AcDbEntity
  8
0
  6
Continuous
 62
     7
370
    25
100
AcDbLine
 10
6266.4821261377
 20
5259.3263824464
 30
0.0
 11
6266.979160429
 21
5259.2760536259
 31
0.0
  0
LINE
  5
1A0
330
1F
100
AcDbEntity
  8
0
  6
Continuous
 62
     7
370
    25
100
AcDbLine
 10
6266.979160429
 20
5259.2760536259
 30
0.0
 11
6267.4820733371
 21
5259.3259803586
 31
0.0
  0
LINE
  5
1A1
330
1F
100
AcDbEntity
  8
0
  6
Continuous
 62
     7
370
    25
100
AcDbLine
 10
6267.4820733371
 20
5259.3259803586
 30
0.0
 11
6267.4879519539
 21
5259.426235912
 31
0.0
  0
LINE
  5
1A2
330
1F
100
AcDbEntity
  8
0
  6
Continuous
 62
     7
370
    25
100
AcDbLine
 10
6267.4879519539
 20
5259.426235912
 30
0.0
 11
6266.9909176627
 21
5259.4765647326
 31
0.0
  0
LINE
  5
1A3
330
1F
100
AcDbEntity
  8
0
  6
Continuous
 62
     7
370
    25
100
AcDbLine
 10
6266.9909176627
 20
5259.4765647326
 30
0.0
 11
6266.4880047546
 21
5259.4266379998
 31
0.0
  0
LINE
  5
1A4
330
1F
100
AcDbEntity
  8
0
  6
Continuous
 62
     7
370
    25
100
AcDbLine
 10
6266.4880047546
 20
5259.4266379998
 30
0.0
 11
6266.4821261377
 21
5259.3263824464
 31
0.0
  0
LINE
  5
1A5
330
1F
100
AcDbEntity
  8
0
  6
Continuous
 62
     7
370
    25
100
AcDbLine
 10
6266.5687636343
 20
5259.4745241274
 30
0.0
 11
6266.8926865278
 21
5259.5066816073
 31
0.0
  0
LINE
  5
1A6
330
1F
100
AcDbEntity
  8
0
  6
Continuous
 62
     7
370
    25
100
AcDbLine
 10
6266.8926865278
 20
5259.5066816073
 30
0.0
 11
6266.8938967222
 21
5259.527320597
 31
0.0
  0
LINE
  5
1A7
330
1F
100
AcDbEntity
  8
0
  6
Continuous
 62
     7
370
    25
100
AcDbLine
 10
6267.6608997565
 20
5258.964979949
 30
0.0
 11
6268.1579340478
 21
5258.9146511285
 31
0.0
  0
LINE
  5
1A8
330
1F
100
AcDbEntity
  8
0
  6
Continuous
 62
     7
370
    25
100
AcDbLine
 10
6268.1579340478
 20
5258.9146511285
 30
0.0
 11
6268.6608469559
 21
5258.9645778612
 31
0.0
  0
LINE
  5
1A9
330
1F
100
AcDbEntity
  8
0
  6
Continuous
 62
     7
370
    25
100
AcDbLine
 10
6268.6608469559
 20
5258.9645778612
 30
0.0
 11
6268.6667255727
 21
5259.0648334146
 31
0.0
  0
LINE
  5
1AA
330
1F
100
AcDbEntity
  8
0
  6
Continuous
 62
     7
370
    25
100
AcDbLine
 10
6268.6667255727
 20
5259.0648334146
 30
0.0
 11
6268.1696912814
 21
5259.1151622352
 31
0.0
  0
LINE
  5
1AB
330
1F
100
AcDbEntity
  8
0
  6
Continuous
 62
     7
370
    25
100
AcDbLine
 10
6268.1696912814
 20
5259.1151622352
 30
0.0
 11
6267.6667783733
 21
5259.0652355024
 31
0.0
  0
LINE
  5
1AC
330
1F
100
AcDbEntity
  8
0
  6
Continuous
 62
     7
370
    25
100
AcDbLine
 10
6267.6667783733
 20
5259.0652355024
 30
0.0
 11
6267.6608997565
 21
5258.964979949
 31
0.0
  0
LINE
  5
1AD
330
1F
100
AcDbEntity
  8
0
  6
Continuous
 62
     7
370
    25
100
AcDbLine
 10
6267.0715129471
 20
5259.1456811977
 30
0.0
 11
6267.5685472384
 21
5259.0953523772
 31
0.0
  0
LINE
  5
1AE
330
1F
100
AcDbEntity
  8
0
  6
Continuous
 62
     7
370
    25
100
AcDbLine
 10
6267.5685472384
 20
5259.0953523772
 30
0.0
 11
6268.0714601465
 21
5259.1452791099
 31
0.0
  0
LINE
  5
1AF
330
1F
100
AcDbEntity
  8
0
  6
Continuous
 62
     7
370
    25
100
AcDbLine
 10
6268.0714601465
 20
5259.1452791099
 30
0.0
 11
6268.0773387633
 21
5259.2455346633
 31
0.0
  0
LINE
  5
1B0
330
1F
100
AcDbEntity
  8
0
  6
Continuous
 62
     7
370
    25
100
AcDbLine
 10
6268.0773387633
 20
5259.2455346633
 30
0.0
 11
6267.580304472
 21
5259.2958634839
 31
0.0
  0
LINE
  5
1B1
330
1F
100
AcDbEntity
  8
0
  6
Continuous
 62
     7
370
    25
100
AcDbLine
 10
6267.580304472
 20
5259.2958634839
 30
0.0
 11
6267.0773915639
 21
5259.2459367511
 31
0.0
  0
LINE
  5
1B2
330
1F
100
AcDbEntity
  8
0
  6
Continuous
 62
     7
370
    25
100
AcDbLine
 10
6267.0773915639
 20
5259.2459367511
 30
0.0
 11
6267.0715129471
 21
5259.1456811977
 31
0.0
  0
LINE
  5
1B3
330
1F
100
AcDbEntity
  8
0
  6
Continuous
 62
     7
370
    25
100
AcDbLine
 10
6273.6182569117
 20
5258.2407274382
 30
0.0
 11
6274.115291203
 21
5258.1903986177
 31
0.0
  0
LINE
  5
1B4
330
1F
100
AcDbEntity
  8
0
  6
Continuous
 62
     7
370
    25
100
AcDbLine
 10
6274.115291203
 20
5258.1903986177
 30
0.0
 11
6274.6182041111
 21
5258.2403253504
 31
0.0
  0
LINE
  5
1B5
330
1F
100
AcDbEntity
  8
0
  6
Continuous
 62
     7
370
    25
100
AcDbLine
 10
6274.6182041111
 20
5258.2403253504
 30
0.0
 11
6274.6240827279
 21
5258.3405809038
 31
0.0
  0
LINE
  5
1B6
330
1F
100
AcDbEntity
  8
0
  6
Continuous
 62
     7
370
    25
100
AcDbLine
 10
6274.6240827279
 20
5258.3405809038
 30
0.0
 11
6274.1270484366
 21
5258.3909097244
 31
0.0
  0
LINE
  5
1B7
330
1F
100
AcDbEntity
  8
0
  6
Continuous
 62
     7
370
    25
100
AcDbLine
 10
6274.1270484366
 20
5258.3909097244
 30
0.0
 11
6273.6241355285
 21
5258.3409829916
 31
0.0
  0
LINE
  5
1B8
330
1F
100
AcDbEntity
  8
0
  6
Continuous
 62
     7
370
    25
100
AcDbLine
 10
6273.6241355285
 20
5258.3409829916
 30
0.0
 11
6273.6182569117
 21
5258.2407274382
 31
0.0
  0
LINE
  5
1B9
330
1F
100
AcDbEntity
  8
0
  6
Continuous
 62
     7
370
    25
100
AcDbLine
 10
6267.9086107043
 20
5259.6660230177
 30
0.0
 11
6268.2002600888
 21
5259.6364911126
 31
0.0
  0
LINE
  5
1BA
330
1F
100
AcDbEntity
  8
0
  6
Continuous
 62
     7
370
    25
100
AcDbLine
 10
6268.2002600888
 20
5259.6364911126
 30
0.0
 11
6268.7031729969
 21
5259.6864178454
 31
0.0
  0
LINE
  5
1BB
330
1F
100
AcDbEntity
  8
0
  6
Continuous
 62
     7
370
    25
100
AcDbLine
 10
6268.7031729969
 20
5259.6864178454
 30
0.0
 11
6268.7070459833
 21
5259.7524688235
 31
0.0
  0
LINE
  5
1BC
330
1F
100
AcDbEntity
  8
0
  6
Continuous
 62
     7
370
    25
100
AcDbLine
 10
6271.8500964836
 20
5258.7828311843
 30
0.0
 11
6272.3471307749
 21
5258.7325023637
 31
0.0
  0
LINE
  5
1BD
330
1F
100
AcDbEntity
  8
0
  6
Continuous
 62
     7
370
    25
100
AcDbLine
 10
6272.3471307749
 20
5258.7325023637
 30
0.0
 11
6272.850043683
 21
5258.7824290965
 31
0.0
  0
LINE
  5
1BE
330
1F
100
AcDbEntity
  8
0
  6
Continuous
 62
     7
370
    25
100
AcDbLine
 10
6272.850043683
 20
5258.7824290965
 30
0.0
 11
6272.8559222998
 21
5258.8826846499
 31
0.0
  0
LINE
  5
1BF
330
1F
100
AcDbEntity
  8
0
  6
Continuous
 62
     7
370
    25
100
AcDbLine
 10
6272.8559222998
 20
5258.8826846499
 30
0.0
 11
6272.3588880085
 21
5258.9330134704
 31
0.0
  0
LINE
  5
1C0
330
1F
100
AcDbEntity
  8
0
  6
Continuous
 62
     7
370
    25
100
AcDbLine
 10
6272.3588880085
 20
5258.9330134704
 30
0.0
 11
6271.8559751004
 21
5258.8830867377
 31
0.0
  0
LINE
  5
1C1
330
1F
100
AcDbEntity
  8
0
  6
Continuous
 62
     7
370
    25
100
AcDbLine
 10
6271.8559751004
 20
5258.8830867377
 30
0.0
 11
6271.8500964836
 21
5258.7828311843
 31
0.0
  0
LINE
  5
1C2
330
1F
100
AcDbEntity
  8
0
  6
Continuous
 62
     7
370
    25
100
AcDbLine
 10
6271.2607096742
 20
5258.963532433
 30
0.0
 11
6271.7577439655
 21
5258.9132036124
 31
0.0
  0
LINE
  5
1C3
330
1F
100
AcDbEntity
  8
0
  6
Continuous
 62
     7
370
    25
100
AcDbLine
 10
6271.7577439655
 20
5258.9132036124
 30
0.0
 11
6272.2606568736
 21
5258.9631303452
 31
0.0
  0
LINE
  5
1C4
330
1F
100
AcDbEntity
  8
0
  6
Continuous
 62
     7
370
    25
100
AcDbLine
 10
6272.2606568736
 20
5258.9631303452
 30
0.0
 11
6272.2665354904
 21
5259.0633858986
 31
0.0
  0
LINE
  5
1C5
330
1F
100
AcDbEntity
  8
0
  6
Continuous
 62
     7
370
    25
100
AcDbLine
 10
6272.2665354904
 20
5259.0633858986
 30
0.0
 11
6271.7695011992
 21
5259.1137147191
 31
0.0
  0
LINE
  5
1C6
330
1F
100
AcDbEntity
  8
0
  6
Continuous
 62
     7
370
    25
100
AcDbLine
 10
6271.7695011992
 20
5259.1137147191
 30
0.0
 11
6271.2665882911
 21
5259.0637879864
 31
0.0
  0
LINE
  5
1C7
330
1F
100
AcDbEntity
  8
0
  6
Continuous
 62
     7
370
    25
100
AcDbLine
 10
6271.2665882911
 20
5259.0637879864
 30
0.0
 11
6271.2607096742
 21
5258.963532433
 31
0.0
  0
LINE
  5
1C8
330
1F
100
AcDbEntity
  8
0
  6
Continuous
 62
     7
370
    25
100
AcDbLine
 10
6273.0288701023
 20
5258.4214286869
 30
0.0
 11
6273.5259043936
 21
5258.3710998664
 31
0.0
  0
LINE
  5
1C9
330
1F
100
AcDbEntity
  8
0
  6
Continuous
 62
     7
370
    25
100
AcDbLine
 10
6273.5259043936
 20
5258.3710998664
 30
0.0
 11
6274.0288173017
 21
5258.4210265991
 31
0.0
  0
LINE
  5
1CA
330
1F
100
AcDbEntity
  8
0
  6
Continuous
 62
     7
370
    25
100
AcDbLine
 10
6274.0288173017
 20
5258.4210265991
 30
0.0
 11
6274.0346959185
 21
5258.5212821525
 31
0.0
  0
LINE
  5
1CB
330
1F
100
AcDbEntity
  8
0
  6
Continuous
 62
     7
370
    25
100
AcDbLine
 10
6274.0346959185
 20
5258.5212821525
 30
0.0
 11
6273.5376616273
 21
5258.5716109731
 31
0.0
  0
LINE
  5
1CC
330
1F
100
AcDbEntity
  8
0
  6
Continuous
 62
     7
370
    25
100
AcDbLine
 10
6273.5376616273
 20
5258.5716109731
 30
0.0
 11
6273.0347487192
 21
5258.5216842403
 31
0.0
  0
LINE
  5
1CD
330
1F
100
AcDbEntity
  8
0
  6
Continuous
 62
     7
370
    25
100
AcDbLine
 10
6273.0347487192
 20
5258.5216842403
 30
0.0
 11
6273.0288701023
 21
5258.4214286869
 31
0.0
  0
LINE
  5
1CE
330
1F
100
AcDbEntity
  8
0
  6
Continuous
 62
     7
370
    25
100
AcDbLine
 10
6272.439483293
 20
5258.6021299356
 30
0.0
 11
6272.9365175843
 21
5258.5518011151
 31
0.0
  0
LINE
  5
1CF
330
1F
100
AcDbEntity
  8
0
  6
Continuous
 62
     7
370
    25
100
AcDbLine
 10
6272.9365175843
 20
5258.5518011151
 30
0.0
 11
6273.4394304924
 21
5258.6017278478
 31
0.0
  0
LINE
  5
1D0
330
1F
100
AcDbEntity
  8
0
  6
Continuous
 62
     7
370
    25
100
AcDbLine
 10
6273.4394304924
 20
5258.6017278478
 30
0.0
 11
6273.4453091092
 21
5258.7019834012
 31
0.0
  0
LINE
  5
1D1
330
1F
100
AcDbEntity
  8
0
  6
Continuous
 62
     7
370
    25
100
AcDbLine
 10
6273.4453091092
 20
5258.7019834012
 30
0.0
 11
6272.9482748179
 21
5258.7523122218
 31
0.0
  0
LINE
  5
1D2
330
1F
100
AcDbEntity
  8
0
  6
Continuous
 62
     7
370
    25
100
AcDbLine
 10
6272.9482748179
 20
5258.7523122218
 30
0.0
 11
6272.4453619098
 21
5258.702385489
 31
0.0
  0
LINE
  5
1D3
330
1F
100
AcDbEntity
  8
0
  6
Continuous
 62
     7
370
    25
100
AcDbLine
 10
6272.4453619098
 20
5258.702385489
 30
0.0
 11
6272.439483293
 21
5258.6021299356
 31
0.0
  0
LINE
  5
1D4
330
1F
100
AcDbEntity
  8
0
  6
Continuous
 62
     7
370
    25
100
AcDbLine
 10
6271.2395466537
 20
5258.602612441
 30
0.0
 11
6271.736580945
 21
5258.5522836204
 31
0.0
  0
LINE
  5
1D5
330
1F
100
AcDbEntity
  8
0
  6
Continuous
 62
     7
370
    25
100
AcDbLine
 10
6271.736580945
 20
5258.5522836204
 30
0.0
 11
6272.2394938531
 21
5258.6022103532
 31
0.0
  0
LINE
  5
1D6
330
1F
100
AcDbEntity
  8
0
  6
Continuous
 62
     7
370
    25
100
AcDbLine
 10
6272.2394938531
 20
5258.6022103532
 30
0.0
 11
6272.2453724699
 21
5258.7024659065
 31
0.0
  0
LINE
  5
1D7
330
1F
100
AcDbEntity
  8
0
  6
Continuous
 62
     7
370
    25
100
AcDbLine
 10
6272.2453724699
 20
5258.7024659065
 30
0.0
 11
6271.7483381786
 21
5258.7527947271
 31
0.0
  0
LINE
  5
1D8
330
1F
100
AcDbEntity
  8
0
  6
Continuous
 62
     7
370
    25
100
AcDbLine
 10
6271.7483381786
 20
5258.7527947271
 30
0.0
 11
6271.2454252705
 21
5258.7028679943
 31
0.0
  0
LINE
  5
1D9
330
1F
100
AcDbEntity
  8
0
  6
Continuous
 62
     7
370
    25
100
AcDbLine
 10
6271.2454252705
 20
5258.7028679943
 30
0.0
 11
6271.2395466537
 21
5258.602612441
 31
0.0
  0
LINE
  5
1DA
330
1F
100
AcDbEntity
  8
0
  6
Continuous
 62
     7
370
    25
100
AcDbLine
 10
6270.6501598444
 20
5258.7833136897
 30
0.0
 11
6271.1471941356
 21
5258.7329848691
 31
0.0
  0
LINE
  5
1DB
330
1F
100
AcDbEntity
  8
0
  6
Continuous
 62
     7
370
    25
100
AcDbLine
 10
6271.1471941356
 20
5258.7329848691
 30
0.0
 11
6271.6501070437
 21
5258.7829116019
 31
0.0
  0
LINE
  5
1DC
330
1F
100
AcDbEntity
  8
0
  6
Continuous
 62
     7
370
    25
100
AcDbLine
 10
6271.6501070437
 20
5258.7829116019
 30
0.0
 11
6271.6559856606
 21
5258.8831671552
 31
0.0
  0
LINE
  5
1DD
330
1F
100
AcDbEntity
  8
0
  6
Continuous
 62
     7
370
    25
100
AcDbLine
 10
6271.6559856606
 20
5258.8831671552
 30
0.0
 11
6271.1589513693
 21
5258.9334959758
 31
0.0
  0
LINE
  5
1DE
330
1F
100
AcDbEntity
  8
0
  6
Continuous
 62
     7
370
    25
100
AcDbLine
 10
6271.1589513693
 20
5258.9334959758
 30
0.0
 11
6270.6560384612
 21
5258.883569243
 31
0.0
  0
LINE
  5
1DF
330
1F
100
AcDbEntity
  8
0
  6
Continuous
 62
     7
370
    25
100
AcDbLine
 10
6270.6560384612
 20
5258.883569243
 30
0.0
 11
6270.6501598444
 21
5258.7833136897
 31
0.0
  0
LINE
  5
1E0
330
1F
100
AcDbEntity
  8
0
  6
Continuous
 62
     7
370
    25
100
AcDbLine
 10
6272.4183202725
 20
5258.2412099436
 30
0.0
 11
6272.9153545637
 21
5258.190881123
 31
0.0
  0
LINE
  5
1E1
330
1F
100
AcDbEntity
  8
0
  6
Continuous
 62
     7
370
    25
100
AcDbLine
 10
6272.9153545637
 20
5258.190881123
 30
0.0
 11
6273.4182674718
 21
5258.2408078558
 31
0.0
  0
LINE
  5
1E2
330
1F
100
AcDbEntity
  8
0
  6
Continuous
 62
     7
370
    25
100
AcDbLine
 10
6273.4182674718
 20
5258.2408078558
 30
0.0
 11
6273.4241460886
 21
5258.3410634091
 31
0.0
  0
LINE
  5
1E3
330
1F
100
AcDbEntity
  8
0
  6
Continuous
 62
     7
370
    25
100
AcDbLine
 10
6273.4241460886
 20
5258.3410634091
 30
0.0
 11
6272.9271117974
 21
5258.3913922297
 31
0.0
  0
LINE
  5
1E4
330
1F
100
AcDbEntity
  8
0
  6
Continuous
 62
     7
370
    25
100
AcDbLine
 10
6272.9271117974
 20
5258.3913922297
 30
0.0
 11
6272.4241988893
 21
5258.3414654969
 31
0.0
  0
LINE
  5
1E5
330
1F
100
AcDbEntity
  8
0
  6
Continuous
 62
     7
370
    25
100
AcDbLine
 10
6272.4241988893
 20
5258.3414654969
 30
0.0
 11
6272.4183202725
 21
5258.2412099436
 31
0.0
  0
LINE
  5
1E6
330
1F
100
AcDbEntity
  8
0
  6
Continuous
 62
     7
370
    25
100
AcDbLine
 10
6271.8289334631
 20
5258.4219111923
 30
0.0
 11
6272.3259677544
 21
5258.3715823717
 31
0.0
  0
LINE
  5
1E7
330
1F
100
AcDbEntity
  8
0
  6
Continuous
 62
     7
370
    25
100
AcDbLine
 10
6272.3259677544
 20
5258.3715823717
 30
0.0
 11
6272.8288806625
 21
5258.4215091045
 31
0.0
  0
LINE
  5
1E8
330
1F
100
AcDbEntity
  8
0
  6
Continuous
 62
     7
370
    25
100
AcDbLine
 10
6272.8288806625
 20
5258.4215091045
 30
0.0
 11
6272.8347592793
 21
5258.5217646578
 31
0.0
  0
LINE
  5
1E9
330
1F
100
AcDbEntity
  8
0
  6
Continuous
 62
     7
370
    25
100
AcDbLine
 10
6272.8347592793
 20
5258.5217646578
 30
0.0
 11
6272.337724988
 21
5258.5720934784
 31
0.0
  0
LINE
  5
1EA
330
1F
100
AcDbEntity
  8
0
  6
Continuous
 62
     7
370
    25
100
AcDbLine
 10
6272.337724988
 20
5258.5720934784
 30
0.0
 11
6271.8348120799
 21
5258.5221667456
 31
0.0
  0
LINE
  5
1EB
330
1F
100
AcDbEntity
  8
0
  6
Continuous
 62
     7
370
    25
100
AcDbLine
 10
6271.8348120799
 20
5258.5221667456
 30
0.0
 11
6271.8289334631
 21
5258.4219111923
 31
0.0
  0
LINE
  5
1EC
330
1F
100
AcDbEntity
  8
0
  6
Continuous
 62
     7
370
    25
100
AcDbLine
 10
6268.8819994163
 20
5259.3254174357
 30
0.0
 11
6269.3790337075
 21
5259.2750886152
 31
0.0
  0
LINE
  5
1ED
330
1F
100
AcDbEntity
  8
0
  6
Continuous
 62
     7
370
    25
100
AcDbLine
 10
6269.3790337075
 20
5259.2750886152
 30
0.0
 11
6269.8819466156
 21
5259.325015348
 31
0.0
  0
LINE
  5
1EE
330
1F
100
AcDbEntity
  8
0
  6
Continuous
 62
     7
370
    25
100
AcDbLine
 10
6269.8819466156
 20
5259.325015348
 30
0.0
 11
6269.8878252325
 21
5259.4252709013
 31
0.0
  0
LINE
  5
1EF
330
1F
100
AcDbEntity
  8
0
  6
Continuous
 62
     7
370
    25
100
AcDbLine
 10
6269.8878252325
 20
5259.4252709013
 30
0.0
 11
6269.3907909412
 21
5259.4755997219
 31
0.0
  0
LINE
  5
1F0
330
1F
100
AcDbEntity
  8
0
  6
Continuous
 62
     7
370
    25
100
AcDbLine
 10
6269.3907909412
 20
5259.4755997219
 30
0.0
 11
6268.8878780331
 21
5259.4256729891
 31
0.0
  0
LINE
  5
1F1
330
1F
100
AcDbEntity
  8
0
  6
Continuous
 62
     7
370
    25
100
AcDbLine
 10
6268.8878780331
 20
5259.4256729891
 30
0.0
 11
6268.8819994163
 21
5259.3254174357
 31
0.0
  0
LINE
  5
1F2
330
1F
100
AcDbEntity
  8
0
  6
Continuous
 62
     7
370
    25
100
AcDbLine
 10
6268.2926126069
 20
5259.5061186844
 30
0.0
 11
6268.7896468982
 21
5259.4557898639
 31
0.0
  0
LINE
  5
1F3
330
1F
100
AcDbEntity
  8
0
  6
Continuous
 62
     7
370
    25
100
AcDbLine
 10
6268.7896468982
 20
5259.4557898639
 30
0.0
 11
6269.2925598063
 21
5259.5057165967
 31
0.0
  0
LINE
  5
1F4
330
1F
100
AcDbEntity
  8
0
  6
Continuous
 62
     7
370
    25
100
AcDbLine
 10
6269.2925598063
 20
5259.5057165967
 30
0.0
 11
6269.2984384231
 21
5259.60597215
 31
0.0
  0
LINE
  5
1F5
330
1F
100
AcDbEntity
  8
0
  6
Continuous
 62
     7
370
    25
100
AcDbLine
 10
6269.2984384231
 20
5259.60597215
 30
0.0
 11
6268.8014041318
 21
5259.6563009706
 31
0.0
  0
LINE
  5
1F6
330
1F
100
AcDbEntity
  8
0
  6
Continuous
 62
     7
370
    25
100
AcDbLine
 10
6268.8014041318
 20
5259.6563009706
 30
0.0
 11
6268.2984912237
 21
5259.6063742378
 31
0.0
  0
LINE
  5
1F7
330
1F
100
AcDbEntity
  8
0
  6
Continuous
 62
     7
370
    25
100
AcDbLine
 10
6268.2984912237
 20
5259.6063742378
 30
0.0
 11
6268.2926126069
 21
5259.5061186844
 31
0.0
  0
LINE
  5
1F8
330
1F
100
AcDbEntity
  8
0
  6
Continuous
 62
     7
370
    25
100
AcDbLine
 10
6270.060773035
 20
5258.9640149383
 30
0.0
 11
6270.5578073263
 21
5258.9136861178
 31
0.0
  0
LINE
  5
1F9
330
1F
100
AcDbEntity
  8
0
  6
Continuous
 62
     7
370
    25
100
AcDbLine
 10
6270.5578073263
 20
5258.9136861178
 30
0.0
 11
6271.0607202344
 21
5258.9636128506
 31
0.0
  0
LINE
  5
1FA
330
1F
100
AcDbEntity
  8
0
  6
Continuous
 62
     7
370
    25
100
AcDbLine
 10
6271.0607202344
 20
5258.9636128506
 30
0.0
 11
6271.0665988512
 21
5259.0638684039
 31
0.0
  0
LINE
  5
1FB
330
1F
100
AcDbEntity
  8
0
  6
Continuous
 62
     7
370
    25
100
AcDbLine
 10
6271.0665988512
 20
5259.0638684039
 30
0.0
 11
6270.5695645599
 21
5259.1141972245
 31
0.0
  0
LINE
  5
1FC
330
1F
100
AcDbEntity
  8
0
  6
Continuous
 62
     7
370
    25
100
AcDbLine
 10
6270.5695645599
 20
5259.1141972245
 30
0.0
 11
6270.0666516518
 21
5259.0642704917
 31
0.0
  0
LINE
  5
1FD
330
1F
100
AcDbEntity
  8
0
  6
Continuous
 62
     7
370
    25
100
AcDbLine
 10
6270.0666516518
 20
5259.0642704917
 30
0.0
 11
6270.060773035
 21
5258.9640149383
 31
0.0
  0
LINE
  5
1FE
330
1F
100
AcDbEntity
  8
0
  6
Continuous
 62
     7
370
    25
100
AcDbLine
 10
6269.4713862256
 20
5259.144716187
 30
0.0
 11
6269.9684205169
 21
5259.0943873665
 31
0.0
  0
LINE
  5
1FF
330
1F
100
AcDbEntity
  8
0
  6
Continuous
 62
     7
370
    25
100
AcDbLine
 10
6269.9684205169
 20
5259.0943873665
 30
0.0
 11
6270.471333425
 21
5259.1443140993
 31
0.0
  0
LINE
  5
200
330
1F
100
AcDbEntity
  8
0
  6
Continuous
 62
     7
370
    25
100
AcDbLine
 10
6270.471333425
 20
5259.1443140993
 30
0.0
 11
6270.4772120418
 21
5259.2445696526
 31
0.0
  0
LINE
  5
201
330
1F
100
AcDbEntity
  8
0
  6
Continuous
 62
     7
370
    25
100
AcDbLine
 10
6270.4772120418
 20
5259.2445696526
 30
0.0
 11
6269.9801777505
 21
5259.2948984732
 31
0.0
  0
LINE
  5
202
330
1F
100
AcDbEntity
  8
0
  6
Continuous
 62
     7
370
    25
100
AcDbLine
 10
6269.9801777505
 20
5259.2948984732
 30
0.0
 11
6269.4772648424
 21
5259.2449717404
 31
0.0
  0
LINE
  5
203
330
1F
100
AcDbEntity
  8
0
  6
Continuous
 62
     7
370
    25
100
AcDbLine
 10
6269.4772648424
 20
5259.2449717404
 30
0.0
 11
6269.4713862256
 21
5259.144716187
 31
0.0
  0
LINE
  5
204
330
1F
100
AcDbEntity
  8
0
  6
Continuous
 62
     7
370
    25
100
AcDbLine
 10
6279.0708793397
 20
5259.1408561444
 30
0.0
 11
6279.567913631
 21
5259.0905273238
 31
0.0
  0
LINE
  5
205
330
1F
100
AcDbEntity
  8
0
  6
Continuous
 62
     7
370
    25
100
AcDbLine
 10
6279.567913631
 20
5259.0905273238
 30
0.0
 11
6280.0708265391
 21
5259.1404540566
 31
0.0
  0
LINE
  5
206
330
1F
100
AcDbEntity
  8
0
  6
Continuous
 62
     7
370
    25
100
AcDbLine
 10
6280.0708265391
 20
5259.1404540566
 30
0.0
 11
6280.0767051559
 21
5259.2407096099
 31
0.0
  0
LINE
  5
207
330
1F
100
AcDbEntity
  8
0
  6
Continuous
 62
     7
370
    25
100
AcDbLine
 10
6280.0767051559
 20
5259.2407096099
 30
0.0
 11
6279.5796708646
 21
5259.2910384305
 31
0.0
  0
LINE
  5
208
330
1F
100
AcDbEntity
  8
0
  6
Continuous
 62
     7
370
    25
100
AcDbLine
 10
6279.5796708646
 20
5259.2910384305
 30
0.0
 11
6279.0767579565
 21
5259.2411116977
 31
0.0
  0
LINE
  5
209
330
1F
100
AcDbEntity
  8
0
  6
Continuous
 62
     7
370
    25
100
AcDbLine
 10
6279.0767579565
 20
5259.2411116977
 30
0.0
 11
6279.0708793397
 21
5259.1408561444
 31
0.0
  0
LINE
  5
20A
330
1F
100
AcDbEntity
  8
0
  6
Continuous
 62
     7
370
    25
100
AcDbLine
 10
6278.4814925303
 20
5259.3215573931
 30
0.0
 11
6278.9785268216
 21
5259.2712285725
 31
0.0
  0
LINE
  5
20B
330
1F
100
AcDbEntity
  8
0
  6
Continuous
 62
     7
370
    25
100
AcDbLine
 10
6278.9785268216
 20
5259.2712285725
 30
0.0
 11
6279.4814397297
 21
5259.3211553053
 31
0.0
  0
LINE
  5
20C
330
1F
100
AcDbEntity
  8
0
  6
Continuous
 62
     7
370
    25
100
AcDbLine
 10
6279.4814397297
 20
5259.3211553053
 30
0.0
 11
6279.4873183465
 21
5259.4214108586
 31
0.0
  0
LINE
  5
20D
330
1F
100
AcDbEntity
  8
0
  6
Continuous
 62
     7
370
    25
100
AcDbLine
 10
6279.4873183465
 20
5259.4214108586
 30
0.0
 11
6278.9902840552
 21
5259.4717396792
 31
0.0
  0
LINE
  5
20E
330
1F
100
AcDbEntity
  8
0
  6
Continuous
 62
     7
370
    25
100
AcDbLine
 10
6278.9902840552
 20
5259.4717396792
 30
0.0
 11
6278.4873711471
 21
5259.4218129464
 31
0.0
  0
LINE
  5
20F
330
1F
100
AcDbEntity
  8
0
  6
Continuous
 62
     7
370
    25
100
AcDbLine
 10
6278.4873711471
 20
5259.4218129464
 30
0.0
 11
6278.4814925303
 21
5259.3215573931
 31
0.0
  0
LINE
  5
210
330
1F
100
AcDbEntity
  8
0
  6
Continuous
 62
     7
370
    25
100
AcDbLine
 10
6279.6602661491
 20
5258.9601548957
 30
0.0
 11
6280.1573004403
 21
5258.9098260751
 31
0.0
  0
LINE
  5
211
330
1F
100
AcDbEntity
  8
0
  6
Continuous
 62
     7
370
    25
100
AcDbLine
 10
6280.1573004403
 20
5258.9098260751
 30
0.0
 11
6280.6602133484
 21
5258.9597528079
 31
0.0
  0
LINE
  5
212
330
1F
100
AcDbEntity
  8
0
  6
Continuous
 62
     7
370
    25
100
AcDbLine
 10
6280.6602133484
 20
5258.9597528079
 30
0.0
 11
6280.6660919652
 21
5259.0600083612
 31
0.0
  0
LINE
  5
213
330
1F
100
AcDbEntity
  8
0
  6
Continuous
 62
     7
370
    25
100
AcDbLine
 10
6280.6660919652
 20
5259.0600083612
 30
0.0
 11
6280.169057674
 21
5259.1103371818
 31
0.0
  0
LINE
  5
214
330
1F
100
AcDbEntity
  8
0
  6
Continuous
 62
     7
370
    25
100
AcDbLine
 10
6280.169057674
 20
5259.1103371818
 30
0.0
 11
6279.6661447659
 21
5259.060410449
 31
0.0
  0
LINE
  5
215
330
1F
100
AcDbEntity
  8
0
  6
Continuous
 62
     7
370
    25
100
AcDbLine
 10
6279.6661447659
 20
5259.060410449
 30
0.0
 11
6279.6602661491
 21
5258.9601548957
 31
0.0
  0
LINE
  5
216
330
1F
100
AcDbEntity
  8
0
  6
Continuous
 62
     7
370
    25
100
AcDbLine
 10
6278.4603295098
 20
5258.960637401
 30
0.0
 11
6278.9573638011
 21
5258.9103085804
 31
0.0
  0
LINE
  5
217
330
1F
100
AcDbEntity
  8
0
  6
Continuous
 62
     7
370
    25
100
AcDbLine
 10
6278.9573638011
 20
5258.9103085804
 30
0.0
 11
6279.4602767092
 21
5258.9602353132
 31
0.0
  0
LINE
  5
218
330
1F
100
AcDbEntity
  8
0
  6
Continuous
 62
     7
370
    25
100
AcDbLine
 10
6279.4602767092
 20
5258.9602353132
 30
0.0
 11
6279.466155326
 21
5259.0604908666
 31
0.0
  0
LINE
  5
219
330
1F
100
AcDbEntity
  8
0
  6
Continuous
 62
     7
370
    25
100
AcDbLine
 10
6279.466155326
 20
5259.0604908666
 30
0.0
 11
6278.9691210347
 21
5259.1108196871
 31
0.0
  0
LINE
  5
21A
330
1F
100
AcDbEntity
  8
0
  6
Continuous
 62
     7
370
    25
100
AcDbLine
 10
6278.9691210347
 20
5259.1108196871
 30
0.0
 11
6278.4662081266
 21
5259.0608929543
 31
0.0
  0
LINE
  5
21B
330
1F
100
AcDbEntity
  8
0
  6
Continuous
 62
     7
370
    25
100
AcDbLine
 10
6278.4662081266
 20
5259.0608929543
 30
0.0
 11
6278.4603295098
 21
5258.960637401
 31
0.0
  0
LINE
  5
21C
330
1F
100
AcDbEntity
  8
0
  6
Continuous
 62
     7
370
    25
100
AcDbLine
 10
6277.8709427004
 20
5259.1413386497
 30
0.0
 11
6278.3679769917
 21
5259.0910098291
 31
0.0
  0
LINE
  5
21D
330
1F
100
AcDbEntity
  8
0
  6
Continuous
 62
     7
370
    25
100
AcDbLine
 10
6278.3679769917
 20
5259.0910098291
 30
0.0
 11
6278.8708898998
 21
5259.1409365619
 31
0.0
  0
LINE
  5
21E
330
1F
100
AcDbEntity
  8
0
  6
Continuous
 62
     7
370
    25
100
AcDbLine
 10
6278.8708898998
 20
5259.1409365619
 30
0.0
 11
6278.8767685166
 21
5259.2411921153
 31
0.0
  0
LINE
  5
21F
330
1F
100
AcDbEntity
  8
0
  6
Continuous
 62
     7
370
    25
100
AcDbLine
 10
6278.8767685166
 20
5259.2411921153
 30
0.0
 11
6278.3797342253
 21
5259.2915209358
 31
0.0
  0
LINE
  5
220
330
1F
100
AcDbEntity
  8
0
  6
Continuous
 62
     7
370
    25
100
AcDbLine
 10
6278.3797342253
 20
5259.2915209358
 30
0.0
 11
6277.8768213172
 21
5259.241594203
 31
0.0
  0
LINE
  5
221
330
1F
100
AcDbEntity
  8
0
  6
Continuous
 62
     7
370
    25
100
AcDbLine
 10
6277.8768213172
 20
5259.241594203
 30
0.0
 11
6277.8709427004
 21
5259.1413386497
 31
0.0
  0
LINE
  5
222
330
1F
100
AcDbEntity
  8
0
  6
Continuous
 62
     7
370
    25
100
AcDbLine
 10
6279.0497163192
 20
5258.7799361523
 30
0.0
 11
6279.5467506104
 21
5258.7296073317
 31
0.0
  0
LINE
  5
223
330
1F
100
AcDbEntity
  8
0
  6
Continuous
 62
     7
370
    25
100
AcDbLine
 10
6279.5467506104
 20
5258.7296073317
 30
0.0
 11
6280.0496635185
 21
5258.7795340645
 31
0.0
  0
LINE
  5
224
330
1F
100
AcDbEntity
  8
0
  6
Continuous
 62
     7
370
    25
100
AcDbLine
 10
6280.0496635185
 20
5258.7795340645
 30
0.0
 11
6280.0555421354
 21
5258.8797896179
 31
0.0
  0
LINE
  5
225
330
1F
100
AcDbEntity
  8
0
  6
Continuous
 62
     7
370
    25
100
AcDbLine
 10
6280.0555421354
 20
5258.8797896179
 30
0.0
 11
6279.5585078441
 21
5258.9301184384
 31
0.0
  0
LINE
  5
226
330
1F
100
AcDbEntity
  8
0
  6
Continuous
 62
     7
370
    25
100
AcDbLine
 10
6279.5585078441
 20
5258.9301184384
 30
0.0
 11
6279.055594936
 21
5258.8801917056
 31
0.0
  0
LINE
  5
227
330
1F
100
AcDbEntity
  8
0
  6
Continuous
 62
     7
370
    25
100
AcDbLine
 10
6279.055594936
 20
5258.8801917056
 30
0.0
 11
6279.0497163192
 21
5258.7799361523
 31
0.0
  0
LINE
  5
228
330
1F
100
AcDbEntity
  8
0
  6
Continuous
 62
     7
370
    25
100
AcDbLine
 10
6276.1027822723
 20
5259.6834423958
 30
0.0
 11
6276.5998165636
 21
5259.6331135752
 31
0.0
  0
LINE
  5
229
330
1F
100
AcDbEntity
  8
0
  6
Continuous
 62
     7
370
    25
100
AcDbLine
 10
6276.5998165636
 20
5259.6331135752
 30
0.0
 11
6277.1027294717
 21
5259.683040308
 31
0.0
  0
LINE
  5
22A
330
1F
100
AcDbEntity
  8
0
  6
Continuous
 62
     7
370
    25
100
AcDbLine
 10
6277.1027294717
 20
5259.683040308
 30
0.0
 11
6277.1086080885
 21
5259.7832958614
 31
0.0
  0
LINE
  5
22B
330
1F
100
AcDbEntity
  8
0
  6
Continuous
 62
     7
370
    25
100
AcDbLine
 10
6277.1086080885
 20
5259.7832958614
 30
0.0
 11
6276.6115737972
 21
5259.8336246819
 31
0.0
  0
LINE
  5
22C
330
1F
100
AcDbEntity
  8
0
  6
Continuous
 62
     7
370
    25
100
AcDbLine
 10
6276.6115737972
 20
5259.8336246819
 30
0.0
 11
6276.1086608891
 21
5259.7836979491
 31
0.0
  0
LINE
  5
22D
330
1F
100
AcDbEntity
  8
0
  6
Continuous
 62
     7
370
    25
100
AcDbLine
 10
6276.1086608891
 20
5259.7836979491
 30
0.0
 11
6276.1027822723
 21
5259.6834423958
 31
0.0
  0
LINE
  5
22E
330
1F
100
AcDbEntity
  8
0
  6
Continuous
 62
     7
370
    25
100
AcDbLine
 10
6275.513395463
 20
5259.8641436445
 30
0.0
 11
6276.0104297543
 21
5259.8138148239
 31
0.0
  0
LINE
  5
22F
330
1F
100
AcDbEntity
  8
0
  6
Continuous
 62
     7
370
    25
100
AcDbLine
 10
6276.0104297543
 20
5259.8138148239
 30
0.0
 11
6276.5133426624
 21
5259.8637415567
 31
0.0
  0
LINE
  5
230
330
1F
100
AcDbEntity
  8
0
  6
Continuous
 62
     7
370
    25
100
AcDbLine
 10
6276.5133426624
 20
5259.8637415567
 30
0.0
 11
6276.5159129078
 21
5259.9075752313
 31
0.0
  0
LINE
  5
231
330
1F
100
AcDbEntity
  8
0
  6
Continuous
 62
     7
370
    25
100
AcDbLine
 10
6275.5183722895
 20
5259.9490198183
 30
0.0
 11
6275.513395463
 21
5259.8641436445
 31
0.0
  0
LINE
  5
232
330
1F
100
AcDbEntity
  8
0
  6
Continuous
 62
     7
370
    25
100
AcDbLine
 10
6277.2815558911
 20
5259.3220398984
 30
0.0
 11
6277.7785901823
 21
5259.2717110778
 31
0.0
  0
LINE
  5
233
330
1F
100
AcDbEntity
  8
0
  6
Continuous
 62
     7
370
    25
100
AcDbLine
 10
6277.7785901823
 20
5259.2717110778
 30
0.0
 11
6278.2815030904
 21
5259.3216378106
 31
0.0
  0
LINE
  5
234
330
1F
100
AcDbEntity
  8
0
  6
Continuous
 62
     7
370
    25
100
AcDbLine
 10
6278.2815030904
 20
5259.3216378106
 30
0.0
 11
6278.2873817073
 21
5259.421893364
 31
0.0
  0
LINE
  5
235
330
1F
100
AcDbEntity
  8
0
  6
Continuous
 62
     7
370
    25
100
AcDbLine
 10
6278.2873817073
 20
5259.421893364
 30
0.0
 11
6277.790347416
 21
5259.4722221845
 31
0.0
  0
LINE
  5
236
330
1F
100
AcDbEntity
  8
0
  6
Continuous
 62
     7
370
    25
100
AcDbLine
 10
6277.790347416
 20
5259.4722221845
 30
0.0
 11
6277.2874345079
 21
5259.4222954517
 31
0.0
  0
LINE
  5
237
330
1F
100
AcDbEntity
  8
0
  6
Continuous
 62
     7
370
    25
100
AcDbLine
 10
6277.2874345079
 20
5259.4222954517
 30
0.0
 11
6277.2815558911
 21
5259.3220398984
 31
0.0
  0
LINE
  5
238
330
1F
100
AcDbEntity
  8
0
  6
Continuous
 62
     7
370
    25
100
AcDbLine
 10
6276.6921690817
 20
5259.5027411471
 30
0.0
 11
6277.189203373
 21
5259.4524123265
 31
0.0
  0
LINE
  5
239
330
1F
100
AcDbEntity
  8
0
  6
Continuous
 62
     7
370
    25
100
AcDbLine
 10
6277.189203373
 20
5259.4524123265
 30
0.0
 11
6277.6921162811
 21
5259.5023390593
 31
0.0
  0
LINE
  5
23A
330
1F
100
AcDbEntity
  8
0
  6
Continuous
 62
     7
370
    25
100
AcDbLine
 10
6277.6921162811
 20
5259.5023390593
 30
0.0
 11
6277.6979948979
 21
5259.6025946127
 31
0.0
  0
LINE
  5
23B
330
1F
100
AcDbEntity
  8
0
  6
Continuous
 62
     7
370
    25
100
AcDbLine
 10
6277.6979948979
 20
5259.6025946127
 30
0.0
 11
6277.2009606066
 21
5259.6529234332
 31
0.0
  0
LINE
  5
23C
330
1F
100
AcDbEntity
  8
0
  6
Continuous
 62
     7
370
    25
100
AcDbLine
 10
6277.2009606066
 20
5259.6529234332
 30
0.0
 11
6276.6980476985
 21
5259.6029967004
 31
0.0
  0
LINE
  5
23D
330
1F
100
AcDbEntity
  8
0
  6
Continuous
 62
     7
370
    25
100
AcDbLine
 10
6276.6980476985
 20
5259.6029967004
 30
0.0
 11
6276.6921690817
 21
5259.5027411471
 31
0.0
  0
LINE
  5
23E
330
1F
100
AcDbEntity
  8
0
  6
Continuous
 62
     7
370
    25
100
AcDbLine
 10
6278.5026555509
 20
5259.6824773851
 30
0.0
 11
6278.9996898421
 21
5259.6321485645
 31
0.0
  0
LINE
  5
23F
330
1F
100
AcDbEntity
  8
0
  6
Continuous
 62
     7
370
    25
100
AcDbLine
 10
6278.9996898421
 20
5259.6321485645
 30
0.0
 11
6279.3822312246
 21
5259.6701254012
 31
0.0
  0
LINE
  5
240
330
1F
100
AcDbEntity
  8
0
  6
Continuous
 62
     7
370
    25
100
AcDbLine
 10
6278.5074305469
 20
5259.7639114857
 30
0.0
 11
6278.5026555509
 21
5259.6824773851
 31
0.0
  0
LINE
  5
241
330
1F
100
AcDbEntity
  8
0
  6
Continuous
 62
     7
370
    25
100
AcDbLine
 10
6279.6814291696
 20
5259.3210748877
 30
0.0
 11
6280.1784634609
 21
5259.2707460671
 31
0.0
  0
LINE
  5
242
330
1F
100
AcDbEntity
  8
0
  6
Continuous
 62
     7
370
    25
100
AcDbLine
 10
6280.1784634609
 20
5259.2707460671
 30
0.0
 11
6280.681376369
 21
5259.3206727999
 31
0.0
  0
LINE
  5
243
330
1F
100
AcDbEntity
  8
0
  6
Continuous
 62
     7
370
    25
100
AcDbLine
 10
6280.681376369
 20
5259.3206727999
 30
0.0
 11
6280.6872549858
 21
5259.4209283533
 31
0.0
  0
LINE
  5
244
330
1F
100
AcDbEntity
  8
0
  6
Continuous
 62
     7
370
    25
100
AcDbLine
 10
6280.6872549858
 20
5259.4209283533
 30
0.0
 11
6280.1902206945
 21
5259.4712571739
 31
0.0
  0
LINE
  5
245
330
1F
100
AcDbEntity
  8
0
  6
Continuous
 62
     7
370
    25
100
AcDbLine
 10
6280.1902206945
 20
5259.4712571739
 30
0.0
 11
6279.6873077864
 21
5259.4213304411
 31
0.0
  0
LINE
  5
246
330
1F
100
AcDbEntity
  8
0
  6
Continuous
 62
     7
370
    25
100
AcDbLine
 10
6279.6873077864
 20
5259.4213304411
 30
0.0
 11
6279.6814291696
 21
5259.3210748877
 31
0.0
  0
LINE
  5
247
330
1F
100
AcDbEntity
  8
0
  6
Continuous
 62
     7
370
    25
100
AcDbLine
 10
6279.0920423602
 20
5259.5017761364
 30
0.0
 11
6279.5890766515
 21
5259.4514473158
 31
0.0
  0
LINE
  5
248
330
1F
100
AcDbEntity
  8
0
  6
Continuous
 62
     7
370
    25
100
AcDbLine
 10
6279.5890766515
 20
5259.4514473158
 30
0.0
 11
6280.0919895596
 21
5259.5013740486
 31
0.0
  0
LINE
  5
249
330
1F
100
AcDbEntity
  8
0
  6
Continuous
 62
     7
370
    25
100
AcDbLine
 10
6280.0919895596
 20
5259.5013740486
 30
0.0
 11
6280.0963627069
 21
5259.5759549088
 31
0.0
  0
LINE
  5
24A
330
1F
100
AcDbEntity
  8
0
  6
Continuous
 62
     7
370
    25
100
AcDbLine
 10
6279.5617478084
 20
5259.6480781481
 30
0.0
 11
6279.097920977
 21
5259.6020316898
 31
0.0
  0
LINE
  5
24B
330
1F
100
AcDbEntity
  8
0
  6
Continuous
 62
     7
370
    25
100
AcDbLine
 10
6279.097920977
 20
5259.6020316898
 30
0.0
 11
6279.0920423602
 21
5259.5017761364
 31
0.0
  0
LINE
  5
24C
330
1F
100
AcDbEntity
  8
0
  6
Continuous
 62
     7
370
    25
100
AcDbLine
 10
6276.7133321022
 20
5259.8636611391
 30
0.0
 11
6277.2103663935
 21
5259.8133323186
 31
0.0
  0
LINE
  5
24D
330
1F
100
AcDbEntity
  8
0
  6
Continuous
 62
     7
370
    25
100
AcDbLine
 10
6277.2103663935
 20
5259.8133323186
 30
0.0
 11
6277.5317659923
 21
5259.8452392982
 31
0.0
  0
LINE
  5
24E
330
1F
100
AcDbEntity
  8
0
  6
Continuous
 62
     7
370
    25
100
AcDbLine
 10
6276.7152872648
 20
5259.8970050207
 30
0.0
 11
6276.7133321022
 21
5259.8636611391
 31
0.0
  0
LINE
  5
24F
330
1F
100
AcDbEntity
  8
0
  6
Continuous
 62
     7
370
    25
100
AcDbLine
 10
6277.892105721
 20
5259.5022586417
 30
0.0
 11
6278.3891400122
 21
5259.4519298212
 31
0.0
  0
LINE
  5
250
330
1F
100
AcDbEntity
  8
0
  6
Continuous
 62
     7
370
    25
100
AcDbLine
 10
6278.3891400122
 20
5259.4519298212
 30
0.0
 11
6278.8920529203
 21
5259.501856554
 31
0.0
  0
LINE
  5
251
330
1F
100
AcDbEntity
  8
0
  6
Continuous
 62
     7
370
    25
100
AcDbLine
 10
6278.8920529203
 20
5259.501856554
 30
0.0
 11
6278.8979315372
 21
5259.6021121073
 31
0.0
  0
LINE
  5
252
330
1F
100
AcDbEntity
  8
0
  6
Continuous
 62
     7
370
    25
100
AcDbLine
 10
6278.8979315372
 20
5259.6021121073
 30
0.0
 11
6278.4008972459
 21
5259.6524409279
 31
0.0
  0
LINE
  5
253
330
1F
100
AcDbEntity
  8
0
  6
Continuous
 62
     7
370
    25
100
AcDbLine
 10
6278.4008972459
 20
5259.6524409279
 30
0.0
 11
6277.8979843378
 21
5259.6025141951
 31
0.0
  0
LINE
  5
254
330
1F
100
AcDbEntity
  8
0
  6
Continuous
 62
     7
370
    25
100
AcDbLine
 10
6277.8979843378
 20
5259.6025141951
 30
0.0
 11
6277.892105721
 21
5259.5022586417
 31
0.0
  0
LINE
  5
255
330
1F
100
AcDbEntity
  8
0
  6
Continuous
 62
     7
370
    25
100
AcDbLine
 10
6277.3027189116
 20
5259.6829598904
 30
0.0
 11
6277.7997532029
 21
5259.6326310699
 31
0.0
  0
LINE
  5
256
330
1F
100
AcDbEntity
  8
0
  6
Continuous
 62
     7
370
    25
100
AcDbLine
 10
6277.7997532029
 20
5259.6326310699
 30
0.0
 11
6278.302666111
 21
5259.6825578027
 31
0.0
  0
LINE
  5
257
330
1F
100
AcDbEntity
  8
0
  6
Continuous
 62
     7
370
    25
100
AcDbLine
 10
6278.302666111
 20
5259.6825578027
 30
0.0
 11
6278.3085176894
 21
5259.782352235
 31
0.0
  0
LINE
  5
258
330
1F
100
AcDbEntity
  8
0
  6
Continuous
 62
     7
370
    25
100
AcDbLine
 10
6277.7610197377
 20
5259.8281297071
 30
0.0
 11
6277.3085975284
 21
5259.7832154438
 31
0.0
  0
LINE
  5
259
330
1F
100
AcDbEntity
  8
0
  6
Continuous
 62
     7
370
    25
100
AcDbLine
 10
6277.3085975284
 20
5259.7832154438
 30
0.0
 11
6277.3027189116
 21
5259.6829598904
 31
0.0
  0
LINE
  5
25A
330
1F
100
AcDbEntity
  8
0
  6
Continuous
 62
     7
370
    25
100
AcDbLine
 10
6276.6498430406
 20
5258.780901163
 30
0.0
 11
6277.1468773319
 21
5258.7305723424
 31
0.0
  0
LINE
  5
25B
330
1F
100
AcDbEntity
  8
0
  6
Continuous
 62
     7
370
    25
100
AcDbLine
 10
6277.1468773319
 20
5258.7305723424
 30
0.0
 11
6277.64979024
 21
5258.7804990752
 31
0.0
  0
LINE
  5
25C
330
1F
100
AcDbEntity
  8
0
  6
Continuous
 62
     7
370
    25
100
AcDbLine
 10
6277.64979024
 20
5258.7804990752
 30
0.0
 11
6277.6556688568
 21
5258.8807546285
 31
0.0
  0
LINE
  5
25D
330
1F
100
AcDbEntity
  8
0
  6
Continuous
 62
     7
370
    25
100
AcDbLine
 10
6277.6556688568
 20
5258.8807546285
 30
0.0
 11
6277.1586345656
 21
5258.9310834491
 31
0.0
  0
LINE
  5
25E
330
1F
100
AcDbEntity
  8
0
  6
Continuous
 62
     7
370
    25
100
AcDbLine
 10
6277.1586345656
 20
5258.9310834491
 30
0.0
 11
6276.6557216575
 21
5258.8811567163
 31
0.0
  0
LINE
  5
25F
330
1F
100
AcDbEntity
  8
0
  6
Continuous
 62
     7
370
    25
100
AcDbLine
 10
6276.6557216575
 20
5258.8811567163
 30
0.0
 11
6276.6498430406
 21
5258.780901163
 31
0.0
  0
LINE
  5
260
330
1F
100
AcDbEntity
  8
0
  6
Continuous
 62
     7
370
    25
100
AcDbLine
 10
6277.23922985
 20
5258.6001999143
 30
0.0
 11
6277.7362641413
 21
5258.5498710937
 31
0.0
  0
LINE
  5
261
330
1F
100
AcDbEntity
  8
0
  6
Continuous
 62
     7
370
    25
100
AcDbLine
 10
6277.7362641413
 20
5258.5498710937
 30
0.0
 11
6278.2391770494
 21
5258.5997978265
 31
0.0
  0
LINE
  5
262
330
1F
100
AcDbEntity
  8
0
  6
Continuous
 62
     7
370
    25
100
AcDbLine
 10
6278.2391770494
 20
5258.5997978265
 30
0.0
 11
6278.2450556662
 21
5258.7000533798
 31
0.0
  0
LINE
  5
263
330
1F
100
AcDbEntity
  8
0
  6
Continuous
 62
     7
370
    25
100
AcDbLine
 10
6278.2450556662
 20
5258.7000533798
 30
0.0
 11
6277.7480213749
 21
5258.7503822004
 31
0.0
  0
LINE
  5
264
330
1F
100
AcDbEntity
  8
0
  6
Continuous
 62
     7
370
    25
100
AcDbLine
 10
6277.7480213749
 20
5258.7503822004
 30
0.0
 11
6277.2451084668
 21
5258.7004554676
 31
0.0
  0
LINE
  5
265
330
1F
100
AcDbEntity
  8
0
  6
Continuous
 62
     7
370
    25
100
AcDbLine
 10
6277.2451084668
 20
5258.7004554676
 30
0.0
 11
6277.23922985
 21
5258.6001999143
 31
0.0
  0
LINE
  5
266
330
1F
100
AcDbEntity
  8
0
  6
Continuous
 62
     7
370
    25
100
AcDbLine
 10
6274.8816826126
 20
5259.3230049091
 30
0.0
 11
6275.3787169038
 21
5259.2726760885
 31
0.0
  0
LINE
  5
267
330
1F
100
AcDbEntity
  8
0
  6
Continuous
 62
     7
370
    25
100
AcDbLine
 10
6275.3787169038
 20
5259.2726760885
 30
0.0
 11
6275.8816298119
 21
5259.3226028213
 31
0.0
  0
LINE
  5
268
330
1F
100
AcDbEntity
  8
0
  6
Continuous
 62
     7
370
    25
100
AcDbLine
 10
6275.8816298119
 20
5259.3226028213
 30
0.0
 11
6275.8875084287
 21
5259.4228583746
 31
0.0
  0
LINE
  5
269
330
1F
100
AcDbEntity
  8
0
  6
Continuous
 62
     7
370
    25
100
AcDbLine
 10
6275.8875084287
 20
5259.4228583746
 30
0.0
 11
6275.3904741375
 21
5259.4731871952
 31
0.0
  0
LINE
  5
26A
330
1F
100
AcDbEntity
  8
0
  6
Continuous
 62
     7
370
    25
100
AcDbLine
 10
6275.3904741375
 20
5259.4731871952
 30
0.0
 11
6274.8875612294
 21
5259.4232604624
 31
0.0
  0
LINE
  5
26B
330
1F
100
AcDbEntity
  8
0
  6
Continuous
 62
     7
370
    25
100
AcDbLine
 10
6274.8875612294
 20
5259.4232604624
 30
0.0
 11
6274.8816826126
 21
5259.3230049091
 31
0.0
  0
LINE
  5
26C
330
1F
100
AcDbEntity
  8
0
  6
Continuous
 62
     7
370
    25
100
AcDbLine
 10
6274.2922958032
 20
5259.5037061578
 30
0.0
 11
6274.7893300945
 21
5259.4533773372
 31
0.0
  0
LINE
  5
26D
330
1F
100
AcDbEntity
  8
0
  6
Continuous
 62
     7
370
    25
100
AcDbLine
 10
6274.7893300945
 20
5259.4533773372
 30
0.0
 11
6275.2922430026
 21
5259.50330407
 31
0.0
  0
LINE
  5
26E
330
1F
100
AcDbEntity
  8
0
  6
Continuous
 62
     7
370
    25
100
AcDbLine
 10
6275.2922430026
 20
5259.50330407
 30
0.0
 11
6275.2981216194
 21
5259.6035596233
 31
0.0
  0
LINE
  5
26F
330
1F
100
AcDbEntity
  8
0
  6
Continuous
 62
     7
370
    25
100
AcDbLine
 10
6275.2981216194
 20
5259.6035596233
 30
0.0
 11
6274.8010873281
 21
5259.6538884439
 31
0.0
  0
LINE
  5
270
330
1F
100
AcDbEntity
  8
0
  6
Continuous
 62
     7
370
    25
100
AcDbLine
 10
6274.8010873281
 20
5259.6538884439
 30
0.0
 11
6274.29817442
 21
5259.6039617111
 31
0.0
  0
LINE
  5
271
330
1F
100
AcDbEntity
  8
0
  6
Continuous
 62
     7
370
    25
100
AcDbLine
 10
6274.29817442
 20
5259.6039617111
 30
0.0
 11
6274.2922958032
 21
5259.5037061578
 31
0.0
  0
LINE
  5
272
330
1F
100
AcDbEntity
  8
0
  6
Continuous
 62
     7
370
    25
100
AcDbLine
 10
6276.0604562313
 20
5258.9616024117
 30
0.0
 11
6276.5574905226
 21
5258.9112735911
 31
0.0
  0
LINE
  5
273
330
1F
100
AcDbEntity
  8
0
  6
Continuous
 62
     7
370
    25
100
AcDbLine
 10
6276.5574905226
 20
5258.9112735911
 30
0.0
 11
6277.0604034307
 21
5258.9612003239
 31
0.0
  0
LINE
  5
274
330
1F
100
AcDbEntity
  8
0
  6
Continuous
 62
     7
370
    25
100
AcDbLine
 10
6277.0604034307
 20
5258.9612003239
 30
0.0
 11
6277.0662820475
 21
5259.0614558772
 31
0.0
  0
LINE
  5
275
330
1F
100
AcDbEntity
  8
0
  6
Continuous
 62
     7
370
    25
100
AcDbLine
 10
6277.0662820475
 20
5259.0614558772
 30
0.0
 11
6276.5692477562
 21
5259.1117846978
 31
0.0
  0
LINE
  5
276
330
1F
100
AcDbEntity
  8
0
  6
Continuous
 62
     7
370
    25
100
AcDbLine
 10
6276.5692477562
 20
5259.1117846978
 30
0.0
 11
6276.0663348481
 21
5259.061857965
 31
0.0
  0
LINE
  5
277
330
1F
100
AcDbEntity
  8
0
  6
Continuous
 62
     7
370
    25
100
AcDbLine
 10
6276.0663348481
 20
5259.061857965
 30
0.0
 11
6276.0604562313
 21
5258.9616024117
 31
0.0
  0
LINE
  5
278
330
1F
100
AcDbEntity
  8
0
  6
Continuous
 62
     7
370
    25
100
AcDbLine
 10
6275.4710694219
 20
5259.1423036604
 30
0.0
 11
6275.9681037132
 21
5259.0919748398
 31
0.0
  0
LINE
  5
279
330
1F
100
AcDbEntity
  8
0
  6
Continuous
 62
     7
370
    25
100
AcDbLine
 10
6275.9681037132
 20
5259.0919748398
 30
0.0
 11
6276.4710166213
 21
5259.1419015726
 31
0.0
  0
LINE
  5
27A
330
1F
100
AcDbEntity
  8
0
  6
Continuous
 62
     7
370
    25
100
AcDbLine
 10
6276.4710166213
 20
5259.1419015726
 30
0.0
 11
6276.4768952381
 21
5259.2421571259
 31
0.0
  0
LINE
  5
27B
330
1F
100
AcDbEntity
  8
0
  6
Continuous
 62
     7
370
    25
100
AcDbLine
 10
6276.4768952381
 20
5259.2421571259
 30
0.0
 11
6275.9798609468
 21
5259.2924859465
 31
0.0
  0
LINE
  5
27C
330
1F
100
AcDbEntity
  8
0
  6
Continuous
 62
     7
370
    25
100
AcDbLine
 10
6275.9798609468
 20
5259.2924859465
 30
0.0
 11
6275.4769480387
 21
5259.2425592137
 31
0.0
  0
LINE
  5
27D
330
1F
100
AcDbEntity
  8
0
  6
Continuous
 62
     7
370
    25
100
AcDbLine
 10
6275.4769480387
 20
5259.2425592137
 30
0.0
 11
6275.4710694219
 21
5259.1423036604
 31
0.0
  0
LINE
  5
27E
330
1F
100
AcDbEntity
  8
0
  6
Continuous
 62
     7
370
    25
100
AcDbLine
 10
6271.9135855452
 20
5259.8655911605
 30
0.0
 11
6272.4106198365
 21
5259.8152623399
 31
0.0
  0
LINE
  5
27F
330
1F
100
AcDbEntity
  8
0
  6
Continuous
 62
     7
370
    25
100
AcDbLine
 10
6272.4106198365
 20
5259.8152623399
 30
0.0
 11
6272.9135327446
 21
5259.8651890727
 31
0.0
  0
LINE
  5
280
330
1F
100
AcDbEntity
  8
0
  6
Continuous
 62
     7
370
    25
100
AcDbLine
 10
6272.9135327446
 20
5259.8651890727
 30
0.0
 11
6272.9194113614
 21
5259.9654446261
 31
0.0
  0
LINE
  5
281
330
1F
100
AcDbEntity
  8
0
  6
Continuous
 62
     7
370
    25
100
AcDbLine
 10
6272.9194113614
 20
5259.9654446261
 30
0.0
 11
6272.8489755221
 21
5259.9725768356
 31
0.0
  0
LINE
  5
282
330
1F
100
AcDbEntity
  8
0
  6
Continuous
 62
     7
370
    25
100
AcDbLine
 10
6271.9186367599
 20
5259.9517359699
 30
0.0
 11
6271.9135855452
 21
5259.8655911605
 31
0.0
  0
LINE
  5
283
330
1F
100
AcDbEntity
  8
0
  6
Continuous
 62
     7
370
    25
100
AcDbLine
 10
6272.5029723546
 20
5259.6848899118
 30
0.0
 11
6273.0000066458
 21
5259.6345610912
 31
0.0
  0
LINE
  5
284
330
1F
100
AcDbEntity
  8
0
  6
Continuous
 62
     7
370
    25
100
AcDbLine
 10
6273.0000066458
 20
5259.6345610912
 30
0.0
 11
6273.5029195539
 21
5259.684487824
 31
0.0
  0
LINE
  5
285
330
1F
100
AcDbEntity
  8
0
  6
Continuous
 62
     7
370
    25
100
AcDbLine
 10
6273.5029195539
 20
5259.684487824
 30
0.0
 11
6273.5087981708
 21
5259.7847433774
 31
0.0
  0
LINE
  5
286
330
1F
100
AcDbEntity
  8
0
  6
Continuous
 62
     7
370
    25
100
AcDbLine
 10
6273.5087981708
 20
5259.7847433774
 30
0.0
 11
6273.0117638795
 21
5259.8350721979
 31
0.0
  0
LINE
  5
287
330
1F
100
AcDbEntity
  8
0
  6
Continuous
 62
     7
370
    25
100
AcDbLine
 10
6273.0117638795
 20
5259.8350721979
 30
0.0
 11
6272.5088509714
 21
5259.7851454651
 31
0.0
  0
LINE
  5
288
330
1F
100
AcDbEntity
  8
0
  6
Continuous
 62
     7
370
    25
100
AcDbLine
 10
6272.5088509714
 20
5259.7851454651
 30
0.0
 11
6272.5029723546
 21
5259.6848899118
 31
0.0
  0
LINE
  5
289
330
1F
100
AcDbEntity
  8
0
  6
Continuous
 62
     7
370
    25
100
AcDbLine
 10
6274.860519592
 20
5258.962084917
 30
0.0
 11
6275.3575538833
 21
5258.9117560964
 31
0.0
  0
LINE
  5
28A
330
1F
100
AcDbEntity
  8
0
  6
Continuous
 62
     7
370
    25
100
AcDbLine
 10
6275.3575538833
 20
5258.9117560964
 30
0.0
 11
6275.8604667914
 21
5258.9616828292
 31
0.0
  0
LINE
  5
28B
330
1F
100
AcDbEntity
  8
0
  6
Continuous
 62
     7
370
    25
100
AcDbLine
 10
6275.8604667914
 20
5258.9616828292
 30
0.0
 11
6275.8663454082
 21
5259.0619383826
 31
0.0
  0
LINE
  5
28C
330
1F
100
AcDbEntity
  8
0
  6
Continuous
 62
     7
370
    25
100
AcDbLine
 10
6275.8663454082
 20
5259.0619383826
 30
0.0
 11
6275.3693111169
 21
5259.1122672031
 31
0.0
  0
LINE
  5
28D
330
1F
100
AcDbEntity
  8
0
  6
Continuous
 62
     7
370
    25
100
AcDbLine
 10
6275.3693111169
 20
5259.1122672031
 30
0.0
 11
6274.8663982088
 21
5259.0623404704
 31
0.0
  0
LINE
  5
28E
330
1F
100
AcDbEntity
  8
0
  6
Continuous
 62
     7
370
    25
100
AcDbLine
 10
6274.8663982088
 20
5259.0623404704
 30
0.0
 11
6274.860519592
 21
5258.962084917
 31
0.0
  0
LINE
  5
28F
330
1F
100
AcDbEntity
  8
0
  6
Continuous
 62
     7
370
    25
100
AcDbLine
 10
6275.4499064014
 20
5258.7813836683
 30
0.0
 11
6275.9469406927
 21
5258.7310548477
 31
0.0
  0
LINE
  5
290
330
1F
100
AcDbEntity
  8
0
  6
Continuous
 62
     7
370
    25
100
AcDbLine
 10
6275.9469406927
 20
5258.7310548477
 30
0.0
 11
6276.4498536008
 21
5258.7809815805
 31
0.0
  0
LINE
  5
291
330
1F
100
AcDbEntity
  8
0
  6
Continuous
 62
     7
370
    25
100
AcDbLine
 10
6276.4498536008
 20
5258.7809815805
 30
0.0
 11
6276.4557322176
 21
5258.8812371339
 31
0.0
  0
LINE
  5
292
330
1F
100
AcDbEntity
  8
0
  6
Continuous
 62
     7
370
    25
100
AcDbLine
 10
6276.4557322176
 20
5258.8812371339
 30
0.0
 11
6275.9586979263
 21
5258.9315659544
 31
0.0
  0
LINE
  5
293
330
1F
100
AcDbEntity
  8
0
  6
Continuous
 62
     7
370
    25
100
AcDbLine
 10
6275.9586979263
 20
5258.9315659544
 30
0.0
 11
6275.4557850182
 21
5258.8816392217
 31
0.0
  0
LINE
  5
294
330
1F
100
AcDbEntity
  8
0
  6
Continuous
 62
     7
370
    25
100
AcDbLine
 10
6275.4557850182
 20
5258.8816392217
 30
0.0
 11
6275.4499064014
 21
5258.7813836683
 31
0.0
  0
LINE
  5
295
330
1F
100
AcDbEntity
  8
0
  6
Continuous
 62
     7
370
    25
100
AcDbLine
 10
6273.6817459733
 20
5259.3234874144
 30
0.0
 11
6274.1787802646
 21
5259.2731585938
 31
0.0
  0
LINE
  5
296
330
1F
100
AcDbEntity
  8
0
  6
Continuous
 62
     7
370
    25
100
AcDbLine
 10
6274.1787802646
 20
5259.2731585938
 30
0.0
 11
6274.6816931727
 21
5259.3230853266
 31
0.0
  0
LINE
  5
297
330
1F
100
AcDbEntity
  8
0
  6
Continuous
 62
     7
370
    25
100
AcDbLine
 10
6274.6816931727
 20
5259.3230853266
 30
0.0
 11
6274.6875717895
 21
5259.42334088
 31
0.0
  0
LINE
  5
298
330
1F
100
AcDbEntity
  8
0
  6
Continuous
 62
     7
370
    25
100
AcDbLine
 10
6274.6875717895
 20
5259.42334088
 30
0.0
 11
6274.1905374982
 21
5259.4736697005
 31
0.0
  0
LINE
  5
299
330
1F
100
AcDbEntity
  8
0
  6
Continuous
 62
     7
370
    25
100
AcDbLine
 10
6274.1905374982
 20
5259.4736697005
 30
0.0
 11
6273.6876245901
 21
5259.4237429677
 31
0.0
  0
LINE
  5
29A
330
1F
100
AcDbEntity
  8
0
  6
Continuous
 62
     7
370
    25
100
AcDbLine
 10
6273.6876245901
 20
5259.4237429677
 30
0.0
 11
6273.6817459733
 21
5259.3234874144
 31
0.0
  0
LINE
  5
29B
330
1F
100
AcDbEntity
  8
0
  6
Continuous
 62
     7
370
    25
100
AcDbLine
 10
6274.2711327827
 20
5259.1427861657
 30
0.0
 11
6274.7681670739
 21
5259.0924573451
 31
0.0
  0
LINE
  5
29C
330
1F
100
AcDbEntity
  8
0
  6
Continuous
 62
     7
370
    25
100
AcDbLine
 10
6274.7681670739
 20
5259.0924573451
 30
0.0
 11
6275.271079982
 21
5259.1423840779
 31
0.0
  0
LINE
  5
29D
330
1F
100
AcDbEntity
  8
0
  6
Continuous
 62
     7
370
    25
100
AcDbLine
 10
6275.271079982
 20
5259.1423840779
 30
0.0
 11
6275.2769585989
 21
5259.2426396313
 31
0.0
  0
LINE
  5
29E
330
1F
100
AcDbEntity
  8
0
  6
Continuous
 62
     7
370
    25
100
AcDbLine
 10
6275.2769585989
 20
5259.2426396313
 30
0.0
 11
6274.7799243076
 21
5259.2929684518
 31
0.0
  0
LINE
  5
29F
330
1F
100
AcDbEntity
  8
0
  6
Continuous
 62
     7
370
    25
100
AcDbLine
 10
6274.7799243076
 20
5259.2929684518
 30
0.0
 11
6274.2770113995
 21
5259.2430417191
 31
0.0
  0
LINE
  5
2A0
330
1F
100
AcDbEntity
  8
0
  6
Continuous
 62
     7
370
    25
100
AcDbLine
 10
6274.2770113995
 20
5259.2430417191
 30
0.0
 11
6274.2711327827
 21
5259.1427861657
 31
0.0
  0
LINE
  5
2A1
330
1F
100
AcDbEntity
  8
0
  6
Continuous
 62
     7
370
    25
100
AcDbLine
 10
6275.4922324424
 20
5259.5032236524
 30
0.0
 11
6275.9892667337
 21
5259.4528948319
 31
0.0
  0
LINE
  5
2A2
330
1F
100
AcDbEntity
  8
0
  6
Continuous
 62
     7
370
    25
100
AcDbLine
 10
6275.9892667337
 20
5259.4528948319
 30
0.0
 11
6276.4921796418
 21
5259.5028215646
 31
0.0
  0
LINE
  5
2A3
330
1F
100
AcDbEntity
  8
0
  6
Continuous
 62
     7
370
    25
100
AcDbLine
 10
6276.4921796418
 20
5259.5028215646
 30
0.0
 11
6276.4980582586
 21
5259.603077118
 31
0.0
  0
LINE
  5
2A4
330
1F
100
AcDbEntity
  8
0
  6
Continuous
 62
     7
370
    25
100
AcDbLine
 10
6276.4980582586
 20
5259.603077118
 30
0.0
 11
6276.0010239674
 21
5259.6534059386
 31
0.0
  0
LINE
  5
2A5
330
1F
100
AcDbEntity
  8
0
  6
Continuous
 62
     7
370
    25
100
AcDbLine
 10
6276.0010239674
 20
5259.6534059386
 30
0.0
 11
6275.4981110593
 21
5259.6034792058
 31
0.0
  0
LINE
  5
2A6
330
1F
100
AcDbEntity
  8
0
  6
Continuous
 62
     7
370
    25
100
AcDbLine
 10
6275.4981110593
 20
5259.6034792058
 30
0.0
 11
6275.4922324424
 21
5259.5032236524
 31
0.0
  0
LINE
  5
2A7
330
1F
100
AcDbEntity
  8
0
  6
Continuous
 62
     7
370
    25
100
AcDbLine
 10
6274.9028456331
 20
5259.6839249011
 30
0.0
 11
6275.3998799244
 21
5259.6335960806
 31
0.0
  0
LINE
  5
2A8
330
1F
100
AcDbEntity
  8
0
  6
Continuous
 62
     7
370
    25
100
AcDbLine
 10
6275.3998799244
 20
5259.6335960806
 30
0.0
 11
6275.9027928325
 21
5259.6835228133
 31
0.0
  0
LINE
  5
2A9
330
1F
100
AcDbEntity
  8
0
  6
Continuous
 62
     7
370
    25
100
AcDbLine
 10
6275.9027928325
 20
5259.6835228133
 30
0.0
 11
6275.9086714493
 21
5259.7837783667
 31
0.0
  0
LINE
  5
2AA
330
1F
100
AcDbEntity
  8
0
  6
Continuous
 62
     7
370
    25
100
AcDbLine
 10
6275.9086714493
 20
5259.7837783667
 30
0.0
 11
6275.411637158
 21
5259.8341071873
 31
0.0
  0
LINE
  5
2AB
330
1F
100
AcDbEntity
  8
0
  6
Continuous
 62
     7
370
    25
100
AcDbLine
 10
6275.411637158
 20
5259.8341071873
 30
0.0
 11
6274.9087242499
 21
5259.7841804545
 31
0.0
  0
LINE
  5
2AC
330
1F
100
AcDbEntity
  8
0
  6
Continuous
 62
     7
370
    25
100
AcDbLine
 10
6274.9087242499
 20
5259.7841804545
 30
0.0
 11
6274.9028456331
 21
5259.6839249011
 31
0.0
  0
LINE
  5
2AD
330
1F
100
AcDbEntity
  8
0
  6
Continuous
 62
     7
370
    25
100
AcDbLine
 10
6276.6710060612
 20
5259.141821155
 30
0.0
 11
6277.1680403525
 21
5259.0914923345
 31
0.0
  0
LINE
  5
2AE
330
1F
100
AcDbEntity
  8
0
  6
Continuous
 62
     7
370
    25
100
AcDbLine
 10
6277.1680403525
 20
5259.0914923345
 30
0.0
 11
6277.6709532606
 21
5259.1414190672
 31
0.0
  0
LINE
  5
2AF
330
1F
100
AcDbEntity
  8
0
  6
Continuous
 62
     7
370
    25
100
AcDbLine
 10
6277.6709532606
 20
5259.1414190672
 30
0.0
 11
6277.6768318774
 21
5259.2416746206
 31
0.0
  0
LINE
  5
2B0
330
1F
100
AcDbEntity
  8
0
  6
Continuous
 62
     7
370
    25
100
AcDbLine
 10
6277.6768318774
 20
5259.2416746206
 30
0.0
 11
6277.1797975861
 21
5259.2920034412
 31
0.0
  0
LINE
  5
2B1
330
1F
100
AcDbEntity
  8
0
  6
Continuous
 62
     7
370
    25
100
AcDbLine
 10
6277.1797975861
 20
5259.2920034412
 30
0.0
 11
6276.676884678
 21
5259.2420767084
 31
0.0
  0
LINE
  5
2B2
330
1F
100
AcDbEntity
  8
0
  6
Continuous
 62
     7
370
    25
100
AcDbLine
 10
6276.676884678
 20
5259.2420767084
 30
0.0
 11
6276.6710060612
 21
5259.141821155
 31
0.0
  0
LINE
  5
2B3
330
1F
100
AcDbEntity
  8
0
  6
Continuous
 62
     7
370
    25
100
AcDbLine
 10
6276.0816192518
 20
5259.3225224037
 30
0.0
 11
6276.5786535431
 21
5259.2721935832
 31
0.0
  0
LINE
  5
2B4
330
1F
100
AcDbEntity
  8
0
  6
Continuous
 62
     7
370
    25
100
AcDbLine
 10
6276.5786535431
 20
5259.2721935832
 30
0.0
 11
6277.0815664512
 21
5259.3221203159
 31
0.0
  0
LINE
  5
2B5
330
1F
100
AcDbEntity
  8
0
  6
Continuous
 62
     7
370
    25
100
AcDbLine
 10
6277.0815664512
 20
5259.3221203159
 30
0.0
 11
6277.087445068
 21
5259.4223758693
 31
0.0
  0
LINE
  5
2B6
330
1F
100
AcDbEntity
  8
0
  6
Continuous
 62
     7
370
    25
100
AcDbLine
 10
6277.087445068
 20
5259.4223758693
 30
0.0
 11
6276.5904107767
 21
5259.4727046899
 31
0.0
  0
LINE
  5
2B7
330
1F
100
AcDbEntity
  8
0
  6
Continuous
 62
     7
370
    25
100
AcDbLine
 10
6276.5904107767
 20
5259.4727046899
 30
0.0
 11
6276.0874978686
 21
5259.4227779571
 31
0.0
  0
LINE
  5
2B8
330
1F
100
AcDbEntity
  8
0
  6
Continuous
 62
     7
370
    25
100
AcDbLine
 10
6276.0874978686
 20
5259.4227779571
 30
0.0
 11
6276.0816192518
 21
5259.3225224037
 31
0.0
  0
LINE
  5
2B9
330
1F
100
AcDbEntity
  8
0
  6
Continuous
 62
     7
370
    25
100
AcDbLine
 10
6274.3134588237
 20
5259.8646261498
 30
0.0
 11
6274.810493115
 21
5259.8142973293
 31
0.0
  0
LINE
  5
2BA
330
1F
100
AcDbEntity
  8
0
  6
Continuous
 62
     7
370
    25
100
AcDbLine
 10
6274.810493115
 20
5259.8142973293
 30
0.0
 11
6275.3134060231
 21
5259.864224062
 31
0.0
  0
LINE
  5
2BB
330
1F
100
AcDbEntity
  8
0
  6
Continuous
 62
     7
370
    25
100
AcDbLine
 10
6275.3134060231
 20
5259.864224062
 30
0.0
 11
6275.3187348393
 21
5259.9551031647
 31
0.0
  0
LINE
  5
2BC
330
1F
100
AcDbEntity
  8
0
  6
Continuous
 62
     7
370
    25
100
AcDbLine
 10
6274.4096102458
 20
5259.9738435456
 30
0.0
 11
6274.3193374405
 21
5259.9648817032
 31
0.0
  0
LINE
  5
2BD
330
1F
100
AcDbEntity
  8
0
  6
Continuous
 62
     7
370
    25
100
AcDbLine
 10
6274.3193374405
 20
5259.9648817032
 30
0.0
 11
6274.3134588237
 21
5259.8646261498
 31
0.0
  0
LINE
  5
2BE
330
1F
100
AcDbEntity
  8
0
  6
Continuous
 62
     7
370
    25
100
AcDbLine
 10
6273.7029089938
 20
5259.6844074065
 30
0.0
 11
6274.1999432851
 21
5259.6340785859
 31
0.0
  0
LINE
  5
2BF
330
1F
100
AcDbEntity
  8
0
  6
Continuous
 62
     7
370
    25
100
AcDbLine
 10
6274.1999432851
 20
5259.6340785859
 30
0.0
 11
6274.7028561932
 21
5259.6840053187
 31
0.0
  0
LINE
  5
2C0
330
1F
100
AcDbEntity
  8
0
  6
Continuous
 62
     7
370
    25
100
AcDbLine
 10
6274.7028561932
 20
5259.6840053187
 30
0.0
 11
6274.70873481
 21
5259.784260872
 31
0.0
  0
LINE
  5
2C1
330
1F
100
AcDbEntity
  8
0
  6
Continuous
 62
     7
370
    25
100
AcDbLine
 10
6274.70873481
 20
5259.784260872
 30
0.0
 11
6274.2117005187
 21
5259.8345896926
 31
0.0
  0
LINE
  5
2C2
330
1F
100
AcDbEntity
  8
0
  6
Continuous
 62
     7
370
    25
100
AcDbLine
 10
6274.2117005187
 20
5259.8345896926
 30
0.0
 11
6273.7087876106
 21
5259.7846629598
 31
0.0
  0
LINE
  5
2C3
330
1F
100
AcDbEntity
  8
0
  6
Continuous
 62
     7
370
    25
100
AcDbLine
 10
6273.7087876106
 20
5259.7846629598
 30
0.0
 11
6273.7029089938
 21
5259.6844074065
 31
0.0
  0
LINE
  5
2C4
330
1F
100
AcDbEntity
  8
0
  6
Continuous
 62
     7
370
    25
100
AcDbLine
 10
6273.1135221845
 20
5259.8651086552
 30
0.0
 11
6273.6105564757
 21
5259.8147798346
 31
0.0
  0
LINE
  5
2C5
330
1F
100
AcDbEntity
  8
0
  6
Continuous
 62
     7
370
    25
100
AcDbLine
 10
6273.6105564757
 20
5259.8147798346
 30
0.0
 11
6274.1134693838
 21
5259.8647065674
 31
0.0
  0
LINE
  5
2C6
330
1F
100
AcDbEntity
  8
0
  6
Continuous
 62
     7
370
    25
100
AcDbLine
 10
6274.1134693838
 20
5259.8647065674
 30
0.0
 11
6274.1193480007
 21
5259.9649621207
 31
0.0
  0
LINE
  5
2C7
330
1F
100
AcDbEntity
  8
0
  6
Continuous
 62
     7
370
    25
100
AcDbLine
 10
6274.1193480007
 20
5259.9649621207
 30
0.0
 11
6273.9945182285
 21
5259.9776021645
 31
0.0
  0
LINE
  5
2C8
330
1F
100
AcDbEntity
  8
0
  6
Continuous
 62
     7
370
    25
100
AcDbLine
 10
6273.2345034783
 20
5259.9767910391
 30
0.0
 11
6273.1194008013
 21
5259.9653642085
 31
0.0
  0
LINE
  5
2C9
330
1F
100
AcDbEntity
  8
0
  6
Continuous
 62
     7
370
    25
100
AcDbLine
 10
6273.1194008013
 20
5259.9653642085
 30
0.0
 11
6273.1135221845
 21
5259.8651086552
 31
0.0
  0
LINE
  5
2CA
330
1F
100
AcDbEntity
  8
0
  6
Continuous
 62
     7
370
    25
100
AcDbLine
 10
6277.2603928705
 20
5258.9611199063
 30
0.0
 11
6277.7574271618
 21
5258.9107910858
 31
0.0
  0
LINE
  5
2CB
330
1F
100
AcDbEntity
  8
0
  6
Continuous
 62
     7
370
    25
100
AcDbLine
 10
6277.7574271618
 20
5258.9107910858
 30
0.0
 11
6278.2603400699
 21
5258.9607178185
 31
0.0
  0
LINE
  5
2CC
330
1F
100
AcDbEntity
  8
0
  6
Continuous
 62
     7
370
    25
100
AcDbLine
 10
6278.2603400699
 20
5258.9607178185
 30
0.0
 11
6278.2662186867
 21
5259.0609733719
 31
0.0
  0
LINE
  5
2CD
330
1F
100
AcDbEntity
  8
0
  6
Continuous
 62
     7
370
    25
100
AcDbLine
 10
6278.2662186867
 20
5259.0609733719
 30
0.0
 11
6277.7691843954
 21
5259.1113021925
 31
0.0
  0
LINE
  5
2CE
330
1F
100
AcDbEntity
  8
0
  6
Continuous
 62
     7
370
    25
100
AcDbLine
 10
6277.7691843954
 20
5259.1113021925
 30
0.0
 11
6277.2662714874
 21
5259.0613754597
 31
0.0
  0
LINE
  5
2CF
330
1F
100
AcDbEntity
  8
0
  6
Continuous
 62
     7
370
    25
100
AcDbLine
 10
6277.2662714874
 20
5259.0613754597
 30
0.0
 11
6277.2603928705
 21
5258.9611199063
 31
0.0
  0
LINE
  5
2D0
330
1F
100
AcDbEntity
  8
0
  6
Continuous
 62
     7
370
    25
100
AcDbLine
 10
6277.8497796799
 20
5258.7804186576
 30
0.0
 11
6278.3468139712
 21
5258.7300898371
 31
0.0
  0
LINE
  5
2D1
330
1F
100
AcDbEntity
  8
0
  6
Continuous
 62
     7
370
    25
100
AcDbLine
 10
6278.3468139712
 20
5258.7300898371
 30
0.0
 11
6278.8497268793
 21
5258.7800165699
 31
0.0
  0
LINE
  5
2D2
330
1F
100
AcDbEntity
  8
0
  6
Continuous
 62
     7
370
    25
100
AcDbLine
 10
6278.8497268793
 20
5258.7800165699
 30
0.0
 11
6278.8556054961
 21
5258.8802721232
 31
0.0
  0
LINE
  5
2D3
330
1F
100
AcDbEntity
  8
0
  6
Continuous
 62
     7
370
    25
100
AcDbLine
 10
6278.8556054961
 20
5258.8802721232
 30
0.0
 11
6278.3585712048
 21
5258.9306009438
 31
0.0
  0
LINE
  5
2D4
330
1F
100
AcDbEntity
  8
0
  6
Continuous
 62
     7
370
    25
100
AcDbLine
 10
6278.3585712048
 20
5258.9306009438
 30
0.0
 11
6277.8556582967
 21
5258.880674211
 31
0.0
  0
LINE
  5
2D5
330
1F
100
AcDbEntity
  8
0
  6
Continuous
 62
     7
370
    25
100
AcDbLine
 10
6277.8556582967
 20
5258.880674211
 30
0.0
 11
6277.8497796799
 21
5258.7804186576
 31
0.0
  0
LINE
  5
2D6
330
1F
100
AcDbEntity
  8
0
  6
Continuous
 62
     7
370
    25
100
AcDbLine
 10
6270.5136252132
 20
5259.8904728305
 30
0.0
 11
6270.5136594661
 21
5259.8661540834
 31
0.0
  0
LINE
  5
2D7
330
1F
100
AcDbEntity
  8
0
  6
Continuous
 62
     7
370
    25
100
AcDbLine
 10
6271.7134842682
 20
5259.9450733653
 30
0.0
 11
6271.7135961053
 21
5259.865671578
 31
0.0
  0
LINE
  5
2D8
330
1F
100
AcDbEntity
  8
0
  6
Continuous
 62
     7
370
    25
100
AcDbLine
 10
6272.9133906763
 20
5259.9660542701
 30
0.0
 11
6272.9135327446
 21
5259.8651890727
 31
0.0
  0
LINE
  5
2D9
330
1F
100
AcDbEntity
  8
0
  6
Continuous
 62
     7
370
    25
100
AcDbLine
 10
6274.1133273155
 20
5259.9655717647
 30
0.0
 11
6274.1134693838
 21
5259.8647065674
 31
0.0
  0
LINE
  5
2DA
330
1F
100
AcDbEntity
  8
0
  6
Continuous
 62
     7
370
    25
100
AcDbLine
 10
6275.3132778002
 20
5259.9552593604
 30
0.0
 11
6275.3134060231
 21
5259.864224062
 31
0.0
  0
LINE
  5
2DB
330
1F
100
AcDbEntity
  8
0
  6
Continuous
 62
     7
370
    25
100
AcDbLine
 10
6276.5132807336
 20
5259.9077095387
 30
0.0
 11
6276.5133426624
 21
5259.8637415567
 31
0.0
  0
LINE
  5
2DC
330
1F
100
AcDbEntity
  8
0
  6
Continuous
 62
     7
370
    25
100
AcDbLine
 10
6270.0106859979
 20
5259.8592236211
 30
0.0
 11
6270.010746558
 21
5259.8162273506
 31
0.0
  0
LINE
  5
2DD
330
1F
100
AcDbEntity
  8
0
  6
Continuous
 62
     7
370
    25
100
AcDbLine
 10
6271.2105286209
 20
5259.9254904247
 30
0.0
 11
6271.2106831972
 21
5259.8157448453
 31
0.0
  0
LINE
  5
2DE
330
1F
100
AcDbEntity
  8
0
  6
Continuous
 62
     7
370
    25
100
AcDbLine
 10
6272.4104094277
 20
5259.9646476964
 30
0.0
 11
6272.4106198365
 21
5259.8152623399
 31
0.0
  0
LINE
  5
2DF
330
1F
100
AcDbEntity
  8
0
  6
Continuous
 62
     7
370
    25
100
AcDbLine
 10
6273.6103259697
 20
5259.9784337679
 30
0.0
 11
6273.6105564757
 21
5259.8147798346
 31
0.0
  0
LINE
  5
2E0
330
1F
100
AcDbEntity
  8
0
  6
Continuous
 62
     7
370
    25
100
AcDbLine
 10
6274.810277502
 20
5259.9673775227
 30
0.0
 11
6274.810493115
 21
5259.8142973293
 31
0.0
  0
LINE
  5
2E1
330
1F
100
AcDbEntity
  8
0
  6
Continuous
 62
     7
370
    25
100
AcDbLine
 10
6276.0102648103
 20
5259.9309212097
 30
0.0
 11
6276.0104297543
 21
5259.8138148239
 31
0.0
  0
LINE
  5
2E2
330
1F
100
AcDbEntity
  8
0
  6
Continuous
 62
     7
370
    25
100
AcDbLine
 10
6277.2102903932
 20
5259.8672907462
 30
0.0
 11
6277.2103663935
 21
5259.8133323186
 31
0.0
  0
LINE
  5
2E3
330
1F
100
AcDbEntity
  8
0
  6
Continuous
 62
     7
370
    25
100
AcDbLine
 10
6268.7030805089
 20
5259.7520821797
 30
0.0
 11
6268.7031729969
 21
5259.6864178454
 31
0.0
  0
LINE
  5
2E4
330
1F
100
AcDbEntity
  8
0
  6
Continuous
 62
     7
370
    25
100
AcDbLine
 10
6269.9029675679
 20
5259.7868005374
 30
0.0
 11
6269.9031096362
 21
5259.68593534
 31
0.0
  0
LINE
  5
2E5
330
1F
100
AcDbEntity
  8
0
  6
Continuous
 62
     7
370
    25
100
AcDbLine
 10
6271.1029042071
 20
5259.7863180321
 30
0.0
 11
6271.1030462754
 21
5259.6854528347
 31
0.0
  0
LINE
  5
2E6
330
1F
100
AcDbEntity
  8
0
  6
Continuous
 62
     7
370
    25
100
AcDbLine
 10
6272.3028408464
 20
5259.7858355267
 30
0.0
 11
6272.3029829147
 21
5259.6849703294
 31
0.0
  0
LINE
  5
2E7
330
1F
100
AcDbEntity
  8
0
  6
Continuous
 62
     7
370
    25
100
AcDbLine
 10
6273.5027774856
 20
5259.7853530214
 30
0.0
 11
6273.5029195539
 21
5259.684487824
 31
0.0
  0
LINE
  5
2E8
330
1F
100
AcDbEntity
  8
0
  6
Continuous
 62
     7
370
    25
100
AcDbLine
 10
6274.7027141249
 20
5259.784870516
 30
0.0
 11
6274.7028561932
 21
5259.6840053187
 31
0.0
  0
LINE
  5
2E9
330
1F
100
AcDbEntity
  8
0
  6
Continuous
 62
     7
370
    25
100
AcDbLine
 10
6275.9026507642
 20
5259.7843880107
 30
0.0
 11
6275.9027928325
 21
5259.6835228133
 31
0.0
  0
LINE
  5
2EA
330
1F
100
AcDbEntity
  8
0
  6
Continuous
 62
     7
370
    25
100
AcDbLine
 10
6277.1025874034
 20
5259.7839055054
 30
0.0
 11
6277.1027294717
 21
5259.683040308
 31
0.0
  0
LINE
  5
2EB
330
1F
100
AcDbEntity
  8
0
  6
Continuous
 62
     7
370
    25
100
AcDbLine
 10
6278.30252479
 20
5259.7828923917
 30
0.0
 11
6278.302666111
 21
5259.6825578027
 31
0.0
  0
LINE
  5
2EC
330
1F
100
AcDbEntity
  8
0
  6
Continuous
 62
     7
370
    25
100
AcDbLine
 10
6268.20017111
 20
5259.6996640325
 30
0.0
 11
6268.2002600888
 21
5259.6364911126
 31
0.0
  0
LINE
  5
2ED
330
1F
100
AcDbEntity
  8
0
  6
Continuous
 62
     7
370
    25
100
AcDbLine
 10
6269.399945919
 20
5259.8140771916
 30
0.0
 11
6269.4001967281
 21
5259.6360086072
 31
0.0
  0
LINE
  5
2EE
330
1F
100
AcDbEntity
  8
0
  6
Continuous
 62
     7
370
    25
100
AcDbLine
 10
6270.5998526313
 20
5259.8348421379
 30
0.0
 11
6270.6001333673
 21
5259.6355261019
 31
0.0
  0
LINE
  5
2EF
330
1F
100
AcDbEntity
  8
0
  6
Continuous
 62
     7
370
    25
100
AcDbLine
 10
6271.7997892706
 20
5259.8343596325
 30
0.0
 11
6271.8000700066
 21
5259.6350435966
 31
0.0
  0
LINE
  5
2F0
330
1F
100
AcDbEntity
  8
0
  6
Continuous
 62
     7
370
    25
100
AcDbLine
 10
6272.9997259099
 20
5259.8338771272
 30
0.0
 11
6273.0000066458
 21
5259.6345610912
 31
0.0
  0
LINE
  5
2F1
330
1F
100
AcDbEntity
  8
0
  6
Continuous
 62
     7
370
    25
100
AcDbLine
 10
6274.1996625491
 20
5259.8333946219
 30
0.0
 11
6274.1999432851
 21
5259.6340785859
 31
0.0
  0
LINE
  5
2F2
330
1F
100
AcDbEntity
  8
0
  6
Continuous
 62
     7
370
    25
100
AcDbLine
 10
6275.3995991884
 20
5259.8329121165
 30
0.0
 11
6275.3998799244
 21
5259.6335960806
 31
0.0
  0
LINE
  5
2F3
330
1F
100
AcDbEntity
  8
0
  6
Continuous
 62
     7
370
    25
100
AcDbLine
 10
6276.5995358276
 20
5259.8324296112
 30
0.0
 11
6276.5998165636
 21
5259.6331135752
 31
0.0
  0
LINE
  5
2F4
330
1F
100
AcDbEntity
  8
0
  6
Continuous
 62
     7
370
    25
100
AcDbLine
 10
6277.7994820501
 20
5259.8251432181
 30
0.0
 11
6277.7997532029
 21
5259.6326310699
 31
0.0
  0
LINE
  5
2F5
330
1F
100
AcDbEntity
  8
0
  6
Continuous
 62
     7
370
    25
100
AcDbLine
 10
6278.9995748125
 20
5259.7138169074
 30
0.0
 11
6278.9996898421
 21
5259.6321485645
 31
0.0
  0
LINE
  5
2F6
330
1F
100
AcDbEntity
  8
0
  6
Continuous
 62
     7
370
    25
100
AcDbLine
 10
6266.8926577291
 20
5259.5271279828
 30
0.0
 11
6266.8926865278
 21
5259.5066816073
 31
0.0
  0
LINE
  5
2F7
330
1F
100
AcDbEntity
  8
0
  6
Continuous
 62
     7
370
    25
100
AcDbLine
 10
6268.0924810987
 20
5259.6070642994
 30
0.0
 11
6268.092623167
 21
5259.506199102
 31
0.0
  0
LINE
  5
2F8
330
1F
100
AcDbEntity
  8
0
  6
Continuous
 62
     7
370
    25
100
AcDbLine
 10
6269.292417738
 20
5259.606581794
 30
0.0
 11
6269.2925598063
 21
5259.5057165967
 31
0.0
  0
LINE
  5
2F9
330
1F
100
AcDbEntity
  8
0
  6
Continuous
 62
     7
370
    25
100
AcDbLine
 10
6270.4923543772
 20
5259.6060992887
 30
0.0
 11
6270.4924964455
 21
5259.5052340913
 31
0.0
  0
LINE
  5
2FA
330
1F
100
AcDbEntity
  8
0
  6
Continuous
 62
     7
370
    25
100
AcDbLine
 10
6271.6922910165
 20
5259.6056167834
 30
0.0
 11
6271.6924330848
 21
5259.504751586
 31
0.0
  0
LINE
  5
2FB
330
1F
100
AcDbEntity
  8
0
  6
Continuous
 62
     7
370
    25
100
AcDbLine
 10
6272.8922276557
 20
5259.605134278
 30
0.0
 11
6272.8923697241
 21
5259.5042690807
 31
0.0
  0
LINE
  5
2FC
330
1F
100
AcDbEntity
  8
0
  6
Continuous
 62
     7
370
    25
100
AcDbLine
 10
6274.092164295
 20
5259.6046517727
 30
0.0
 11
6274.0923063633
 21
5259.5037865753
 31
0.0
  0
LINE
  5
2FD
330
1F
100
AcDbEntity
  8
0
  6
Continuous
 62
     7
370
    25
100
AcDbLine
 10
6275.2921009343
 20
5259.6041692673
 30
0.0
 11
6275.2922430026
 21
5259.50330407
 31
0.0
  0
LINE
  5
2FE
330
1F
100
AcDbEntity
  8
0
  6
Continuous
 62
     7
370
    25
100
AcDbLine
 10
6276.4920375735
 20
5259.603686762
 30
0.0
 11
6276.4921796418
 21
5259.5028215646
 31
0.0
  0
LINE
  5
2FF
330
1F
100
AcDbEntity
  8
0
  6
Continuous
 62
     7
370
    25
100
AcDbLine
 10
6277.6919742128
 20
5259.6032042567
 30
0.0
 11
6277.6921162811
 21
5259.5023390593
 31
0.0
  0
LINE
  5
300
330
1F
100
AcDbEntity
  8
0
  6
Continuous
 62
     7
370
    25
100
AcDbLine
 10
6278.891910852
 20
5259.6027217513
 30
0.0
 11
6278.8920529203
 21
5259.501856554
 31
0.0
  0
LINE
  5
301
330
1F
100
AcDbEntity
  8
0
  6
Continuous
 62
     7
370
    25
100
AcDbLine
 10
6280.0918836009
 20
5259.5766022409
 30
0.0
 11
6280.0919895596
 21
5259.5013740486
 31
0.0
  0
LINE
  5
302
330
1F
100
AcDbEntity
  8
0
  6
Continuous
 62
     7
370
    25
100
AcDbLine
 10
6267.5894708879
 20
5259.6262202037
 30
0.0
 11
6267.5897102589
 21
5259.4562723692
 31
0.0
  0
LINE
  5
303
330
1F
100
AcDbEntity
  8
0
  6
Continuous
 62
     7
370
    25
100
AcDbLine
 10
6268.7893661622
 20
5259.6551058999
 30
0.0
 11
6268.7896468982
 21
5259.4557898639
 31
0.0
  0
LINE
  5
304
330
1F
100
AcDbEntity
  8
0
  6
Continuous
 62
     7
370
    25
100
AcDbLine
 10
6269.9893028014
 20
5259.6546233945
 30
0.0
 11
6269.9895835374
 21
5259.4553073585
 31
0.0
  0
LINE
  5
305
330
1F
100
AcDbEntity
  8
0
  6
Continuous
 62
     7
370
    25
100
AcDbLine
 10
6271.1892394407
 20
5259.6541408892
 30
0.0
 11
6271.1895201767
 21
5259.4548248532
 31
0.0
  0
LINE
  5
306
330
1F
100
AcDbEntity
  8
0
  6
Continuous
 62
     7
370
    25
100
AcDbLine
 10
6272.38917608
 20
5259.6536583838
 30
0.0
 11
6272.389456816
 21
5259.4543423479
 31
0.0
  0
LINE
  5
307
330
1F
100
AcDbEntity
  8
0
  6
Continuous
 62
     7
370
    25
100
AcDbLine
 10
6273.5891127192
 20
5259.6531758785
 30
0.0
 11
6273.5893934552
 21
5259.4538598425
 31
0.0
  0
LINE
  5
308
330
1F
100
AcDbEntity
  8
0
  6
Continuous
 62
     7
370
    25
100
AcDbLine
 10
6274.7890493585
 20
5259.6526933732
 30
0.0
 11
6274.7893300945
 21
5259.4533773372
 31
0.0
  0
LINE
  5
309
330
1F
100
AcDbEntity
  8
0
  6
Continuous
 62
     7
370
    25
100
AcDbLine
 10
6275.9889859977
 20
5259.6522108678
 30
0.0
 11
6275.9892667337
 21
5259.4528948319
 31
0.0
  0
LINE
  5
30A
330
1F
100
AcDbEntity
  8
0
  6
Continuous
 62
     7
370
    25
100
AcDbLine
 10
6277.188922637
 20
5259.6517283625
 30
0.0
 11
6277.189203373
 21
5259.4524123265
 31
0.0
  0
LINE
  5
30B
330
1F
100
AcDbEntity
  8
0
  6
Continuous
 62
     7
370
    25
100
AcDbLine
 10
6278.3888592762
 20
5259.6512458572
 30
0.0
 11
6278.3891400122
 21
5259.4519298212
 31
0.0
  0
LINE
  5
30C
330
1F
100
AcDbEntity
  8
0
  6
Continuous
 62
     7
370
    25
100
AcDbLine
 10
6279.588804505
 20
5259.6446649887
 30
0.0
 11
6279.5890766515
 21
5259.4514473158
 31
0.0
  0
LINE
  5
30D
330
1F
100
AcDbEntity
  8
0
  6
Continuous
 62
     7
370
    25
100
AcDbLine
 10
6280.7889923801
 20
5259.4658108761
 30
0.0
 11
6280.7890132908
 21
5259.4509648105
 31
0.0
  0
LINE
  5
30E
330
1F
100
AcDbEntity
  8
0
  6
Continuous
 62
     7
370
    25
100
AcDbLine
 10
6267.4819312688
 20
5259.426845556
 30
0.0
 11
6267.4820733371
 21
5259.3259803586
 31
0.0
  0
LINE
  5
30F
330
1F
100
AcDbEntity
  8
0
  6
Continuous
 62
     7
370
    25
100
AcDbLine
 10
6268.6818679081
 20
5259.4263630507
 30
0.0
 11
6268.6820099764
 21
5259.3254978533
 31
0.0
  0
LINE
  5
310
330
1F
100
AcDbEntity
  8
0
  6
Continuous
 62
     7
370
    25
100
AcDbLine
 10
6269.8818045473
 20
5259.4258805453
 30
0.0
 11
6269.8819466156
 21
5259.325015348
 31
0.0
  0
LINE
  5
311
330
1F
100
AcDbEntity
  8
0
  6
Continuous
 62
     7
370
    25
100
AcDbLine
 10
6271.0817411866
 20
5259.42539804
 30
0.0
 11
6271.0818832549
 21
5259.3245328426
 31
0.0
  0
LINE
  5
312
330
1F
100
AcDbEntity
  8
0
  6
Continuous
 62
     7
370
    25
100
AcDbLine
 10
6272.2816778259
 20
5259.4249155347
 30
0.0
 11
6272.2818198942
 21
5259.3240503373
 31
0.0
  0
LINE
  5
313
330
1F
100
AcDbEntity
  8
0
  6
Continuous
 62
     7
370
    25
100
AcDbLine
 10
6273.4816144651
 20
5259.4244330293
 30
0.0
 11
6273.4817565334
 21
5259.323567832
 31
0.0
  0
LINE
  5
314
330
1F
100
AcDbEntity
  8
0
  6
Continuous
 62
     7
370
    25
100
AcDbLine
 10
6274.6815511044
 20
5259.423950524
 30
0.0
 11
6274.6816931727
 21
5259.3230853266
 31
0.0
  0
LINE
  5
315
330
1F
100
AcDbEntity
  8
0
  6
Continuous
 62
     7
370
    25
100
AcDbLine
 10
6275.8814877436
 20
5259.4234680186
 30
0.0
 11
6275.8816298119
 21
5259.3226028213
 31
0.0
  0
LINE
  5
316
330
1F
100
AcDbEntity
  8
0
  6
Continuous
 62
     7
370
    25
100
AcDbLine
 10
6277.0814243829
 20
5259.4229855133
 30
0.0
 11
6277.0815664512
 21
5259.3221203159
 31
0.0
  0
LINE
  5
317
330
1F
100
AcDbEntity
  8
0
  6
Continuous
 62
     7
370
    25
100
AcDbLine
 10
6278.2813610221
 20
5259.422503008
 30
0.0
 11
6278.2815030904
 21
5259.3216378106
 31
0.0
  0
LINE
  5
318
330
1F
100
AcDbEntity
  8
0
  6
Continuous
 62
     7
370
    25
100
AcDbLine
 10
6279.4812976614
 20
5259.4220205026
 30
0.0
 11
6279.4814397297
 21
5259.3211553053
 31
0.0
  0
LINE
  5
319
330
1F
100
AcDbEntity
  8
0
  6
Continuous
 62
     7
370
    25
100
AcDbLine
 10
6280.6812343007
 20
5259.4215379973
 30
0.0
 11
6280.681376369
 21
5259.3206727999
 31
0.0
  0
LINE
  5
31A
330
1F
100
AcDbEntity
  8
0
  6
Continuous
 62
     7
370
    25
100
AcDbLine
 10
6266.978879693
 20
5259.4753696618
 30
0.0
 11
6266.979160429
 21
5259.2760536259
 31
0.0
  0
LINE
  5
31B
330
1F
100
AcDbEntity
  8
0
  6
Continuous
 62
     7
370
    25
100
AcDbLine
 10
6268.1788163323
 20
5259.4748871565
 30
0.0
 11
6268.1790970683
 21
5259.2755711205
 31
0.0
  0
LINE
  5
31C
330
1F
100
AcDbEntity
  8
0
  6
Continuous
 62
     7
370
    25
100
AcDbLine
 10
6269.3787529716
 20
5259.4744046512
 30
0.0
 11
6269.3790337075
 21
5259.2750886152
 31
0.0
  0
LINE
  5
31D
330
1F
100
AcDbEntity
  8
0
  6
Continuous
 62
     7
370
    25
100
AcDbLine
 10
6270.5786896108
 20
5259.4739221458
 30
0.0
 11
6270.5789703468
 21
5259.2746061098
 31
0.0
  0
LINE
  5
31E
330
1F
100
AcDbEntity
  8
0
  6
Continuous
 62
     7
370
    25
100
AcDbLine
 10
6271.7786262501
 20
5259.4734396405
 30
0.0
 11
6271.7789069861
 21
5259.2741236045
 31
0.0
  0
LINE
  5
31F
330
1F
100
AcDbEntity
  8
0
  6
Continuous
 62
     7
370
    25
100
AcDbLine
 10
6272.9785628893
 20
5259.4729571351
 30
0.0
 11
6272.9788436253
 21
5259.2736410992
 31
0.0
  0
LINE
  5
320
330
1F
100
AcDbEntity
  8
0
  6
Continuous
 62
     7
370
    25
100
AcDbLine
 10
6274.1784995286
 20
5259.4724746298
 30
0.0
 11
6274.1787802646
 21
5259.2731585938
 31
0.0
  0
LINE
  5
321
330
1F
100
AcDbEntity
  8
0
  6
Continuous
 62
     7
370
    25
100
AcDbLine
 10
6275.3784361678
 20
5259.4719921245
 30
0.0
 11
6275.3787169038
 21
5259.2726760885
 31
0.0
  0
LINE
  5
322
330
1F
100
AcDbEntity
  8
0
  6
Continuous
 62
     7
370
    25
100
AcDbLine
 10
6276.5783728071
 20
5259.4715096191
 30
0.0
 11
6276.5786535431
 21
5259.2721935832
 31
0.0
  0
LINE
  5
323
330
1F
100
AcDbEntity
  8
0
  6
Continuous
 62
     7
370
    25
100
AcDbLine
 10
6277.7783094464
 20
5259.4710271138
 30
0.0
 11
6277.7785901823
 21
5259.2717110778
 31
0.0
  0
LINE
  5
324
330
1F
100
AcDbEntity
  8
0
  6
Continuous
 62
     7
370
    25
100
AcDbLine
 10
6278.9782460856
 20
5259.4705446085
 30
0.0
 11
6278.9785268216
 21
5259.2712285725
 31
0.0
  0
LINE
  5
325
330
1F
100
AcDbEntity
  8
0
  6
Continuous
 62
     7
370
    25
100
AcDbLine
 10
6280.1781827249
 20
5259.4700621031
 30
0.0
 11
6280.1784634609
 21
5259.2707460671
 31
0.0
  0
LINE
  5
326
330
1F
100
AcDbEntity
  8
0
  6
Continuous
 62
     7
370
    25
100
AcDbLine
 10
6268.0713180782
 20
5259.2461443073
 30
0.0
 11
6268.0714601465
 21
5259.1452791099
 31
0.0
  0
LINE
  5
327
330
1F
100
AcDbEntity
  8
0
  6
Continuous
 62
     7
370
    25
100
AcDbLine
 10
6269.2712547174
 20
5259.245661802
 30
0.0
 11
6269.2713967857
 21
5259.1447966046
 31
0.0
  0
LINE
  5
328
330
1F
100
AcDbEntity
  8
0
  6
Continuous
 62
     7
370
    25
100
AcDbLine
 10
6270.4711913567
 20
5259.2451792966
 30
0.0
 11
6270.471333425
 21
5259.1443140993
 31
0.0
  0
LINE
  5
329
330
1F
100
AcDbEntity
  8
0
  6
Continuous
 62
     7
370
    25
100
AcDbLine
 10
6271.671127996
 20
5259.2446967913
 30
0.0
 11
6271.6712700643
 21
5259.1438315939
 31
0.0
  0
LINE
  5
32A
330
1F
100
AcDbEntity
  8
0
  6
Continuous
 62
     7
370
    25
100
AcDbLine
 10
6272.8710646352
 20
5259.244214286
 30
0.0
 11
6272.8712067035
 21
5259.1433490886
 31
0.0
  0
LINE
  5
32B
330
1F
100
AcDbEntity
  8
0
  6
Continuous
 62
     7
370
    25
100
AcDbLine
 10
6274.0710012745
 20
5259.2437317806
 30
0.0
 11
6274.0711433428
 21
5259.1428665833
 31
0.0
  0
LINE
  5
32C
330
1F
100
AcDbEntity
  8
0
  6
Continuous
 62
     7
370
    25
100
AcDbLine
 10
6275.2709379137
 20
5259.2432492753
 30
0.0
 11
6275.271079982
 21
5259.1423840779
 31
0.0
  0
LINE
  5
32D
330
1F
100
AcDbEntity
  8
0
  6
Continuous
 62
     7
370
    25
100
AcDbLine
 10
6276.470874553
 20
5259.2427667699
 30
0.0
 11
6276.4710166213
 21
5259.1419015726
 31
0.0
  0
LINE
  5
32E
330
1F
100
AcDbEntity
  8
0
  6
Continuous
 62
     7
370
    25
100
AcDbLine
 10
6277.6708111922
 20
5259.2422842646
 30
0.0
 11
6277.6709532606
 21
5259.1414190672
 31
0.0
  0
LINE
  5
32F
330
1F
100
AcDbEntity
  8
0
  6
Continuous
 62
     7
370
    25
100
AcDbLine
 10
6278.8707478315
 20
5259.2418017593
 30
0.0
 11
6278.8708898998
 21
5259.1409365619
 31
0.0
  0
LINE
  5
330
330
1F
100
AcDbEntity
  8
0
  6
Continuous
 62
     7
370
    25
100
AcDbLine
 10
6280.0706844708
 20
5259.2413192539
 30
0.0
 11
6280.0708265391
 21
5259.1404540566
 31
0.0
  0
LINE
  5
331
330
1F
100
AcDbEntity
  8
0
  6
Continuous
 62
     7
370
    25
100
AcDbLine
 10
6267.5682665024
 20
5259.2946684131
 30
0.0
 11
6267.5685472384
 21
5259.0953523772
 31
0.0
  0
LINE
  5
332
330
1F
100
AcDbEntity
  8
0
  6
Continuous
 62
     7
370
    25
100
AcDbLine
 10
6268.7682031417
 20
5259.2941859078
 30
0.0
 11
6268.7684838777
 21
5259.0948698718
 31
0.0
  0
LINE
  5
333
330
1F
100
AcDbEntity
  8
0
  6
Continuous
 62
     7
370
    25
100
AcDbLine
 10
6269.9681397809
 20
5259.2937034025
 30
0.0
 11
6269.9684205169
 21
5259.0943873665
 31
0.0
  0
LINE
  5
334
330
1F
100
AcDbEntity
  8
0
  6
Continuous
 62
     7
370
    25
100
AcDbLine
 10
6271.1680764202
 20
5259.2932208971
 30
0.0
 11
6271.1683571562
 21
5259.0939048611
 31
0.0
  0
LINE
  5
335
330
1F
100
AcDbEntity
  8
0
  6
Continuous
 62
     7
370
    25
100
AcDbLine
 10
6272.3680130594
 20
5259.2927383918
 30
0.0
 11
6272.3682937954
 21
5259.0934223558
 31
0.0
  0
LINE
  5
336
330
1F
100
AcDbEntity
  8
0
  6
Continuous
 62
     7
370
    25
100
AcDbLine
 10
6273.5679496987
 20
5259.2922558865
 30
0.0
 11
6273.5682304347
 21
5259.0929398505
 31
0.0
  0
LINE
  5
337
330
1F
100
AcDbEntity
  8
0
  6
Continuous
 62
     7
370
    25
100
AcDbLine
 10
6274.7678863379
 20
5259.2917733811
 30
0.0
 11
6274.7681670739
 21
5259.0924573451
 31
0.0
  0
LINE
  5
338
330
1F
100
AcDbEntity
  8
0
  6
Continuous
 62
     7
370
    25
100
AcDbLine
 10
6275.9678229772
 20
5259.2912908758
 30
0.0
 11
6275.9681037132
 21
5259.0919748398
 31
0.0
  0
LINE
  5
339
330
1F
100
AcDbEntity
  8
0
  6
Continuous
 62
     7
370
    25
100
AcDbLine
 10
6277.1677596165
 20
5259.2908083704
 30
0.0
 11
6277.1680403525
 21
5259.0914923345
 31
0.0
  0
LINE
  5
33A
330
1F
100
AcDbEntity
  8
0
  6
Continuous
 62
     7
370
    25
100
AcDbLine
 10
6278.3676962557
 20
5259.2903258651
 30
0.0
 11
6278.3679769917
 21
5259.0910098291
 31
0.0
  0
LINE
  5
33B
330
1F
100
AcDbEntity
  8
0
  6
Continuous
 62
     7
370
    25
100
AcDbLine
 10
6279.567632895
 20
5259.2898433598
 30
0.0
 11
6279.567913631
 21
5259.0905273238
 31
0.0
  0
LINE
  5
33C
330
1F
100
AcDbEntity
  8
0
  6
Continuous
 62
     7
370
    25
100
AcDbLine
 10
6267.4607682483
 20
5259.0659255639
 30
0.0
 11
6267.4609103166
 21
5258.9650603666
 31
0.0
  0
LINE
  5
33D
330
1F
100
AcDbEntity
  8
0
  6
Continuous
 62
     7
370
    25
100
AcDbLine
 10
6268.6607048876
 20
5259.0654430586
 30
0.0
 11
6268.6608469559
 21
5258.9645778612
 31
0.0
  0
LINE
  5
33E
330
1F
100
AcDbEntity
  8
0
  6
Continuous
 62
     7
370
    25
100
AcDbLine
 10
6269.8606415268
 20
5259.0649605533
 30
0.0
 11
6269.8607835951
 21
5258.9640953559
 31
0.0
  0
LINE
  5
33F
330
1F
100
AcDbEntity
  8
0
  6
Continuous
 62
     7
370
    25
100
AcDbLine
 10
6271.0605781661
 20
5259.0644780479
 30
0.0
 11
6271.0607202344
 21
5258.9636128506
 31
0.0
  0
LINE
  5
340
330
1F
100
AcDbEntity
  8
0
  6
Continuous
 62
     7
370
    25
100
AcDbLine
 10
6272.2605148053
 20
5259.0639955426
 30
0.0
 11
6272.2606568736
 21
5258.9631303452
 31
0.0
  0
LINE
  5
341
330
1F
100
AcDbEntity
  8
0
  6
Continuous
 62
     7
370
    25
100
AcDbLine
 10
6273.4604514446
 20
5259.0635130373
 30
0.0
 11
6273.4605935129
 21
5258.9626478399
 31
0.0
  0
LINE
  5
342
330
1F
100
AcDbEntity
  8
0
  6
Continuous
 62
     7
370
    25
100
AcDbLine
 10
6274.6603880838
 20
5259.0630305319
 30
0.0
 11
6274.6605301521
 21
5258.9621653346
 31
0.0
  0
LINE
  5
343
330
1F
100
AcDbEntity
  8
0
  6
Continuous
 62
     7
370
    25
100
AcDbLine
 10
6275.8603247231
 20
5259.0625480266
 30
0.0
 11
6275.8604667914
 21
5258.9616828292
 31
0.0
  0
LINE
  5
344
330
1F
100
AcDbEntity
  8
0
  6
Continuous
 62
     7
370
    25
100
AcDbLine
 10
6277.0602613624
 20
5259.0620655213
 30
0.0
 11
6277.0604034307
 21
5258.9612003239
 31
0.0
  0
LINE
  5
345
330
1F
100
AcDbEntity
  8
0
  6
Continuous
 62
     7
370
    25
100
AcDbLine
 10
6278.2601980016
 20
5259.0615830159
 30
0.0
 11
6278.2603400699
 21
5258.9607178185
 31
0.0
  0
LINE
  5
346
330
1F
100
AcDbEntity
  8
0
  6
Continuous
 62
     7
370
    25
100
AcDbLine
 10
6279.4601346409
 20
5259.0611005106
 30
0.0
 11
6279.4602767092
 21
5258.9602353132
 31
0.0
  0
LINE
  5
347
330
1F
100
AcDbEntity
  8
0
  6
Continuous
 62
     7
370
    25
100
AcDbLine
 10
6280.6600712801
 20
5259.0606180052
 30
0.0
 11
6280.6602133484
 21
5258.9597528079
 31
0.0
  0
LINE
  5
348
330
1F
100
AcDbEntity
  8
0
  6
Continuous
 62
     7
370
    25
100
AcDbLine
 10
6266.9577166725
 20
5259.1144496698
 30
0.0
 11
6266.9579974085
 21
5258.9151336338
 31
0.0
  0
LINE
  5
349
330
1F
100
AcDbEntity
  8
0
  6
Continuous
 62
     7
370
    25
100
AcDbLine
 10
6268.1576533118
 20
5259.1139671644
 30
0.0
 11
6268.1579340478
 21
5258.9146511285
 31
0.0
  0
LINE
  5
34A
330
1F
100
AcDbEntity
  8
0
  6
Continuous
 62
     7
370
    25
100
AcDbLine
 10
6269.357589951
 20
5259.1134846591
 30
0.0
 11
6269.357870687
 21
5258.9141686231
 31
0.0
  0
LINE
  5
34B
330
1F
100
AcDbEntity
  8
0
  6
Continuous
 62
     7
370
    25
100
AcDbLine
 10
6270.5575265903
 20
5259.1130021538
 30
0.0
 11
6270.5578073263
 21
5258.9136861178
 31
0.0
  0
LINE
  5
34C
330
1F
100
AcDbEntity
  8
0
  6
Continuous
 62
     7
370
    25
100
AcDbLine
 10
6271.7574632295
 20
5259.1125196484
 30
0.0
 11
6271.7577439655
 21
5258.9132036124
 31
0.0
  0
LINE
  5
34D
330
1F
100
AcDbEntity
  8
0
  6
Continuous
 62
     7
370
    25
100
AcDbLine
 10
6272.9573998688
 20
5259.1120371431
 30
0.0
 11
6272.9576806048
 21
5258.9127211071
 31
0.0
  0
LINE
  5
34E
330
1F
100
AcDbEntity
  8
0
  6
Continuous
 62
     7
370
    25
100
AcDbLine
 10
6274.1573365081
 20
5259.1115546378
 30
0.0
 11
6274.157617244
 21
5258.9122386018
 31
0.0
  0
LINE
  5
34F
330
1F
100
AcDbEntity
  8
0
  6
Continuous
 62
     7
370
    25
100
AcDbLine
 10
6275.3572731473
 20
5259.1110721324
 30
0.0
 11
6275.3575538833
 21
5258.9117560964
 31
0.0
  0
LINE
  5
350
330
1F
100
AcDbEntity
  8
0
  6
Continuous
 62
     7
370
    25
100
AcDbLine
 10
6276.5572097866
 20
5259.1105896271
 30
0.0
 11
6276.5574905226
 21
5258.9112735911
 31
0.0
  0
LINE
  5
351
330
1F
100
AcDbEntity
  8
0
  6
Continuous
 62
     7
370
    25
100
AcDbLine
 10
6277.7571464258
 20
5259.1101071217
 30
0.0
 11
6277.7574271618
 21
5258.9107910858
 31
0.0
  0
LINE
  5
352
330
1F
100
AcDbEntity
  8
0
  6
Continuous
 62
     7
370
    25
100
AcDbLine
 10
6278.9570830651
 20
5259.1096246164
 30
0.0
 11
6278.9573638011
 21
5258.9103085804
 31
0.0
  0
LINE
  5
353
330
1F
100
AcDbEntity
  8
0
  6
Continuous
 62
     7
370
    25
100
AcDbLine
 10
6280.1570197043
 20
5259.1091421111
 30
0.0
 11
6280.1573004403
 21
5258.9098260751
 31
0.0
  0
LINE
  5
354
330
1F
100
AcDbEntity
  8
0
  6
Continuous
 62
     7
370
    25
100
AcDbLine
 10
6268.0501550577
 20
5258.8852243152
 30
0.0
 11
6268.050297126
 21
5258.7843591179
 31
0.0
  0
LINE
  5
355
330
1F
100
AcDbEntity
  8
0
  6
Continuous
 62
     7
370
    25
100
AcDbLine
 10
6269.2500916969
 20
5258.8847418099
 30
0.0
 11
6269.2502337652
 21
5258.7838766125
 31
0.0
  0
LINE
  5
356
330
1F
100
AcDbEntity
  8
0
  6
Continuous
 62
     7
370
    25
100
AcDbLine
 10
6270.4500283362
 20
5258.8842593046
 30
0.0
 11
6270.4501704045
 21
5258.7833941072
 31
0.0
  0
LINE
  5
357
330
1F
100
AcDbEntity
  8
0
  6
Continuous
 62
     7
370
    25
100
AcDbLine
 10
6271.6499649754
 20
5258.8837767992
 30
0.0
 11
6271.6501070437
 21
5258.7829116019
 31
0.0
  0
LINE
  5
358
330
1F
100
AcDbEntity
  8
0
  6
Continuous
 62
     7
370
    25
100
AcDbLine
 10
6272.8499016147
 20
5258.8832942939
 30
0.0
 11
6272.850043683
 21
5258.7824290965
 31
0.0
  0
LINE
  5
359
330
1F
100
AcDbEntity
  8
0
  6
Continuous
 62
     7
370
    25
100
AcDbLine
 10
6274.0498382539
 20
5258.8828117886
 30
0.0
 11
6274.0499803223
 21
5258.7819465912
 31
0.0
  0
LINE
  5
35A
330
1F
100
AcDbEntity
  8
0
  6
Continuous
 62
     7
370
    25
100
AcDbLine
 10
6275.2497748932
 20
5258.8823292832
 30
0.0
 11
6275.2499169615
 21
5258.7814640859
 31
0.0
  0
LINE
  5
35B
330
1F
100
AcDbEntity
  8
0
  6
Continuous
 62
     7
370
    25
100
AcDbLine
 10
6276.4497115325
 20
5258.8818467779
 30
0.0
 11
6276.4498536008
 21
5258.7809815805
 31
0.0
  0
LINE
  5
35C
330
1F
100
AcDbEntity
  8
0
  6
Continuous
 62
     7
370
    25
100
AcDbLine
 10
6277.6496481717
 20
5258.8813642726
 30
0.0
 11
6277.64979024
 21
5258.7804990752
 31
0.0
  0
LINE
  5
35D
330
1F
100
AcDbEntity
  8
0
  6
Continuous
 62
     7
370
    25
100
AcDbLine
 10
6278.849584811
 20
5258.8808817672
 30
0.0
 11
6278.8497268793
 21
5258.7800165699
 31
0.0
  0
LINE
  5
35E
330
1F
100
AcDbEntity
  8
0
  6
Continuous
 62
     7
370
    25
100
AcDbLine
 10
6280.0495214502
 20
5258.8803992619
 30
0.0
 11
6280.0496635185
 21
5258.7795340645
 31
0.0
  0
LINE
  5
35F
330
1F
100
AcDbEntity
  8
0
  6
Continuous
 62
     7
370
    25
100
AcDbLine
 10
6267.5471034819
 20
5258.9337484211
 30
0.0
 11
6267.5473842179
 21
5258.7344323851
 31
0.0
  0
LINE
  5
360
330
1F
100
AcDbEntity
  8
0
  6
Continuous
 62
     7
370
    25
100
AcDbLine
 10
6268.7470401211
 20
5258.9332659157
 30
0.0
 11
6268.7473208571
 21
5258.7339498798
 31
0.0
  0
LINE
  5
361
330
1F
100
AcDbEntity
  8
0
  6
Continuous
 62
     7
370
    25
100
AcDbLine
 10
6269.9469767604
 20
5258.9327834104
 30
0.0
 11
6269.9472574964
 21
5258.7334673744
 31
0.0
  0
LINE
  5
362
330
1F
100
AcDbEntity
  8
0
  6
Continuous
 62
     7
370
    25
100
AcDbLine
 10
6271.1469133996
 20
5258.9323009051
 30
0.0
 11
6271.1471941356
 21
5258.7329848691
 31
0.0
  0
LINE
  5
363
330
1F
100
AcDbEntity
  8
0
  6
Continuous
 62
     7
370
    25
100
AcDbLine
 10
6272.3468500389
 20
5258.9318183997
 30
0.0
 11
6272.3471307749
 21
5258.7325023637
 31
0.0
  0
LINE
  5
364
330
1F
100
AcDbEntity
  8
0
  6
Continuous
 62
     7
370
    25
100
AcDbLine
 10
6273.5467866782
 20
5258.9313358944
 30
0.0
 11
6273.5470674142
 21
5258.7320198584
 31
0.0
  0
LINE
  5
365
330
1F
100
AcDbEntity
  8
0
  6
Continuous
 62
     7
370
    25
100
AcDbLine
 10
6274.7467233174
 20
5258.9308533891
 30
0.0
 11
6274.7470040534
 21
5258.7315373531
 31
0.0
  0
LINE
  5
366
330
1F
100
AcDbEntity
  8
0
  6
Continuous
 62
     7
370
    25
100
AcDbLine
 10
6275.9466599567
 20
5258.9303708837
 30
0.0
 11
6275.9469406927
 21
5258.7310548477
 31
0.0
  0
LINE
  5
367
330
1F
100
AcDbEntity
  8
0
  6
Continuous
 62
     7
370
    25
100
AcDbLine
 10
6277.1465965959
 20
5258.9298883784
 30
0.0
 11
6277.1468773319
 21
5258.7305723424
 31
0.0
  0
LINE
  5
368
330
1F
100
AcDbEntity
  8
0
  6
Continuous
 62
     7
370
    25
100
AcDbLine
 10
6278.3465332352
 20
5258.929405873
 30
0.0
 11
6278.3468139712
 21
5258.7300898371
 31
0.0
  0
LINE
  5
369
330
1F
100
AcDbEntity
  8
0
  6
Continuous
 62
     7
370
    25
100
AcDbLine
 10
6279.5464698745
 20
5258.9289233677
 30
0.0
 11
6279.5467506104
 21
5258.7296073317
 31
0.0
  0
LINE
  5
36A
330
1F
100
AcDbEntity
  8
0
  6
Continuous
 62
     7
370
    25
100
AcDbLine
 10
6269.8394785063
 20
5258.7040405612
 30
0.0
 11
6269.8396205746
 21
5258.6031753638
 31
0.0
  0
LINE
  5
36B
330
1F
100
AcDbEntity
  8
0
  6
Continuous
 62
     7
370
    25
100
AcDbLine
 10
6271.0394151455
 20
5258.7035580559
 30
0.0
 11
6271.0395572138
 21
5258.6026928585
 31
0.0
  0
LINE
  5
36C
330
1F
100
AcDbEntity
  8
0
  6
Continuous
 62
     7
370
    25
100
AcDbLine
 10
6272.2393517848
 20
5258.7030755505
 30
0.0
 11
6272.2394938531
 21
5258.6022103532
 31
0.0
  0
LINE
  5
36D
330
1F
100
AcDbEntity
  8
0
  6
Continuous
 62
     7
370
    25
100
AcDbLine
 10
6273.4392884241
 20
5258.7025930452
 30
0.0
 11
6273.4394304924
 21
5258.6017278478
 31
0.0
  0
LINE
  5
36E
330
1F
100
AcDbEntity
  8
0
  6
Continuous
 62
     7
370
    25
100
AcDbLine
 10
6274.6392250633
 20
5258.7021105399
 30
0.0
 11
6274.6393671316
 21
5258.6012453425
 31
0.0
  0
LINE
  5
36F
330
1F
100
AcDbEntity
  8
0
  6
Continuous
 62
     7
370
    25
100
AcDbLine
 10
6275.8391617026
 20
5258.7016280345
 30
0.0
 11
6275.8393037709
 21
5258.6007628372
 31
0.0
  0
LINE
  5
370
330
1F
100
AcDbEntity
  8
0
  6
Continuous
 62
     7
370
    25
100
AcDbLine
 10
6277.0390983418
 20
5258.7011455292
 30
0.0
 11
6277.0392404101
 21
5258.6002803318
 31
0.0
  0
LINE
  5
371
330
1F
100
AcDbEntity
  8
0
  6
Continuous
 62
     7
370
    25
100
AcDbLine
 10
6278.2390349811
 20
5258.7006630239
 30
0.0
 11
6278.2391770494
 21
5258.5997978265
 31
0.0
  0
LINE
  5
372
330
1F
100
AcDbEntity
  8
0
  6
Continuous
 62
     7
370
    25
100
AcDbLine
 10
6269.3364269305
 20
5258.752564667
 30
0.0
 11
6269.3367076665
 21
5258.5532486311
 31
0.0
  0
LINE
  5
373
330
1F
100
AcDbEntity
  8
0
  6
Continuous
 62
     7
370
    25
100
AcDbLine
 10
6270.5363635698
 20
5258.7520821617
 30
0.0
 11
6270.5366443057
 21
5258.5527661257
 31
0.0
  0
LINE
  5
374
330
1F
100
AcDbEntity
  8
0
  6
Continuous
 62
     7
370
    25
100
AcDbLine
 10
6271.736300209
 20
5258.7515996564
 30
0.0
 11
6271.736580945
 21
5258.5522836204
 31
0.0
  0
LINE
  5
375
330
1F
100
AcDbEntity
  8
0
  6
Continuous
 62
     7
370
    25
100
AcDbLine
 10
6272.9362368483
 20
5258.751117151
 30
0.0
 11
6272.9365175843
 21
5258.5518011151
 31
0.0
  0
LINE
  5
376
330
1F
100
AcDbEntity
  8
0
  6
Continuous
 62
     7
370
    25
100
AcDbLine
 10
6274.1361734875
 20
5258.7506346457
 30
0.0
 11
6274.1364542235
 21
5258.5513186097
 31
0.0
  0
LINE
  5
377
330
1F
100
AcDbEntity
  8
0
  6
Continuous
 62
     7
370
    25
100
AcDbLine
 10
6275.3361101268
 20
5258.7501521404
 30
0.0
 11
6275.3363908628
 21
5258.5508361044
 31
0.0
  0
LINE
  5
378
330
1F
100
AcDbEntity
  8
0
  6
Continuous
 62
     7
370
    25
100
AcDbLine
 10
6276.536046766
 20
5258.749669635
 30
0.0
 11
6276.536327502
 21
5258.550353599
 31
0.0
  0
LINE
  5
379
330
1F
100
AcDbEntity
  8
0
  6
Continuous
 62
     7
370
    25
100
AcDbLine
 10
6277.7359834053
 20
5258.7491871297
 30
0.0
 11
6277.7362641413
 21
5258.5498710937
 31
0.0
  0
LINE
  5
37A
330
1F
100
AcDbEntity
  8
0
  6
Continuous
 62
     7
370
    25
100
AcDbLine
 10
6270.4288653156
 20
5258.5233393125
 30
0.0
 11
6270.429007384
 21
5258.4224741151
 31
0.0
  0
LINE
  5
37B
330
1F
100
AcDbEntity
  8
0
  6
Continuous
 62
     7
370
    25
100
AcDbLine
 10
6271.6288019549
 20
5258.5228568072
 30
0.0
 11
6271.6289440232
 21
5258.4219916098
 31
0.0
  0
LINE
  5
37C
330
1F
100
AcDbEntity
  8
0
  6
Continuous
 62
     7
370
    25
100
AcDbLine
 10
6272.8287385942
 20
5258.5223743018
 30
0.0
 11
6272.8288806625
 21
5258.4215091045
 31
0.0
  0
LINE
  5
37D
330
1F
100
AcDbEntity
  8
0
  6
Continuous
 62
     7
370
    25
100
AcDbLine
 10
6274.0286752334
 20
5258.5218917965
 30
0.0
 11
6274.0288173017
 21
5258.4210265991
 31
0.0
  0
LINE
  5
37E
330
1F
100
AcDbEntity
  8
0
  6
Continuous
 62
     7
370
    25
100
AcDbLine
 10
6275.2286118727
 20
5258.5214092912
 30
0.0
 11
6275.228753941
 21
5258.4205440938
 31
0.0
  0
LINE
  5
37F
330
1F
100
AcDbEntity
  8
0
  6
Continuous
 62
     7
370
    25
100
AcDbLine
 10
6276.4285485119
 20
5258.5209267858
 30
0.0
 11
6276.4286905802
 21
5258.4200615885
 31
0.0
  0
LINE
  5
380
330
1F
100
AcDbEntity
  8
0
  6
Continuous
 62
     7
370
    25
100
AcDbLine
 10
6277.6284851512
 20
5258.5204442805
 30
0.0
 11
6277.6286272195
 21
5258.4195790831
 31
0.0
  0
LINE
  5
381
330
1F
100
AcDbEntity
  8
0
  6
Continuous
 62
     7
370
    25
100
AcDbLine
 10
6269.9258137399
 20
5258.5718634183
 30
0.0
 11
6269.9260944759
 21
5258.3725473824
 31
0.0
  0
LINE
  5
382
330
1F
100
AcDbEntity
  8
0
  6
Continuous
 62
     7
370
    25
100
AcDbLine
 10
6271.1257503791
 20
5258.571380913
 30
0.0
 11
6271.1260311151
 21
5258.372064877
 31
0.0
  0
LINE
  5
383
330
1F
100
AcDbEntity
  8
0
  6
Continuous
 62
     7
370
    25
100
AcDbLine
 10
6272.3256870184
 20
5258.5708984077
 30
0.0
 11
6272.3259677544
 21
5258.3715823717
 31
0.0
  0
LINE
  5
384
330
1F
100
AcDbEntity
  8
0
  6
Continuous
 62
     7
370
    25
100
AcDbLine
 10
6273.5256236576
 20
5258.5704159023
 30
0.0
 11
6273.5259043936
 21
5258.3710998664
 31
0.0
  0
LINE
  5
385
330
1F
100
AcDbEntity
  8
0
  6
Continuous
 62
     7
370
    25
100
AcDbLine
 10
6274.7255602969
 20
5258.569933397
 30
0.0
 11
6274.7258410329
 21
5258.370617361
 31
0.0
  0
LINE
  5
386
330
1F
100
AcDbEntity
  8
0
  6
Continuous
 62
     7
370
    25
100
AcDbLine
 10
6275.9254969362
 20
5258.5694508917
 30
0.0
 11
6275.9257776721
 21
5258.3701348557
 31
0.0
  0
LINE
  5
387
330
1F
100
AcDbEntity
  8
0
  6
Continuous
 62
     7
370
    25
100
AcDbLine
 10
6277.1254335754
 20
5258.5689683863
 30
0.0
 11
6277.1257143114
 21
5258.3696523503
 31
0.0
  0
LINE
  5
388
330
1F
100
AcDbEntity
  8
0
  6
Continuous
 62
     7
370
    25
100
AcDbLine
 10
6273.4181254035
 20
5258.3416730531
 30
0.0
 11
6273.4182674718
 21
5258.2408078558
 31
0.0
  0
LINE
  5
389
330
1F
100
AcDbEntity
  8
0
  6
Continuous
 62
     7
370
    25
100
AcDbLine
 10
6274.6180620428
 20
5258.3411905478
 30
0.0
 11
6274.6182041111
 21
5258.2403253504
 31
0.0
  0
LINE
  5
38A
330
1F
100
AcDbEntity
  8
0
  6
Continuous
 62
     7
370
    25
100
AcDbLine
 10
6272.9150738277
 20
5258.390197159
 30
0.0
 11
6272.9153545637
 21
5258.190881123
 31
0.0
  0
LINE
  5
38B
330
1F
100
AcDbEntity
  8
0
  6
Continuous
 62
     7
370
    25
100
AcDbLine
 10
6274.115010467
 20
5258.3897146536
 30
0.0
 11
6274.115291203
 21
5258.1903986177
 31
0.0
  0
LWPOLYLINE
  5
38C
330
1F
100
AcDbEntity
  8
0
  6
Continuous
 62
     7
370
    25
100
AcDbPolyline
 90
       21
 70
   128
 43
0.0
 10
6262.5458030828
 20
5259.7548516705
 10
6263.1914514992
 20
5259.9723156715
 10
6263.9772827426
 20
5260.1755208551
 10
6264.8927093084
 20
5260.3617294376
 10
6265.925397654
 20
5260.5284326308
 10
6267.0614343688
 20
5260.6733844425
 10
6268.2855136296
 20
5260.7946319368
 10
6269.5811434159
 20
5260.8905415461
 10
6270.930867707
 20
5260.9598210804
 10
6272.3165016668
 20
5261.0015371362
 10
6273.7193766484
 20
5261.0151276734
 10
6275.1205917164
 20
5261.0004095864
 10
6276.5012682995
 20
5260.9575811721
 10
6277.8428045415
 20
5260.8872194577
 10
6279.1271259239
 20
5260.7902724268
 10
6280.3369287842
 20
5260.6680462466
 10
6281.4559134477
 20
5260.5221876705
 10
6282.4690038336
 20
5260.3546618512
 10
6283.3625505746
 20
5260.1677258642
 10
6284.1245149151
 20
5259.9638982981
 10
6284.7446309091
 20
5259.7459253217
  0
LWPOLYLINE
  5
38D
330
1F
100
AcDbEntity
  8
0
  6
Continuous
 62
     7
370
    25
100
AcDbPolyline
 90
        3
 70
   128
 43
0.0
 10
6284.7446309091
 20
5259.7459253217
 10
6284.7338680346
 20
5259.1611390984
 10
6284.7230123438
 20
5258.671311745
  0
LWPOLYLINE
  5
38E
330
1F
100
AcDbEntity
  8
0
  6
Continuous
 62
     7
370
    25
100
AcDbPolyline
 90
       23
 70
   128
 43
0.0
 10
6284.7230123438
 20
5258.671311745
 10
6284.3382986001
 20
5258.9024992812
 10
6283.7941791031
 20
5259.1236267185
 10
6283.0987289424
 20
5259.3314123809
 10
6282.2622690535
 20
5259.5227725933
 10
6281.2972130483
 20
5259.6948674449
 10
6280.2178829895
 20
5259.8451429355
 10
6279.0402968415
 20
5259.9713688785
 10
6277.7819307533
 20
5260.0716719983
 10
6276.461459701
 20
5260.144563731
 10
6275.0984803391
 20
5260.1889623154
 10
6273.7132201732
 20
5260.2042088477
 10
6272.3262373707
 20
5260.1900770593
 10
6270.958115664
 20
5260.1467766752
 10
6269.6291588743
 20
5260.0749503014
 10
6268.3590895902
 20
5259.9756638882
 10
6267.1667564707
 20
5259.8503909111
 10
6266.0698545198
 20
5259.700990503
 10
6265.08466248
 20
5259.5296798637
 10
6264.2258012459
 20
5259.3390013552
 10
6263.5060168803
 20
5259.1317847713
 10
6262.935991454
 20
5258.9111053418
 10
6262.5241845176
 20
5258.6802380938
  0
LWPOLYLINE
  5
38F
330
1F
100
AcDbEntity
  8
0
  6
Continuous
 62
     7
370
    25
100
AcDbPolyline
 90
        3
 70
   128
 43
0.0
 10
6262.5241845176
 20
5258.6802380938
 10
6262.5406324247
 20
5259.461940435
 10
6262.5458030828
 20
5259.7548516705
  0
LINE
  5
390
330
1F
100
AcDbEntity
  8
0
  6
Continuous
 62
     7
370
    25
100
AcDbLine
 10
6262.4436938773
 20
5260.9379978749
 30
0.0
 11
6262.4477164631
 21
5258.0820553911
 31
0.0
  0
LWPOLYLINE
  5
391
330
1F
100
AcDbEntity
  8
0
  6
Continuous
 62
     7
370
    25
100
AcDbPolyline
 90
        9
 70
   128
 43
0.0
 10
6284.7406083233
 20
5262.6018678055
 10
6285.1628253549
 20
5262.4003763426
 10
6285.4639326915
 20
5262.1922860578
 10
6285.6407786569
 20
5261.9797750219
 10
6285.6915122128
 20
5261.765067578
 10
6285.6156023337
 20
5261.5504110586
 10
6285.4138435644
 20
5261.3380522631
 10
6285.0883477045
 20
5261.130213941
 10
6284.7429076401
 20
5260.9694062454
  0
LINE
  5
392
330
1F
100
AcDbEntity
  8
0
  6
Continuous
 62
     7
370
    25
100
AcDbLine
 10
6284.7406083233
 20
5262.6018678055
 30
0.0
 11
6284.7446309091
 21
5259.7459253217
 31
0.0
  0
LINE
  5
393
330
1F
100
AcDbEntity
  8
0
  6
Continuous
 62
     7
370
    25
100
AcDbLine
 10
6262.5458030828
 20
5259.7548516705
 30
0.0
 11
6262.541780497
 21
5262.6107941542
 31
0.0
  0
LWPOLYLINE
  5
394
330
1F
100
AcDbEntity
  8
0
  6
Continuous
 62
     7
370
    25
100
AcDbPolyline
 90
        9
 70
   128
 43
0.0
 10
6262.541780497
 20
5262.6107941542
 10
6262.0959544961
 20
5262.4096517393
 10
6261.7704586362
 20
5262.2018134172
 10
6261.568699867
 20
5261.9894546218
 10
6261.4927899878
 20
5261.7747981023
 10
6261.5435235438
 20
5261.5600906584
 10
6261.7203695092
 20
5261.3475796225
 10
6262.0214768457
 20
5261.1394893377
 10
6262.4436938773
 20
5260.9379978749
  0
LINE
  5
395
330
1F
100
AcDbEntity
  8
0
  6
Continuous
 62
     7
370
    25
100
AcDbLine
 10
6284.7117636307
 20
5258.4794730877
 30
0.0
 11
6284.7230123438
 21
5258.671311745
 31
0.0
  0
LWPOLYLINE
  5
396
330
1F
100
AcDbEntity
  8
0
  6
Continuous
 62
     7
370
    25
100
AcDbPolyline
 90
       24
 70
   128
 43
0.0
 10
6262.5129358045
 20
5258.4883994364
 10
6262.7995663199
 20
5258.7265048739
 10
6263.2545878597
 20
5258.956783364
 10
6263.8709042454
 20
5259.1756436541
 10
6264.6389038637
 20
5259.3796725614
 10
6265.5466095621
 20
5259.5656882024
 10
6266.5798654356
 20
5259.7307896151
 10
6267.7225575919
 20
5259.8724020004
 10
6268.9568654515
 20
5259.9883168764
 10
6270.2635396644
 20
5260.0767265207
 10
6271.6222023085
 20
5260.1362521621
 10
6273.011664689
 20
5260.1659654828
 10
6274.4102577808
 20
5260.1654030959
 10
6275.7961701632
 20
5260.134573772
 10
6277.1477881747
 20
5260.0739583023
 10
6278.4440329828
 20
5259.9845020008
 10
6279.6646893151
 20
5259.8675999616
 10
6280.7907207204
 20
5259.7250753022
 10
6281.804566448
 20
5259.5591507314
 10
6282.6904153119
 20
5259.372413886
 10
6283.4344522701
 20
5259.1677769751
 10
6284.0250738739
 20
5258.9484313644
 10
6284.4530692268
 20
5258.7177978053
 10
6284.7117636307
 20
5258.4794730877
  0
LINE
  5
397
330
1F
100
AcDbEntity
  8
0
  6
Continuous
 62
     7
370
    25
100
AcDbLine
 10
6262.5129358045
 20
5258.4883994364
 30
0.0
 11
6262.5241845176
 21
5258.6802380938
 31
0.0
  0
ARC
  5
398
330
1F
100
AcDbEntity
  8
0
  6
Continuous
 62
     7
370
    25
100
AcDbCircle
 10
6262.7882082496
 20
5261.7570706784
 30
0.0
 40
0.3937980157455391
100
AcDbArc
 50
135.3733909318
 51
217.9150664996
  0
LINE
  5
399
330
1F
100
AcDbEntity
  8
0
  6
Continuous
 62
     7
370
    25
100
AcDbLine
 10
6262.5079422497
 20
5262.0337073473
 30
0.0
 11
6262.5129358045
 21
5258.4883994364
 31
0.0
  0
ARC
  5
39A
330
1F
100
AcDbEntity
  8
0
  6
Continuous
 62
     7
370
    25
100
AcDbCircle
 10
6284.4204829489
 20
5261.7851845106
 30
0.0
 40
0.3703637881144592
100
AcDbArc
 50
330.2453735792
 51
29.9160281549
  0
LINE
  5
39B
330
1F
100
AcDbEntity
  8
0
  6
Continuous
 62
     7
370
    25
100
AcDbLine
 10
6284.680566477
 20
5258.5196224726
 30
0.0
 11
6284.6813535056
 21
5257.9608504222
 31
0.0
  0
LWPOLYLINE
  5
39C
330
1F
100
AcDbEntity
  8
0
  6
Continuous
 62
     7
370
    25
100
AcDbPolyline
 90
       24
 70
   128
 43
0.0
 10
6284.6813535056
 20
5257.9608504222
 10
6284.3947229902
 20
5257.7227449847
 10
6283.9397014504
 20
5257.4924664946
 10
6283.3233850647
 20
5257.2736062045
 10
6282.5553854464
 20
5257.0695772972
 10
6281.647679748
 20
5256.8835616562
 10
6280.6144238745
 20
5256.7184602435
 10
6279.4717317182
 20
5256.5768478583
 10
6278.2374238586
 20
5256.4609329823
 10
6276.9307496457
 20
5256.3725233379
 10
6275.5720870016
 20
5256.3129976965
 10
6274.1826246211
 20
5256.2832843758
 10
6272.7840315293
 20
5256.2838467627
 10
6271.3981191469
 20
5256.3146760866
 10
6270.0465011355
 20
5256.3752915563
 10
6268.7502563273
 20
5256.4647478578
 10
6267.529599995
 20
5256.5816498971
 10
6266.4035685897
 20
5256.7241745565
 10
6265.3897228621
 20
5256.8900991272
 10
6264.5038739982
 20
5257.0768359727
 10
6263.75983704
 20
5257.2814728835
 10
6263.1692154362
 20
5257.5008184942
 10
6262.7412200833
 20
5257.7314520534
 10
6262.4825256794
 20
5257.9697767709
  0
LINE
  5
39D
330
1F
100
AcDbEntity
  8
0
  6
Continuous
 62
     7
370
    25
100
AcDbLine
 10
6262.4825256794
 20
5257.9697767709
 30
0.0
 11
6262.4775321246
 21
5261.5150846818
 31
0.0
  0
LWPOLYLINE
  5
39E
330
1F
100
AcDbEntity
  8
0
  6
Continuous
 62
     7
370
    25
100
AcDbPolyline
 90
       52
 70
   128
 43
0.0
 10
6273.4851419621
 20
5256.3145000957
 10
6272.1342910624
 20
5256.3295213991
 10
6270.8056155321
 20
5256.3732705403
 10
6269.5192567378
 20
5256.4450843268
 10
6268.2947145675
 20
5256.5438741349
 10
6267.1505518323
 20
5256.6681424117
 10
6266.1041128731
 20
5256.8160053769
 10
6265.1712606377
 20
5256.9852215787
 10
6264.3661362151
 20
5257.1732258719
 10
6263.7009444709
 20
5257.3771683031
 10
6263.1857690338
 20
5257.5939573129
 10
6262.8284194384
 20
5257.8203066009
 10
6262.6343127403
 20
5258.0527849425
 10
6262.606391399
 20
5258.2878682033
 10
6262.7450786738
 20
5258.5219927604
 10
6263.0482722069
 20
5258.7516095244
 10
6263.5113758933
 20
5258.9732377391
 10
6264.1273695534
 20
5259.1835177467
 10
6264.886915351
 20
5259.3792619166
 10
6265.7784993461
 20
5259.5575029667
 10
6266.7886060342
 20
5259.7155389445
 10
6267.9019232276
 20
5259.8509741855
 10
6269.1015741724
 20
5259.9617556297
 10
6270.3693733833
 20
5260.0462039431
 10
6271.6861023163
 20
5260.1030389755
 10
6273.0318007033
 20
5260.1313991658
 10
6274.3860691282
 20
5260.1308546022
 10
6275.7283782624
 20
5260.10141354
 10
6277.0383800675
 20
5260.0435222754
 10
6278.2962162515
 20
5259.9580583812
 10
6279.4828193001
 20
5259.8463174029
 10
6280.5802015207
 20
5259.7099932197
 10
6281.5717277173
 20
5259.5511523673
 10
6282.4423673635
 20
5259.3722027111
 10
6283.1789224497
 20
5259.1758569455
 10
6283.7702275518
 20
5258.9650914723
 10
6284.2073190869
 20
5258.743101281
 10
6284.4835711931
 20
5258.5132515167
 10
6284.59479617
 20
5258.2790264676
 10
6284.5393079604
 20
5258.0439767466
 10
6284.3179477088
 20
5257.8116654679
 10
6283.9340710112
 20
5257.5856142337
 10
6283.3934970468
 20
5257.3692497502
 10
6282.7044203661
 20
5257.1658518826
 10
6281.877286669
 20
5256.9785039351
 10
6280.9246344593
 20
5256.8100459117
 10
6279.8609049734
 20
5256.6630314642
 10
6278.702223266
 20
5256.5396891818
 10
6277.4661537707
 20
5256.4418888079
 10
6276.171434041
 20
5256.3711128963
 10
6274.8376907083
 20
5256.3284343378
 10
6273.4851419621
 20
5256.3145000957
  0
LWPOLYLINE
  5
39F
330
1F
100
AcDbEntity
  8
0
  6
Continuous
 62
     7
370
    25
100
AcDbPolyline
 90
       50
 70
   128
 43
0.0
 10
6273.4943058188
 20
5256.4707830367
 10
6272.2036589863
 20
5256.4857013746
 10
6270.93589315
 20
5256.5291727892
 10
6269.7118249898
 20
5256.6004834811
 10
6268.5515536712
 20
5256.6984625306
 10
6267.474130817
 20
5256.8215011246
 10
6266.4972476807
 20
5256.9675789726
 10
6265.6369446564
 20
5257.1342974805
 10
6264.9073478961
 20
5257.318919135
 10
6264.3204373583
 20
5257.5184124535
 10
6263.8858500979
 20
5257.7295017614
 10
6263.6107220256
 20
5257.948720978
 10
6263.4995707367
 20
5258.1724705299
 10
6263.5542213325
 20
5258.3970764556
 10
6263.7737764516
 20
5258.6188507319
 10
6264.1546310049
 20
5258.8341518315
 10
6264.6905313714
 20
5259.0394445162
 10
6265.3726780818
 20
5259.2313578859
 10
6266.1898703059
 20
5259.4067407282
 10
6267.12868977
 20
5259.5627132617
 10
6268.1737210845
 20
5259.6967144219
 10
6269.3078048641
 20
5259.8065439132
 10
6270.5123194845
 20
5259.8903983386
 10
6271.7674868489
 20
5259.9469008107
 10
6273.0526971439
 20
5259.9751235604
 10
6274.346847252
 20
5259.974603171
 10
6275.6286872641
 20
5259.9453481872
 10
6276.8771694028
 20
5259.8878389751
 10
6278.0717936258
 20
5259.8030198344
 10
6279.1929442364
 20
5259.6922834929
 10
6280.2222119726
 20
5259.5574482384
 10
6281.1426962866
 20
5259.4007280621
 10
6281.9392828514
 20
5259.2246963048
 10
6282.5988917377
 20
5259.0322434031
 10
6283.1106921857
 20
5258.8265294285
 10
6283.4662804463
 20
5258.6109321986
 10
6283.6598177701
 20
5258.388991814
 10
6283.6881262795
 20
5258.1643525298
 10
6283.5507411496
 20
5257.9407029166
 10
6283.2499182404
 20
5257.7217152951
 10
6282.7905970559
 20
5257.5109854359
 10
6282.1803196371
 20
5257.3119735174
 10
6281.4291067223
 20
5257.1279473098
 10
6280.549293207
 20
5256.9619285185
 10
6279.5553256046
 20
5256.8166431673
 10
6278.4635248358
 20
5256.6944768377
 10
6277.2918182389
 20
5256.5974354975
 10
6276.059445204
 20
5256.5271125628
 10
6274.7866412621
 20
5256.4846627341
 10
6273.4943058188
 20
5256.4707830367
  0
LINE
  5
3A0
330
1F
100
AcDbEntity
  8
0
  6
Continuous
 62
     7
370
    25
100
AcDbLine
 10
6262.541780497
 20
5262.6107941542
 30
0.0
 11
6262.5079422497
 21
5262.0337073473
 31
0.0
  0
LINE
  5
3A1
330
1F
100
AcDbEntity
  8
0
  6
Continuous
 62
     7
370
    25
100
AcDbLine
 10
6262.4775321246
 20
5261.5150846818
 30
0.0
 11
6262.4436938773
 21
5260.9379978749
 31
0.0
  0
LINE
  5
3A2
330
1F
100
AcDbEntity
  8
0
  6
Continuous
 62
     7
370
    25
100
AcDbLine
 10
6262.4712769663
 20
5257.7779381136
 30
0.0
 11
6262.4825256794
 21
5257.9697767709
 31
0.0
  0
LWPOLYLINE
  5
3A3
330
1F
100
AcDbEntity
  8
0
  6
Continuous
 62
     7
370
    25
100
AcDbPolyline
 90
        3
 70
   128
 43
0.0
 10
6262.4477164631
 20
5258.0820553911
 10
6262.4595830956
 20
5257.8831990257
 10
6262.4712769663
 20
5257.7779381136
  0
LINE
  5
3A4
330
1F
100
AcDbEntity
  8
0
  6
Continuous
 62
     7
370
    25
100
AcDbLine
 10
6284.6701047925
 20
5257.7690117649
 30
0.0
 11
6284.6813535056
 21
5257.9608504222
 31
0.0
  0
LWPOLYLINE
  5
3A5
330
1F
100
AcDbEntity
  8
0
  6
Continuous
 62
     7
370
    25
100
AcDbPolyline
 90
       23
 70
   128
 43
0.0
 10
6262.4712769663
 20
5257.7779381136
 10
6262.85599071
 20
5257.5467505774
 10
6263.400110207
 20
5257.3256231402
 10
6264.0955603677
 20
5257.1178374777
 10
6264.9320202566
 20
5256.9264772653
 10
6265.8970762618
 20
5256.7543824137
 10
6266.9764063206
 20
5256.6041069231
 10
6268.1539924686
 20
5256.4778809801
 10
6269.4123585568
 20
5256.3775778603
 10
6270.7328296091
 20
5256.3046861277
 10
6272.095808971
 20
5256.2602875432
 10
6273.4810691369
 20
5256.2450410109
 10
6274.8680519394
 20
5256.2591727993
 10
6276.2361736461
 20
5256.3024731834
 10
6277.5651304358
 20
5256.3742995573
 10
6278.8351997199
 20
5256.4735859704
 10
6280.0275328394
 20
5256.5988589475
 10
6281.1244347903
 20
5256.7482593556
 10
6282.1096268301
 20
5256.9195699949
 10
6282.9684880642
 20
5257.1102485034
 10
6283.6882724299
 20
5257.3174650873
 10
6284.2582978561
 20
5257.5381445168
 10
6284.6701047925
 20
5257.7690117649
  0
LWPOLYLINE
  5
3A6
330
1F
100
AcDbEntity
  8
0
  6
Continuous
 62
     7
370
    25
100
AcDbPolyline
 90
       14
 70
   128
 43
0.0
 10
6300.4680328111
 20
5177.3551548779
 10
6300.475030757
 20
5177.2853943583
 10
6300.5044634436
 20
5176.0917122112
 10
6300.490211149
 20
5174.6683184717
 10
6300.457865734
 20
5173.0902764369
 10
6300.4322327266
 20
5171.3455164535
 10
6300.4351516385
 20
5169.5584554356
 10
6300.4793910722
 20
5167.696254641
 10
6300.5621368939
 20
5165.9326347283
 10
6300.6776176316
 20
5164.1999145697
 10
6300.8006620775
 20
5162.6307459645
 10
6300.9102072457
 20
5161.1905596131
 10
6300.9703721726
 20
5159.9926341485
 10
6300.9682989129
 20
5159.8804051363
  0
CIRCLE
  5
3A7
330
1F
100
AcDbEntity
  8
0
  6
Continuous
 62
     7
370
    25
100
AcDbCircle
 10
6272.9407054418
 20
5173.3471529064
 30
0.0
 40
11.00081317956601
  0
ARC
  5
3A8
330
1F
100
AcDbEntity
  8
0
  6
Continuous
 62
     7
370
    25
100
AcDbCircle
 10
6289.6857948493
 20
5268.3470540303
 30
0.0
 40
2.054343195723373
100
AcDbArc
 50
270.4028167675
 51
356.9767958309
  0
ARC
  5
3A9
330
1F
100
AcDbEntity
  8
0
  6
Continuous
 62
     7
370
    25
100
AcDbCircle
 10
6181.1489514647
 20
5273.1920927787
 30
0.0
 40
110.699205959401
100
AcDbArc
 50
357.43536658
 51
3.930079482
  0
LINE
  5
3AA
330
1F
100
AcDbEntity
  8
0
  6
Continuous
 62
     7
370
    25
100
AcDbLine
 10
6291.5362777542
 20
5281.1441923766
 30
0.0
 11
6291.5657586212
 21
5280.9749131478
 31
0.0
  0
LINE
  5
3AB
330
1F
100
AcDbEntity
  8
0
  6
Continuous
 62
     7
370
    25
100
AcDbLine
 10
6255.6985948152
 20
5281.1829850756
 30
0.0
 11
6255.7256079464
 21
5281.3126811243
 31
0.0
  0
ARC
  5
3AC
330
1F
100
AcDbEntity
  8
0
  6
Continuous
 62
     7
370
    25
100
AcDbCircle
 10
6385.3173879873
 20
5273.1590834998
 30
0.0
 40
129.9265176768932
100
AcDbArc
 50
176.637656405
 51
182.0001248798
  0
ARC
  5
3AD
330
1F
100
AcDbEntity
  8
0
  6
Continuous
 62
     7
370
    25
100
AcDbCircle
 10
6257.5288422815
 20
5268.3336258104
 30
0.0
 40
2.040953236651348
100
AcDbArc
 50
182.6656169135
 51
270.5351727383
  0
LWPOLYLINE
  5
3AE
330
1F
100
AcDbEntity
  8
0
  6
Continuous
 62
     7
370
    25
100
AcDbPolyline
 90
       13
 70
   128
 43
0.0
 10
6273.7098762508
 20
5267.803710717
 10
6272.207213197
 20
5267.7910059993
 10
6270.2281053558
 20
5267.7666694138
 10
6268.2652841794
 20
5267.7198949109
 10
6266.365511985
 20
5267.6354117779
 10
6264.5260837084
 20
5267.5065367393
 10
6262.800627777
 20
5267.3485727357
 10
6261.2166909884
 20
5267.1731583723
 10
6259.9561020601
 20
5266.996827697
 10
6258.9242024495
 20
5266.7977574863
 10
6258.1128361511
 20
5266.5546401027
 10
6257.547913608
 20
5266.2927659323
 10
6257.5479055818
 20
5266.292761605
  0
LWPOLYLINE
  5
3AF
330
1F
100
AcDbEntity
  8
0
  6
Continuous
 62
     7
370
    25
100
AcDbPolyline
 90
       13
 70
   128
 43
0.0
 10
6289.7002377468
 20
5266.292761605
 10
6289.7002238039
 20
5266.292769619
 10
6289.1655621714
 20
5266.5546418831
 10
6288.3829212358
 20
5266.7977574868
 10
6287.3750041346
 20
5266.9968276974
 10
6286.1354810536
 20
5267.1731583727
 10
6284.5715845409
 20
5267.3485727362
 10
6282.8631406742
 20
5267.5065367399
 10
6281.0370010226
 20
5267.6354117784
 10
6279.1458899937
 20
5267.7198949112
 10
6277.1879838316
 20
5267.766669414
 10
6275.2114123709
 20
5267.7910059994
 10
6273.7098762508
 20
5267.803710717
  0
LWPOLYLINE
  5
3B0
330
1F
100
AcDbEntity
  8
0
  6
Continuous
 62
     7
370
    25
100
AcDbPolyline
 90
       24
 70
   128
 43
0.0
 10
6261.4884719372
 20
5264.3735318125
 10
6261.4462141594
 20
5264.4071983301
 10
6261.1223183065
 20
5264.879089573
 10
6261.1425006195
 20
5265.2947387466
 10
6261.5091440493
 20
5265.6577863614
 10
6262.2066018409
 20
5265.9795457185
 10
6263.2331106273
 20
5266.2697320368
 10
6264.5495431174
 20
5266.5267220374
 10
6266.1284908638
 20
5266.749651968
 10
6267.9177911718
 20
5266.9320304661
 10
6269.8684872341
 20
5267.0662374759
 10
6271.923978214
 20
5267.1461584175
 10
6274.0273099025
 20
5267.1663276745
 10
6276.1182465745
 20
5267.1266785319
 10
6278.1369662395
 20
5267.0283781603
 10
6280.0274284558
 20
5266.8777750893
 10
6281.7336334623
 20
5266.6815646596
 10
6283.2102064564
 20
5266.4468327608
 10
6284.411633788
 20
5266.1782489315
 10
6285.3081340316
 20
5265.8759145997
 10
6285.8699786999
 20
5265.5358792073
 10
6286.0855320829
 20
5265.150409392
 10
6285.9452909111
 20
5264.7122488735
 10
6285.6883898146
 20
5264.4488797375
  0
ARC
  5
3B1
330
1F
100
AcDbEntity
  8
0
  6
Continuous
 62
     7
370
    25
100
AcDbCircle
 10
6181.9888250048
 20
5269.4527629899
 30
0.0
 40
91.73587419900015
100
AcDbArc
 50
358.9699904691
 51
0.409898013
  0
LWPOLYLINE
  5
3B2
330
1F
100
AcDbEntity
  8
0
  6
Continuous
 62
     7
370
    25
100
AcDbPolyline
 90
       48
 70
   128
 43
0.0
 10
6273.72235166
 20
5270.1090422503
 10
6275.332404307
 20
5270.0955247433
 10
6278.5414800845
 20
5270.047567499
 10
6280.1518615886
 20
5269.9979847668
 10
6281.7189710846
 20
5269.9222216425
 10
6283.229960814
 20
5269.8157016684
 10
6284.6660399557
 20
5269.6892698518
 10
6286.0831230774
 20
5269.5497562691
 10
6287.4081557339
 20
5269.3979286083
 10
6288.8357500121
 20
5269.1837043265
 10
6290.0192167771
 20
5268.9339744018
 10
6290.9808489053
 20
5268.6095200659
 10
6291.3159166492
 20
5268.4141600292
 10
6291.5942776081
 20
5268.2878864115
 10
6291.6576461445
 20
5268.2938622862
 10
6291.6785363271
 20
5268.3069305717
 10
6291.6978178646
 20
5268.3383134235
 10
6291.7023552238
 20
5268.358127146
 10
6291.7043351064
 20
5268.3879920016
 10
6291.7112255517
 20
5268.5227608089
 10
6291.7371015452
 20
5269.064550531
 10
6291.8093117549
 20
5271.286706935
 10
6291.822330622
 20
5273.373974131
 10
6291.7826706842
 20
5275.5502446035
 10
6291.7174122115
 20
5277.3642265399
 10
6291.6614492893
 20
5278.5880657734
 10
6291.6197485672
 20
5279.4121896832
 10
6291.590242615
 20
5279.9669129135
 10
6291.5698083133
 20
5280.3407828949
 10
6291.5558067444
 20
5280.5929405737
 10
6291.5505590747
 20
5280.6866982603
 10
6291.5478916671
 20
5280.7342087905
 10
6291.5462963966
 20
5280.7578058578
 10
6291.5424897693
 20
5280.77786111
 10
6291.5314921314
 20
5280.8103305439
 10
6291.478445888
 20
5280.894907857
 10
6291.2505596354
 20
5281.0493332879
 10
6290.5820369974
 20
5281.3182961206
 10
6289.5237299816
 20
5281.5880329872
 10
6288.1472766687
 20
5281.8280023526
 10
6286.4232179758
 20
5282.037502957
 10
6284.0421251732
 20
5282.2418328346
 10
6282.74566197
 20
5282.327632535
 10
6281.3886598281
 20
5282.3972578462
 10
6279.5392796563
 20
5282.4601783784
 10
6277.6425701179
 20
5282.4978284881
 10
6273.7049178906
 20
5282.5291609966
 10
6273.7048579625
 20
5282.5291612167
  0
LWPOLYLINE
  5
3B3
330
1F
100
AcDbEntity
  8
0
  6
Continuous
 62
     7
370
    25
100
AcDbPolyline
 90
        6
 70
   128
 43
0.0
 10
6273.7048579625
 20
5282.5291612167
 10
6273.7030535183
 20
5283.1612063706
 10
6273.6996798649
 20
5283.6828602429
 10
6273.6951156724
 20
5284.0355971575
 10
6273.6898721166
 20
5284.1796148584
 10
6273.6891431346
 20
5284.1783544304
  0
LINE
  5
3B4
330
1F
100
AcDbEntity
  8
0
  6
Continuous
 62
     7
370
    25
100
AcDbLine
 10
6273.72235166
 20
5270.1090422503
 30
0.0
 11
6273.7048579625
 21
5282.5291612167
 31
0.0
  0
LWPOLYLINE
  5
3B5
330
1F
100
AcDbEntity
  8
0
  6
Continuous
 62
     7
370
    25
100
AcDbPolyline
 90
       45
 70
   128
 43
0.0
 10
6273.7048579625
 20
5282.5291612167
 10
6273.7047979953
 20
5282.5291609966
 10
6273.0285647624
 20
5282.5263931952
 10
6270.6549394741
 20
5282.5095500654
 10
6268.2960987941
 20
5282.4712256623
 10
6266.0037926522
 20
5282.3972578463
 10
6263.3556492689
 20
5282.2460833261
 10
6260.9241649749
 20
5282.0375029571
 10
6259.2057900347
 20
5281.8309939393
 10
6257.7707644745
 20
5281.5880329872
 10
6256.7059012394
 20
5281.321238603
 10
6255.9778272149
 20
5281.0493332879
 10
6255.7344262879
 20
5280.894907857
 10
6255.6776845117
 20
5280.8103305439
 10
6255.6659514109
 20
5280.77786111
 10
6255.6619148695
 20
5280.7578058578
 10
6255.6602674944
 20
5280.7342087905
 10
6255.6369211555
 20
5280.3247457084
 10
6255.6169064326
 20
5279.9669129135
 10
6255.586707306
 20
5279.4121896832
 10
6255.5440660701
 20
5278.5880657735
 10
6255.487015463
 20
5277.36422654
 10
6255.4213143343
 20
5275.5502446037
 10
6255.3852577667
 20
5273.3962393335
 10
6255.4047654831
 20
5271.2867072362
 10
6255.4900181896
 20
5269.0645506007
 10
6255.5196916262
 20
5268.5227608238
 10
6255.5275560396
 20
5268.3879920029
 10
6255.5297890941
 20
5268.3581271473
 10
6255.5347628523
 20
5268.3383134243
 10
6255.5557277616
 20
5268.3069305722
 10
6255.5783528018
 20
5268.2938622866
 10
6255.6467334057
 20
5268.2878864112
 10
6256.0557464205
 20
5268.4312135258
 10
6256.5853400421
 20
5268.6859675425
 10
6257.2977981867
 20
5268.9339744012
 10
6258.4922850168
 20
5269.1807411995
 10
6259.9617250611
 20
5269.3979286079
 10
6261.7271830424
 20
5269.5996666782
 10
6263.653577837
 20
5269.7778125564
 10
6265.7067955138
 20
5269.9222216418
 10
6267.7904880036
 20
5270.0160957767
 10
6269.9417364127
 20
5270.0685327454
 10
6272.111107133
 20
5270.0955247432
 10
6273.72235166
 20
5270.1090422503
  0
ARC
  5
3B6
330
1F
100
AcDbEntity
  8
0
  6
Continuous
 62
     7
370
    25
100
AcDbCircle
 10
6273.033061986
 20
5173.4185548162
 30
0.0
 40
10.89115126795182
100
AcDbArc
 50
359.6314436265
 51
90.4739908044
  0
ARC
  5
3B7
330
1F
100
AcDbEntity
  8
0
  6
Continuous
 62
     7
370
    25
100
AcDbCircle
 10
6272.9885695373
 20
5173.3091280449
 30
0.0
 40
10.93548926316774
100
AcDbArc
 50
269.7686405324
 51
0.2062753157
  0
LWPOLYLINE
  5
3B8
330
1F
100
AcDbEntity
  8
0
  6
Continuous
 62
     8
370
    25
100
AcDbPolyline
 90
       11
 70
   128
 43
0.0
 10
6307.5951395028
 20
5163.813683934
 10
6306.4649129742
 20
5163.9016827637
 10
6305.3354199623
 20
5164.176958355
 10
6304.2952293842
 20
5164.6293263258
 10
6303.3288590549
 20
5165.2785744954
 10
6302.5256532405
 20
5166.0641807122
 10
6301.8432163037
 20
5167.0111431509
 10
6301.3250014378
 20
5168.0215387408
 10
6300.9232391771
 20
5169.1199117255
 10
6300.6173913101
 20
5170.3186987626
 10
6300.4328944035
 20
5171.3905547677
  0
ARC
  5
3B9
330
1F
100
AcDbEntity
  8
0
  6
Continuous
 62
     8
370
    25
100
AcDbCircle
 10
6302.2119162938
 20
5177.3144152267
 30
0.0
 40
1.865007754690516
100
AcDbArc
 50
97.3988802987
 51
179.6900916575
  0
ARC
  5
3BA
330
1F
100
AcDbEntity
  8
0
  6
Continuous
 62
     8
370
    25
100
AcDbCircle
 10
6302.2105380211
 20
5178.8547021927
 30
0.0
 40
5.30197603478786
100
AcDbArc
 50
359.2367873029
 51
2.5643835437
  0
ARC
  5
3BB
330
1F
100
AcDbEntity
  8
0
  6
Continuous
 62
     8
370
    25
100
AcDbCircle
 10
6308.872928288
 20
5178.8547021927
 30
0.0
 40
5.301976035720026
100
AcDbArc
 50
359.2367873031
 51
2.5643835432
  0
LWPOLYLINE
  5
3BC
330
1F
100
AcDbEntity
  8
0
  6
Continuous
 62
     8
370
    25
100
AcDbPolyline
 90
        5
 70
   128
 43
0.0
 10
6291.5657586212
 20
5280.9749131478
 10
6291.5774933836
 20
5280.9075321063
 10
6291.5878380621
 20
5280.7793700061
 10
6291.5878409657
 20
5280.779311362
 10
6291.5878409657
 20
5280.779311362
  0
LWPOLYLINE
  5
3BD
330
1F
100
AcDbEntity
  8
0
  6
Continuous
 62
     8
370
    25
100
AcDbPolyline
 90
        3
 70
   128
 43
0.0
 10
6255.6145270976
 20
5280.779311362
 10
6255.6145299407
 20
5280.7793709239
 10
6255.6985948152
 20
5281.1829850756
  0
ARC
  5
3BE
330
1F
100
AcDbEntity
  8
0
  6
Continuous
 62
     8
370
    25
100
AcDbCircle
 10
6318.6583991122
 20
5271.7187921479
 30
0.0
 40
63.26409193804395
100
AcDbArc
 50
182.8035593396
 51
183.153366665
  0
LINE
  5
3BF
330
1F
100
AcDbEntity
  8
0
  6
Continuous
 62
     7
370
    25
100
AcDbLine
 10
6489.9896383173
 20
5141.848497727
 30
0.0
 11
6489.9896383173
 21
5145.348497727
 31
0.0
  0
LINE
  5
3C0
330
1F
100
AcDbEntity
  8
0
  6
Continuous
 62
     7
370
    25
100
AcDbLine
 10
6429.9896383173
 20
5145.348497727
 30
0.0
 11
6429.9896383173
 21
5141.848497727
 31
0.0
  0
LINE
  5
3C1
330
1F
100
AcDbEntity
  8
0
  6
Continuous
 62
     7
370
    25
100
AcDbLine
 10
6489.9896383173
 20
5145.348497727
 30
0.0
 11
6488.9896383173
 21
5146.348497727
 31
0.0
  0
LINE
  5
3C2
330
1F
100
AcDbEntity
  8
0
  6
Continuous
 62
     7
370
    25
100
AcDbLine
 10
6430.9896383173
 20
5146.348497727
 30
0.0
 11
6429.9896383173
 21
5145.348497727
 31
0.0
  0
ARC
  5
3C3
330
1F
100
AcDbEntity
  8
0
  6
Continuous
 62
     7
370
    25
100
AcDbCircle
 10
6488.1249865885
 20
5162.9193018854
 30
0.0
 40
0.4357322045593943
100
AcDbArc
 50
313.6020448222
 51
5.9843200173
  0
ARC
  5
3C4
330
1F
100
AcDbEntity
  8
0
  6
Continuous
 62
     7
370
    25
100
AcDbCircle
 10
6488.1207688944
 20
5183.7731834549
 30
0.0
 40
0.4393582493916547
100
AcDbArc
 50
354.1509154438
 51
40.2593385866
  0
LINE
  5
3C5
330
1F
100
AcDbEntity
  8
0
  6
Continuous
 62
     7
370
    25
100
AcDbLine
 10
6488.5599402443
 20
5162.9615106562
 30
0.0
 11
6488.5599402443
 21
5183.7274096215
 31
0.0
  0
LINE
  5
3C6
330
1F
100
AcDbEntity
  8
0
  6
Continuous
 62
     7
370
    25
100
AcDbLine
 10
6555.5562089574
 20
5260.9452294264
 30
0.0
 11
6556.2848246915
 21
5256.8129124212
 31
0.0
  0
LINE
  5
3C7
330
1F
100
AcDbEntity
  8
0
  6
Continuous
 62
     7
370
    25
100
AcDbLine
 10
6580.1171952416
 20
5261.0150682917
 30
0.0
 11
6579.0450688235
 21
5267.095593351
 31
0.0
  0
LINE
  5
3C8
330
1F
100
AcDbEntity
  8
0
  6
Continuous
 62
     7
370
    25
100
AcDbLine
 10
6556.2848401977
 20
5256.8128915152
 30
0.0
 11
6557.0957552372
 21
5256.2450772607
 31
0.0
  0
LINE
  5
3C9
330
1F
100
AcDbEntity
  8
0
  6
Continuous
 62
     7
370
    25
100
AcDbLine
 10
6579.5493720058
 20
5260.2041293961
 30
0.0
 11
6580.1171878206
 21
5261.0150433431
 31
0.0
  0
LWPOLYLINE
  5
3CA
330
1F
100
AcDbEntity
  8
0
  6
Continuous
 62
     7
370
    25
100
AcDbPolyline
 90
        3
 70
   128
 43
0.0
 10
6431.9574414967
 20
5159.4061705501
 10
6431.710847367
 20
5152.8461761073
 10
6431.5417054148
 20
5146.348497727
  0
LWPOLYLINE
  5
3CB
330
1F
100
AcDbEntity
  8
0
  6
Continuous
 62
     7
370
    25
100
AcDbPolyline
 90
       50
 70
   128
 43
0.0
 10
6578.8967644151
 20
5284.1106551368
 10
6575.6955221781
 20
5283.8191191255
 10
6570.3581753676
 20
5283.450421722
 10
6565.169318535
 20
5283.1542855965
 10
6560.2682313287
 20
5282.8983337348
 10
6555.7569058073
 20
5282.6599500277
 10
6551.6282464389
 20
5282.4238569654
 10
6547.8064599711
 20
5282.1805501463
 10
6544.2318718723
 20
5281.9251819693
 10
6538.8312383206
 20
5281.4788144429
 10
6533.1774416613
 20
5280.9246095934
 10
6527.1471950833
 20
5280.2327707764
 10
6520.8166097024
 20
5279.3899488811
 10
6514.9089633211
 20
5278.4846206656
 10
6508.9607760229
 20
5277.4390627635
 10
6503.1017009719
 20
5276.2506660618
 10
6497.5627040367
 20
5274.9447170017
 10
6492.4467808855
 20
5273.5302327394
 10
6487.8141811648
 20
5272.011828131
 10
6483.6334158462
 20
5270.386640966
 10
6479.8338722137
 20
5268.6493297086
 10
6476.3497196973
 20
5266.7952551806
 10
6473.1238954991
 20
5264.8221122676
 10
6470.5969218797
 20
5263.0866834932
 10
6468.0952161063
 20
5261.1950846397
 10
6465.4946805803
 20
5259.0425950034
 10
6462.7759495791
 20
5256.593834167
 10
6459.9148562169
 20
5253.8054367766
 10
6456.9206443608
 20
5250.5933039904
 10
6454.3769568416
 20
5247.539708246
 10
6451.969707135
 20
5244.2881387928
 10
6449.711625187
 20
5240.8284374875
 10
6447.6198850538
 20
5237.2025022966
 10
6445.72988163
 20
5233.5784491424
 10
6444.0715066108
 20
5230.1159313235
 10
6442.6649645814
 20
5226.9404186439
 10
6441.6496742091
 20
5224.4713302242
 10
6440.7346278856
 20
5222.0572599242
 10
6439.8627205461
 20
5219.4984460536
 10
6439.051035246
 20
5216.7752954853
 10
6438.2746848918
 20
5213.7818285762
 10
6437.4853079098
 20
5210.3626905475
 10
6436.6867817732
 20
5206.4617365378
 10
6435.8946451813
 20
5202.0442086185
 10
6435.2030837043
 20
5197.6188522845
 10
6434.5401404123
 20
5192.7264947816
 10
6433.9163898874
 20
5187.3437549811
 10
6433.3417641183
 20
5181.4488114061
 10
6432.8253117588
 20
5175.0219600373
 10
6432.3911999677
 20
5168.312211175
  0
ARC
  5
3CC
330
1F
100
AcDbEntity
  8
0
  6
Continuous
 62
     7
370
    25
100
AcDbCircle
 10
6678.0335519861
 20
4812.3479890127
 30
0.0
 40
465.3820367306136
100
AcDbArc
 50
101.8724637136
 51
102.2404072463
  0
LWPOLYLINE
  5
3CD
330
1F
100
AcDbEntity
  8
0
  6
Continuous
 62
     7
370
    25
100
AcDbPolyline
 90
       40
 70
   128
 43
0.0
 10
6488.5524185426
 20
5184.3104274412
 10
6488.5498628636
 20
5185.5624060062
 10
6488.5432871176
 20
5187.9338611016
 10
6488.5363646694
 20
5189.9155027771
 10
6488.5297556572
 20
5191.5639473266
 10
6488.5240616827
 20
5192.9318731486
 10
6488.5188277477
 20
5194.4033691186
 10
6488.5173275767
 20
5195.5684598578
 10
6488.5205430269
 20
5196.5219745812
 10
6488.5520231977
 20
5198.4176624343
 10
6488.619610269
 20
5200.1167558949
 10
6488.7336627389
 20
5201.8128305154
 10
6488.953062417
 20
5203.9029463835
 10
6489.3509108582
 20
5206.3779236224
 10
6490.2291413764
 20
5209.8859174888
 10
6491.5436167126
 20
5213.4154186299
 10
6493.3446500733
 20
5217.010434242
 10
6495.6345761626
 20
5220.724407006
 10
6497.1147299948
 20
5222.8608028533
 10
6498.7272814521
 20
5225.0402917997
 10
6500.4685776366
 20
5227.2670647465
 10
6502.4206240731
 20
5229.5940572712
 10
6503.8301314551
 20
5231.1538058343
 10
6505.4314440469
 20
5232.8195976001
 10
6507.2669217277
 20
5234.6170789392
 10
6509.3790894125
 20
5236.57199609
 10
6511.8105811754
 20
5238.7101439219
 10
6514.5899778232
 20
5241.0393221161
 10
6517.4502823297
 20
5243.3014081119
 10
6520.1453471545
 20
5245.2594411394
 10
6522.6085180027
 20
5246.86822858
 10
6524.8782530387
 20
5248.1949218783
 10
6526.9944825622
 20
5249.3083488607
 10
6528.9972969739
 20
5250.2776128828
 10
6534.1786849919
 20
5252.6371818068
 10
6539.0173243895
 20
5254.7221021905
 10
6544.4350900091
 20
5256.903302186
 10
6549.5561096342
 20
5258.8061631767
 10
6554.4411587085
 20
5260.4811046271
 10
6555.2095964231
 20
5260.7286238423
  0
LWPOLYLINE
  5
3CE
330
1F
100
AcDbEntity
  8
0
  6
Continuous
 62
     7
370
    25
100
AcDbPolyline
 90
        5
 70
   128
 43
0.0
 10
6488.4967298226
 20
5146.348497727
 10
6488.509084949
 20
5149.8306150864
 10
6488.5247890828
 20
5154.8530699247
 10
6488.5371169073
 20
5159.4443313996
 10
6488.5436536929
 20
5162.3854678241
  0
LINE
  5
3CF
330
1F
100
AcDbEntity
  8
0
  6
Continuous
 62
     7
370
    25
100
AcDbLine
 10
6489.9896383173
 20
5141.848497727
 30
0.0
 11
6429.9896383173
 21
5141.848497727
 31
0.0
  0
LINE
  5
3D0
330
1F
100
AcDbEntity
  8
0
  6
Continuous
 62
     7
370
    25
100
AcDbLine
 10
6489.9896383173
 20
5145.348497727
 30
0.0
 11
6429.9896383173
 21
5145.348497727
 31
0.0
  0
LINE
  5
3D1
330
1F
100
AcDbEntity
  8
0
  6
Continuous
 62
     7
370
    25
100
AcDbLine
 10
6488.9896383173
 20
5146.348497727
 30
0.0
 11
6430.9896383173
 21
5146.348497727
 31
0.0
  0
LINE
  5
3D2
330
1F
100
AcDbEntity
  8
0
  6
Continuous
 62
     7
370
    25
100
AcDbLine
 10
6563.0682146579
 20
5260.9379978749
 30
0.0
 11
6563.5717783067
 21
5258.0820553911
 31
0.0
  0
LWPOLYLINE
  5
3D3
330
1F
100
AcDbEntity
  8
0
  6
Continuous
 62
     7
370
    25
100
AcDbPolyline
 90
       12
 70
   128
 43
0.0
 10
6556.2848246915
 20
5256.8129124212
 10
6556.2854720851
 20
5256.8128530395
 10
6556.3801384054
 20
5256.8275711265
 10
6556.634067334
 20
5256.8703995408
 10
6557.0438376863
 20
5256.9407612551
 10
6557.6039286262
 20
5257.0377082861
 10
6558.3067940481
 20
5257.1599344663
 10
6559.1429642458
 20
5257.3057930424
 10
6560.101173498
 20
5257.4733188616
 10
6561.1685118509
 20
5257.6602548487
 10
6562.3305990542
 20
5257.8640824148
 10
6563.5717783067
 20
5258.0820553911
  0
LWPOLYLINE
  5
3D4
330
1F
100
AcDbEntity
  8
0
  6
Continuous
 62
     7
370
    25
100
AcDbPolyline
 90
       11
 70
   128
 43
0.0
 10
6573.0581965782
 20
5259.7548516705
 10
6574.2863779703
 20
5259.9723156715
 10
6575.4325711962
 20
5260.1755208551
 10
6576.4813335943
 20
5260.3617294376
 10
6577.418535188
 20
5260.5284326308
 10
6578.23154906
 20
5260.6733844425
 10
6578.9094214739
 20
5260.7946319368
 10
6579.4430194544
 20
5260.8905415461
 10
6579.8251538355
 20
5260.9598210804
 10
6580.0506761207
 20
5261.0015371362
 10
6580.1171952416
 20
5261.0150682917
  0
LINE
  5
3D5
330
1F
100
AcDbEntity
  8
0
  6
Continuous
 62
     7
370
    25
100
AcDbLine
 10
6573.0581965782
 20
5259.7548516705
 30
0.0
 11
6572.5546329294
 21
5262.6107941542
 31
0.0
  0
LWPOLYLINE
  5
3D6
330
1F
100
AcDbEntity
  8
0
  6
Continuous
 62
     7
370
    25
100
AcDbPolyline
 90
        9
 70
   128
 43
0.0
 10
6572.5546329294
 20
5262.6107941542
 10
6571.4174225767
 20
5262.4096517393
 10
6570.2412754101
 20
5262.2018134172
 10
6569.0385021059
 20
5261.9894546218
 10
6567.8216920347
 20
5261.7747981023
 10
6566.6035814896
 20
5261.5600906584
 10
6565.3969203753
 20
5261.3475796225
 10
6564.2143387563
 20
5261.1394893377
 10
6563.0682146579
 20
5260.9379978749
  0
LINE
  5
3D7
330
1F
100
AcDbEntity
  8
0
  6
Continuous
 62
     7
370
    25
100
AcDbLine
 10
6569.2821957673
 20
5262.03246605
 30
0.0
 11
6569.9070903951
 21
5258.4883994364
 31
0.0
  0
LINE
  5
3D8
330
1F
100
AcDbEntity
  8
0
  6
Continuous
 62
     7
370
    25
100
AcDbLine
 10
6566.9659841823
 20
5257.9697767709
 30
0.0
 11
6566.3410890008
 21
5261.5138465244
 31
0.0
  0
LWPOLYLINE
  5
3D9
330
1F
100
AcDbEntity
  8
0
  6
Continuous
 62
     7
370
    25
100
AcDbPolyline
 90
       13
 70
   128
 43
0.0
 10
6565.8780682379
 20
5257.7779381136
 10
6564.5638235501
 20
5257.5467505774
 10
6563.3053609681
 20
5257.3256231402
 10
6562.1213569
 20
5257.1178374777
 10
6561.0293827409
 20
5256.9264772653
 10
6560.045644102
 20
5256.7543824137
 10
6559.1847403083
 20
5256.6041069231
 10
6558.4594477354
 20
5256.4778809801
 10
6557.8805301999
 20
5256.3775778603
 10
6557.4565792167
 20
5256.3046861277
 10
6557.1938864958
 20
5256.2602875432
 10
6557.0963505691
 20
5256.2450410109
 10
6557.0957552372
 20
5256.2450772607
  0
LWPOLYLINE
  5
3DA
330
1F
100
AcDbEntity
  8
0
  6
Continuous
 62
     7
370
    25
100
AcDbPolyline
 90
        3
 70
   128
 43
0.0
 10
6563.5717783067
 20
5258.0820553911
 10
6564.7351677926
 20
5257.8831990257
 10
6565.8780682379
 20
5257.7779381136
  0
LINE
  5
3DB
330
1F
100
AcDbEntity
  8
0
  6
Continuous
 62
     7
370
    25
100
AcDbLine
 10
6565.8780682379
 20
5257.7779381136
 30
0.0
 11
6566.9659841823
 21
5257.9697767709
 31
0.0
  0
LWPOLYLINE
  5
3DC
330
1F
100
AcDbEntity
  8
0
  6
Continuous
 62
     7
370
    25
100
AcDbPolyline
 90
        4
 70
   128
 43
0.0
 10
6566.9659356336
 20
5257.9700521133
 10
6567.4355494257
 20
5258.0527849425
 10
6568.7690384278
 20
5258.2878682033
 10
6569.9070417107
 20
5258.4886755483
  0
LWPOLYLINE
  5
3DD
330
1F
100
AcDbEntity
  8
0
  6
Continuous
 62
     7
370
    25
100
AcDbPolyline
 90
        3
 70
   128
 43
0.0
 10
6570.9950063396
 20
5258.6802380938
 10
6572.5661347904
 20
5259.461940435
 10
6573.0581965782
 20
5259.7548516705
  0
LINE
  5
3DE
330
1F
100
AcDbEntity
  8
0
  6
Continuous
 62
     7
370
    25
100
AcDbLine
 10
6569.9070903951
 20
5258.4883994364
 30
0.0
 11
6570.9950063396
 21
5258.6802380938
 31
0.0
  0
LWPOLYLINE
  5
3DF
330
1F
100
AcDbEntity
  8
0
  6
Continuous
 62
     7
370
    25
100
AcDbPolyline
 90
       12
 70
   128
 43
0.0
 10
6579.5493720058
 20
5260.2041293961
 10
6579.4797006921
 20
5260.1900770593
 10
6579.2450530561
 20
5260.1467766752
 10
6578.8483084732
 20
5260.0749503014
 10
6578.2953548925
 20
5259.9756638882
 10
6577.594398507
 20
5259.8503909111
 10
6576.7558419682
 20
5259.700990503
 10
6575.7921300037
 20
5259.5296798637
 10
6574.7175647299
 20
5259.3390013552
 10
6573.5480933984
 20
5259.1317847713
 10
6572.3010717291
 20
5258.9111053418
 10
6570.9950063396
 20
5258.6802380938
  0
LWPOLYLINE
  5
3E0
330
1F
100
AcDbEntity
  8
0
  6
Continuous
 62
     7
370
    25
100
AcDbPolyline
 90
       12
 70
   128
 43
0.0
 10
6432.3935789463
 20
5168.31205726
 10
6432.3925969471
 20
5168.3381135817
 10
6432.4303141807
 20
5168.0858940755
 10
6432.5028159051
 20
5167.3583190467
 10
6432.5704333121
 20
5166.2319672105
 10
6432.5876674774
 20
5164.8352562241
 10
6432.5267264102
 20
5163.3396290636
 10
6432.3919286446
 20
5161.9067446281
 10
6432.2160143906
 20
5160.6763337407
 10
6432.0526091344
 20
5159.7900325193
 10
6431.9582662314
 20
5159.3667963906
 10
6431.9596986784
 20
5159.3939240527
  0
LWPOLYLINE
  5
3E1
330
1F
100
AcDbEntity
  8
0
  6
Continuous
 62
     7
370
    25
100
AcDbPolyline
 90
       21
 70
   128
 43
0.0
 10
6488.5381828952
 20
5184.3103983771
 10
6488.5448114941
 20
5184.3142003905
 10
6488.4530775758
 20
5184.0484936182
 10
6488.2610590612
 20
5183.510845801
 10
6487.9935504659
 20
5182.7330914287
 10
6487.6663304148
 20
5181.7046943695
 10
6487.3042686884
 20
5180.4166770877
 10
6486.9491133908
 20
5178.8904800212
 10
6486.6539287794
 20
5177.2016251243
 10
6486.450607126
 20
5175.3274979524
 10
6486.3808030409
 20
5173.5601020154
 10
6486.4336917247
 20
5171.7293860051
 10
6486.5878638892
 20
5170.0905064014
 10
6486.8322571886
 20
5168.4963894508
 10
6487.1413801531
 20
5167.0084982586
 10
6487.4885694337
 20
5165.6503507979
 10
6487.8446179228
 20
5164.4468882313
 10
6488.1650709713
 20
5163.4658244674
 10
6488.3966639754
 20
5162.7946027591
 10
6488.5264928526
 20
5162.415376696
 10
6488.530282265
 20
5162.3854975425
  0
ARC
  5
3E2
330
1F
100
AcDbEntity
  8
0
  6
Continuous
 62
     7
370
    25
100
AcDbCircle
 10
6582.8829062384
 20
5250.8096197235
 30
0.0
 40
33.51987671737035
100
AcDbArc
 50
95.5271797026
 51
96.8267041843
  0
LWPOLYLINE
  5
3E3
330
1F
100
AcDbEntity
  8
0
  6
Continuous
 62
     7
370
    25
100
AcDbPolyline
 90
       13
 70
   128
 43
0.0
 10
6569.49250533
 20
5282.9027330109
 10
6569.4925630017
 20
5282.9027398003
 10
6569.8952989144
 20
5282.9502304984
 10
6571.708846266
 20
5283.1689572118
 10
6573.4309500297
 20
5283.3870228005
 10
6574.9289025508
 20
5283.5812338972
 10
6576.2335421732
 20
5283.751313173
 10
6577.6344247007
 20
5283.9279591913
 10
6578.2401131261
 20
5284.0012136255
 10
6578.7294948129
 20
5284.059758916
 10
6579.1747327953
 20
5284.1135499867
 10
6579.4357934152
 20
5284.1458521842
 10
6579.6543409956
 20
5284.1736497802
  0
LWPOLYLINE
  5
3E4
330
1F
100
AcDbEntity
  8
0
  6
Continuous
 62
     7
370
    25
100
AcDbPolyline
 90
        8
 70
   128
 43
0.0
 10
6568.9719070861
 20
5280.779311362
 10
6568.97190043
 20
5280.7793709239
 10
6568.9379430123
 20
5281.4281800516
 10
6568.9879958411
 20
5282.0061517573
 10
6569.1057581252
 20
5282.4607299772
 10
6569.3006823319
 20
5282.7809807223
 10
6569.4924978977
 20
5282.9027305113
 10
6569.49250533
 20
5282.9027330109
  0
LWPOLYLINE
  5
3E5
330
1F
100
AcDbEntity
  8
0
  6
Continuous
 62
     7
370
    25
100
AcDbPolyline
 90
       18
 70
   128
 43
0.0
 10
6570.5383210072
 20
5268.238707177
 10
6570.5382975109
 20
5268.2387623021
 10
6570.5297186802
 20
5268.2589054629
 10
6570.471539951
 20
5268.3963858981
 10
6570.244607302
 20
5268.9490996868
 10
6569.4607159766
 20
5271.2151182101
 10
6569.0044067465
 20
5273.3587446802
 10
6568.8097682919
 20
5275.5431660094
 10
6568.8047956885
 20
5277.3742612149
 10
6568.8482753138
 20
5278.6067357057
 10
6568.8904212681
 20
5279.4354256734
 10
6568.9226844994
 20
5279.9927198129
 10
6568.9457292896
 20
5280.3681113496
 10
6568.9617406952
 20
5280.6212038635
 10
6568.9677764997
 20
5280.7152909098
 10
6568.970850641
 20
5280.7629646246
 10
6568.9719032797
 20
5280.7792524973
 10
6568.9719070861
 20
5280.779311362
  0
ARC
  5
3E6
330
1F
100
AcDbEntity
  8
0
  6
Continuous
 62
     7
370
    25
100
AcDbCircle
 10
6572.9040070188
 20
5268.4027974138
 30
0.0
 40
2.371370049453658
100
AcDbArc
 50
183.9678315916
 51
242.847635398
  0
ARC
  5
3E7
330
1F
100
AcDbEntity
  8
0
  6
Continuous
 62
     7
370
    25
100
AcDbCircle
 10
6537.6242145948
 20
5545.5137905054
 30
0.0
 40
281.3021033592791
100
AcDbArc
 50
277.0508360564
 51
279.1660864831
  0
LWPOLYLINE
  5
3E8
330
1F
100
AcDbEntity
  8
0
  6
Continuous
 62
     7
370
    25
100
AcDbPolyline
 90
       20
 70
   128
 43
0.0
 10
6555.2069256265
 20
5260.7369170415
 10
6555.3498959553
 20
5260.8209322728
 10
6555.8144457988
 20
5261.1008090748
 10
6556.5423834411
 20
5261.5141801179
 10
6557.5572617118
 20
5262.0391416841
 10
6558.8566050425
 20
5262.6339628396
 10
6560.4410576992
 20
5263.258485703
 10
6562.2153355647
 20
5263.8494643094
 10
6564.2143237244
 20
5264.4071983301
 10
6566.1912897258
 20
5264.8730388388
 10
6568.265756452
 20
5265.2947387466
 10
6570.2488569018
 20
5265.6529928245
 10
6572.2046398283
 20
5265.9795457185
 10
6573.9886418867
 20
5266.2657249749
 10
6575.6269894186
 20
5266.5267220374
 10
6576.9862848387
 20
5266.7467450034
 10
6578.0992672872
 20
5266.9320304661
 10
6578.8725474161
 20
5267.0649131315
 10
6579.3294069597
 20
5267.1461584175
 10
6579.3653561577
 20
5267.1533726665
  0
LWPOLYLINE
  5
3E9
330
1F
100
AcDbEntity
  8
0
  6
Continuous
 62
     7
370
    25
100
AcDbPolyline
 90
       45
 70
   128
 43
0.0
 10
6581.8065498069
 20
5282.5291612167
 10
6581.8065478364
 20
5282.5291609966
 10
6581.7832283476
 20
5282.5263931952
 10
6581.6527318823
 20
5282.5095500654
 10
6581.3589216054
 20
5282.4712256623
 10
6580.7874446472
 20
5282.3972578463
 10
6579.6004794007
 20
5282.2460833261
 10
6578.0068483832
 20
5282.0375029571
 10
6576.4959034419
 20
5281.8309939393
 10
6574.7214288111
 20
5281.5880329872
 10
6572.7349631036
 20
5281.321238603
 10
6570.5976776735
 20
5281.0493332879
 10
6569.6284650289
 20
5280.894907857
 10
6569.3975926203
 20
5280.8103305439
 10
6569.3516492943
 20
5280.77786111
 10
6569.3372898249
 20
5280.7578058578
 10
6569.3340414464
 20
5280.7342087905
 10
6569.3001167107
 20
5280.3247457084
 10
6569.2711587061
 20
5279.9669129135
 10
6569.2280099765
 20
5279.4121896832
 10
6569.1694781808
 20
5278.5880657735
 10
6569.1018491571
 20
5277.36422654
 10
6569.0746654897
 20
5275.5502446037
 10
6569.2469337466
 20
5273.3962393335
 10
6569.7065308978
 20
5271.2867072362
 10
6570.5222582119
 20
5269.0645506007
 10
6570.7597258803
 20
5268.5227608238
 10
6570.8206295431
 20
5268.3879920029
 10
6570.8364592701
 20
5268.3581271473
 10
6570.8637363924
 20
5268.3383134243
 10
6570.9689413206
 20
5268.3069305722
 10
6571.0773557995
 20
5268.2938622866
 10
6571.3905451495
 20
5268.2878864112
 10
6573.0282257794
 20
5268.4312135258
 10
6574.6224487714
 20
5268.6859675425
 10
6576.1349014654
 20
5268.9339744012
 10
6577.8883083526
 20
5269.1807411995
 10
6579.4228125077
 20
5269.3979286079
 10
6580.8051703729
 20
5269.5996666782
 10
6581.9710730093
 20
5269.7778125564
 10
6582.875149293
 20
5269.9222216418
 10
6583.4520689751
 20
5270.0160957767
 10
6583.7763356202
 20
5270.0685327454
 10
6583.9347469826
 20
5270.0955247432
 10
6583.9964820135
 20
5270.1090422503
  0
LINE
  5
3EA
330
1F
100
AcDbEntity
  8
0
  6
Continuous
 62
     7
370
    25
100
AcDbLine
 10
6583.9964820135
 20
5270.1090422503
 30
0.0
 11
6581.8065498069
 21
5282.5291612167
 31
0.0
  0
ARC
  5
3EB
330
1F
100
AcDbEntity
  8
0
  6
Continuous
 62
     7
370
    25
100
AcDbCircle
 10
6579.8359450319
 20
5282.1807366234
 30
0.0
 40
2.001170376681792
100
AcDbArc
 50
10.0268935908
 51
95.206692956
  0
ARC
  5
3EC
330
1F
100
AcDbEntity
  8
0
  6
Continuous
 62
     7
370
    25
100
AcDbCircle
 10
6582.0256177804
 20
5269.7625314319
 30
0.0
 40
2.00109359419859
100
AcDbArc
 50
281.7978360789
 51
9.9716414309
  0
LWPOLYLINE
  5
3ED
330
1F
100
AcDbEntity
  8
0
  6
Continuous
 62
     8
370
    25
100
AcDbPolyline
 90
        7
 70
   128
 43
0.0
 10
6488.5491055729
 20
5183.7285179949
 10
6488.556720796
 20
5183.7389761705
 10
6488.4711239853
 20
5183.5184209833
 10
6488.2799752534
 20
5183.0485352553
 10
6487.9970566439
 20
5182.3346026105
 10
6487.6522251198
 20
5181.4027393397
 10
6487.2526566084
 20
5180.1948862103
  0
ARC
  5
3EE
330
1F
100
AcDbEntity
  8
0
  6
Continuous
 62
     8
370
    25
100
AcDbCircle
 10
6501.6970312409
 20
5169.6947136911
 30
0.0
 40
14.76893878058455
100
AcDbArc
 50
193.5279794749
 51
207.1093171625
  0
LINE
  5
3EF
330
1F
100
AcDbEntity
  8
0
  6
Continuous
 62
     8
370
    25
100
AcDbLine
 10
6572.1540304561
 20
5266.3389972827
 30
0.0
 11
6571.821812583
 21
5266.292761605
 31
0.0
  0
LINE
  5
3F0
330
1F
100
AcDbEntity
  8
0
  6
Continuous
 62
     7
370
    25
100
AcDbLine
 10
6300.1777702223
 20
4996.0437193473
 30
0.0
 11
6300.8008740587
 21
4996.0486968484
 31
0.0
  0
LINE
  5
3F1
330
1F
100
AcDbEntity
  8
0
  6
Continuous
 62
     7
370
    25
100
AcDbLine
 10
6300.6331264342
 20
5017.0480268552
 30
0.0
 11
6294.6144100333
 21
5016.9999479223
 31
0.0
  0
LWPOLYLINE
  5
3F2
330
1F
100
AcDbEntity
  8
0
  6
Continuous
 62
     7
370
    25
100
AcDbPolyline
 90
       11
 70
   128
 43
0.0
 10
6300.8261436543
 20
4996.0597542001
 10
6301.0509516491
 20
4996.0664292178
 10
6301.5849915658
 20
4996.1669723307
 10
6302.1902721327
 20
4996.3319450533
 10
6302.8410098425
 20
4996.5222672678
 10
6303.6105115578
 20
4996.7333008188
 10
6304.4281604291
 20
4996.9240993239
 10
6305.3073539771
 20
4997.082978197
 10
6306.2292066918
 20
4997.1917850663
 10
6307.1775845781
 20
4997.2426242966
 10
6307.3371879985
 20
4997.240203594
  0
LWPOLYLINE
  5
3F3
330
1F
100
AcDbEntity
  8
0
  6
Continuous
 62
     7
370
    25
100
AcDbPolyline
 90
       11
 70
   128
 43
0.0
 10
6307.1877818239
 20
5015.963846057
 10
6306.8765166971
 20
5015.9575584131
 10
6305.92238558
 20
5016.0036589385
 10
6304.9919688406
 20
5016.1087273162
 10
6304.1175931698
 20
5016.2615731891
 10
6303.299557087
 20
5016.4457665082
 10
6302.5667194175
 20
5016.6381740897
 10
6301.9120943179
 20
5016.8181678844
 10
6301.3087076493
 20
5016.9661972895
 10
6300.7168912806
 20
5017.046100272
 10
6300.6526873572
 20
5017.0415153911
  0
ARC
  5
3F4
330
1F
100
AcDbEntity
  8
0
  6
Continuous
 62
     7
370
    25
100
AcDbCircle
 10
6314.0472796946
 20
5014.7200359281
 30
0.0
 40
1.301526908007386
100
AcDbArc
 50
3.2771034192
 51
98.66017095
  0
LINE
  5
3F5
330
1F
100
AcDbEntity
  8
0
  6
Continuous
 62
     7
370
    25
100
AcDbLine
 10
6313.8505164071
 20
5016.0096636134
 30
0.0
 11
6307.1881261393
 21
5015.9564428611
 31
0.0
  0
LWPOLYLINE
  5
3F6
330
1F
100
AcDbEntity
  8
0
  6
Continuous
 62
     7
370
    25
100
AcDbPolyline
 90
        8
 70
   128
 43
0.0
 10
6313.9993881729
 20
4997.2986213716
 10
6314.0072773323
 20
4997.2981539037
 10
6314.4623045048
 20
4997.3599257348
 10
6314.8858797646
 20
4997.5386074213
 10
6315.200968742
 20
4997.800492091
 10
6315.4057918199
 20
4998.127155358
 10
6315.488747971
 20
4998.495126052
 10
6315.4808378828
 20
4998.5532333472
  0
LINE
  5
3F7
330
1F
100
AcDbEntity
  8
0
  6
Continuous
 62
     7
370
    25
100
AcDbLine
 10
6307.3375986924
 20
4997.2448606389
 30
0.0
 11
6313.9999889602
 21
4997.2980813912
 31
0.0
  0
LWPOLYLINE
  5
3F8
330
1F
100
AcDbEntity
  8
0
  6
Continuous
 62
     7
370
    25
100
AcDbPolyline
 90
        3
 70
   128
 43
0.0
 10
6255.7769424119
 20
4887.4624668244
 10
6255.7840673097
 20
4887.4351275624
 10
6255.8708608973
 20
4887.1629442479
  0
ARC
  5
3F9
330
1F
100
AcDbEntity
  8
0
  6
Continuous
 62
     7
370
    25
100
AcDbCircle
 10
6272.4205954108
 20
4896.2007833178
 30
0.0
 40
19.82711158213747
100
AcDbArc
 50
235.192292726
 51
273.0131210404
  0
ARC
  5
3FA
330
1F
100
AcDbEntity
  8
0
  6
Continuous
 62
     7
370
    25
100
AcDbCircle
 10
6277.0848079941
 20
4893.6276395629
 30
0.0
 40
22.18185047655051
100
AcDbArc
 50
189.9923406702
 51
196.1371593182
  0
ARC
  5
3FB
330
1F
100
AcDbEntity
  8
0
  6
Continuous
 62
     7
370
    25
100
AcDbCircle
 10
6275.3986707371
 20
4892.4204876587
 30
0.0
 40
20.33159398155493
100
AcDbArc
 50
183.8071454901
 51
187.4657796105
  0
LWPOLYLINE
  5
3FC
330
1F
100
AcDbEntity
  8
0
  6
Continuous
 62
     7
370
    25
100
AcDbPolyline
 90
        5
 70
   128
 43
0.0
 10
6291.473836954
 20
4890.0693017938
 10
6291.4961692974
 20
4890.2490391093
 10
6291.5078933805
 20
4890.3982160787
 10
6291.5103088627
 20
4890.4383734109
 10
6291.5103457099
 20
4890.4386756007
  0
ARC
  5
3FD
330
1F
100
AcDbEntity
  8
0
  6
Continuous
 62
     7
370
    25
100
AcDbCircle
 10
6279.1599018042
 20
4891.8238354723
 30
0.0
 40
12.42790925211299
100
AcDbArc
 50
353.6158476267
 51
357.860938388
  0
ARC
  5
3FE
330
1F
100
AcDbEntity
  8
0
  6
Continuous
 62
     7
370
    25
100
AcDbCircle
 10
6277.5397611819
 20
4892.1542260364
 30
0.0
 40
14.0891936149282
100
AcDbArc
 50
346.3272712605
 51
351.4900952114
  0
LWPOLYLINE
  5
3FF
330
1F
100
AcDbEntity
  8
0
  6
Continuous
 62
     7
370
    25
100
AcDbPolyline
 90
        8
 70
   128
 43
0.0
 10
6273.4666958873
 20
4876.3991023436
 10
6276.0922374501
 20
4876.5726064628
 10
6277.8207723145
 20
4876.7655198961
 10
6279.3442395934
 20
4877.0396547658
 10
6280.6353251287
 20
4877.3789867964
 10
6281.8782803873
 20
4877.8357932903
 10
6283.1060330773
 20
4878.4179781074
 10
6283.3407162109
 20
4878.5531465404
  0
LWPOLYLINE
  5
400
330
1F
100
AcDbEntity
  8
0
  6
Continuous
 62
     7
370
    25
100
AcDbPolyline
 90
        3
 70
   128
 43
0.0
 10
6290.9701859532
 20
4887.7618741163
 10
6291.0621712786
 20
4888.0976771839
 10
6291.2296915449
 20
4888.8238832048
  0
LWPOLYLINE
  5
401
330
1F
100
AcDbEntity
  8
0
  6
Continuous
 62
     7
370
    25
100
AcDbPolyline
 90
       43
 70
   128
 43
0.0
 10
6291.5832918025
 20
4891.3415537659
 10
6291.6315911198
 20
4892.4549253767
 10
6291.769523656
 20
4895.4720106497
 10
6291.927185387
 20
4898.7124530637
 10
6292.0813550961
 20
4901.7140738472
 10
6292.2269594836
 20
4904.4490074477
 10
6292.426573131
 20
4908.1240137434
 10
6292.6046423956
 20
4911.4116924478
 10
6292.7609454728
 20
4914.3665000822
 10
6292.9154098805
 20
4917.3754119862
 10
6293.0782203148
 20
4920.6255338727
 10
6293.2493955121
 20
4924.1025941684
 10
6293.4878890257
 20
4928.9930204283
 10
6293.7193024977
 20
4933.7172983799
 10
6293.9471318711
 20
4938.2725162793
 10
6294.1875989927
 20
4942.8980410104
 10
6294.4395709852
 20
4947.5096362697
 10
6294.6596311811
 20
4951.3990051617
 10
6294.8586972007
 20
4954.8569647866
 10
6295.0318586278
 20
4957.8807555819
 10
6295.123390924
 20
4959.5106614936
 10
6295.2204716063
 20
4961.277746793
 10
6295.3251080071
 20
4963.2429535597
 10
6295.4370641953
 20
4965.4384198198
 10
6295.5450340377
 20
4967.6527361507
 10
6295.659346311
 20
4970.0145051708
 10
6295.7791209886
 20
4972.3745321955
 10
6295.8949723351
 20
4974.4665072683
 10
6296.0049327882
 20
4976.2885223204
 10
6296.1333524822
 20
4978.2346091029
 10
6296.2508146774
 20
4979.8609631447
 10
6296.3632797702
 20
4981.2967698536
 10
6296.4902400238
 20
4982.7875077792
 10
6296.5991886016
 20
4983.9615276521
 10
6296.6970337607
 20
4984.9304768833
 10
6296.7783950242
 20
4985.6550126813
 10
6296.8477036306
 20
4986.1941617269
 10
6296.9118026574
 20
4986.6315662472
 10
6296.9791936351
 20
4987.0408133165
 10
6297.0505126859
 20
4987.4350108235
 10
6297.120616023
 20
4987.7979091271
 10
6297.1766026615
 20
4988.0636994869
 10
6297.1785371935
 20
4988.0759086936
  0
LWPOLYLINE
  5
402
330
1F
100
AcDbEntity
  8
0
  6
Continuous
 62
     7
370
    25
100
AcDbPolyline
 90
       45
 70
   128
 43
0.0
 10
6247.9668524803
 20
4987.6914023051
 10
6247.971321695
 20
4987.67020945
 10
6248.0148864658
 20
4987.4813233454
 10
6248.0751729373
 20
4987.2009195344
 10
6248.1493387783
 20
4986.836541081
 10
6248.2347032112
 20
4986.3825967025
 10
6248.3489989899
 20
4985.6822339434
 10
6248.446546304
 20
4984.9784578867
 10
6248.5541998521
 20
4984.1012275292
 10
6248.6806195552
 20
4982.979516067
 10
6248.7972712012
 20
4981.8733527986
 10
6248.9150235656
 20
4980.6877914487
 10
6249.0227344685
 20
4979.5424447001
 10
6249.1193651449
 20
4978.4631079168
 10
6249.2072389011
 20
4977.4362131076
 10
6249.3671636614
 20
4975.4505459385
 10
6249.54766446
 20
4973.0196279203
 10
6249.748808417
 20
4970.0651572314
 10
6249.9693909529
 20
4966.650249379
 10
6250.2051115947
 20
4963.0878220333
 10
6250.454489372
 20
4959.5177355016
 10
6250.7181943165
 20
4955.8822733786
 10
6251.0065943473
 20
4951.9664391361
 10
6251.3206066144
 20
4947.6567170932
 10
6251.5120131656
 20
4944.977536945
 10
6251.6764516113
 20
4942.6320523882
 10
6251.815341358
 20
4940.6130584828
 10
6251.9691006956
 20
4938.3377177886
 10
6252.1566752627
 20
4935.5154724609
 10
6252.3281127547
 20
4932.9025635903
 10
6252.5209757648
 20
4929.9385245763
 10
6252.7213544058
 20
4926.846459552
 10
6252.9068204513
 20
4923.9863561688
 10
6253.0766307742
 20
4921.380075966
 10
6253.2575586393
 20
4918.6272175156
 10
6253.4156240634
 20
4916.2513724103
 10
6253.5519893578
 20
4914.2299050348
 10
6253.6859206887
 20
4912.2759013147
 10
6253.8239165619
 20
4910.2920981073
 10
6253.9660459068
 20
4908.2692836398
 10
6254.318189265
 20
4903.2565274997
 10
6254.6851591601
 20
4897.8432043277
 10
6254.8680679718
 20
4895.0005711476
 10
6255.050229402
 20
4892.0449515192
 10
6255.109256053
 20
4891.0472328394
  0
ARC
  5
403
330
1F
100
AcDbEntity
  8
0
  6
Continuous
 62
     7
370
    25
100
AcDbCircle
 10
6272.4735119077
 20
5000.4468332491
 30
0.0
 40
30.00000000000062
100
AcDbArc
 50
323.119782183
 51
331.8365137202
  0
ARC
  5
404
330
1F
100
AcDbEntity
  8
0
  6
Continuous
 62
     7
370
    25
100
AcDbCircle
 10
6272.4735119077
 20
5000.4468332491
 30
0.0
 40
30.00000000000075
100
AcDbArc
 50
33.5409652479
 51
217.5903105739
  0
ARC
  5
405
330
1F
100
AcDbEntity
  8
0
  6
Continuous
 62
     7
370
    25
100
AcDbCircle
 10
6272.4735119077
 20
5000.4468332491
 30
0.0
 40
30.00000000000062
100
AcDbArc
 50
331.8365137202
 51
352.050945543
  0
LWPOLYLINE
  5
406
330
1F
100
AcDbEntity
  8
0
  6
Continuous
 62
     7
370
    25
100
AcDbPolyline
 90
        3
 70
   128
 43
0.0
 10
6298.0400401581
 20
4986.759151443
 10
6296.9456692174
 20
4984.8868359286
 10
6296.728450243
 20
4984.5503567102
  0
ARC
  5
407
330
1F
100
AcDbEntity
  8
0
  6
Continuous
 62
     7
370
    25
100
AcDbCircle
 10
6272.4735119077
 20
5000.4468332491
 30
0.0
 40
29.0000000000002
100
AcDbArc
 50
34.8377684832
 51
214.2304212466
  0
ARC
  5
408
330
1F
100
AcDbEntity
  8
0
  6
Continuous
 62
     7
370
    25
100
AcDbCircle
 10
6272.4735119077
 20
5000.4468332491
 30
0.0
 40
29.00000000000045
100
AcDbArc
 50
331.8365137202
 51
351.3163734589
  0
LINE
  5
409
330
1F
100
AcDbEntity
  8
0
  6
Continuous
 62
     7
370
    25
100
AcDbLine
 10
6313.8512192945
 20
5015.921673314
 30
0.0
 11
6307.1888290267
 21
5015.8684525617
 31
0.0
  0
LINE
  5
40A
330
1F
100
AcDbEntity
  8
0
  6
Continuous
 62
     7
370
    25
100
AcDbLine
 10
6313.9102817445
 20
5008.527995564
 30
0.0
 11
6313.8512192945
 21
5015.921673314
 31
0.0
  0
LINE
  5
40B
330
1F
100
AcDbEntity
  8
0
  6
Continuous
 62
     7
370
    25
100
AcDbLine
 10
6307.2478914767
 20
5008.4747748117
 30
0.0
 11
6313.9102817445
 21
5008.527995564
 31
0.0
  0
LWPOLYLINE
  5
40C
330
1F
100
AcDbEntity
  8
0
  6
Continuous
 62
     7
370
    25
100
AcDbPolyline
 90
       26
 70
   128
 43
0.0
 10
6307.2537999798
 20
5007.7351243572
 10
6306.9523675073
 20
5007.7254133791
 10
6305.9705263817
 20
5007.5905844764
 10
6304.9982108068
 20
5007.2888414354
 10
6304.1233033158
 20
5006.8461549587
 10
6303.3116664097
 20
5006.2454253244
 10
6302.5626566542
 20
5005.4574562654
 10
6301.9396250637
 20
5004.5294694211
 10
6301.4728048634
 20
5003.5478981423
 10
6301.130674131
 20
5002.5262742276
 10
6300.8460245838
 20
5001.2257223371
 10
6300.6916339857
 20
4999.9934702719
 10
6300.6328449804
 20
4998.9466624454
 10
6300.6418417658
 20
4998.0427569462
 10
6300.7062109106
 20
4997.4103489462
 10
6300.8409458167
 20
4996.9253117348
 10
6301.0259854615
 20
4996.6530932196
 10
6301.3080747515
 20
4996.501963865
 10
6301.6601471436
 20
4996.4735056317
 10
6302.1397793843
 20
4996.5385618845
 10
6302.7357387508
 20
4996.6754166977
 10
6303.4823608457
 20
4996.8624481688
 10
6304.3282446396
 20
4997.0550658265
 10
6305.2952366321
 20
4997.2278081904
 10
6306.2856492546
 20
4997.3419589843
 10
6307.3364468561
 20
4997.3890521891
  0
LINE
  5
40D
330
1F
100
AcDbEntity
  8
0
  6
Continuous
 62
     7
370
    25
100
AcDbLine
 10
6307.2537999798
 20
5007.7351243572
 30
0.0
 11
6307.2478914767
 21
5008.4747748117
 31
0.0
  0
LINE
  5
40E
330
1F
100
AcDbEntity
  8
0
  6
Continuous
 62
     7
370
    25
100
AcDbLine
 10
6307.2537999798
 20
5007.7351243572
 30
0.0
 11
6307.3364468561
 21
4997.3890521891
 31
0.0
  0
LWPOLYLINE
  5
40F
330
1F
100
AcDbEntity
  8
0
  6
Continuous
 62
     7
370
    25
100
AcDbPolyline
 90
        6
 70
   128
 43
0.0
 10
6313.9102817445
 20
5008.527995564
 10
6314.0649946299
 20
5008.5257521428
 10
6314.5516316182
 20
5008.4707411679
 10
6315.0002589254
 20
5008.3352053347
 10
6315.3106774592
 20
5008.1328107394
 10
6315.4152667681
 20
5007.9099411146
  0
ARC
  5
410
330
1F
100
AcDbEntity
  8
0
  6
Continuous
 62
     7
370
    25
100
AcDbCircle
 10
6314.0047683666
 20
5014.5571610085
 30
0.0
 40
1.373124593576568
100
AcDbArc
 50
9.1493310539
 51
96.4205049471
  0
LINE
  5
411
330
1F
100
AcDbEntity
  8
0
  6
Continuous
 62
     7
370
    25
100
AcDbLine
 10
6315.3604230645
 20
5014.7754990253
 30
0.0
 11
6315.4152667681
 21
5007.9099411146
 31
0.0
  0
LWPOLYLINE
  5
412
330
1F
100
AcDbEntity
  8
0
  6
Continuous
 62
     7
370
    25
100
AcDbPolyline
 90
        6
 70
   128
 43
0.0
 10
6314.6701298467
 20
5007.2981656064
 10
6314.6172769171
 20
5007.4794875876
 10
6314.4616015916
 20
5007.6390279861
 10
6314.2369925983
 20
5007.7437677257
 10
6313.9935537194
 20
5007.7863434725
 10
6313.9161902476
 20
5007.7883451095
  0
LINE
  5
413
330
1F
100
AcDbEntity
  8
0
  6
Continuous
 62
     7
370
    25
100
AcDbLine
 10
6313.9161902476
 20
5007.7883451095
 30
0.0
 11
6313.9102817445
 21
5008.527995564
 31
0.0
  0
ARC
  5
414
330
1F
100
AcDbEntity
  8
0
  6
Continuous
 62
     7
370
    25
100
AcDbCircle
 10
6314.7298113899
 20
5007.9851467377
 30
0.0
 40
0.6895686777032409
100
AcDbArc
 50
265.0348903539
 51
353.7387628827
  0
LINE
  5
415
330
1F
100
AcDbEntity
  8
0
  6
Continuous
 62
     7
370
    25
100
AcDbLine
 10
6313.9161902476
 20
5007.7883451095
 30
0.0
 11
6307.2537999798
 21
5007.7351243572
 31
0.0
  0
LINE
  5
416
330
1F
100
AcDbEntity
  8
0
  6
Continuous
 62
     7
370
    25
100
AcDbLine
 10
6314.7448496681
 20
4997.9444344176
 30
0.0
 11
6314.6701298467
 21
5007.2981656064
 31
0.0
  0
LWPOLYLINE
  5
417
330
1F
100
AcDbEntity
  8
0
  6
Continuous
 62
     7
370
    25
100
AcDbPolyline
 90
        6
 70
   128
 43
0.0
 10
6313.9988371239
 20
4997.4422729414
 10
6314.2281271951
 20
4997.4676788024
 10
6314.4308967191
 20
4997.535930176
 10
6314.594280531
 20
4997.6416804751
 10
6314.7063670502
 20
4997.7835552009
 10
6314.7448496681
 20
4997.9444344176
  0
LINE
  5
418
330
1F
100
AcDbEntity
  8
0
  6
Continuous
 62
     7
370
    25
100
AcDbLine
 10
6307.3364468561
 20
4997.3890521891
 30
0.0
 11
6313.9988371239
 21
4997.4422729414
 31
0.0
  0
ARC
  5
419
330
1F
100
AcDbEntity
  8
0
  6
Continuous
 62
     7
370
    25
100
AcDbCircle
 10
6314.8045312113
 20
4998.6314155488
 30
0.0
 40
0.6895686777028157
100
AcDbArc
 50
265.0348903542
 51
353.7387628827
  0
LINE
  5
41A
330
1F
100
AcDbEntity
  8
0
  6
Continuous
 62
     7
370
    25
100
AcDbLine
 10
6315.4152667681
 20
5007.9099411146
 30
0.0
 11
6315.4899865895
 21
4998.5562099257
 31
0.0
  0
LINE
  5
41B
330
1F
100
AcDbEntity
  8
0
  6
Continuous
 62
     7
370
    25
100
AcDbLine
 10
6255.1125357411
 20
4891.0474259808
 30
0.0
 11
6255.1115767315
 21
4891.0704695158
 31
0.0
  0
ARC
  5
41C
330
1F
100
AcDbEntity
  8
0
  6
Continuous
 62
     7
370
    25
100
AcDbCircle
 10
6245.7668891032
 20
4848.8832896199
 30
0.0
 40
43.64769698050107
100
AcDbArc
 50
74.5020955856
 51
77.3085931962
  0
LWPOLYLINE
  5
41D
330
1F
100
AcDbEntity
  8
0
  6
Continuous
 62
     7
370
    25
100
AcDbPolyline
 90
       13
 70
   128
 43
0.0
 10
6257.4296904079
 20
4890.9439662363
 10
6257.4297055035
 20
4890.9439085646
 10
6257.5376686268
 20
4890.5411726519
 10
6258.1558479683
 20
4888.7276253004
 10
6259.1062739714
 20
4887.0055215366
 10
6260.3214118287
 20
4885.5075690156
 10
6261.8269423074
 20
4884.2029293931
 10
6263.9810143322
 20
4882.8020468656
 10
6265.1475556718
 20
4882.1963584402
 10
6266.3669676646
 20
4881.7069767535
 10
6268.07061223
 20
4881.261738771
 10
6269.8152526329
 20
4881.0006781511
 10
6273.4294219107
 20
4880.7821305707
  0
LINE
  5
41E
330
1F
100
AcDbEntity
  8
0
  6
Continuous
 62
     7
370
    25
100
AcDbLine
 10
6273.4466142647
 20
4878.6299217594
 30
0.0
 11
6273.4294219107
 21
4880.7821305707
 31
0.0
  0
LWPOLYLINE
  5
41F
330
1F
100
AcDbEntity
  8
0
  6
Continuous
 62
     7
370
    25
100
AcDbPolyline
 90
       13
 70
   128
 43
0.0
 10
6255.7808228339
 20
4887.4763228088
 10
6256.0237583312
 20
4886.6307828925
 10
6257.0395544889
 20
4884.3015701009
 10
6258.2142339096
 20
4882.5702843272
 10
6259.7034813633
 20
4881.0136590586
 10
6261.0022329748
 20
4879.987570088
 10
6262.3863901124
 20
4879.0753380152
 10
6263.8790435778
 20
4878.2399792868
 10
6265.448551816
 20
4877.5613222734
 10
6266.9875153871
 20
4877.1057216729
 10
6268.5659196599
 20
4876.8020976838
 10
6271.8528634352
 20
4876.5017245837
 10
6273.4641079622
 20
4876.4399895528
  0
LINE
  5
420
330
1F
100
AcDbEntity
  8
0
  6
Continuous
 62
     7
370
    25
100
AcDbLine
 10
6273.4641239356
 20
4876.4379899302
 30
0.0
 11
6273.4641079622
 21
4876.4399895528
 31
0.0
  0
LWPOLYLINE
  5
421
330
1F
100
AcDbEntity
  8
0
  6
Continuous
 62
     7
370
    25
100
AcDbPolyline
 90
       12
 70
   128
 43
0.0
 10
6273.4294219107
 20
4880.7821305707
 10
6274.0164758962
 20
4880.8117655881
 10
6277.2585492783
 20
4881.0867835938
 10
6278.8874961383
 20
4881.3708153264
 10
6280.4762000388
 20
4881.8196846453
 10
6282.7914096645
 20
4882.9215081093
 10
6284.9757720394
 20
4884.3878477309
 10
6286.4203357207
 20
4885.6740907832
 10
6287.6513204919
 20
4887.2335461329
 10
6288.6290582369
 20
4889.1051233948
 10
6289.2647646595
 20
4891.1982438366
 10
6289.2647716527
 20
4891.1982724095
  0
ARC
  5
422
330
1F
100
AcDbEntity
  8
0
  6
Continuous
 62
     7
370
    25
100
AcDbCircle
 10
6291.2388877678
 20
4887.963072574
 30
0.0
 40
3.789940950998817
100
AcDbArc
 50
88.6285359273
 51
121.39150541
  0
LINE
  5
423
330
1F
100
AcDbEntity
  8
0
  6
Continuous
 62
     7
370
    25
100
AcDbLine
 10
6291.5803876684
 20
4891.3598731741
 30
0.0
 11
6291.5800975911
 21
4891.341690991
 31
0.0
  0
LWPOLYLINE
  5
424
330
1F
100
AcDbEntity
  8
0
  6
Continuous
 62
     7
370
    25
100
AcDbPolyline
 90
       15
 70
   128
 43
0.0
 10
6273.4641079622
 20
4876.4399895528
 10
6275.0741606092
 20
4876.5274570681
 10
6277.2407237913
 20
4876.7205048974
 10
6279.3865173616
 20
4877.0790973309
 10
6281.4607273868
 20
4877.6892313224
 10
6283.4992400138
 20
4878.625993317
 10
6285.406763148
 20
4879.8225221988
 10
6287.1499120361
 20
4881.2329076479
 10
6288.5946501559
 20
4882.7906909482
 10
6289.7609730793
 20
4884.5629565426
 10
6290.4491781838
 20
4886.0865980649
 10
6290.9532357842
 20
4887.6890781061
 10
6291.3360339102
 20
4889.3330839093
 10
6291.3994024467
 20
4889.6473257081
 10
6291.4123211375
 20
4889.7145852356
  0
LWPOLYLINE
  5
425
330
1F
100
AcDbEntity
  8
0
  6
Continuous
 62
     7
370
    25
100
AcDbPolyline
 90
       20
 70
   128
 43
0.0
 10
6272.2530602013
 20
5028.0438746192
 10
6270.7679317031
 20
5028.0061573856
 10
6269.4506113986
 20
5027.9336556612
 10
6268.4439176768
 20
5027.8660382542
 10
6267.8663459983
 20
5027.8488040889
 10
6267.7816838373
 20
5027.9097451561
 10
6268.1884677833
 20
5028.0445429218
 10
6269.049493702
 20
5028.2204571757
 10
6270.2848198844
 20
5028.3838624319
 10
6271.7423047522
 20
5028.4782053349
 10
6273.233689421
 20
5028.4739690645
 10
6274.6042661512
 20
5028.3790895005
 10
6275.7298864163
 20
5028.2268937872
 10
6276.4820236178
 20
5028.0676485903
 10
6276.7537434332
 20
5027.9542736348
 10
6276.5150900948
 20
5027.914553021
 10
6275.8059864115
 20
5027.9395085184
 10
6274.6991244237
 20
5027.9953790523
 10
6273.3093995861
 20
5028.0391364216
 10
6272.2530602013
 20
5028.0438746192
  0
LWPOLYLINE
  5
426
330
1F
100
AcDbEntity
  8
0
  6
Continuous
 62
     7
370
    25
100
AcDbPolyline
 90
       23
 70
   128
 43
0.0
 10
6294.4750590419
 20
5017.3988475157
 10
6294.4710470755
 20
5017.2865665754
 10
6294.6342564812
 20
5016.9602698754
 10
6294.9480110336
 20
5016.4349800863
 10
6295.3803080857
 20
5015.7338270303
 10
6295.9430233786
 20
5014.8034573264
 10
6296.559761
 20
5013.713971689
 10
6297.3031737132
 20
5012.2072134088
 10
6297.9986172969
 20
5010.5153938568
 10
6298.6424701086
 20
5008.6277880976
 10
6299.1999396829
 20
5006.6466236938
 10
6299.6195541755
 20
5004.7571627856
 10
6299.9297811807
 20
5002.9019511955
 10
6300.1166508616
 20
5001.2661846062
 10
6300.2167870592
 20
4999.7668792632
 10
6300.2460772977
 20
4998.4735410997
 10
6300.2319674512
 20
4997.3918337122
 10
6300.1994162138
 20
4996.5367946713
 10
6300.1739890287
 20
4995.957587315
 10
6300.1778108766
 20
4995.673019862
 10
6300.2211473744
 20
4995.6949633033
 10
6300.3057908357
 20
4996.0224178348
 10
6300.3099020134
 20
4996.0447748473
  0
ARC
  5
427
330
1F
100
AcDbEntity
  8
0
  6
Continuous
 62
     7
370
    25
100
AcDbCircle
 10
6293.7293709927
 20
5016.0391219993
 30
0.0
 40
1.550775337244061
100
AcDbArc
 50
38.4095447142
 51
61.2591641486
  0
LINE
  5
428
330
1F
100
AcDbEntity
  8
0
  6
Continuous
 62
     7
370
    25
100
AcDbLine
 10
6273.4641079622
 20
4876.4399895528
 30
0.0
 11
6273.4466142647
 21
4878.6299217594
 31
0.0
  0
ARC
  5
429
330
1F
100
AcDbEntity
  8
0
  6
Continuous
 62
     8
370
    25
100
AcDbCircle
 10
6300.6979111756
 20
4996.6146539808
 30
0.0
 40
0.5625756753704171
100
AcDbArc
 50
205.9437330172
 51
280.5350992923
  0
LWPOLYLINE
  5
42A
330
1F
100
AcDbEntity
  8
0
  6
Continuous
 62
     8
370
    25
100
AcDbPolyline
 90
       12
 70
   128
 43
0.0
 10
6300.1384955761
 20
5000.9391111008
 10
6300.1491290954
 20
5001.0249362967
 10
6300.4702132751
 20
5002.520452415
 10
6300.8388440942
 20
5003.6492332828
 10
6301.3654186562
 20
5004.7907109795
 10
6302.0288962633
 20
5005.8171032555
 10
6302.8839454227
 20
5006.7554910224
 10
6303.7524783075
 20
5007.4282078746
 10
6304.7508075064
 20
5007.958709656
 10
6305.7941857171
 20
5008.3000393574
 10
6306.9141657412
 20
5008.4636386381
 10
6307.2478914767
 20
5008.4747748117
  0
LWPOLYLINE
  5
42B
330
1F
100
AcDbEntity
  8
0
  6
Continuous
 62
     8
370
    25
100
AcDbPolyline
 90
        9
 70
   128
 43
0.0
 10
6307.1888290267
 20
5015.8684525617
 10
6306.0578624658
 20
5015.9057412147
 10
6304.926162388
 20
5016.0348544831
 10
6303.8826853055
 20
5016.2322410628
 10
6302.912292316
 20
5016.4762918847
 10
6302.1052362382
 20
5016.710856122
 10
6301.4195371964
 20
5016.9095734186
 10
6300.8994126369
 20
5017.0249577716
 10
6300.6332292009
 20
5017.0351621083
  0
LINE
  5
42C
330
1F
100
AcDbEntity
  8
0
  6
Continuous
 62
     8
370
    25
100
AcDbLine
 10
6307.3375983382
 20
4997.2449049756
 30
0.0
 11
6307.3364468561
 21
4997.3890521891
 31
0.0
  0
LINE
  5
42D
330
1F
100
AcDbEntity
  8
0
  6
Continuous
 62
     8
370
    25
100
AcDbLine
 10
6307.1888290267
 20
5015.8684525617
 30
0.0
 11
6307.1881270568
 21
5015.9563280105
 31
0.0
  0
LINE
  5
42E
330
1F
100
AcDbEntity
  8
0
  6
Continuous
 62
     8
370
    25
100
AcDbLine
 10
6313.8512192945
 20
5015.921673314
 30
0.0
 11
6313.850516436
 21
5016.0096600007
 31
0.0
  0
LINE
  5
42F
330
1F
100
AcDbEntity
  8
0
  6
Continuous
 62
     8
370
    25
100
AcDbLine
 10
6313.9999889601
 20
4997.2980814013
 30
0.0
 11
6313.9988371239
 21
4997.4422729414
 31
0.0
  0
LWPOLYLINE
  5
430
330
1F
100
AcDbEntity
  8
0
  6
Continuous
 62
     8
370
    25
100
AcDbPolyline
 90
       14
 70
   128
 43
0.0
 10
6255.1115767315
 20
4891.0704695158
 10
6255.0964061735
 20
4891.4349948417
 10
6255.1305549123
 20
4891.6267032744
 10
6255.191784347
 20
4891.6316758778
 10
6255.2453363098
 20
4891.5881962525
 10
6255.2855728218
 20
4891.5460502982
 10
6255.3141740953
 20
4891.5137870669
 10
6255.3340379655
 20
4891.4907422767
 10
6255.347673405
 20
4891.4747308711
 10
6255.3527888461
 20
4891.4686950666
 10
6255.355390066
 20
4891.4656209253
 10
6255.3562801816
 20
4891.4645682866
 10
6255.3562833998
 20
4891.4645644802
 10
6255.3562833998
 20
4891.4645644802
  0
LWPOLYLINE
  5
431
330
1F
100
AcDbEntity
  8
0
  6
Continuous
 62
     8
370
    25
100
AcDbPolyline
 90
       36
 70
   128
 43
0.0
 10
6273.4466142647
 20
4878.6299217594
 10
6273.4465542975
 20
4878.6299237299
 10
6272.7703210646
 20
4878.6532432187
 10
6269.2485363069
 20
4878.8996462719
 10
6267.4769413693
 20
4879.1864674798
 10
6265.7455489544
 20
4879.6490269191
 10
6264.4120291522
 20
4880.1771125437
 10
6263.1343201593
 20
4880.8291425901
 10
6260.665921277
 20
4882.4296231831
 10
6258.9654684361
 20
4883.9097535636
 10
6257.5125207767
 20
4885.7150427553
 10
6256.4477373737
 20
4887.6658761564
 10
6255.719583517
 20
4889.8387938928
 10
6255.4761825901
 20
4890.8080065374
 10
6255.4194408139
 20
4891.0388789461
 10
6255.4077077131
 20
4891.084822272
 10
6255.4036711716
 20
4891.0991817415
 10
6255.4020237966
 20
4891.1024301199
 10
6255.3786774577
 20
4891.1363548556
 10
6255.3586627348
 20
4891.1653128602
 10
6255.3284636081
 20
4891.2084615898
 10
6255.2858223723
 20
4891.2669933856
 10
6255.2287717652
 20
4891.3346224092
 10
6255.1630706365
 20
4891.3618060766
 10
6255.1262897013
 20
4891.1991123757
 10
6255.1465217853
 20
4890.7299406685
 10
6255.2317744918
 20
4889.9142133544
 10
6255.2614479284
 20
4889.676745686
 10
6255.2693123418
 20
4889.6158420232
 10
6255.2715453963
 20
4889.6000122963
 10
6255.2765191545
 20
4889.572735174
 10
6255.2974840638
 20
4889.4675302457
 10
6255.320109104
 20
4889.3591157669
 10
6255.3884897079
 20
4889.0459264168
 10
6255.6797035249
 20
4887.8282697787
 10
6255.7808228339
 20
4887.4763228088
  0
LWPOLYLINE
  5
432
330
1F
100
AcDbEntity
  8
0
  6
Continuous
 62
     8
370
    25
100
AcDbPolyline
 90
        6
 70
   128
 43
0.0
 10
6291.3295972679
 20
4891.7519278363
 10
6291.3296004743
 20
4891.751931754
 10
6291.4471280415
 20
4891.8876918752
 10
6291.5378446983
 20
4891.9297506731
 10
6291.586793166
 20
4891.7613728844
 10
6291.5803876684
 20
4891.3598731741
  0
LWPOLYLINE
  5
433
330
1F
100
AcDbEntity
  8
0
  6
Continuous
 62
     8
370
    25
100
AcDbPolyline
 90
       34
 70
   128
 43
0.0
 10
6291.4123211375
 20
4889.7145852356
 10
6291.4202926292
 20
4889.756087798
 10
6291.4395741668
 20
4889.8616142257
 10
6291.444111526
 20
4889.8889673256
 10
6291.4460914085
 20
4889.904830707
 10
6291.4529818539
 20
4889.965852229
 10
6291.4788578474
 20
4890.2037636164
 10
6291.5510680571
 20
4891.0207487216
 10
6291.5632310172
 20
4891.4805989309
 10
6291.5244269864
 20
4891.652269208
 10
6291.4591685137
 20
4891.6240394043
 10
6291.4032055915
 20
4891.5555076018
 10
6291.3615048694
 20
4891.4963020625
 10
6291.3319989172
 20
4891.4526763945
 10
6291.3115646155
 20
4891.4220736199
 10
6291.2975630465
 20
4891.4010211308
 10
6291.2923153769
 20
4891.3931237022
 10
6291.2896479693
 20
4891.3891089664
 10
6291.2880526988
 20
4891.3858346849
 10
6291.2842460715
 20
4891.3714125624
 10
6291.2732484336
 20
4891.3252876579
 10
6291.2202021902
 20
4891.0935382365
 10
6290.9923159375
 20
4890.1205608383
 10
6290.2984789329
 20
4887.971916846
 10
6289.2654862838
 20
4885.9686929687
 10
6287.8589918942
 20
4884.1715196031
 10
6286.164974278
 20
4882.6333156614
 10
6283.7592592595
 20
4881.0010439495
 10
6281.1304161303
 20
4879.7719248841
 10
6278.6282465643
 20
4879.1223710023
 10
6276.0459282893
 20
4878.791388747
 10
6273.4466741928
 20
4878.6299246876
 10
6273.4466142647
 20
4878.6299217594
 10
6273.4466142647
 20
4878.6299217594
  0
ENDSEC
  0
SECTION
  2
OBJECTS
  0
DICTIONARY
  5
C
330
0
100
AcDbDictionary
281
     1
  3
ACAD_GROUP
350
D
  3
ACAD_LAYOUT
350
1A
  3
ACAD_MLINESTYLE
350
17
  3
ACAD_PLOTSETTINGS
350
19
  3
ACAD_PLOTSTYLENAME
350
E
  3
ACAD_SCALELIST
350
47
  3
DWGPROPS
350
434
  0
DICTIONARY
  5
D
102
{ACAD_REACTORS
330
C
102
}
330
C
100
AcDbDictionary
281
     1
  0
DICTIONARY
  5
1A
102
{ACAD_REACTORS
330
C
102
}
330
C
100
AcDbDictionary
281
     1
  3
Layout1
350
1E
  3
Layout2
350
26
  3
Model
350
22
  0
DICTIONARY
  5
17
102
{ACAD_REACTORS
330
C
102
}
330
C
100
AcDbDictionary
281
     1
  3
Standard
350
18
  0
DICTIONARY
  5
19
102
{ACAD_REACTORS
330
C
102
}
330
C
100
AcDbDictionary
281
     1
  0
ACDBDICTIONARYWDFLT
  5
E
102
{ACAD_REACTORS
330
C
102
}
330
C
100
AcDbDictionary
281
     1
  3
Normal
350
F
100
AcDbDictionaryWithDefault
340
F
  0
DICTIONARY
  5
47
102
{ACAD_REACTORS
330
C
102
}
330
C
100
AcDbDictionary
281
     1
  3
A0
350
48
  3
A1
350
49
  3
A2
350
4A
  3
A3
350
4B
  3
A4
350
4C
  3
A5
350
4D
  3
A6
350
4E
  3
A7
350
4F
  3
A8
350
50
  3
A9
350
51
  3
B0
350
52
  3
B1
350
53
  3
B2
350
54
  3
B3
350
55
  3
B4
350
56
  3
B5
350
57
  3
B6
350
58
  3
B7
350
59
  3
B8
350
5A
  3
B9
350
5B
  3
C0
350
5C
  3
C1
350
5D
  3
C2
350
5E
  3
C3
350
5F
  3
C4
350
60
  3
C5
350
61
  3
C6
350
62
  3
C7
350
63
  3
C8
350
64
  3
C9
350
65
  3
D0
350
66
  3
D1
350
67
  3
D2
350
68
  0
XRECORD
  5
434
102
{ACAD_REACTORS
330
C
102
}
330
C
100
AcDbXrecord
280
     1
  1
DWGPROPS COOKIE
  2

  3

  4

  6

  7

  8
radek.stransky
  9

300
=
301
=
302
=
303
=
304
=
305
=
306
=
307
=
308
=
309
=
 40
0.0
 41
2459592.228217882
 42
2459592.228218426
  1

 90
        0
  0
LAYOUT
  5
1E
102
{ACAD_REACTORS
330
1A
102
}
330
1A
100
AcDbPlotSettings
  1

  2
none_device
  4

  6

 40
0.0
 41
0.0
 42
0.0
 43
0.0
 44
0.0
 45
0.0
 46
0.0
 47
0.0
 48
0.0
 49
0.0
140
0.0
141
0.0
142
1.0
143
1.0
 70
   688
 72
     1
 73
     0
 74
     5
  7

 75
    16
147
1.0
148
0.0
149
0.0
100
AcDbLayout
  1
Layout1
 70
     1
 71
     1
 10
0.0
 20
0.0
 11
420.0
 21
297.0
 12
0.0
 22
0.0
 32
0.0
 14
1.0000000000E+20
 24
1.0000000000E+20
 34
1.0000000000E+20
 15
-1.0000000000E+20
 25
-1.0000000000E+20
 35
-1.0000000000E+20
146
0.0
 13
0.0
 23
0.0
 33
0.0
 16
1.0
 26
0.0
 36
0.0
 17
0.0
 27
1.0
 37
0.0
 76
     0
330
1B
  0
LAYOUT
  5
26
102
{ACAD_REACTORS
330
1A
102
}
330
1A
100
AcDbPlotSettings
  1

  2
none_device
  4

  6

 40
0.0
 41
0.0
 42
0.0
 43
0.0
 44
0.0
 45
0.0
 46
0.0
 47
0.0
 48
0.0
 49
0.0
140
0.0
141
0.0
142
1.0
143
1.0
 70
   688
 72
     1
 73
     0
 74
     5
  7

 75
    16
147
1.0
148
0.0
149
0.0
100
AcDbLayout
  1
Layout2
 70
     1
 71
     2
 10
0.0
 20
0.0
 11
0.0
 21
0.0
 12
0.0
 22
0.0
 32
0.0
 14
0.0
 24
0.0
 34
0.0
 15
0.0
 25
0.0
 35
0.0
146
0.0
 13
0.0
 23
0.0
 33
0.0
 16
1.0
 26
0.0
 36
0.0
 17
0.0
 27
1.0
 37
0.0
 76
     0
330
23
  0
LAYOUT
  5
22
102
{ACAD_REACTORS
330
1A
102
}
330
1A
100
AcDbPlotSettings
  1

  2
none_device
  4
Letter_(8.50_x_11.00_Inches)
  6

 40
6.35
 41
6.35
 42
6.35000508
 43
6.35000508
 44
215.9
 45
279.4
 46
0.0
 47
0.0
 48
0.0
 49
0.0
140
0.0
141
0.0
142
1.0
143
1.0
 70
  1712
 72
     1
 73
     0
 74
     0
  7

 75
     0
147
1.0
148
0.0
149
0.0
100
AcDbLayout
  1
Model
 70
     1
 71
     0
 10
0.0
 20
0.0
 11
20000.0
 21
10000.0
 12
0.0
 22
0.0
 32
0.0
 14
0.0
 24
0.0
 34
0.0
 15
20000.0
 25
10000.0
 35
0.0
146
0.0
 13
0.0
 23
0.0
 33
0.0
 16
1.0
 26
0.0
 36
0.0
 17
0.0
 27
1.0
 37
0.0
 76
     0
330
1F
331
29
  0
MLINESTYLE
  5
18
102
{ACAD_REACTORS
330
17
102
}
330
17
100
AcDbMlineStyle
  2
Standard
 70
     0
  3

 62
   256
 51
90.0
 52
90.0
 71
     2
 49
0.5
 62
   256
  6
BYLAYER
 49
-0.5
 62
   256
  6
BYLAYER
  0
ACDBPLACEHOLDER
  5
F
102
{ACAD_REACTORS
330
E
102
}
330
E
  0
SCALE
  5
48
102
{ACAD_REACTORS
330
47
102
}
330
47
100
AcDbScale
 70
     0
300
1:1
140
1.0
141
1.0
290
     1
  0
SCALE
  5
49
102
{ACAD_REACTORS
330
47
102
}
330
47
100
AcDbScale
 70
     0
300
1:2
140
1.0
141
2.0
290
     0
  0
SCALE
  5
4A
102
{ACAD_REACTORS
330
47
102
}
330
47
100
AcDbScale
 70
     0
300
1:4
140
1.0
141
4.0
290
     0
  0
SCALE
  5
4B
102
{ACAD_REACTORS
330
47
102
}
330
47
100
AcDbScale
 70
     0
300
1:5
140
1.0
141
5.0
290
     0
  0
SCALE
  5
4C
102
{ACAD_REACTORS
330
47
102
}
330
47
100
AcDbScale
 70
     0
300
1:8
140
1.0
141
8.0
290
     0
  0
SCALE
  5
4D
102
{ACAD_REACTORS
330
47
102
}
330
47
100
AcDbScale
 70
     0
300
1:10
140
1.0
141
10.0
290
     0
  0
SCALE
  5
4E
102
{ACAD_REACTORS
330
47
102
}
330
47
100
AcDbScale
 70
     0
300
1:16
140
1.0
141
16.0
290
     0
  0
SCALE
  5
4F
102
{ACAD_REACTORS
330
47
102
}
330
47
100
AcDbScale
 70
     0
300
1:20
140
1.0
141
20.0
290
     0
  0
SCALE
  5
50
102
{ACAD_REACTORS
330
47
102
}
330
47
100
AcDbScale
 70
     0
300
1:30
140
1.0
141
30.0
290
     0
  0
SCALE
  5
51
102
{ACAD_REACTORS
330
47
102
}
330
47
100
AcDbScale
 70
     0
300
1:40
140
1.0
141
40.0
290
     0
  0
SCALE
  5
52
102
{ACAD_REACTORS
330
47
102
}
330
47
100
AcDbScale
 70
     0
300
1:50
140
1.0
141
50.0
290
     0
  0
SCALE
  5
53
102
{ACAD_REACTORS
330
47
102
}
330
47
100
AcDbScale
 70
     0
300
1:100
140
1.0
141
100.0
290
     0
  0
SCALE
  5
54
102
{ACAD_REACTORS
330
47
102
}
330
47
100
AcDbScale
 70
     0
300
2:1
140
2.0
141
1.0
290
     0
  0
SCALE
  5
55
102
{ACAD_REACTORS
330
47
102
}
330
47
100
AcDbScale
 70
     0
300
4:1
140
4.0
141
1.0
290
     0
  0
SCALE
  5
56
102
{ACAD_REACTORS
330
47
102
}
330
47
100
AcDbScale
 70
     0
300
8:1
140
8.0
141
1.0
290
     0
  0
SCALE
  5
57
102
{ACAD_REACTORS
330
47
102
}
330
47
100
AcDbScale
 70
     0
300
10:1
140
10.0
141
1.0
290
     0
  0
SCALE
  5
58
102
{ACAD_REACTORS
330
47
102
}
330
47
100
AcDbScale
 70
     0
300
100:1
140
100.0
141
1.0
290
     0
  0
SCALE
  5
59
102
{ACAD_REACTORS
330
47
102
}
330
47
100
AcDbScale
 70
     0
300
1/128" = 1'-0"
140
0.0078125
141
12.0
290
     0
  0
SCALE
  5
5A
102
{ACAD_REACTORS
330
47
102
}
330
47
100
AcDbScale
 70
     0
300
1/64" = 1'-0"
140
0.015625
141
12.0
290
     0
  0
SCALE
  5
5B
102
{ACAD_REACTORS
330
47
102
}
330
47
100
AcDbScale
 70
     0
300
1/32" = 1'-0"
140
0.03125
141
12.0
290
     0
  0
SCALE
  5
5C
102
{ACAD_REACTORS
330
47
102
}
330
47
100
AcDbScale
 70
     0
300
1/16" = 1'-0"
140
0.0625
141
12.0
290
     0
  0
SCALE
  5
5D
102
{ACAD_REACTORS
330
47
102
}
330
47
100
AcDbScale
 70
     0
300
3/32" = 1'-0"
140
0.09375
141
12.0
290
     0
  0
SCALE
  5
5E
102
{ACAD_REACTORS
330
47
102
}
330
47
100
AcDbScale
 70
     0
300
1/8" = 1'-0"
140
0.125
141
12.0
290
     0
  0
SCALE
  5
5F
102
{ACAD_REACTORS
330
47
102
}
330
47
100
AcDbScale
 70
     0
300
3/16" = 1'-0"
140
0.1875
141
12.0
290
     0
  0
SCALE
  5
60
102
{ACAD_REACTORS
330
47
102
}
330
47
100
AcDbScale
 70
     0
300
1/4" = 1'-0"
140
0.25
141
12.0
290
     0
  0
SCALE
  5
61
102
{ACAD_REACTORS
330
47
102
}
330
47
100
AcDbScale
 70
     0
300
3/8" = 1'-0"
140
0.375
141
12.0
290
     0
  0
SCALE
  5
62
102
{ACAD_REACTORS
330
47
102
}
330
47
100
AcDbScale
 70
     0
300
1/2" = 1'-0"
140
0.5
141
12.0
290
     0
  0
SCALE
  5
63
102
{ACAD_REACTORS
330
47
102
}
330
47
100
AcDbScale
 70
     0
300
3/4" = 1'-0"
140
0.75
141
12.0
290
     0
  0
SCALE
  5
64
102
{ACAD_REACTORS
330
47
102
}
330
47
100
AcDbScale
 70
     0
300
1" = 1'-0"
140
1.0
141
12.0
290
     0
  0
SCALE
  5
65
102
{ACAD_REACTORS
330
47
102
}
330
47
100
AcDbScale
 70
     0
300
1-1/2" = 1'-0"
140
1.5
141
12.0
290
     0
  0
SCALE
  5
66
102
{ACAD_REACTORS
330
47
102
}
330
47
100
AcDbScale
 70
     0
300
3" = 1'-0"
140
3.0
141
12.0
290
     0
  0
SCALE
  5
67
102
{ACAD_REACTORS
330
47
102
}
330
47
100
AcDbScale
 70
     0
300
6" = 1'-0"
140
6.0
141
12.0
290
     0
  0
SCALE
  5
68
102
{ACAD_REACTORS
330
47
102
}
330
47
100
AcDbScale
 70
     0
300
1'-0" = 1'-0"
140
12.0
141
12.0
290
     0
  0
ENDSEC
  0
EOF
