  0
SECTION
  2
HEADER
  9
$ACADVER
  1
AC1015
  9
$ACADMAINTVER
 70
     6
  9
$DWGCODEPAGE
  3
ANSI_1250
  9
$INSBASE
 10
0.0
 20
0.0
 30
0.0
  9
$EXTMIN
 10
0.0
 20
0.0
 30
0.0
  9
$EXTMAX
 10
20000.0
 20
10000.0
 30
0.0
  9
$LIMMIN
 10
0.0
 20
0.0
  9
$LIMMAX
 10
20000.0
 20
10000.0
  9
$ORTHOMODE
 70
     0
  9
$REGENMODE
 70
     1
  9
$FILLMODE
 70
     1
  9
$QTEXTMODE
 70
     0
  9
$MIRRTEXT
 70
     1
  9
$LTSCALE
 40
1.0
  9
$ATTMODE
 70
     1
  9
$TEXTSIZE
 40
2.0
  9
$TRACEWID
 40
1.0
  9
$TEXTSTYLE
  7
Standard
  9
$CLAYER
  8
0
  9
$CELTYPE
  6
ByLayer
  9
$CECOLOR
 62
   256
  9
$CELTSCALE
 40
1.0
  9
$DISPSILH
 70
     0
  9
$DIMSCALE
 40
1.0
  9
$DIMASZ
 40
2.0
  9
$DIMEXO
 40
1.0
  9
$DIMDLI
 40
3.75
  9
$DIMRND
 40
0.0
  9
$DIMDLE
 40
0.0
  9
$DIMEXE
 40
1.0
  9
$DIMTP
 40
0.0
  9
$DIMTM
 40
0.0
  9
$DIMTXT
 40
2.0
  9
$DIMCEN
 40
2.5
  9
$DIMTSZ
 40
0.0
  9
$DIMTOL
 70
     0
  9
$DIMLIM
 70
     0
  9
$DIMTIH
 70
     1
  9
$DIMTOH
 70
     1
  9
$DIMSE1
 70
     0
  9
$DIMSE2
 70
     0
  9
$DIMTAD
 70
     1
  9
$DIMZIN
 70
     0
  9
$DIMBLK
  1

  9
$DIMASO
 70
     1
  9
$DIMSHO
 70
     1
  9
$DIMPOST
  1

  9
$DIMAPOST
  1

  9
$DIMALT
 70
     0
  9
$DIMALTD
 70
     3
  9
$DIMALTF
 40
0.0393700787
  9
$DIMLFAC
 40
1.0
  9
$DIMTOFL
 70
     1
  9
$DIMTVP
 40
0.0
  9
$DIMTIX
 70
     0
  9
$DIMSOXD
 70
     0
  9
$DIMSAH
 70
     0
  9
$DIMBLK1
  1

  9
$DIMBLK2
  1

  9
$DIMSTYLE
  2
ISO-25
  9
$DIMCLRD
 70
     0
  9
$DIMCLRE
 70
     0
  9
$DIMCLRT
 70
     0
  9
$DIMTFAC
 40
1.0
  9
$DIMGAP
 40
1.524
  9
$DIMJUST
 70
     0
  9
$DIMSD1
 70
     0
  9
$DIMSD2
 70
     0
  9
$DIMTOLJ
 70
     0
  9
$DIMTZIN
 70
     0
  9
$DIMALTZ
 70
     0
  9
$DIMALTTZ
 70
     0
  9
$DIMUPT
 70
     0
  9
$DIMDEC
 70
     2
  9
$DIMTDEC
 70
     0
  9
$DIMALTU
 70
     2
  9
$DIMALTTD
 70
     3
  9
$DIMTXSTY
  7
Standard
  9
$DIMAUNIT
 70
     0
  9
$DIMADEC
 70
     2
  9
$DIMALTRND
 40
0.0
  9
$DIMAZIN
 70
     0
  9
$DIMDSEP
 70
    44
  9
$DIMATFIT
 70
     3
  9
$DIMFRAC
 70
     0
  9
$DIMLDRBLK
  1

  9
$DIMLUNIT
 70
     2
  9
$DIMLWD
 70
    -2
  9
$DIMLWE
 70
    -2
  9
$DIMTMOVE
 70
     0
  9
$LUNITS
 70
     2
  9
$LUPREC
 70
     3
  9
$SKETCHINC
 40
1.0
  9
$FILLETRAD
 40
10.0
  9
$AUNITS
 70
     0
  9
$AUPREC
 70
     2
  9
$MENU
  1
.
  9
$ELEVATION
 40
0.0
  9
$PELEVATION
 40
0.0
  9
$THICKNESS
 40
0.0
  9
$LIMCHECK
 70
     0
  9
$CHAMFERA
 40
0.0
  9
$CHAMFERB
 40
0.0
  9
$CHAMFERC
 40
0.0
  9
$CHAMFERD
 40
0.0
  9
$SKPOLY
 70
     0
  9
$TDCREATE
 40
2458673.481353056
  9
$TDUCREATE
 40
2458673.398019722
  9
$TDUPDATE
 40
2458673.481353785
  9
$TDUUPDATE
 40
2458673.398020451
  9
$TDINDWG
 40
0.0000000116
  9
$TDUSRTIMER
 40
0.0000000116
  9
$USRTIMER
 70
     1
  9
$ANGBASE
 50
0.0
  9
$ANGDIR
 70
     0
  9
$PDMODE
 70
     0
  9
$PDSIZE
 40
-1.0
  9
$PLINEWID
 40
0.0
  9
$SPLFRAME
 70
     0
  9
$SPLINETYPE
 70
     6
  9
$SPLINESEGS
 70
     8
  9
$HANDSEED
  5
24B
  9
$SURFTAB1
 70
     6
  9
$SURFTAB2
 70
     6
  9
$SURFTYPE
 70
     6
  9
$SURFU
 70
     6
  9
$SURFV
 70
     6
  9
$UCSBASE
  2

  9
$UCSNAME
  2

  9
$UCSORG
 10
0.0
 20
0.0
 30
0.0
  9
$UCSXDIR
 10
1.0
 20
0.0
 30
0.0
  9
$UCSYDIR
 10
0.0
 20
1.0
 30
0.0
  9
$UCSORTHOREF
  2

  9
$UCSORTHOVIEW
 70
     0
  9
$UCSORGTOP
 10
0.0
 20
0.0
 30
0.0
  9
$UCSORGBOTTOM
 10
0.0
 20
0.0
 30
0.0
  9
$UCSORGLEFT
 10
0.0
 20
0.0
 30
0.0
  9
$UCSORGRIGHT
 10
0.0
 20
0.0
 30
0.0
  9
$UCSORGFRONT
 10
0.0
 20
0.0
 30
0.0
  9
$UCSORGBACK
 10
0.0
 20
0.0
 30
0.0
  9
$PUCSBASE
  2

  9
$PUCSNAME
  2

  9
$PUCSORG
 10
0.0
 20
0.0
 30
0.0
  9
$PUCSXDIR
 10
1.0
 20
0.0
 30
0.0
  9
$PUCSYDIR
 10
0.0
 20
1.0
 30
0.0
  9
$PUCSORTHOREF
  2

  9
$PUCSORTHOVIEW
 70
     0
  9
$PUCSORGTOP
 10
0.0
 20
0.0
 30
0.0
  9
$PUCSORGBOTTOM
 10
0.0
 20
0.0
 30
0.0
  9
$PUCSORGLEFT
 10
0.0
 20
0.0
 30
0.0
  9
$PUCSORGRIGHT
 10
0.0
 20
0.0
 30
0.0
  9
$PUCSORGFRONT
 10
0.0
 20
0.0
 30
0.0
  9
$PUCSORGBACK
 10
0.0
 20
0.0
 30
0.0
  9
$USERI1
 70
     0
  9
$USERI2
 70
     0
  9
$USERI3
 70
     0
  9
$USERI4
 70
     0
  9
$USERI5
 70
     0
  9
$USERR1
 40
0.0
  9
$USERR2
 40
0.0
  9
$USERR3
 40
0.0
  9
$USERR4
 40
0.0
  9
$USERR5
 40
0.0
  9
$WORLDVIEW
 70
     1
  9
$SHADEDGE
 70
     3
  9
$SHADEDIF
 70
    70
  9
$TILEMODE
 70
     1
  9
$MAXACTVP
 70
    64
  9
$PINSBASE
 10
0.0
 20
0.0
 30
0.0
  9
$PLIMCHECK
 70
     0
  9
$PEXTMIN
 10
1.0000000000E+20
 20
1.0000000000E+20
 30
1.0000000000E+20
  9
$PEXTMAX
 10
-1.0000000000E+20
 20
-1.0000000000E+20
 30
-1.0000000000E+20
  9
$PLIMMIN
 10
0.0
 20
0.0
  9
$PLIMMAX
 10
420.0
 20
297.0
  9
$UNITMODE
 70
     0
  9
$VISRETAIN
 70
     1
  9
$PLINEGEN
 70
     0
  9
$PSLTSCALE
 70
     1
  9
$TREEDEPTH
 70
  3020
  9
$CMLSTYLE
  2
Standard
  9
$CMLJUST
 70
     0
  9
$CMLSCALE
 40
20.0
  9
$PROXYGRAPHICS
 70
     1
  9
$MEASUREMENT
 70
     1
  9
$CELWEIGHT
370
    -1
  9
$ENDCAPS
280
     0
  9
$JOINSTYLE
280
     0
  9
$LWDISPLAY
290
     1
  9
$INSUNITS
 70
     4
  9
$HYPERLINKBASE
  1

  9
$STYLESHEET
  1

  9
$XEDIT
290
     1
  9
$CEPSNTYPE
380
     0
  9
$PSTYLEMODE
290
     1
  9
$FINGERPRINTGUID
  2
{49FEE5B1-135F-40F4-AA16-DEA448196C12}
  9
$VERSIONGUID
  2
{FAEB1C32-E019-11D5-929B-00C0DF256EC4}
  9
$EXTNAMES
290
     1
  9
$PSVPSCALE
 40
0.0
  9
$OLESTARTUP
290
     0
  0
ENDSEC
  0
SECTION
  2
CLASSES
  0
CLASS
  1
ACDBDICTIONARYWDFLT
  2
AcDbDictionaryWithDefault
  3
ObjectDBX Classes
 90
        0
280
     0
281
     0
  0
CLASS
  1
VISUALSTYLE
  2
AcDbVisualStyle
  3
ObjectDBX Classes
 90
     4095
280
     0
281
     0
  0
CLASS
  1
MATERIAL
  2
AcDbMaterial
  3
ObjectDBX Classes
 90
     1153
280
     0
281
     0
  0
CLASS
  1
SCALE
  2
AcDbScale
  3
ObjectDBX Classes
 90
     1153
280
     0
281
     0
  0
CLASS
  1
TABLESTYLE
  2
AcDbTableStyle
  3
ObjectDBX Classes
 90
     4095
280
     0
281
     0
  0
CLASS
  1
MLEADERSTYLE
  2
AcDbMLeaderStyle
  3
ACDB_MLEADERSTYLE_CLASS
 90
     4095
280
     0
281
     0
  0
CLASS
  1
SUN
  2
AcDbSun
  3
SCENEOE
 90
     1153
280
     0
281
     0
  0
CLASS
  1
ACDBPLACEHOLDER
  2
AcDbPlaceHolder
  3
ObjectDBX Classes
 90
        0
280
     0
281
     0
  0
CLASS
  1
LAYOUT
  2
AcDbLayout
  3
ObjectDBX Classes
 90
        0
280
     0
281
     0
  0
ENDSEC
  0
SECTION
  2
TABLES
  0
TABLE
  2
VPORT
  5
8
330
0
100
AcDbSymbolTable
 70
     1
  0
VPORT
  5
29
330
8
100
AcDbSymbolTableRecord
100
AcDbViewportTableRecord
  2
*Active
 70
     0
 10
0.0
 20
0.0
 11
1.0
 21
1.0
 12
10000.0
 22
5000.0
 13
0.0
 23
0.0
 14
10.0
 24
10.0
 15
10.0
 25
10.0
 16
0.0
 26
0.0
 36
1.0
 17
0.0
 27
0.0
 37
0.0
 40
10000.0
 41
2.0
 42
50.0
 43
0.0
 44
0.0
 50
0.0
 51
0.0
 71
     0
 72
  2000
 73
     1
 74
     3
 75
     0
 76
     0
 77
     0
 78
     0
281
     0
 65
     1
110
0.0
120
0.0
130
0.0
111
1.0
121
0.0
131
0.0
112
0.0
122
1.0
132
0.0
 79
     0
146
0.0
  0
ENDTAB
  0
TABLE
  2
LTYPE
  5
5
330
0
100
AcDbSymbolTable
 70
     6
  0
LTYPE
  5
14
330
5
100
AcDbSymbolTableRecord
100
AcDbLinetypeTableRecord
  2
ByBlock
 70
     0
  3

 72
    65
 73
     0
 40
0.0
  0
LTYPE
  5
15
330
5
100
AcDbSymbolTableRecord
100
AcDbLinetypeTableRecord
  2
ByLayer
 70
     0
  3

 72
    65
 73
     0
 40
0.0
  0
LTYPE
  5
16
330
5
100
AcDbSymbolTableRecord
100
AcDbLinetypeTableRecord
  2
Continuous
 70
     0
  3
Solid line
 72
    65
 73
     0
 40
0.0
  0
LTYPE
  5
6E
330
5
100
AcDbSymbolTableRecord
100
AcDbLinetypeTableRecord
  2
HIDDEN
 70
     0
  3
Hidden __ __ __ __ __ __ __ __ __ __ __ __ __ __
 72
    65
 73
     2
 40
1.905
 49
1.27
 74
     0
 49
-0.635
 74
     0
  0
LTYPE
  5
6F
330
5
100
AcDbSymbolTableRecord
100
AcDbLinetypeTableRecord
  2
PHANTOM
 70
     0
  3
Phantom ______  __  __  ______  __  __  ______
 72
    65
 73
     6
 40
12.7
 49
6.35
 74
     0
 49
-1.27
 74
     0
 49
1.27
 74
     0
 49
-1.27
 74
     0
 49
1.27
 74
     0
 49
-1.27
 74
     0
  0
LTYPE
  5
70
330
5
100
AcDbSymbolTableRecord
100
AcDbLinetypeTableRecord
  2
CENTER
 70
     0
  3
Center ____ _ ____ _ ____ _ ____ _ ____ _ ____
 72
    65
 73
     4
 40
10.16
 49
6.35
 74
     0
 49
-1.27
 74
     0
 49
1.27
 74
     0
 49
-1.27
 74
     0
  0
LTYPE
  5
71
330
5
100
AcDbSymbolTableRecord
100
AcDbLinetypeTableRecord
  2
CENTERX2
 70
     0
  3
Center (2x) ________  __  ________  __  _____
 72
    65
 73
     4
 40
20.32
 49
12.7
 74
     0
 49
-2.54
 74
     0
 49
2.54
 74
     0
 49
-2.54
 74
     0
  0
LTYPE
  5
72
330
5
100
AcDbSymbolTableRecord
100
AcDbLinetypeTableRecord
  2
DOT2
 70
     0
  3
Dot (.5x) ........................................
 72
    65
 73
     2
 40
0.635
 49
0.0
 74
     0
 49
-0.635
 74
     0
  0
ENDTAB
  0
TABLE
  2
LAYER
  5
2
330
0
100
AcDbSymbolTable
 70
    13
  0
LAYER
  5
10
330
2
100
AcDbSymbolTableRecord
100
AcDbLayerTableRecord
  2
0
 70
     0
 62
     7
  6
Continuous
370
    -3
390
F
  0
LAYER
  5
73
330
2
100
AcDbSymbolTableRecord
100
AcDbLayerTableRecord
  2
FORMAT
 70
     0
 62
     7
  6
Continuous
370
    -3
390
F
  0
LAYER
  5
74
330
2
100
AcDbSymbolTableRecord
100
AcDbLayerTableRecord
  2
OSA
 70
     0
 62
     7
  6
CENTER
370
    -3
390
F
  0
LAYER
  5
75
330
2
100
AcDbSymbolTableRecord
100
AcDbLayerTableRecord
  2
0_35
 70
     0
 62
     7
  6
Continuous
370
    35
390
F
  0
LAYER
  5
76
330
2
100
AcDbSymbolTableRecord
100
AcDbLayerTableRecord
  2
0_5
 70
     0
 62
     7
  6
Continuous
370
    50
390
F
  0
LAYER
  5
77
330
2
100
AcDbSymbolTableRecord
100
AcDbLayerTableRecord
  2
0_25
 70
     0
 62
     7
  6
Continuous
370
    25
390
F
  0
LAYER
  5
78
330
2
100
AcDbSymbolTableRecord
100
AcDbLayerTableRecord
  2
0_18
 70
     0
 62
     7
  6
Continuous
370
    -3
390
F
  0
LAYER
  5
79
330
2
100
AcDbSymbolTableRecord
100
AcDbLayerTableRecord
  2
SLD-0
 70
     0
 62
   179
  6
Continuous
370
    -3
390
F
  0
LAYER
  5
7A
330
2
100
AcDbSymbolTableRecord
100
AcDbLayerTableRecord
  2
KOTY
 70
     0
 62
     7
  6
Continuous
370
    -3
390
F
  0
LAYER
  5
7B
330
2
100
AcDbSymbolTableRecord
100
AcDbLayerTableRecord
  2
SILNA
 70
     0
 62
   179
  6
Continuous
370
    -3
390
F
  0
LAYER
  5
7C
330
2
100
AcDbSymbolTableRecord
100
AcDbLayerTableRecord
  2
0_18_1
 70
     0
 62
   179
  6
Continuous
370
    -3
390
F
  0
LAYER
  5
7D
330
2
100
AcDbSymbolTableRecord
100
AcDbLayerTableRecord
  2
0_35_1
 70
     0
 62
   179
  6
Continuous
370
    35
390
F
  0
LAYER
  5
7E
330
2
100
AcDbSymbolTableRecord
100
AcDbLayerTableRecord
  2
0_5_1
 70
     0
 62
   179
  6
Continuous
370
    50
390
F
  0
ENDTAB
  0
TABLE
  2
STYLE
  5
3
330
0
100
AcDbSymbolTable
 70
     1
  0
STYLE
  5
11
330
3
100
AcDbSymbolTableRecord
100
AcDbTextStyleTableRecord
  2
Standard
 70
     0
 40
0.0
 41
1.0
 50
0.0
 71
     0
 42
2.0
  3
txt
  4

  0
ENDTAB
  0
TABLE
  2
VIEW
  5
6
330
0
100
AcDbSymbolTable
 70
     0
  0
ENDTAB
  0
TABLE
  2
UCS
  5
7
330
0
100
AcDbSymbolTable
 70
     0
  0
ENDTAB
  0
TABLE
  2
APPID
  5
9
330
0
100
AcDbSymbolTable
 70
     1
  0
APPID
  5
12
330
9
100
AcDbSymbolTableRecord
100
AcDbRegAppTableRecord
  2
ACAD
 70
     0
  0
ENDTAB
  0
TABLE
  2
DIMSTYLE
  5
A
330
0
100
AcDbSymbolTable
 70
     1
100
AcDbDimStyleTable
  0
DIMSTYLE
105
27
330
A
100
AcDbSymbolTableRecord
100
AcDbDimStyleTableRecord
  2
ISO-25
 70
     0
 41
2.5
 42
0.625
 43
3.75
 44
1.25
 73
     0
 74
     0
 77
     1
 78
     8
140
2.5
141
2.5
143
0.0393700787
147
0.625
171
     3
172
     1
178
     0
271
     2
272
     2
274
     3
278
    44
283
     0
284
     8
340
11
  0
ENDTAB
  0
TABLE
  2
BLOCK_RECORD
  5
1
330
0
100
AcDbSymbolTable
 70
     1
  0
BLOCK_RECORD
  5
1F
330
1
100
AcDbSymbolTableRecord
100
AcDbBlockTableRecord
  2
*Model_Space
340
22
  0
BLOCK_RECORD
  5
1B
330
1
100
AcDbSymbolTableRecord
100
AcDbBlockTableRecord
  2
*Paper_Space
340
1E
  0
BLOCK_RECORD
  5
23
330
1
100
AcDbSymbolTableRecord
100
AcDbBlockTableRecord
  2
*Paper_Space0
340
26
  0
ENDTAB
  0
ENDSEC
  0
SECTION
  2
BLOCKS
  0
BLOCK
  5
20
330
1F
100
AcDbEntity
  8
0
100
AcDbBlockBegin
  2
*Model_Space
 70
     0
 10
0.0
 20
0.0
 30
0.0
  3
*Model_Space
  1

  0
ENDBLK
  5
21
330
1F
100
AcDbEntity
  8
0
100
AcDbBlockEnd
  0
BLOCK
  5
1C
330
1B
100
AcDbEntity
 67
     1
  8
0
100
AcDbBlockBegin
  2
*Paper_Space
 70
     0
 10
0.0
 20
0.0
 30
0.0
  3
*Paper_Space
  1

  0
ENDBLK
  5
1D
330
1B
100
AcDbEntity
 67
     1
  8
0
100
AcDbBlockEnd
  0
BLOCK
  5
24
330
23
100
AcDbEntity
  8
0
100
AcDbBlockBegin
  2
*Paper_Space0
 70
     0
 10
0.0
 20
0.0
 30
0.0
  3
*Paper_Space0
  1

  0
ENDBLK
  5
25
330
23
100
AcDbEntity
  8
0
100
AcDbBlockEnd
  0
ENDSEC
  0
SECTION
  2
ENTITIES
  0
LINE
  5
7F
330
1F
100
AcDbEntity
  8
0
  6
Continuous
 62
     7
370
    25
100
AcDbLine
 10
6300.1580953957
 20
5142.9964121493
 30
0.0
 11
6300.1580953957
 21
5292.9964143845
 31
0.0
  0
LINE
  5
80
330
1F
100
AcDbEntity
  8
0
  6
Continuous
 62
     7
370
    25
100
AcDbLine
 10
6247.1580960215
 20
5292.9964143845
 30
0.0
 11
6247.1580960215
 21
5142.9964121493
 31
0.0
  0
ARC
  5
81
330
1F
100
AcDbEntity
  8
0
  6
Continuous
 62
     7
370
    25
100
AcDbCircle
 10
6293.4080957267
 20
5142.9964129915
 30
0.0
 40
1.0
100
AcDbArc
 50
270.0
 51
0.0
  0
ARC
  5
82
330
1F
100
AcDbEntity
  8
0
  6
Continuous
 62
     7
370
    25
100
AcDbCircle
 10
6253.9080957267
 20
5142.9964129915
 30
0.0
 40
1.0
100
AcDbArc
 50
180.0
 51
270.0
  0
LINE
  5
83
330
1F
100
AcDbEntity
  8
0
  6
Continuous
 62
     7
370
    25
100
AcDbLine
 10
6253.9080947996
 20
5141.9964138481
 30
0.0
 11
6293.4080956862
 21
5141.9964138481
 31
0.0
  0
SPLINE
  5
84
330
1F
100
AcDbEntity
  8
0
  6
Continuous
 62
     7
370
    25
100
AcDbSpline
210
0.0
220
0.0
230
1.0
 70
     8
 71
     3
 72
    11
 73
     7
 74
     0
 42
0.000000001
 43
0.00000001
 40
0.0
 40
0.0
 40
0.0
 40
0.0
 40
0.2426340897764012
 40
0.549782541400352
 40
0.8035182886412598
 40
1.0
 40
1.0
 40
1.0
 40
1.0
 10
6247.157775646554
 20
5431.954346975953
 30
0.0
 10
6247.15851700051
 20
5431.633620215208
 30
0.0
 10
6247.160196828198
 20
5430.906888148085
 30
0.0
 10
6247.160778538647
 20
5429.82270735143
 30
0.0
 10
6247.157293262453
 20
5428.829275835298
 30
0.0
 10
6247.161205473692
 20
5428.155120276027
 30
0.0
 10
6247.162912821876
 20
5427.860908589036
 30
0.0
  0
LINE
  5
85
330
1F
100
AcDbEntity
  8
0
  6
Continuous
 62
     7
370
    25
100
AcDbLine
 10
6247.6068854691
 20
5450.2685595366
 30
0.0
 11
6247.6068854691
 21
5447.9960132453
 31
0.0
  0
SPLINE
  5
86
330
1F
100
AcDbEntity
  8
0
  6
Continuous
 62
     7
370
    25
100
AcDbSpline
210
0.0
220
0.0
230
1.0
 70
     8
 71
     3
 72
    11
 73
     7
 74
     0
 42
0.000000001
 43
0.00000001
 40
0.0
 40
0.0
 40
0.0
 40
0.0
 40
0.2464218126148985
 40
0.4999687569441125
 40
0.7535493234665807
 40
1.0
 40
1.0
 40
1.0
 40
1.0
 10
6247.22874615203
 20
5448.008112988145
 30
0.0
 10
6247.238390325874
 20
5447.851633782888
 30
0.0
 10
6247.257957528785
 20
5447.534150874575
 30
0.0
 10
6247.429443473011
 20
5447.082955559099
 30
0.0
 10
6247.690931056427
 20
5446.677709674515
 30
0.0
 10
6247.93453372509
 20
5446.474583697346
 30
0.0
 10
6248.054598307715
 20
5446.374468884141
 30
0.0
  0
SPLINE
  5
87
330
1F
100
AcDbEntity
  8
0
  6
Continuous
 62
     7
370
    25
100
AcDbSpline
210
0.0
220
0.0
230
1.0
 70
     8
 71
     3
 72
    11
 73
     7
 74
     0
 42
0.000000001
 43
0.00000001
 40
0.0
 40
0.0
 40
0.0
 40
0.0
 40
0.2413928595600266
 40
0.499534803408219
 40
0.7579461500211019
 40
1.0
 40
1.0
 40
1.0
 40
1.0
 10
6248.960857129203
 20
5452.251725277573
 30
0.0
 10
6248.735133253758
 20
5452.19816781848
 30
0.0
 10
6248.268023613689
 20
5452.087336806958
 30
0.0
 10
6247.69315428052
 20
5451.616171038094
 30
0.0
 10
6247.301789058994
 20
5450.981967143605
 30
0.0
 10
6247.253079679339
 20
5450.501183606994
 30
0.0
 10
6247.229521012412
 20
5450.268648943574
 30
0.0
  0
LINE
  5
88
330
1F
100
AcDbEntity
  8
0
  6
Continuous
 62
     7
370
    25
100
AcDbLine
 10
6251.7723486186
 20
5444.1052604529
 30
0.0
 11
6252.6545327515
 21
5443.2333935114
 31
0.0
  0
LINE
  5
89
330
1F
100
AcDbEntity
  8
0
  6
Continuous
 62
     7
370
    25
100
AcDbLine
 10
6273.6580957086
 20
5453.9964128348
 30
0.0
 11
6273.6005669818
 21
5453.9964128348
 31
0.0
  0
LINE
  5
8A
330
1F
100
AcDbEntity
  8
0
  6
Continuous
 62
     7
370
    25
100
AcDbLine
 10
6288.3713374273
 20
5432.2920072886
 30
0.0
 11
6288.4079710008
 21
5432.5659204337
 31
0.0
  0
SPLINE
  5
8B
330
1F
100
AcDbEntity
  8
0
  6
Continuous
 62
     7
370
    25
100
AcDbSpline
210
0.0
220
0.0
230
1.0
 70
     8
 71
     3
 72
    10
 73
     6
 74
     0
 42
0.000000001
 43
0.00000001
 40
0.0
 40
0.0
 40
0.0
 40
0.0
 40
0.4259359608963154
 40
0.8535893683958338
 40
1.0
 40
1.0
 40
1.0
 40
1.0
 10
6252.727947047459
 20
5443.177573761613
 30
0.0
 10
6253.488491248541
 20
5442.510632880425
 30
0.0
 10
6255.012646294933
 20
5441.17406189841
 30
0.0
 10
6256.564700264905
 20
5439.128189258659
 30
0.0
 10
6257.13318235627
 20
5437.759627216562
 30
0.0
 10
6257.278169354902
 20
5437.410585961014
 30
0.0
  0
LINE
  5
8C
330
1F
100
AcDbEntity
  8
0
  6
Continuous
 62
     7
370
    25
100
AcDbLine
 10
6258.7554090084
 20
5432.6299060198
 30
0.0
 11
6258.8284433247
 21
5432.2939146372
 31
0.0
  0
SPLINE
  5
8D
330
1F
100
AcDbEntity
  8
0
  6
Continuous
 62
     7
370
    25
100
AcDbSpline
210
0.0
220
0.0
230
1.0
 70
     8
 71
     3
 72
     9
 73
     5
 74
     0
 42
0.000000001
 43
0.00000001
 40
0.0
 40
0.0
 40
0.0
 40
0.0
 40
0.72592816103476
 40
1.0
 40
1.0
 40
1.0
 40
1.0
 10
6300.136736443745
 20
5447.964005551011
 30
0.0
 10
6300.136858075321
 20
5447.965408612557
 30
0.0
 10
6300.137025628509
 20
5447.967341395467
 30
0.0
 10
6300.136295736624
 20
5447.956536151311
 30
0.0
 10
6300.136095693813
 20
5447.953574738175
 30
0.0
  0
LINE
  5
8E
330
1F
100
AcDbEntity
  8
0
  6
Continuous
 62
     7
370
    25
100
AcDbLine
 10
6247.1587628485
 20
5413.7903977248
 30
0.0
 11
6247.1598096551
 21
5412.9964042517
 31
0.0
  0
LINE
  5
8F
330
1F
100
AcDbEntity
  8
0
  6
Continuous
 62
     7
370
    25
100
AcDbLine
 10
6247.1580848456
 20
5414.3039811465
 30
0.0
 11
6247.1587628485
 21
5413.7903977248
 31
0.0
  0
LINE
  5
90
330
1F
100
AcDbEntity
  8
0
  6
Continuous
 62
     7
370
    25
100
AcDbLine
 10
6300.1580953957
 20
5335.0300718161
 30
0.0
 11
6300.1580953957
 21
5450.2685595366
 31
0.0
  0
LINE
  5
91
330
1F
100
AcDbEntity
  8
0
  6
Continuous
 62
     7
370
    25
100
AcDbLine
 10
6300.1580953957
 20
5292.9964143845
 30
0.0
 11
6300.1580953957
 21
5320.0761158082
 31
0.0
  0
LINE
  5
92
330
1F
100
AcDbEntity
  8
0
  6
Continuous
 62
     7
370
    25
100
AcDbLine
 10
6247.1580960215
 20
5412.8208685729
 30
0.0
 11
6247.1580960215
 21
5292.9964143845
 31
0.0
  0
SPLINE
  5
93
330
1F
100
AcDbEntity
  8
0
  6
Continuous
 62
     7
370
    25
100
AcDbSpline
210
0.0
220
0.0
230
1.0
 70
     8
 71
     3
 72
     9
 73
     5
 74
     0
 42
0.000000001
 43
0.00000001
 40
0.0
 40
0.0
 40
0.0
 40
0.0
 40
0.4997638536158856
 40
1.0
 40
1.0
 40
1.0
 40
1.0
 10
6281.128081109853
 20
5430.296354374558
 30
0.0
 10
6281.284883571307
 20
5430.542829598152
 30
0.0
 10
6281.598636677536
 20
5431.03601297228
 30
0.0
 10
6281.773200393418
 20
5431.593867854612
 30
0.0
 10
6281.86052347395
 20
5431.87292703119
 30
0.0
  0
SPLINE
  5
94
330
1F
100
AcDbEntity
  8
0
  6
Continuous
 62
     7
370
    25
100
AcDbSpline
210
0.0
220
0.0
230
1.0
 70
     8
 71
     3
 72
    10
 73
     6
 74
     0
 42
0.000000001
 43
0.00000001
 40
0.0
 40
0.0
 40
0.0
 40
0.0
 40
0.0808925865678602
 40
0.7735977206405014
 40
0.9999999999999999
 40
0.9999999999999999
 40
0.9999999999999999
 40
0.9999999999999999
 10
6265.304681694613
 20
5431.896977505357
 30
0.0
 10
6265.319415712327
 20
5431.849449956173
 30
0.0
 10
6265.460321115438
 20
5431.394931127242
 30
0.0
 10
6265.706368451712
 20
5430.822470917301
 30
0.0
 10
6266.020019001315
 20
5430.35174839249
 30
0.0
 10
6266.09728004645
 20
5430.235796055466
 30
0.0
  0
SPLINE
  5
95
330
1F
100
AcDbEntity
  8
0
  6
Continuous
 62
     7
370
    25
100
AcDbSpline
210
0.0
220
0.0
230
1.0
 70
     8
 71
     3
 72
    10
 73
     6
 74
     0
 42
0.000000001
 43
0.00000001
 40
0.0
 40
0.0
 40
0.0
 40
0.0
 40
0.1722766543053861
 40
0.7825341298962583
 40
1.0
 40
1.0
 40
1.0
 40
1.0
 10
6282.553852443596
 20
5431.884490332276
 30
0.0
 10
6282.608281112968
 20
5432.02985095383
 30
0.0
 10
6282.855513052788
 20
5432.690124093954
 30
0.0
 10
6283.011297074253
 20
5433.594801007442
 30
0.0
 10
6282.993783972891
 20
5434.340385468151
 30
0.0
 10
6282.989182795644
 20
5434.536271176011
 30
0.0
  0
SPLINE
  5
96
330
1F
100
AcDbEntity
  8
0
  6
Continuous
 62
     7
370
    25
100
AcDbSpline
210
0.0
220
0.0
230
1.0
 70
     8
 71
     3
 72
    10
 73
     6
 74
     0
 42
0.000000001
 43
0.00000001
 40
0.0
 40
0.0
 40
0.0
 40
0.0
 40
0.2593549171590248
 40
0.9053571598279423
 40
1.0
 40
1.0
 40
1.0
 40
1.0
 10
6264.215643367277
 20
5434.535108885438
 30
0.0
 10
6264.212848809366
 20
5434.30036286522
 30
0.0
 10
6264.203093555672
 20
5433.480910539147
 30
0.0
 10
6264.36477649708
 20
5432.569902261388
 30
0.0
 10
6264.61253876381
 20
5431.946586726212
 30
0.0
 10
6264.644198900567
 20
5431.86693676439
 30
0.0
  0
LINE
  5
97
330
1F
100
AcDbEntity
  8
0
  6
Continuous
 62
     7
370
    25
100
AcDbLine
 10
6282.6009227089
 20
5431.9813180777
 30
0.0
 11
6282.6009228253
 21
5431.9829572054
 31
0.0
  0
LINE
  5
98
330
1F
100
AcDbEntity
  8
0
  6
Continuous
 62
     7
370
    25
100
AcDbLine
 10
6264.6009222032
 20
5431.9843281123
 30
0.0
 11
6264.6009222032
 21
5431.9826889845
 31
0.0
  0
LINE
  5
99
330
1F
100
AcDbEntity
  8
0
  6
Continuous
 62
     7
370
    25
100
AcDbLine
 10
6266.0208780677
 20
5430.3243983599
 30
0.0
 11
6266.4940327765
 21
5429.196142039
 31
0.0
  0
LINE
  5
9A
330
1F
100
AcDbEntity
  8
0
  6
Continuous
 62
     7
370
    25
100
AcDbLine
 10
6280.7073880346
 20
5429.1950691554
 30
0.0
 11
6281.1807148052
 21
5430.3232360694
 31
0.0
  0
LINE
  5
9B
330
1F
100
AcDbEntity
  8
0
  6
Continuous
 62
     7
370
    25
100
AcDbLine
 10
6268.141623436
 20
5429.8383224818
 30
0.0
 11
6268.192957005
 21
5429.2987216326
 31
0.0
  0
LINE
  5
9C
330
1F
100
AcDbEntity
  8
0
  6
Continuous
 62
     7
370
    25
100
AcDbLine
 10
6279.0084791728
 20
5429.2978871676
 30
0.0
 11
6279.0600446412
 21
5429.8390675398
 31
0.0
  0
LINE
  5
9D
330
1F
100
AcDbEntity
  8
0
  6
Continuous
 62
     7
370
    25
100
AcDbLine
 10
6269.7076237188
 20
5429.8025000903
 30
0.0
 11
6269.7889523939
 21
5429.2898703429
 31
0.0
  0
LINE
  5
9E
330
1F
100
AcDbEntity
  8
0
  6
Continuous
 62
     7
370
    25
100
AcDbLine
 10
6277.4124828526
 20
5429.2892742964
 30
0.0
 11
6277.5122754634
 21
5429.9177158686
 31
0.0
  0
SPLINE
  5
9F
330
1F
100
AcDbEntity
  8
0
  6
Continuous
 62
     7
370
    25
100
AcDbSpline
210
0.0
220
0.0
230
1.0
 70
     8
 71
     3
 72
    10
 73
     6
 74
     0
 42
0.000000001
 43
0.00000001
 40
0.0
 40
0.0
 40
0.0
 40
0.0
 40
0.1067231048754684
 40
0.5671003265063188
 40
1.0
 40
1.0
 40
1.0
 40
1.0
 10
6274.597448146449
 20
5428.889982781083
 30
0.0
 10
6274.633438461125
 20
5428.892193024719
 30
0.0
 10
6274.824682140067
 20
5428.903937715706
 30
0.0
 10
6275.114665007339
 20
5428.949145722884
 30
0.0
 10
6275.320268142843
 20
5428.998745092756
 30
0.0
 10
6275.419907493995
 20
5429.022781929642
 30
0.0
  0
LINE
  5
A0
330
1F
100
AcDbEntity
  8
0
  6
Continuous
 62
     7
370
    25
100
AcDbLine
 10
6275.9089030684
 20
5429.3070364806
 30
0.0
 11
6275.9479496987
 21
5429.7168184134
 31
0.0
  0
SPLINE
  5
A1
330
1F
100
AcDbEntity
  8
0
  6
Continuous
 62
     7
370
    25
100
AcDbSpline
210
0.0
220
0.0
230
1.0
 70
     8
 71
     3
 72
    11
 73
     7
 74
     0
 42
0.000000001
 43
0.00000001
 40
0.0
 40
0.0
 40
0.0
 40
0.0
 40
0.0571211448320768
 40
0.5548846167087085
 40
0.8732759322140372
 40
1.0
 40
1.0
 40
1.0
 40
1.0
 10
6273.879966548191
 20
5429.604702076585
 30
0.0
 10
6273.907797293353
 20
5429.604637716855
 30
0.0
 10
6274.178149934352
 20
5429.604012515371
 30
0.0
 10
6274.577474640891
 20
5429.574165197574
 30
0.0
 10
6274.962785704621
 20
5429.538177161052
 30
0.0
 10
6275.096574338992
 20
5429.515169621228
 30
0.0
 10
6275.134663878487
 20
5429.508619389207
 30
0.0
  0
LINE
  5
A2
330
1F
100
AcDbEntity
  8
0
  6
Continuous
 62
     7
370
    25
100
AcDbLine
 10
6271.2540317685
 20
5429.7121096465
 30
0.0
 11
6271.2925345064
 21
5429.3073643061
 31
0.0
  0
LINE
  5
A3
330
1F
100
AcDbEntity
  8
0
  6
Continuous
 62
     7
370
    25
100
AcDbLine
 10
6279.0040744827
 20
5429.83778604
 30
0.0
 11
6279.1343353116
 21
5429.8407662722
 31
0.0
  0
LINE
  5
A4
330
1F
100
AcDbEntity
  8
0
  6
Continuous
 62
     7
370
    25
100
AcDbLine
 10
6268.0617988468
 20
5429.8401404234
 30
0.0
 11
6268.1963218735
 21
5429.8370707842
 31
0.0
  0
LINE
  5
A5
330
1F
100
AcDbEntity
  8
0
  6
Continuous
 62
     7
370
    25
100
AcDbLine
 10
6269.5284549506
 20
5429.8066128108
 30
0.0
 11
6269.7516538561
 21
5429.8015166136
 31
0.0
  0
SPLINE
  5
A6
330
1F
100
AcDbEntity
  8
0
  6
Continuous
 62
     7
370
    25
100
AcDbSpline
210
0.0
220
0.0
230
1.0
 70
     8
 71
     3
 72
     9
 73
     5
 74
     0
 42
0.000000001
 43
0.00000001
 40
0.0
 40
0.0
 40
0.0
 40
0.0
 40
0.4989862440332231
 40
1.0
 40
1.0
 40
1.0
 40
1.0
 10
6273.561266100513
 20
5429.651521525056
 30
0.0
 10
6273.59698738331
 20
5429.651362551183
 30
0.0
 10
6273.668575093842
 20
5429.651043957483
 30
0.0
 10
6273.736705490772
 20
5429.655154386934
 30
0.0
 10
6273.770839756833
 20
5429.657213768632
 30
0.0
  0
LINE
  5
A7
330
1F
100
AcDbEntity
  8
0
  6
Continuous
 62
     7
370
    25
100
AcDbLine
 10
6273.4221265079
 20
5429.3936122271
 30
0.0
 11
6273.6172758401
 21
5429.6518493506
 31
0.0
  0
LINE
  5
A8
330
1F
100
AcDbEntity
  8
0
  6
Continuous
 62
     7
370
    25
100
AcDbLine
 10
6277.4658206278
 20
5429.6251762721
 30
0.0
 11
6278.3933578418
 21
5429.6039570185
 31
0.0
  0
LINE
  5
A9
330
1F
100
AcDbEntity
  8
0
  6
Continuous
 62
     7
370
    25
100
AcDbLine
 10
6267.3348755003
 20
5429.57099565
 30
0.0
 11
6268.1652492271
 21
5429.5899797293
 31
0.0
  0
LINE
  5
AA
330
1F
100
AcDbEntity
  8
0
  6
Continuous
 62
     7
370
    25
100
AcDbLine
 10
6279.0362428301
 20
5429.5892644736
 30
0.0
 11
6279.8661264484
 21
5429.5702803942
 31
0.0
  0
LINE
  5
AB
330
1F
100
AcDbEntity
  8
0
  6
Continuous
 62
     7
370
    25
100
AcDbLine
 10
6270.286804846
 20
5429.4747341487
 30
0.0
 11
6271.2698838101
 21
5429.5454550597
 31
0.0
  0
LINE
  5
AC
330
1F
100
AcDbEntity
  8
0
  6
Continuous
 62
     7
370
    25
100
AcDbLine
 10
6275.9180882373
 20
5429.4035065981
 30
0.0
 11
6276.4378984817
 21
5429.3342758032
 31
0.0
  0
LINE
  5
AD
330
1F
100
AcDbEntity
  8
0
  6
Continuous
 62
     7
370
    25
100
AcDbLine
 10
6268.8088136152
 20
5429.3684292647
 30
0.0
 11
6269.7655706094
 21
5429.4372428271
 31
0.0
  0
LINE
  5
AE
330
1F
100
AcDbEntity
  8
0
  6
Continuous
 62
     7
370
    25
100
AcDbLine
 10
6279.0110477605
 20
5429.3248582694
 30
0.0
 11
6279.7821011287
 21
5429.2693961474
 31
0.0
  0
LINE
  5
AF
330
1F
100
AcDbEntity
  8
0
  6
Continuous
 62
     7
370
    25
100
AcDbLine
 10
6267.4232170344
 20
5429.2687404963
 30
0.0
 11
6268.1905579181
 21
5429.3239343974
 31
0.0
  0
LINE
  5
B0
330
1F
100
AcDbEntity
  8
0
  6
Continuous
 62
     7
370
    25
100
AcDbLine
 10
6277.3721929067
 20
5429.2098213049
 30
0.0
 11
6277.7077209563
 21
5429.1651476237
 31
0.0
  0
ARC
  5
B1
330
1F
100
AcDbEntity
  8
0
  6
Continuous
 62
     7
370
    25
100
AcDbCircle
 10
6314.2936689714
 20
5321.8964225167
 30
0.0
 40
0.8000093005085368
100
AcDbArc
 50
270.0007634161
 51
359.9992365839
  0
LINE
  5
B2
330
1F
100
AcDbEntity
  8
0
  6
Continuous
 62
     7
370
    25
100
AcDbLine
 10
6300.9636912854
 20
5321.0964132163
 30
0.0
 11
6314.2936796309
 21
5321.0964132163
 31
0.0
  0
LINE
  5
B3
330
1F
100
AcDbEntity
  8
0
  6
Continuous
 62
     7
370
    25
100
AcDbLine
 10
6307.2936803461
 20
5333.8964063737
 30
0.0
 11
6300.9636912854
 21
5333.8964063737
 31
0.0
  0
ARC
  5
B4
330
1F
100
AcDbEntity
  8
0
  6
Continuous
 62
     7
370
    25
100
AcDbCircle
 10
6307.293671273
 20
5334.6964140878
 30
0.0
 40
0.800007714185604
100
AcDbArc
 50
270.0006498081
 51
359.999350192
  0
ARC
  5
B5
330
1F
100
AcDbEntity
  8
0
  6
Continuous
 62
     7
370
    25
100
AcDbCircle
 10
6302.6981565127
 20
5327.496414767
 30
0.0
 40
13.62493436588488
100
AcDbArc
 50
342.1152685645
 51
17.89008682
  0
ARC
  5
B6
330
1F
100
AcDbEntity
  8
0
  6
Continuous
 62
     7
370
    25
100
AcDbCircle
 10
6315.0936933323
 20
5323.4963933888
 30
0.0
 40
0.599979505171932
100
AcDbArc
 50
269.9985617858
 51
341.9136455005
  0
ARC
  5
B7
330
1F
100
AcDbEntity
  8
0
  6
Continuous
 62
     7
370
    25
100
AcDbCircle
 10
6315.0936870248
 20
5331.4964154783
 30
0.0
 40
0.5999902278746948
100
AcDbArc
 50
359.9995198861
 51
90.0008358547
  0
ARC
  5
B8
330
1F
100
AcDbEntity
  8
0
  6
Continuous
 62
     7
370
    25
100
AcDbCircle
 10
6299.7441108736
 20
5321.6286166155
 30
0.0
 40
1.330645271664814
100
AcDbArc
 50
283.2817235517
 51
336.4243917918
  0
ARC
  5
B9
330
1F
100
AcDbEntity
  8
0
  6
Continuous
 62
     7
370
    25
100
AcDbCircle
 10
6299.7441741056
 20
5333.3642902641
 30
0.0
 40
1.330552406273716
100
AcDbArc
 50
23.5732521486
 51
76.8282311265
  0
LINE
  5
BA
330
1F
100
AcDbEntity
  8
0
  6
Continuous
 62
     7
370
    25
100
AcDbLine
 10
6247.1580960215
 20
5142.9964121493
 30
0.0
 11
6300.1576707126
 21
5142.9964121493
 31
0.0
  0
LINE
  5
BB
330
1F
100
AcDbEntity
  8
0
  6
Continuous
 62
     7
370
    25
100
AcDbLine
 10
6300.1576707126
 20
5292.9964143845
 30
0.0
 11
6247.1580960215
 21
5292.9964143845
 31
0.0
  0
SPLINE
  5
BC
330
1F
100
AcDbEntity
  8
0
  6
Continuous
 62
     7
370
    25
100
AcDbSpline
210
0.0
220
0.0
230
1.0
 70
     8
 71
     3
 72
     9
 73
     5
 74
     0
 42
0.000000001
 43
0.00000001
 40
0.0
 40
0.0
 40
0.0
 40
0.0
 40
0.7180398410005168
 40
1.0
 40
1.0
 40
1.0
 40
1.0
 10
6247.13575918089
 20
5447.99681790796
 30
0.0
 10
6247.141280760999
 20
5447.838593764686
 30
0.0
 10
6247.148970557293
 20
5447.618238104402
 30
0.0
 10
6247.231099773214
 20
5447.415706903606
 30
0.0
 10
6247.254256939994
 20
5447.358601174027
 30
0.0
  0
SPLINE
  5
BD
330
1F
100
AcDbEntity
  8
0
  6
Continuous
 62
     7
370
    25
100
AcDbSpline
210
0.0
220
0.0
230
1.0
 70
     8
 71
     3
 72
    12
 73
     8
 74
     0
 42
0.000000001
 43
0.00000001
 40
0.0
 40
0.0
 40
0.0
 40
0.0
 40
0.21371054596084
 40
0.4263990973945988
 40
0.6382772347964019
 40
0.8486072924765647
 40
1.0
 40
1.0
 40
1.0
 40
1.0
 10
6247.15809602152
 20
5413.896404585511
 30
0.0
 10
6247.158047741678
 20
5415.382112042724
 30
0.0
 10
6247.157951412878
 20
5418.346422090689
 30
0.0
 10
6247.157449371363
 20
5422.648338311336
 30
0.0
 10
6247.156700366892
 20
5426.729027252509
 30
0.0
 10
6247.155845486186
 20
5430.221013874484
 30
0.0
 10
6247.155170887851
 20
5432.181220391985
 30
0.0
 10
6247.154888546573
 20
5433.001630386979
 30
0.0
  0
LINE
  5
BE
330
1F
100
AcDbEntity
  8
0
  6
Continuous
 62
     7
370
    25
100
AcDbLine
 10
6247.15101797
 20
5440.8947754714
 30
0.0
 11
6247.1502319337
 21
5442.063860974
 31
0.0
  0
SPLINE
  5
BF
330
1F
100
AcDbEntity
  8
0
  6
Continuous
 62
     7
370
    25
100
AcDbSpline
210
0.0
220
0.0
230
1.0
 70
     8
 71
     3
 72
    11
 73
     7
 74
     0
 42
0.000000001
 43
0.00000001
 40
0.0
 40
0.0
 40
0.0
 40
0.0
 40
0.1159332253055045
 40
0.4724736066962838
 40
0.824615838770427
 40
1.0
 40
1.0
 40
1.0
 40
1.0
 10
6247.148723191129
 20
5443.740569433839
 30
0.0
 10
6247.148482933007
 20
5444.018030745703
 30
0.0
 10
6247.147503786428
 20
5445.148794997188
 30
0.0
 10
6247.145630875649
 20
5446.36109321542
 30
0.0
 10
6247.143618688215
 20
5447.350408673217
 30
0.0
 10
6247.142403162217
 20
5447.571072280493
 30
0.0
 10
6247.14199904214
 20
5447.644435248048
 30
0.0
  0
SPLINE
  5
C0
330
1F
100
AcDbEntity
  8
0
  6
Continuous
 62
     7
370
    18
100
AcDbSpline
210
0.0
220
0.0
230
1.0
 70
     8
 71
     3
 72
    19
 73
    15
 74
     0
 42
0.000000001
 43
0.00000001
 40
0.0
 40
0.0
 40
0.0
 40
0.0
 40
0.142884478289488
 40
0.2381420561634323
 40
0.3333746660533606
 40
0.4285945471653944
 40
0.500036092013963
 40
0.5714745749476949
 40
0.6429078284785132
 40
0.7143343973389354
 40
0.7857608590412463
 40
0.8571848308202615
 40
0.9286058871284066
 40
1.0
 40
1.0
 40
1.0
 40
1.0
 10
6247.842662817346
 20
5446.484767279298
 30
0.0
 10
6247.763721535843
 20
5446.43224876104
 30
0.0
 10
6247.632152037754
 20
5446.344717434516
 30
0.0
 10
6247.444548134143
 20
5445.290616541701
 30
0.0
 10
6247.325301484827
 20
5443.727223212886
 30
0.0
 10
6247.249893479844
 20
5441.578405595431
 30
0.0
 10
6247.207996724909
 20
5439.080598715005
 30
0.0
 10
6247.18365147512
 20
5436.434629842714
 30
0.0
 10
6247.169078289786
 20
5433.406375201975
 30
0.0
 10
6247.161615048783
 20
5430.012331927876
 30
0.0
 10
6247.158585971439
 20
5426.297517014055
 30
0.0
 10
6247.157802965876
 20
5422.328209899301
 30
0.0
 10
6247.157817213193
 20
5418.178104252899
 30
0.0
 10
6247.1580030971
 20
5415.323458289293
 30
0.0
 10
6247.15809602152
 20
5413.896404585511
 30
0.0
  0
SPLINE
  5
C1
330
1F
100
AcDbEntity
  8
0
  6
Continuous
 62
     7
370
    18
100
AcDbSpline
210
0.0
220
0.0
230
1.0
 70
     8
 71
     3
 72
    50
 73
    46
 74
     0
 42
0.000000001
 43
0.00000001
 40
0.0
 40
0.0
 40
0.0
 40
0.0
 40
0.013828176719253
 40
0.0276801970707357
 40
0.0457247179804233
 40
0.0679818905448016
 40
0.0944633424815685
 40
0.1251661336516676
 40
0.1613503943305427
 40
0.1942731224544903
 40
0.223921495093484
 40
0.2502817813861679
 40
0.2768461597385287
 40
0.3128892954352225
 40
0.3497594433266641
 40
0.3752815617146927
 40
0.3998097968254214
 40
0.4288079959438788
 40
0.4622675704778674
 40
0.5001960687254533
 40
0.5339425689200235
 40
0.5659976172823435
 40
0.5963740873258766
 40
0.625073812655239
 40
0.6416741690389264
 40
0.6624823082543237
 40
0.6874942298445812
 40
0.7135385939782135
 40
0.734363276164884
 40
0.7499708977134663
 40
0.757869629995007
 40
0.7709024851671178
 40
0.8000749524359875
 40
0.8306048573237456
 40
0.8547042216630057
 40
0.8748924146508905
 40
0.8852303941083685
 40
0.8966460523444877
 40
0.9091366630340348
 40
0.9226978370818866
 40
0.9373226232816589
 40
0.9614216492807268
 40
0.9798789737840072
 40
0.992727643975122
 40
1.0
 40
1.0
 40
1.0
 40
1.0
 10
6247.100570088731
 20
5447.99681790796
 30
0.0
 10
6247.105350934548
 20
5447.996783510137
 30
0.0
 10
6247.114920869696
 20
5447.996714655177
 30
0.0
 10
6247.201544829211
 20
5447.996494905955
 30
0.0
 10
6247.374490255028
 20
5447.996278127717
 30
0.0
 10
6247.704677366622
 20
5447.995898995979
 30
0.0
 10
6248.259646187269
 20
5447.995454730728
 30
0.0
 10
6249.132260458518
 20
5447.994920896703
 30
0.0
 10
6250.337609045305
 20
5447.994477194682
 30
0.0
 10
6251.793548868302
 20
5447.994508531326
 30
0.0
 10
6253.301732107893
 20
5447.994759357145
 30
0.0
 10
6254.85460251336
 20
5447.995895773252
 30
0.0
 10
6256.672342519575
 20
5447.996319664343
 30
0.0
 10
6258.883833176829
 20
5447.995276919832
 30
0.0
 10
6261.24625419617
 20
5447.994148961285
 30
0.0
 10
6263.437683191754
 20
5447.994213262036
 30
0.0
 10
6265.49613342569
 20
5447.995063277437
 30
0.0
 10
6267.824639535998
 20
5447.995419381146
 30
0.0
 10
6270.573857650777
 20
5447.995728038622
 30
0.0
 10
6273.492325271973
 20
5447.995857697031
 30
0.0
 10
6276.370988013414
 20
5447.995838725913
 30
0.0
 10
6279.011123039598
 20
5447.995467755526
 30
0.0
 10
6281.460640608625
 20
5447.994872165688
 30
0.0
 10
6283.436421721558
 20
5447.993894723528
 30
0.0
 10
6285.112224286791
 20
5447.993509994688
 30
0.0
 10
6286.651501285413
 20
5447.993948122984
 30
0.0
 10
6288.354470626314
 20
5447.99497022068
 30
0.0
 10
6289.969331862955
 20
5447.996078362674
 30
0.0
 10
6291.292183637604
 20
5447.996670348624
 30
0.0
 10
6292.183226556747
 20
5447.996678906933
 30
0.0
 10
6292.891143849593
 20
5447.996540336968
 30
0.0
 10
6293.828872300534
 20
5447.996681172116
 30
0.0
 10
6295.090597592338
 20
5447.996945044409
 30
0.0
 10
6296.36848356394
 20
5447.997406618095
 30
0.0
 10
6297.354902361714
 20
5447.997042134792
 30
0.0
 10
6297.978525138838
 20
5447.995797231266
 30
0.0
 10
6298.4054453379
 20
5447.994727230603
 30
0.0
 10
6298.72375013605
 20
5447.994316630292
 30
0.0
 10
6299.03536872288
 20
5447.9941739185
 30
0.0
 10
6299.330011546695
 20
5447.994338964641
 30
0.0
 10
6299.647355002592
 20
5447.994867388048
 30
0.0
 10
6299.901639771699
 20
5447.995649390639
 30
0.0
 10
6300.045416895685
 20
5447.99624013539
 30
0.0
 10
6300.094847064917
 20
5447.996691642591
 30
0.0
 10
6300.099046184378
 20
5447.99678438721
 30
0.0
 10
6300.100563874947
 20
5447.99681790796
 30
0.0
  0
LINE
  5
C2
330
1F
100
AcDbEntity
  8
0
  6
Continuous
 62
     7
370
    25
100
AcDbLine
 10
6247.1005700887
 20
5447.996817908
 30
0.0
 11
6247.1005700887
 21
5450.2685595366
 31
0.0
  0
SPLINE
  5
C3
330
1F
100
AcDbEntity
  8
0
  6
Continuous
 62
     7
370
    18
100
AcDbSpline
210
0.0
220
0.0
230
1.0
 70
    24
 71
     3
 72
     9
 73
     5
 74
     0
 42
0.000000001
 43
0.00000001
 40
0.0
 40
0.0
 40
0.0
 40
0.0
 40
0.0018068732836125
 40
1.0
 40
1.0
 40
1.0
 40
1.0
 10
6247.60731760274
 20
5450.268559536607
 30
0.0
 10
6247.606874028894
 20
5450.268559536607
 30
0.0
 10
6247.361381525729
 20
5450.268559536609
 30
0.0
 10
6247.358752752181
 20
5450.268559536608
 30
0.0
 10
6247.356128728496
 20
5450.268559536607
 30
0.0
  0
LINE
  5
C4
330
1F
100
AcDbEntity
  8
0
  6
Continuous
 62
     7
370
    25
100
AcDbLine
 10
6300.1005638749
 20
5450.2685595366
 30
0.0
 11
6300.1005638749
 21
5447.996817908
 31
0.0
  0
SPLINE
  5
C5
330
1F
100
AcDbEntity
  8
0
  6
Continuous
 62
     7
370
    18
100
AcDbSpline
210
0.0
220
0.0
230
1.0
 70
     8
 71
     3
 72
    23
 73
    19
 74
     0
 42
0.000000001
 43
0.00000001
 40
0.0
 40
0.0
 40
0.0
 40
0.0
 40
0.0627639175175841
 40
0.1251887359965028
 40
0.187590205502421
 40
0.2502640299618289
 40
0.3128791853521597
 40
0.3752833727939437
 40
0.4378041158883972
 40
0.5002114772807027
 40
0.562677648617818
 40
0.6250982253435056
 40
0.6875140115157605
 40
0.7499816482634328
 40
0.8123784227544343
 40
0.874900254435562
 40
0.9373258801813973
 40
1.0
 40
1.0
 40
1.0
 40
1.0
 10
6247.920241987811
 20
5446.382247290284
 30
0.0
 10
6248.017360287505
 20
5446.381143089826
 30
0.0
 10
6248.211072179014
 20
5446.378940654651
 30
0.0
 10
6249.747139041947
 20
5446.373535484677
 30
0.0
 10
6252.116896435828
 20
5446.376069994622
 30
0.0
 10
6255.332296598466
 20
5446.382631525007
 30
0.0
 10
6259.255749855101
 20
5446.380457512106
 30
0.0
 10
6263.726777092105
 20
5446.379557243334
 30
0.0
 10
6268.570919722478
 20
5446.379238997491
 30
0.0
 10
6273.609718195912
 20
5446.382481204578
 30
0.0
 10
6278.645173976138
 20
5446.378238223278
 30
0.0
 10
6283.488231863574
 20
5446.379811524133
 30
0.0
 10
6287.950328464141
 20
5446.377401797544
 30
0.0
 10
6291.866934646865
 20
5446.383323834229
 30
0.0
 10
6295.083613963945
 20
5446.3815298863
 30
0.0
 10
6297.457243195342
 20
5446.380996039094
 30
0.0
 10
6298.987705200878
 20
5446.379924179482
 30
0.0
 10
6299.183033719461
 20
5446.38147189524
 30
0.0
 10
6299.280891975866
 20
5446.382247290284
 30
0.0
  0
ARC
  5
C6
330
1F
100
AcDbEntity
  8
0
  6
Continuous
 62
     7
370
    25
100
AcDbCircle
 10
6249.1006169582
 20
5447.9968377677
 30
0.0
 40
2.000046869561094
100
AcDbArc
 50
180.0005689261
 51
233.830667774
  0
ARC
  5
C7
330
1F
100
AcDbEntity
  8
0
  6
Continuous
 62
     7
370
    25
100
AcDbCircle
 10
6298.1005236638
 20
5447.9968343875
 30
0.0
 40
2.000040211213518
100
AcDbArc
 50
306.1692353931
 51
359.9995279068
  0
ARC
  5
C8
330
1F
100
AcDbEntity
  8
0
  6
Continuous
 62
     7
370
    25
100
AcDbCircle
 10
6249.1006013164
 20
5450.2685443985
 30
0.0
 40
2.000031227748869
100
AcDbArc
 50
98.0689928203
 51
179.9995663313
  0
ARC
  5
C9
330
1F
100
AcDbEntity
  8
0
  6
Continuous
 62
     7
370
    25
100
AcDbCircle
 10
6298.1005334868
 20
5450.2685448633
 30
0.0
 40
2.000030388240107
100
AcDbArc
 50
0.0004203529
 51
81.9310819539
  0
ARC
  5
CA
330
1F
100
AcDbEntity
  8
0
  6
Continuous
 62
     7
370
    25
100
AcDbCircle
 10
6273.5921880804
 20
5481.5230645495
 30
0.0
 40
43.52914593088983
100
AcDbArc
 50
300.8300965551
 51
306.1676181996
  0
LINE
  5
CB
330
1F
100
AcDbEntity
  8
0
  6
Continuous
 62
     7
370
    18
100
AcDbLine
 10
6251.3005182506
 20
5444.1449869486
 30
0.0
 11
6251.8376902104
 21
5444.0667558524
 31
0.0
  0
ARC
  5
CC
330
1F
100
AcDbEntity
  8
0
  6
Continuous
 62
     7
370
    25
100
AcDbCircle
 10
6273.6089235311
 20
5481.5230122046
 30
0.0
 40
43.52909048201181
100
AcDbArc
 50
233.8323648909
 51
239.1698912927
  0
ARC
  5
CD
330
1F
100
AcDbEntity
  8
0
  6
Continuous
 62
     7
370
    25
100
AcDbCircle
 10
6273.6005660505
 20
5277.4343084057
 30
0.0
 40
176.562115894235
100
AcDbArc
 50
81.9318324115
 51
98.0681675885
  0
SPLINE
  5
CE
330
1F
100
AcDbEntity
  8
0
  6
Continuous
 62
     7
370
    25
100
AcDbSpline
210
0.0
220
0.0
230
1.0
 70
     8
 71
     3
 72
    26
 73
    22
 74
     0
 42
0.000000001
 43
0.00000001
 40
0.0
 40
0.0
 40
0.0
 40
0.0
 40
0.0540215597245189
 40
0.1080453869081491
 40
0.1620676982048573
 40
0.2160923334094122
 40
0.2701325994427455
 40
0.3241703350874327
 40
0.3780110814104487
 40
0.431852763567489
 40
0.4854413362268364
 40
0.5390216580539138
 40
0.5921911599567529
 40
0.6453517894009086
 40
0.6989753582093925
 40
0.7525984569878027
 40
0.8064438898494957
 40
0.8602887600357393
 40
0.9143184574917099
 40
0.9683444718245213
 40
1.0
 40
1.0
 40
1.0
 40
1.0
 10
6258.4951676787
 20
5433.106474957139
 30
0.0
 10
6258.540503187469
 20
5433.254765670266
 30
0.0
 10
6258.631176107884
 20
5433.551353320762
 30
0.0
 10
6259.303425279168
 20
5433.98346021351
 30
0.0
 10
6260.360595326832
 20
5434.390027240692
 30
0.0
 10
6261.797139987335
 20
5434.760568417671
 30
0.0
 10
6263.575180732024
 20
5435.083213097966
 30
0.0
 10
6265.634106860307
 20
5435.350041517097
 30
0.0
 10
6267.924577236665
 20
5435.550930376527
 30
0.0
 10
6270.368096539825
 20
5435.682832535461
 30
0.0
 10
6272.901544501239
 20
5435.740339774478
 30
0.0
 10
6275.444473446089
 20
5435.723791693112
 30
0.0
 10
6277.926672278983
 20
5435.632301520399
 30
0.0
 10
6280.291084835897
 20
5435.471845548685
 30
0.0
 10
6282.468056203375
 20
5435.242609670607
 30
0.0
 10
6284.408463478294
 20
5434.95352683814
 30
0.0
 10
6286.038176824387
 20
5434.610652586869
 30
0.0
 10
6287.327062909952
 20
5434.225062611905
 30
0.0
 10
6288.213553662854
 20
5433.806662591142
 30
0.0
 10
6288.645305236795
 20
5433.428332720097
 30
0.0
 10
6288.689838998819
 20
5433.193306658531
 30
0.0
 10
6288.706292247878
 20
5433.106474957139
 30
0.0
  0
ARC
  5
CF
330
1F
100
AcDbEntity
  8
0
  6
Continuous
 62
     7
370
    25
100
AcDbCircle
 10
6243.6178117275
 20
5431.2736648092
 30
0.0
 40
14.98982698824586
100
AcDbArc
 50
7.0231443137
 51
59.1676321332
  0
ARC
  5
D0
330
1F
100
AcDbEntity
  8
0
  6
Continuous
 62
     7
370
    25
100
AcDbCircle
 10
6303.583448645
 20
5431.2740230366
 30
0.0
 40
14.9895851345382
100
AcDbArc
 50
120.8334906677
 51
172.9781214269
  0
LWPOLYLINE
  5
D1
330
1F
100
AcDbEntity
  8
0
  6
Continuous
 62
     7
370
    25
100
AcDbPolyline
 90
       15
 70
   128
 43
0.0
 10
6273.5958461077
 20
5435.0974787089
 10
6271.4947814481
 20
5435.0655604216
 10
6269.4577135504
 20
5434.9707890364
 10
6267.5465371818
 20
5434.8159957739
 10
6265.8193230988
 20
5434.6059192034
 10
6264.3285494656
 20
5434.3469370219
 10
6263.1195158125
 20
5434.0469170424
 10
6262.228957227
 20
5433.7149787757
 10
6261.6839323552
 20
5433.3611954066
 10
6261.501001975
 20
5432.9963553759
 10
6261.6857223571
 20
5432.6314855429
 10
6262.2324832142
 20
5432.2777319762
 10
6263.1246716143
 20
5431.9457937094
 10
6264.3351767571
 20
5431.64577373
 10
6265.0085769952
 20
5431.5175939414
  0
LWPOLYLINE
  5
D2
330
1F
100
AcDbEntity
  8
0
  6
Continuous
 62
     7
370
    25
100
AcDbPolyline
 90
       15
 70
   128
 43
0.0
 10
6282.1931970199
 20
5431.5162826392
 10
6282.8734501042
 20
5431.64577373
 10
6284.0824836409
 20
5431.9457937094
 10
6284.9730426339
 20
5432.2777319762
 10
6285.5180677385
 20
5432.6314855429
 10
6285.7009990499
 20
5432.9963553759
 10
6285.5162777365
 20
5433.3611954066
 10
6284.9695168794
 20
5433.7149787757
 10
6284.0773293525
 20
5434.0469170424
 10
6282.8668238896
 20
5434.3469370219
 10
6281.3747810093
 20
5434.6059192034
 10
6279.6465357193
 20
5434.8159957739
 10
6277.7345998571
 20
5434.9707890364
 10
6275.6970667639
 20
5435.0655604216
 10
6273.5958461077
 20
5435.0974787089
  0
SPLINE
  5
D3
330
1F
100
AcDbEntity
  8
0
  6
Continuous
 62
     7
370
    25
100
AcDbSpline
210
0.0
220
0.0
230
1.0
 70
     8
 71
     3
 72
    13
 73
     9
 74
     0
 42
0.000000001
 43
0.00000001
 40
0.0
 40
0.0
 40
0.0
 40
0.0
 40
0.1740496820182796
 40
0.3480878539844561
 40
0.5224826640294155
 40
0.696838843722231
 40
0.8640274121330705
 40
1.0
 40
1.0
 40
1.0
 40
1.0
 10
6288.706292247878
 20
5433.106474957139
 30
0.0
 10
6288.663680161269
 20
5432.94241782334
 30
0.0
 10
6288.578458806026
 20
5432.614314404977
 30
0.0
 10
6287.864652289921
 20
5432.134806097131
 30
0.0
 10
6286.718947808937
 20
5431.682225918034
 30
0.0
 10
6285.14481396018
 20
5431.2784189765
 30
0.0
 10
6283.354898698534
 20
5430.948431019399
 30
0.0
 10
6281.985491257237
 20
5430.789472060423
 30
0.0
 10
6281.371290295863
 20
5430.718176445634
 30
0.0
  0
SPLINE
  5
D4
330
1F
100
AcDbEntity
  8
0
  6
Continuous
 62
     7
370
    25
100
AcDbSpline
210
0.0
220
0.0
230
1.0
 70
     8
 71
     3
 72
    14
 73
    10
 74
     0
 42
0.000000001
 43
0.00000001
 40
0.0
 40
0.0
 40
0.0
 40
0.0
 40
0.0863652243874158
 40
0.2374777269863017
 40
0.3943674327323878
 40
0.5512870887913832
 40
0.7166090998884005
 40
0.8819655885565115
 40
1.0
 40
1.0
 40
1.0
 40
1.0
 10
6265.809490195023
 20
5430.724345526368
 30
0.0
 10
6265.411921694764
 20
5430.767170656569
 30
0.0
 10
6264.318730952396
 20
5430.884926554849
 30
0.0
 10
6262.764087049238
 20
5431.142998622482
 30
0.0
 10
6261.196147174495
 20
5431.485775392856
 30
0.0
 10
6259.928875516607
 20
5431.880970933812
 30
0.0
 10
6259.035220905304
 20
5432.313508013543
 30
0.0
 10
6258.560410695793
 20
5432.729280574026
 30
0.0
 10
6258.514351623761
 20
5432.995565366416
 30
0.0
 10
6258.4951676787
 20
5433.106474957139
 30
0.0
  0
LINE
  5
D5
330
1F
100
AcDbEntity
  8
0
  6
Continuous
 62
     7
370
    25
100
AcDbLine
 10
6300.1005638749
 20
5447.996817908
 30
0.0
 11
6300.1358181597
 21
5447.996817908
 31
0.0
  0
LINE
  5
D6
330
1F
100
AcDbEntity
  8
0
  6
Continuous
 62
     7
370
    25
100
AcDbLine
 10
6300.158093533
 20
5450.2685595366
 30
0.0
 11
6300.1005638749
 21
5450.2685595366
 31
0.0
  0
LINE
  5
D7
330
1F
100
AcDbEntity
  8
0
  6
Continuous
 62
     7
370
    25
100
AcDbLine
 10
6300.158093533
 20
5450.2685595366
 30
0.0
 11
6300.1580916704
 21
5412.996434054
 31
0.0
  0
LINE
  5
D8
330
1F
100
AcDbEntity
  8
0
  6
Continuous
 62
     7
370
    25
100
AcDbLine
 10
6300.1580916704
 20
5412.996434054
 30
0.0
 11
6300.1580860824
 21
5413.8964641902
 31
0.0
  0
LINE
  5
D9
330
1F
100
AcDbEntity
  8
0
  6
Continuous
 62
     7
370
    25
100
AcDbLine
 10
6300.1358181597
 20
5447.996817908
 30
0.0
 11
6300.1369729997
 21
5448.01031836
 31
0.0
  0
SPLINE
  5
DA
330
1F
100
AcDbEntity
  8
0
  6
Continuous
 62
     7
370
    25
100
AcDbSpline
210
0.0
220
0.0
230
1.0
 70
     8
 71
     3
 72
    21
 73
    17
 74
     0
 42
0.000000001
 43
0.00000001
 40
0.0
 40
0.0
 40
0.0
 40
0.0
 40
0.0663575883526464
 40
0.1326144456851284
 40
0.1989284488121898
 40
0.2892219457859033
 40
0.3770387523055498
 40
0.4649731694657488
 40
0.5315624814513885
 40
0.5984274102377337
 40
0.6653331648431068
 40
0.7322107269280762
 40
0.7991374221203832
 40
0.8661140012000548
 40
0.9332870576291222
 40
1.0
 40
1.0
 40
1.0
 40
1.0
 10
6300.13768266748
 20
5448.018603405625
 30
0.0
 10
6300.138305107295
 20
5448.025765073029
 30
0.0
 10
6300.139549042061
 20
5448.040077536405
 30
0.0
 10
6300.141409322212
 20
5447.860873055023
 30
0.0
 10
6300.14348785282
 20
5447.368835700835
 30
0.0
 10
6300.145742044918
 20
5446.355805870746
 30
0.0
 10
6300.148118679577
 20
5444.568571052335
 30
0.0
 10
6300.150168061892
 20
5442.264475949139
 30
0.0
 10
6300.151908787831
 20
5439.645905908771
 30
0.0
 10
6300.153367055203
 20
5436.895015625572
 30
0.0
 10
6300.154678338436
 20
5433.772291284397
 30
0.0
 10
6300.155815945087
 20
5430.296900004497
 30
0.0
 10
6300.156751672428
 20
5426.506858788691
 30
0.0
 10
6300.157459592128
 20
5422.462726106158
 30
0.0
 10
6300.157950997536
 20
5418.238389686881
 30
0.0
 10
6300.158041157423
 20
5415.340452995635
 30
0.0
 10
6300.158086082445
 20
5413.896464190156
 30
0.0
  0
LINE
  5
DB
330
1F
100
AcDbEntity
  8
0
  6
Continuous
 62
     7
370
    25
100
AcDbLine
 10
6299.316144398
 20
5446.3822472903
 30
0.0
 11
6299.2808919759
 21
5446.3822472903
 31
0.0
  0
SPLINE
  5
DC
330
1F
100
AcDbEntity
  8
0
  6
Continuous
 62
     7
370
    25
100
AcDbSpline
210
0.0
220
0.0
230
1.0
 70
     8
 71
     3
 72
    11
 73
     7
 74
     0
 42
0.000000001
 43
0.00000001
 40
0.0
 40
0.0
 40
0.0
 40
0.0
 40
0.2500013466068833
 40
0.500011592429285
 40
0.7500036715574045
 40
0.9999999999999999
 40
0.9999999999999999
 40
0.9999999999999999
 40
0.9999999999999999
 10
6299.316144397961
 20
5446.382247290284
 30
0.0
 10
6299.436370290752
 20
5446.483270404935
 30
0.0
 10
6299.676826355977
 20
5446.685320230322
 30
0.0
 10
6299.933528973136
 20
5447.084178186534
 30
0.0
 10
6300.104013082436
 20
5447.526800675899
 30
0.0
 10
6300.125216407201
 20
5447.840144609588
 30
0.0
 10
6300.135818159686
 20
5447.99681790796
 30
0.0
  0
LINE
  5
DD
330
1F
100
AcDbEntity
  8
0
  6
Continuous
 62
     7
370
    25
100
AcDbLine
 10
6298.4387947605
 20
5452.2487748477
 30
0.0
 11
6298.3812660338
 21
5452.2487748477
 31
0.0
  0
ARC
  5
DE
330
1F
100
AcDbEntity
  8
0
  6
Continuous
 62
     7
370
    25
100
AcDbCircle
 10
6298.1580620129
 20
5450.2685437485
 30
0.0
 40
2.000031520191912
100
AcDbArc
 50
0.0004522896
 51
81.9310807463
  0
ARC
  5
DF
330
1F
100
AcDbEntity
  8
0
  6
Continuous
 62
     7
370
    25
100
AcDbCircle
 10
6273.6579078686
 20
5277.4304998169
 30
0.0
 40
176.5659130180192
100
AcDbArc
 50
81.9319458184
 51
89.9999390458
  0
SPLINE
  5
E0
330
1F
100
AcDbEntity
  8
0
  6
Continuous
 62
     7
370
    18
100
AcDbSpline
210
0.0
220
0.0
230
1.0
 70
     8
 71
     3
 72
    37
 73
    33
 74
     0
 42
0.000000001
 43
0.00000001
 40
0.0
 40
0.0
 40
0.0
 40
0.0
 40
0.0322747739602684
 40
0.0658390259961387
 40
0.1007129292984369
 40
0.1368977340687766
 40
0.1494081308957088
 40
0.162527553487477
 40
0.1762527351933015
 40
0.1905795521100825
 40
0.2055026843214442
 40
0.2295236646355768
 40
0.2421065463013534
 40
0.2569544720410243
 40
0.274045078193368
 40
0.3389665992242503
 40
0.4107563637368785
 40
0.4472782363677479
 40
0.482199206989997
 40
0.5155036119401141
 40
0.5471761739177783
 40
0.5803102656795275
 40
0.6275789034141125
 40
0.6681824240561791
 40
0.7008564093213533
 40
0.7401499284528678
 40
0.7799355555480381
 40
0.8181803814275507
 40
0.8687220105672615
 40
0.9075662510989605
 40
0.9528478391461
 40
1.0
 40
1.0
 40
1.0
 40
1.0
 10
6300.158082357155
 20
5413.896464190156
 30
0.0
 10
6300.158069454495
 20
5414.574399768925
 30
0.0
 10
6300.158043133673
 20
5415.957356571327
 30
0.0
 10
6300.157952848957
 20
5418.055536687313
 30
0.0
 10
6300.157751314189
 20
5420.20585262863
 30
0.0
 10
6300.157384535488
 20
5421.890141440625
 30
0.0
 10
6300.156918074809
 20
5423.114425610167
 30
0.0
 10
6300.156544294059
 20
5423.886443698902
 30
0.0
 10
6300.156065381617
 20
5424.685413645537
 30
0.0
 10
6300.155447460287
 20
5425.509409161819
 30
0.0
 10
6300.154525908351
 20
5426.517211685068
 30
0.0
 10
6300.153380379273
 20
5427.473566541636
 30
0.0
 10
6300.152022974221
 20
5428.409910410413
 30
0.0
 10
6300.150690723146
 20
5429.207645271368
 30
0.0
 10
6300.147434850904
 20
5430.910305141767
 30
0.0
 10
6300.139944860991
 20
5433.46816118117
 30
0.0
 10
6300.125060622779
 20
5436.037127786155
 30
0.0
 10
6300.107271897338
 20
5437.946113578915
 30
0.0
 10
6300.091027464934
 20
5439.236789246293
 30
0.0
 10
6300.0718854064
 20
5440.369009542753
 30
0.0
 10
6300.049718974227
 20
5441.388344113865
 30
0.0
 10
6300.016937890496
 20
5442.437124175407
 30
0.0
 10
6299.972149120052
 20
5443.415916476675
 30
0.0
 10
6299.920180150033
 20
5444.228298072047
 30
0.0
 10
6299.867092792047
 20
5444.866962802133
 30
0.0
 10
6299.810656933392
 20
5445.388655252365
 30
0.0
 10
6299.7466976683
 20
5445.812875461906
 30
0.0
 10
6299.670649705778
 20
5446.152534331038
 30
0.0
 10
6299.58873076175
 20
5446.361081110274
 30
0.0
 10
6299.505499751359
 20
5446.471006111238
 30
0.0
 10
6299.430657069957
 20
5446.496379035611
 30
0.0
 10
6299.390680535176
 20
5446.466744314729
 30
0.0
 10
6299.370287767159
 20
5446.451627096802
 30
0.0
  0
SPLINE
  5
E1
330
1F
100
AcDbEntity
  8
0
  6
Continuous
 62
     7
370
    25
100
AcDbSpline
210
0.0
220
0.0
230
1.0
 70
     8
 71
     3
 72
    16
 73
    12
 74
     0
 42
0.000000001
 43
0.00000001
 40
0.0
 40
0.0
 40
0.0
 40
0.0
 40
0.0448312530064589
 40
0.2342423881850937
 40
0.3277407279504867
 40
0.4239630412314639
 40
0.5227990785854097
 40
0.624143279196885
 40
0.7664590010387475
 40
0.8939766716969001
 40
1.0
 40
1.0
 40
1.0
 40
1.0
 10
6247.173708713161
 20
5434.029244265229
 30
0.0
 10
6247.172495077191
 20
5433.798992443782
 30
0.0
 10
6247.166153853857
 20
5432.595931344148
 30
0.0
 10
6247.163165304431
 20
5430.62796727848
 30
0.0
 10
6247.16019815196
 20
5428.277789723901
 30
0.0
 10
6247.158942799412
 20
5426.40904604349
 30
0.0
 10
6247.158203294365
 20
5424.427045417654
 30
0.0
 10
6247.157885420651
 20
5422.067498672289
 30
0.0
 10
6247.157748419727
 20
5419.436449268146
 30
0.0
 10
6247.157978571613
 20
5416.710989802747
 30
0.0
 10
6247.158046539083
 20
5414.992624249911
 30
0.0
 10
6247.158077395068
 20
5414.212517819077
 30
0.0
  0
SPLINE
  5
E2
330
1F
100
AcDbEntity
  8
0
  6
Continuous
 62
     7
370
    25
100
AcDbSpline
210
0.0
220
0.0
230
1.0
 70
     8
 71
     3
 72
    18
 73
    14
 74
     0
 42
0.000000001
 43
0.00000001
 40
0.0
 40
0.0
 40
0.0
 40
0.0
 40
0.0197776487017246
 40
0.1113819344896129
 40
0.2029142940444184
 40
0.2944425795989852
 40
0.3858495207208286
 40
0.4757974553915761
 40
0.5669800975856546
 40
0.6881710851890361
 40
0.8072088288287848
 40
0.9293171078907314
 40
1.0
 40
1.0
 40
1.0
 40
1.0
 10
6247.157529777394
 20
5421.540908894211
 30
0.0
 10
6247.157496309371
 20
5421.845338340337
 30
0.0
 10
6247.157307827255
 20
5423.559795965523
 30
0.0
 10
6247.156738875839
 20
5426.518085892031
 30
0.0
 10
6247.155820468849
 20
5430.322248817409
 30
0.0
 10
6247.154675799947
 20
5433.796473551384
 30
0.0
 10
6247.153365580328
 20
5436.904159555587
 30
0.0
 10
6247.151918154777
 20
5439.643558021736
 30
0.0
 10
6247.150176349163
 20
5442.260617603371
 30
0.0
 10
6247.148125372854
 20
5444.569753812709
 30
0.0
 10
6247.14575170569
 20
5446.335731732004
 30
0.0
 10
6247.143654600156
 20
5447.342801916766
 30
0.0
 10
6247.142334147251
 20
5447.587023400123
 30
0.0
 10
6247.141850030528
 20
5447.676562151581
 30
0.0
  0
LINE
  5
E3
330
1F
100
AcDbEntity
  8
0
  6
Continuous
 62
     7
370
    25
100
AcDbLine
 10
6247.1371151866
 20
5448.0119276854
 30
0.0
 11
6247.1358225108
 21
5447.996817908
 31
0.0
  0
SPLINE
  5
E4
330
1F
100
AcDbEntity
  8
0
  6
Continuous
 62
     7
370
    25
100
AcDbSpline
210
0.0
220
0.0
230
1.0
 70
     8
 71
     3
 72
     9
 73
     5
 74
     0
 42
0.000000001
 43
0.00000001
 40
0.0
 40
0.0
 40
0.0
 40
0.0
 40
0.7180075106394653
 40
1.0
 40
1.0
 40
1.0
 40
1.0
 10
6247.135822510825
 20
5447.99681790796
 30
0.0
 10
6247.141344474701
 20
5447.83860807873
 30
0.0
 10
6247.149035151741
 20
5447.618262432082
 30
0.0
 10
6247.231111910479
 20
5447.415717362427
 30
0.0
 10
6247.254256939994
 20
5447.358601174027
 30
0.0
  0
SPLINE
  5
E5
330
1F
100
AcDbEntity
  8
0
  6
Continuous
 62
     7
370
    25
100
AcDbSpline
210
0.0
220
0.0
230
1.0
 70
    24
 71
     3
 72
    15
 73
    11
 74
     0
 42
0.000000001
 43
0.00000001
 40
0.0
 40
0.0
 40
0.0
 40
0.0
 40
0.124999993457466
 40
0.2499999882128502
 40
0.3749999944346346
 40
0.5000000051245126
 40
0.624999993099636
 40
0.7499999963229159
 40
0.8749999994780249
 40
1.0
 40
1.0
 40
1.0
 40
1.0
 10
6300.158091670381
 20
5412.996434054047
 30
0.0
 10
6300.058573739079
 20
5412.996434054047
 30
0.0
 10
6299.859537875445
 20
5412.996434054047
 30
0.0
 10
6298.281345095139
 20
5412.996434054047
 30
0.0
 10
6295.830111203843
 20
5412.996434054047
 30
0.0
 10
6292.507324896747
 20
5412.996434054047
 30
0.0
 10
6288.465502689083
 20
5412.996434054047
 30
0.0
 10
6283.853306742963
 20
5412.996434054047
 30
0.0
 10
6278.849701660744
 20
5412.996434054047
 30
0.0
 10
6275.380989201634
 20
5412.996434054047
 30
0.0
 10
6273.646632990347
 20
5412.996434054047
 30
0.0
  0
LINE
  5
E6
330
1F
100
AcDbEntity
  8
0
  6
Continuous
 62
     7
370
    25
100
AcDbLine
 10
6273.6466329903
 20
5412.9964042517
 30
0.0
 11
6247.1580960215
 21
5412.9964042517
 31
0.0
  0
LINE
  5
E7
330
1F
100
AcDbEntity
  8
0
  6
Continuous
 62
     7
370
    25
100
AcDbLine
 10
6247.1580960215
 20
5413.8964045855
 30
0.0
 11
6247.1580960215
 21
5412.9964042517
 31
0.0
  0
SPLINE
  5
E8
330
1F
100
AcDbEntity
  8
0
  6
Continuous
 62
     7
370
    25
100
AcDbSpline
210
0.0
220
0.0
230
1.0
 70
     8
 71
     3
 72
    19
 73
    15
 74
     0
 42
0.000000001
 43
0.00000001
 40
0.0
 40
0.0
 40
0.0
 40
0.0
 40
0.1017086776628213
 40
0.2031802591555409
 40
0.3096251437832067
 40
0.4186049044563596
 40
0.4727238600432822
 40
0.5268191793922045
 40
0.6226622298227427
 40
0.7227011717390563
 40
0.8320738193506578
 40
0.886502747345191
 40
0.9409107007732791
 40
1.0
 40
1.0
 40
1.0
 40
1.0
 10
6273.646633921669
 20
5354.045220098168
 30
0.0
 10
6274.83749640821
 20
5353.930166190187
 30
0.0
 10
6277.216445325788
 20
5353.700326579863
 30
0.0
 10
6280.419414954961
 20
5351.95910281929
 30
0.0
 10
6282.949403193275
 20
5349.326248933126
 30
0.0
 10
6284.265005134564
 20
5346.44683147153
 30
0.0
 10
6284.70476233335
 20
5343.948667253721
 30
0.0
 10
6284.711598965449
 20
5341.555139094798
 30
0.0
 10
6283.994547439895
 20
5338.691838416964
 30
0.0
 10
6282.171329654557
 20
5335.661222506514
 30
0.0
 10
6279.823788373896
 20
5333.682667284937
 30
0.0
 10
6277.544472859421
 20
5332.613465992957
 30
0.0
 10
6275.662253048456
 20
5332.059501469689
 30
0.0
 10
6274.336730656953
 20
5331.985914034187
 30
0.0
 10
6273.646632990347
 20
5331.947602710396
 30
0.0
  0
SPLINE
  5
E9
330
1F
100
AcDbEntity
  8
0
  6
Continuous
 62
     7
370
    25
100
AcDbSpline
210
0.0
220
0.0
230
1.0
 70
     8
 71
     3
 72
    19
 73
    15
 74
     0
 42
0.000000001
 43
0.00000001
 40
0.0
 40
0.0
 40
0.0
 40
0.0
 40
0.1017086744276544
 40
0.2031802673723538
 40
0.3096251375325997
 40
0.4186052707147496
 40
0.4727238078746134
 40
0.5268191252402294
 40
0.6226621787011198
 40
0.7227011175901283
 40
0.8320737580132473
 40
0.8865028500437582
 40
0.9409106977450826
 40
1.0
 40
1.0
 40
1.0
 40
1.0
 10
6273.646632990347
 20
5331.947602710396
 30
0.0
 10
6272.455812005274
 20
5332.062656636957
 30
0.0
 10
6270.076945822022
 20
5332.292496301003
 30
0.0
 10
6266.874568732245
 20
5334.033719899904
 30
0.0
 10
6264.345285809255
 20
5336.666576148207
 30
0.0
 10
6263.030186323309
 20
5339.545998400627
 30
0.0
 10
6262.590592450992
 20
5342.04416005648
 30
0.0
 10
6262.583761979876
 20
5344.437684143499
 30
0.0
 10
6263.30052762989
 20
5347.300983210242
 30
0.0
 10
6265.123119770631
 20
5350.331604203795
 30
0.0
 10
6267.470077844258
 20
5352.310144127669
 30
0.0
 10
6269.749021673575
 20
5353.379379570213
 30
0.0
 10
6271.63105618484
 20
5353.933315235778
 30
0.0
 10
6272.956550310912
 20
5354.006906660741
 30
0.0
 10
6273.646633921669
 20
5354.045220098168
 30
0.0
  0
ARC
  5
EA
330
1F
100
AcDbEntity
  8
0
  6
Continuous
 62
     7
370
    25
100
AcDbCircle
 10
6324.3147701421
 20
5327.4988477848
 30
0.0
 40
25.30292232995067
100
AcDbArc
 50
162.6881118842
 51
197.0589060406
  0
LINE
  5
EB
330
1F
100
AcDbEntity
  8
0
  6
Continuous
 62
     7
370
    25
100
AcDbLine
 10
6247.1580960215
 20
5292.9964143845
 30
0.0
 11
6300.158093533
 21
5292.9964143845
 31
0.0
  0
SPLINE
  5
EC
330
1F
100
AcDbEntity
  8
0
  6
Continuous
 62
     7
370
    25
100
AcDbSpline
210
0.0
220
0.0
230
1.0
 70
     8
 71
     3
 72
     9
 73
     5
 74
     0
 42
0.000000001
 43
0.00000001
 40
0.0
 40
0.0
 40
0.0
 40
0.0
 40
0.744157733357443
 40
1.0
 40
1.0
 40
1.0
 40
1.0
 10
6281.282813370706
 20
5432.534627995164
 30
0.0
 10
6281.606077025553
 20
5432.378164412085
 30
0.0
 10
6282.04047908893
 20
5432.167908472969
 30
0.0
 10
6281.845887762563
 20
5431.951578737231
 30
0.0
 10
6281.796103076556
 20
5431.896232447297
 30
0.0
  0
LWPOLYLINE
  5
ED
330
1F
100
AcDbEntity
  8
0
  6
Continuous
 62
     7
370
    25
100
AcDbPolyline
 90
       18
 70
   128
 43
0.0
 10
6266.0208780677
 20
5430.3243983599
 10
6266.0121254982
 20
5430.3482402178
 10
6266.1003981144
 20
5430.6331802222
 10
6266.5393825979
 20
5430.9081662509
 10
6267.3085507364
 20
5431.1602938983
 10
6268.3719376461
 20
5431.377791247
 10
6269.679820946
 20
5431.5504957053
 10
6271.1710444079
 20
5431.6703308436
 10
6272.775880842
 20
5431.7316640231
 10
6274.4192898632
 20
5431.7316640231
 10
6276.0244271145
 20
5431.6703308436
 10
6277.5162387067
 20
5431.5504957053
 10
6278.8249685788
 20
5431.377791247
 10
6279.8894225513
 20
5431.1602938983
 10
6280.659827719
 20
5430.9081662509
 10
6281.1001607576
 20
5430.6331802222
 10
6281.1898319875
 20
5430.3482402178
 10
6281.1807148052
 20
5430.3232360694
  0
LWPOLYLINE
  5
EE
330
1F
100
AcDbEntity
  8
0
  6
Continuous
 62
     7
370
    25
100
AcDbPolyline
 90
        9
 70
   128
 43
0.0
 10
6273.5970894233
 20
5433.5464764449
 10
6275.4088545577
 20
5433.5144985529
 10
6277.1466023647
 20
5433.4198165747
 10
6278.7391895787
 20
5433.2663644167
 10
6280.1214159359
 20
5433.0604005667
 10
6281.236692647
 20
5432.8103292796
 10
6282.03935976
 20
5432.5264323565
 10
6282.4965564311
 20
5432.2203029009
 10
6282.6009228253
 20
5431.9829572054
  0
LWPOLYLINE
  5
EF
330
1F
100
AcDbEntity
  8
0
  6
Continuous
 62
     7
370
    25
100
AcDbPolyline
 90
        9
 70
   128
 43
0.0
 10
6264.6009222032
 20
5431.9843281123
 10
6264.7041276456
 20
5432.2203029009
 10
6265.1598237814
 20
5432.5264323565
 10
6265.9610964717
 20
5432.8103292796
 10
6267.0751463981
 20
5433.0604005667
 10
6268.4563629688
 20
5433.2663644167
 10
6270.0481972085
 20
5433.4198165747
 10
6271.7854807512
 20
5433.5144985529
 10
6273.5970894233
 20
5433.5464764449
  0
LWPOLYLINE
  5
F0
330
1F
100
AcDbEntity
  8
0
  6
Continuous
 62
     7
370
    25
100
AcDbPolyline
 90
       11
 70
   128
 43
0.0
 10
6273.5970894233
 20
5433.5448373171
 10
6275.4088536264
 20
5433.5128296229
 10
6277.1466018991
 20
5433.418177447
 10
6278.7391895787
 20
5433.264725289
 10
6280.1214159359
 20
5433.0587316367
 10
6281.2366924142
 20
5432.8086901518
 10
6282.0393596436
 20
5432.5247932288
 10
6282.4965562564
 20
5432.2186637732
 10
6282.589564648
 20
5431.9028485629
 10
6282.3145769313
 20
5431.5902818057
 10
6281.7157385531
 20
5431.3055206153
  0
LWPOLYLINE
  5
F1
330
1F
100
AcDbEntity
  8
0
  6
Continuous
 62
     7
370
    25
100
AcDbPolyline
 90
       11
 70
   128
 43
0.0
 10
6265.4505063207
 20
5431.3197661254
 10
6264.8891907544
 20
5431.5902818057
 10
6264.6126699061
 20
5431.9028485629
 10
6264.7041276456
 20
5432.2186637732
 10
6265.1598237814
 20
5432.5247932288
 10
6265.9610964717
 20
5432.8086901518
 10
6267.0751463981
 20
5433.0587316367
 10
6268.4563629688
 20
5433.264725289
 10
6270.0481972085
 20
5433.418177447
 10
6271.7854807512
 20
5433.5128296229
 10
6273.5970894233
 20
5433.5448373171
  0
LWPOLYLINE
  5
F2
330
1F
100
AcDbEntity
  8
0
  6
Continuous
 62
     7
370
    25
100
AcDbPolyline
 90
       17
 70
   128
 43
0.0
 10
6266.4940327765
 20
5429.196142039
 10
6266.4752126099
 20
5429.2854894015
 10
6266.6531883539
 20
5429.560833058
 10
6267.1795420707
 20
5429.822348437
 10
6268.02788101
 20
5430.0569523188
 10
6269.1556642191
 20
5430.2528727862
 10
6270.5063417913
 20
5430.400304875
 10
6272.0121842236
 20
5430.4917980048
 10
6273.5976817445
 20
5430.5228222224
 10
6275.1833320023
 20
5430.4917980048
 10
6276.6896228665
 20
5430.400304875
 10
6278.0410236106
 20
5430.2528727862
 10
6279.1697684103
 20
5430.0569523188
 10
6280.0192582314
 20
5429.822348437
 10
6280.5468953108
 20
5429.560833058
 10
6280.7262219382
 20
5429.2854894015
 10
6280.7073880346
 20
5429.1950691554
  0
SPLINE
  5
F3
330
1F
100
AcDbEntity
  8
0
  6
Continuous
 62
     7
370
    25
100
AcDbSpline
210
0.0
220
0.0
230
1.0
 70
     8
 71
     3
 72
    19
 73
    15
 74
     0
 42
0.000000001
 43
0.00000001
 40
0.0
 40
0.0
 40
0.0
 40
0.0
 40
0.1197283918233804
 40
0.1841802504036497
 40
0.2499999710198407
 40
0.3158195596936113
 40
0.3802714664281545
 40
0.50000009230515
 40
0.6197282037651758
 40
0.6841800281256717
 40
0.7499996783979999
 40
0.8158196508084383
 40
0.8802713527771547
 40
1.0
 40
1.0
 40
1.0
 40
1.0
 10
6276.294910198556
 20
5428.096227726609
 30
0.0
 10
6275.44173862044
 20
5428.052516772957
 30
0.0
 10
6274.129290064992
 20
5427.985275458962
 30
0.0
 10
6272.280388967806
 20
5428.017119050709
 30
0.0
 10
6270.893324545425
 20
5428.087966750541
 30
0.0
 10
6269.61784031846
 20
5428.208036611415
 30
0.0
 10
6268.205840806892
 20
5428.41426213781
 30
0.0
 10
6266.947261714333
 20
5428.745892591432
 30
0.0
 10
6266.485266454742
 20
5429.134840343811
 30
0.0
 10
6266.642762983915
 20
5429.453950273318
 30
0.0
 10
6267.054988308901
 20
5429.695448224247
 30
0.0
 10
6267.746614100169
 20
5429.915828322693
 30
0.0
 10
6268.923603034564
 20
5430.165370372883
 30
0.0
 10
6270.125322865432
 20
5430.278995924084
 30
0.0
 10
6270.906515269087
 20
5430.352859577805
 30
0.0
  0
SPLINE
  5
F4
330
1F
100
AcDbEntity
  8
0
  6
Continuous
 62
     7
370
    25
100
AcDbSpline
210
0.0
220
0.0
230
1.0
 70
     8
 71
     3
 72
    19
 73
    15
 74
     0
 42
0.000000001
 43
0.00000001
 40
0.0
 40
0.0
 40
0.0
 40
0.0
 40
0.1197283976434231
 40
0.1841803155973442
 40
0.2499999843917756
 40
0.3158195617972885
 40
0.3802714574977198
 40
0.4999997727327343
 40
0.6197285164443678
 40
0.6841805604319108
 40
0.7499999861830409
 40
0.815819638988263
 40
0.8802715917516694
 40
1.0
 40
1.0
 40
1.0
 40
1.0
 10
6270.906515269087
 20
5430.352859577805
 30
0.0
 10
6271.75968652155
 20
5430.396570522006
 30
0.0
 10
6273.072134976806
 20
5430.463811841997
 30
0.0
 10
6274.921035570195
 20
5430.431968283836
 30
0.0
 10
6276.308100245697
 20
5430.36112059788
 30
0.0
 10
6277.5835843387
 20
5430.241050391502
 30
0.0
 10
6278.995581461804
 20
5430.03482691826
 30
0.0
 10
6280.254168106284
 20
5429.703183427514
 30
0.0
 10
6280.7161558838
 20
5429.314273978773
 30
0.0
 10
6280.558663719502
 20
5428.995087450923
 30
0.0
 10
6280.146436206572
 20
5428.753652945576
 30
0.0
 10
6279.45480636911
 20
5428.533254361123
 30
0.0
 10
6278.277827161957
 20
5428.283719821468
 30
0.0
 10
6277.076103489867
 20
5428.170092426635
 30
0.0
 10
6276.294910198556
 20
5428.096227726609
 30
0.0
  0
LWPOLYLINE
  5
F5
330
1F
100
AcDbEntity
  8
0
  6
Continuous
 62
     7
370
    25
100
AcDbPolyline
 90
       28
 70
   128
 43
0.0
 10
6273.5979117812
 20
5430.3662706229
 10
6275.1142865406
 20
5430.3354848239
 10
6276.5490639382
 20
5430.2448261591
 10
6277.8248948404
 20
5430.0991524073
 10
6278.8729992123
 20
5429.9063313815
 10
6279.6368734804
 20
5429.6767640921
 10
6280.0753364232
 20
5429.4227887007
 10
6280.164750841
 20
5429.1581440779
 10
6279.900296208
 20
5428.8970757338
 10
6279.2962294431
 20
5428.6536801669
 10
6278.385115637
 20
5428.4410405966
 10
6277.2160734409
 20
5428.2706309172
 10
6275.8521263846
 20
5428.1516600463
 10
6274.3668051795
 20
5428.0905056807
 10
6272.8401830779
 20
5428.0905056807
 10
6271.3545624525
 20
5428.1516600463
 10
6269.9900314571
 20
5428.2706309172
 10
6268.8201533989
 20
5428.4410405966
 10
6267.9079965116
 20
5428.6536801669
 10
6267.3027355583
 20
5428.8970757338
 10
6267.0369994254
 20
5429.1581440779
 10
6267.1251155795
 20
5429.4227887007
 10
6267.5623324127
 20
5429.6767640921
 10
6268.3250800134
 20
5429.9063313815
 10
6269.3722386272
 20
5430.0991524073
 10
6270.6473552049
 20
5430.2448261591
 10
6272.0816878961
 20
5430.3354848239
 10
6273.5979117812
 20
5430.3662706229
  0
ARC
  5
F6
330
1F
100
AcDbEntity
  8
0
  6
Continuous
 62
     7
370
    25
100
AcDbCircle
 10
6279.3039464502
 20
5427.3020746701
 30
0.0
 40
1.749716951880187
100
AcDbArc
 50
102.5257841926
 51
102.9637292063
  0
SPLINE
  5
F7
330
1F
100
AcDbEntity
  8
0
  6
Continuous
 62
     7
370
    25
100
AcDbSpline
210
0.0
220
0.0
230
1.0
 70
     8
 71
     3
 72
    12
 73
     8
 74
     0
 42
0.000000001
 43
0.00000001
 40
0.0
 40
0.0
 40
0.0
 40
0.0
 40
0.231372963648413
 40
0.4628223626331932
 40
0.6942258636629717
 40
0.9254349919944677
 40
1.0
 40
1.0
 40
1.0
 40
1.0
 10
6278.92446968566
 20
5429.01014574495
 30
0.0
 10
6278.931283004786
 20
5429.012789101357
 30
0.0
 10
6278.944911893855
 20
5429.018076687415
 30
0.0
 10
6278.962905378621
 20
5429.039228521309
 30
0.0
 10
6278.976458453772
 20
5429.06736288383
 30
0.0
 10
6278.982619037447
 20
5429.092989263515
 30
0.0
 10
6278.98390507647
 20
5429.10770604455
 30
0.0
 10
6278.984218685435
 20
5429.111294827134
 30
0.0
  0
ELLIPSE
  5
F8
330
1F
100
AcDbEntity
  8
0
  6
Continuous
 62
     7
370
    25
100
AcDbEllipse
 10
6273.6006838811
 20
5428.8503099675
 30
0.0
 11
4.050006822848445
 21
58.99039869535136
 31
0.0
210
0.0
220
0.0
230
1.0
 40
0.0905358541
 41
4.723028945095586
 42
4.725879926485206
  0
LWPOLYLINE
  5
F9
330
1F
100
AcDbEntity
  8
0
  6
Continuous
 62
     7
370
    25
100
AcDbPolyline
 90
        3
 70
   128
 43
0.0
 10
6278.9955808208
 20
5429.2794991347
 10
6279.1051672199
 20
5429.3060828063
 10
6279.1420853124
 20
5429.3154109332
  0
SPLINE
  5
FA
330
1F
100
AcDbEntity
  8
0
  6
Continuous
 62
     7
370
    25
100
AcDbSpline
210
0.0
220
0.0
230
1.0
 70
     8
 71
     3
 72
     9
 73
     5
 74
     0
 42
0.000000001
 43
0.00000001
 40
0.0
 40
0.0
 40
0.0
 40
0.0
 40
0.1853553173263337
 40
1.0
 40
1.0
 40
1.0
 40
1.0
 10
6279.782165389986
 20
5429.269932589204
 30
0.0
 10
6279.78259099392
 20
5429.269717340833
 30
0.0
 10
6279.784887145664
 20
5429.268556066512
 30
0.0
 10
6279.787326527206
 20
5429.269708787179
 30
0.0
 10
6279.789313756408
 20
5429.270647844941
 30
0.0
  0
ARC
  5
FB
330
1F
100
AcDbEntity
  8
0
  6
Continuous
 62
     7
370
    25
100
AcDbCircle
 10
6279.8433805014
 20
5429.1490329742
 30
0.0
 40
0.1330916590483509
100
AcDbArc
 50
111.6171367684
 51
113.96866186
  0
SPLINE
  5
FC
330
1F
100
AcDbEntity
  8
0
  6
Continuous
 62
     7
370
    25
100
AcDbSpline
210
0.0
220
0.0
230
1.0
 70
     8
 71
     3
 72
    12
 73
     8
 74
     0
 42
0.000000001
 43
0.00000001
 40
0.0
 40
0.0
 40
0.0
 40
0.0
 40
0.2243725965303384
 40
0.4487381977615731
 40
0.6732393148865317
 40
0.8975941822929551
 40
1.0
 40
1.0
 40
1.0
 40
1.0
 10
6279.794349184738
 20
5429.27276380983
 30
0.0
 10
6279.798621065987
 20
5429.275663029202
 30
0.0
 10
6279.807164695304
 20
5429.281461377557
 30
0.0
 10
6279.818377573839
 20
5429.303243901018
 30
0.0
 10
6279.826767640829
 20
5429.331896543003
 30
0.0
 10
6279.830818954451
 20
5429.359254183202
 30
0.0
 10
6279.831504743095
 20
5429.375520575913
 30
0.0
 10
6279.831719667198
 20
5429.380618414551
 30
0.0
  0
ELLIPSE
  5
FD
330
1F
100
AcDbEntity
  8
0
  6
Continuous
 62
     7
370
    25
100
AcDbEllipse
 10
6273.6006838811
 20
5428.8503099532
 30
0.0
 11
-2.543471513678923
 21
59.14022158268745
 31
0.0
210
0.0
220
0.0
230
1.0
 40
0.1047783555
 41
1.554536826387904
 42
1.557387807784792
  0
SPLINE
  5
FE
330
1F
100
AcDbEntity
  8
0
  6
Continuous
 62
     7
370
    25
100
AcDbSpline
210
0.0
220
0.0
230
1.0
 70
     8
 71
     3
 72
    12
 73
     8
 74
     0
 42
0.000000001
 43
0.00000001
 40
0.0
 40
0.0
 40
0.0
 40
0.0
 40
0.2314681494695542
 40
0.4628138109906798
 40
0.6942121765483351
 40
0.9254761716430612
 40
1.0
 40
1.0
 40
1.0
 40
1.0
 10
6267.370522803174
 20
5429.376803717286
 30
0.0
 10
6267.371392157675
 20
5429.365535563804
 30
0.0
 10
6267.373130406637
 20
5429.343005219702
 30
0.0
 10
6267.380717327213
 20
5429.312300043529
 30
0.0
 10
6267.3910756859
 20
5429.288454023
 30
0.0
 10
6267.400741955532
 20
5429.277006802604
 30
0.0
 10
6267.406377940703
 20
5429.274122417129
 30
0.0
 10
6267.407751491772
 20
5429.273419460923
 30
0.0
  0
ARC
  5
FF
330
1F
100
AcDbEntity
  8
0
  6
Continuous
 62
     7
370
    25
100
AcDbCircle
 10
6267.0444071546
 20
5428.3912224449
 30
0.0
 40
0.9540915482573843
100
AcDbArc
 50
67.0806456185
 51
67.6150481966
  0
LINE
  5
100
330
1F
100
AcDbEntity
  8
0
  6
Continuous
 62
     7
370
    25
100
AcDbLine
 10
6267.4159638942
 20
5429.2699921938
 30
0.0
 11
6267.4231276275
 21
5429.2701412055
 31
0.0
  0
LWPOLYLINE
  5
101
330
1F
100
AcDbEntity
  8
0
  6
Continuous
 62
     7
370
    25
100
AcDbPolyline
 90
        3
 70
   128
 43
0.0
 10
6268.0647613839
 20
5429.3148744914
 10
6268.1062993021
 20
5429.3044138762
 10
6268.2162838415
 20
5429.277860007
  0
LINE
  5
102
330
1F
100
AcDbEntity
  8
0
  6
Continuous
 62
     7
370
    25
100
AcDbLine
 10
6268.2162838415
 20
5429.277860007
 30
0.0
 11
6268.2229167209
 21
5429.1151989314
 31
0.0
  0
SPLINE
  5
103
330
1F
100
AcDbEntity
  8
0
  6
Continuous
 62
     7
370
    25
100
AcDbSpline
210
0.0
220
0.0
230
1.0
 70
     8
 71
     3
 72
    12
 73
     8
 74
     0
 42
0.000000001
 43
0.00000001
 40
0.0
 40
0.0
 40
0.0
 40
0.0
 40
0.2243402644047352
 40
0.4488004135945495
 40
0.6731825269753441
 40
0.8976226256499013
 40
1.0
 40
1.0
 40
1.0
 40
1.0
 10
6268.222916720913
 20
5429.115198931367
 30
0.0
 10
6268.224030252871
 20
5429.103970604733
 30
0.0
 10
6268.226257911844
 20
5429.08150795118
 30
0.0
 10
6268.237751005036
 20
5429.05054860592
 30
0.0
 10
6268.253890006107
 20
5429.026274709076
 30
0.0
 10
6268.27000475674
 20
5429.01353848313
 30
0.0
 10
6268.279908758299
 20
5429.010523850963
 30
0.0
 10
6268.283011241363
 20
5429.009579500825
 30
0.0
  0
ARC
  5
104
330
1F
100
AcDbEntity
  8
0
  6
Continuous
 62
     7
370
    25
100
AcDbCircle
 10
6268.1530151545
 20
5428.4172377215
 30
0.0
 40
0.6064385921894992
100
AcDbArc
 50
76.8447666768
 51
77.6220260563
  0
LINE
  5
105
330
1F
100
AcDbEntity
  8
0
  6
Continuous
 62
     7
370
    25
100
AcDbLine
 10
6268.2910345853
 20
5429.0077615592
 30
0.0
 11
6268.3041811348
 21
5429.0084172103
 31
0.0
  0
ARC
  5
106
330
1F
100
AcDbEntity
  8
0
  6
Continuous
 62
     7
370
    25
100
AcDbCircle
 10
6277.8872091669
 20
5433.571608297
 30
0.0
 40
4.73481255936098
100
AcDbArc
 50
278.1170800001
 51
297.9523998273
  0
ARC
  5
107
330
1F
100
AcDbEntity
  8
0
  6
Continuous
 62
     7
370
    25
100
AcDbCircle
 10
6269.2586504537
 20
5433.4431343905
 30
0.0
 40
4.594415221308811
100
AcDbArc
 50
241.9032338087
 51
261.1037629223
  0
LWPOLYLINE
  5
108
330
1F
100
AcDbEntity
  8
0
  6
Continuous
 62
     7
370
    25
100
AcDbPolyline
 90
       14
 70
   128
 43
0.0
 10
6267.0392699898
 20
5429.2567003581
 10
6267.3027430088
 20
5429.0020395133
 10
6267.9080039621
 20
5428.758614144
 10
6268.8201608495
 20
5428.5459745738
 10
6269.9900389076
 20
5428.3755648943
 10
6271.3545699031
 20
5428.2565940234
 10
6272.8401914598
 20
5428.1954694602
 10
6274.3668135614
 20
5428.1954694602
 10
6275.8521343009
 20
5428.2565940234
 10
6277.2160818228
 20
5428.3755648943
 10
6278.3851235532
 20
5428.5459745738
 10
6279.2962373593
 20
5428.758614144
 10
6279.9003041242
 20
5429.0020395133
 10
6280.1621603673
 20
5429.2557168814
  0
LWPOLYLINE
  5
109
330
1F
100
AcDbEntity
  8
0
  6
Continuous
 62
     7
370
    25
100
AcDbPolyline
 90
       15
 70
   128
 43
0.0
 10
6268.2171043367
 20
5429.224245629
 10
6268.1922193975
 20
5429.3138314101
 10
6268.3759134621
 20
5429.5568991515
 10
6268.9156698422
 20
5429.7834266039
 10
6269.7747031585
 20
5429.9779165598
 10
6270.8944741995
 20
5430.1271665904
 10
6272.1986713247
 20
5430.2210141036
 10
6273.5984156267
 20
5430.2529919955
 10
6274.9983163909
 20
5430.2210141036
 10
6276.3029735894
 20
5430.1271665904
 10
6277.4234766499
 20
5429.9779165598
 10
6278.2834650376
 20
5429.7834266039
 10
6278.8243320198
 20
5429.5568991515
 10
6279.009218643
 20
5429.3138314101
 10
6278.9249078729
 20
5429.1482497069
  0
SPLINE
  5
10A
330
1F
100
AcDbEntity
  8
0
  6
Continuous
 62
     7
370
    25
100
AcDbSpline
210
0.0
220
0.0
230
1.0
 70
     8
 71
     3
 72
    18
 73
    14
 74
     0
 42
0.000000001
 43
0.00000001
 40
0.0
 40
0.0
 40
0.0
 40
0.0
 40
0.0732182007261052
 40
0.1479901540185083
 40
0.2227621403664837
 40
0.2959806991349259
 40
0.4319934668459011
 40
0.5680068224241033
 40
0.641224757030829
 40
0.7159968567102559
 40
0.790768300128063
 40
0.8639874116446358
 40
1.0
 40
1.0
 40
1.0
 40
1.0
 10
6273.686532712089
 20
5428.302757820756
 30
0.0
 10
6273.328659332505
 20
5428.3054261647
 30
0.0
 10
6272.605318195485
 20
5428.310819477117
 30
0.0
 10
6271.556683999746
 20
5428.367209715002
 30
0.0
 10
6270.594302600514
 20
5428.457047063434
 30
0.0
 10
6269.528320910434
 20
5428.613005437021
 30
0.0
 10
6268.578326530433
 20
5428.863180775522
 30
0.0
 10
6268.229574357872
 20
5429.156829122973
 30
0.0
 10
6268.348464307288
 20
5429.397714401272
 30
0.0
 10
6268.659628359785
 20
5429.579982056476
 30
0.0
 10
6269.181722039185
 20
5429.746348546551
 30
0.0
 10
6270.070153108172
 20
5429.934754725669
 30
0.0
 10
6270.977290221025
 20
5430.020515080977
 30
0.0
 10
6271.566981299327
 20
5430.076264223725
 30
0.0
  0
SPLINE
  5
10B
330
1F
100
AcDbEntity
  8
0
  6
Continuous
 62
     7
370
    25
100
AcDbSpline
210
0.0
220
0.0
230
1.0
 70
     8
 71
     3
 72
    19
 73
    15
 74
     0
 42
0.000000001
 43
0.00000001
 40
0.0
 40
0.0
 40
0.0
 40
0.0
 40
0.1197283696095891
 40
0.1841802096264809
 40
0.2499999906221806
 40
0.3158195862483598
 40
0.3802712989179579
 40
0.500000491584157
 40
0.6197280183667943
 40
0.6841799984054774
 40
0.7499997635075552
 40
0.8158197199010979
 40
0.8802714936886519
 40
1.0
 40
1.0
 40
1.0
 40
1.0
 10
6271.566981299327
 20
5430.076264223725
 30
0.0
 10
6272.211002520016
 20
5430.109248986829
 30
0.0
 10
6273.201711437356
 20
5430.159990015062
 30
0.0
 10
6274.597367912449
 20
5430.135974043441
 30
0.0
 10
6275.644399172385
 20
5430.082510321262
 30
0.0
 10
6276.607205733509
 20
5429.991830088384
 30
0.0
 10
6277.673069101429
 20
5429.836198231435
 30
0.0
 10
6278.623103237045
 20
5429.585812479478
 30
0.0
 10
6278.971849144389
 20
5429.292289073122
 30
0.0
 10
6278.852962301597
 20
5429.051330623518
 30
0.0
 10
6278.541791289666
 20
5428.86907989619
 30
0.0
 10
6278.019713420964
 20
5428.702700790367
 30
0.0
 10
6277.131257637258
 20
5428.514350481251
 30
0.0
 10
6276.22413147948
 20
5428.428579495209
 30
0.0
 10
6275.634443702655
 20
5428.372823080689
 30
0.0
  0
LINE
  5
10C
330
1F
100
AcDbEntity
  8
0
  6
Continuous
 62
     7
370
    25
100
AcDbLine
 10
6279.0015813322
 20
5429.8392761561
 30
0.0
 11
6279.0040437491
 21
5429.8391867491
 31
0.0
  0
LINE
  5
10D
330
1F
100
AcDbEntity
  8
0
  6
Continuous
 62
     7
370
    25
100
AcDbLine
 10
6268.1987870843
 20
5429.8385609004
 30
0.0
 11
6268.1963526071
 21
5429.8384714934
 31
0.0
  0
ARC
  5
10E
330
1F
100
AcDbEntity
  8
0
  6
Continuous
 62
     7
370
    25
100
AcDbCircle
 10
6268.4529689229
 20
5429.6496078346
 30
0.0
 40
0.3167201732220848
100
AcDbArc
 50
142.536126542
 51
143.373716846
  0
SPLINE
  5
10F
330
1F
100
AcDbEntity
  8
0
  6
Continuous
 62
     7
370
    25
100
AcDbSpline
210
0.0
220
0.0
230
1.0
 70
     8
 71
     3
 72
    18
 73
    14
 74
     0
 42
0.000000001
 43
0.00000001
 40
0.0
 40
0.0
 40
0.0
 40
0.0
 40
0.1360128454605156
 40
0.2092310006828015
 40
0.28400315784147
 40
0.3587749749893736
 40
0.4319937653332537
 40
0.5680068211807424
 40
0.704019594178817
 40
0.7772378927631273
 40
0.8520098020446096
 40
0.9267818354248444
 40
1.0
 40
1.0
 40
1.0
 40
1.0
 10
6271.570404841112
 20
5430.074803909928
 30
0.0
 10
6270.981708875383
 20
5430.019146740787
 30
0.0
 10
6270.076107308191
 20
5429.933528318826
 30
0.0
 10
6269.189151201213
 20
5429.745481632703
 30
0.0
 10
6268.667951112673
 20
5429.579418619317
 30
0.0
 10
6268.357302508
 20
5429.397440959742
 30
0.0
 10
6268.238616300079
 20
5429.156943405855
 30
0.0
 10
6268.586780971362
 20
5428.86379690681
 30
0.0
 10
6269.53517334352
 20
5428.614021157478
 30
0.0
 10
6270.599364302016
 20
5428.458342293243
 30
0.0
 10
6271.560125483564
 20
5428.36864864674
 30
0.0
 10
6272.606993336648
 20
5428.312351536135
 30
0.0
 10
6273.329117405195
 20
5428.306970038158
 30
0.0
 10
6273.68638835709
 20
5428.30430754152
 30
0.0
  0
SPLINE
  5
110
330
1F
100
AcDbEntity
  8
0
  6
Continuous
 62
     7
370
    25
100
AcDbSpline
210
0.0
220
0.0
230
1.0
 70
     8
 71
     3
 72
    19
 73
    15
 74
     0
 42
0.000000001
 43
0.00000001
 40
0.0
 40
0.0
 40
0.0
 40
0.0
 40
0.1197284999337252
 40
0.1841806201863325
 40
0.250000459351756
 40
0.315819985868933
 40
0.3802715427439491
 40
0.5000000083278172
 40
0.6197282249273057
 40
0.6841803166151273
 40
0.7500001098315068
 40
0.8158196904990073
 40
0.8802715912992148
 40
1.0
 40
1.0
 40
1.0
 40
1.0
 10
6275.63102016087
 20
5428.374253592164
 30
0.0
 10
6276.219716305963
 20
5428.429902917925
 30
0.0
 10
6277.125318741175
 20
5428.515509330244
 30
0.0
 10
6278.012271821108
 20
5428.703615276979
 30
0.0
 10
6278.533474085024
 20
5428.869666478749
 30
0.0
 10
6278.844121502842
 20
5429.05164437976
 30
0.0
 10
6278.962806332812
 20
5429.292150913721
 30
0.0
 10
6278.614658812878
 20
5429.585254746127
 30
0.0
 10
6277.6662049098
 20
5429.835169739677
 30
0.0
 10
6276.602145895023
 20
5429.990549396377
 30
0.0
 10
6275.640963568369
 20
5430.081018272741
 30
0.0
 10
6274.595686482798
 20
5430.134458698379
 30
0.0
 10
6273.202384599998
 20
5430.158412094312
 30
0.0
 10
6272.213342433423
 20
5430.107742336078
 30
0.0
 10
6271.570404841112
 20
5430.074803909928
 30
0.0
  0
LWPOLYLINE
  5
111
330
1F
100
AcDbEntity
  8
0
  6
Continuous
 62
     7
370
    25
100
AcDbPolyline
 90
       14
 70
   128
 43
0.0
 10
6278.8007197329
 20
5429.3226230952
 10
6278.6241069795
 20
5429.0893007132
 10
6278.1051591397
 20
5428.8715351435
 10
6277.2792413258
 20
5428.6845255705
 10
6276.2026380175
 20
5428.5410273882
 10
6274.9487188072
 20
5428.4508157584
 10
6273.6029353351
 20
5428.4200597617
 10
6272.2570009888
 20
5428.4508157584
 10
6271.0026389347
 20
5428.5410273882
 10
6269.9253315465
 20
5428.6845255705
 10
6269.0984959141
 20
5428.8715351435
 10
6268.5784798474
 20
5429.0893007132
 10
6268.4007201702
 20
5429.3230105254
 10
6268.4007201702
 20
5429.3234277579
  0
SPLINE
  5
112
330
1F
100
AcDbEntity
  8
0
  6
Continuous
 62
     7
370
    25
100
AcDbSpline
210
0.0
220
0.0
230
1.0
 70
     8
 71
     3
 72
    12
 73
     8
 74
     0
 42
0.000000001
 43
0.00000001
 40
0.0
 40
0.0
 40
0.0
 40
0.0
 40
0.2314663490072597
 40
0.4627642908460168
 40
0.6941578543965669
 40
0.9254854618423252
 40
0.9999999999999999
 40
0.9999999999999999
 40
0.9999999999999999
 40
0.9999999999999999
 10
6268.756338244782
 20
5429.476492485673
 30
0.0
 10
6268.757197097442
 20
5429.46522494263
 30
0.0
 10
6268.758914177892
 20
5429.442698054431
 30
0.0
 10
6268.766422947504
 20
5429.411985586139
 30
0.0
 10
6268.776707062165
 20
5429.388139500891
 30
0.0
 10
6268.78632443613
 20
5429.376697015486
 30
0.0
 10
6268.791956366736
 20
5429.373811297656
 30
0.0
 10
6268.793328514801
 20
5429.37310822931
 30
0.0
  0
ARC
  5
113
330
1F
100
AcDbEntity
  8
0
  6
Continuous
 62
     7
370
    25
100
AcDbCircle
 10
6269.0059900528
 20
5429.871133987
 30
0.0
 40
0.5415298561268742
100
AcDbArc
 50
246.8770761216
 51
247.8186176936
  0
LINE
  5
114
330
1F
100
AcDbEntity
  8
0
  6
Continuous
 62
     7
370
    25
100
AcDbLine
 10
6268.8015409173
 20
5429.3696809622
 30
0.0
 11
6268.8087242083
 21
5429.3698001715
 31
0.0
  0
LWPOLYLINE
  5
115
330
1F
100
AcDbEntity
  8
0
  6
Continuous
 62
     7
370
    25
100
AcDbPolyline
 90
        3
 70
   128
 43
0.0
 10
6269.4889985384
 20
5429.4173348757
 10
6269.6714325235
 20
5429.3786812636
 10
6269.778151846
 20
5429.3579388472
  0
SPLINE
  5
116
330
1F
100
AcDbEntity
  8
0
  6
Continuous
 62
     7
370
    25
100
AcDbSpline
210
0.0
220
0.0
230
1.0
 70
     8
 71
     3
 72
     9
 73
     5
 74
     0
 42
0.000000001
 43
0.00000001
 40
0.0
 40
0.0
 40
0.0
 40
0.0
 40
0.503404833275724
 40
1.0
 40
1.0
 40
1.0
 40
1.0
 10
6277.707929106908
 20
5429.166369518906
 30
0.0
 10
6277.71007074701
 20
5429.165656780518
 30
0.0
 10
6277.714325056785
 20
5429.164240945109
 30
0.0
 10
6277.718788089646
 20
5429.165264954396
 30
0.0
 10
6277.721004410194
 20
5429.165773472459
 30
0.0
  0
ARC
  5
117
330
1F
100
AcDbEntity
  8
0
  6
Continuous
 62
     7
370
    25
100
AcDbCircle
 10
6277.6973433061
 20
5429.300696805
 30
0.0
 40
0.1369823108928802
100
AcDbArc
 50
279.9466486047
 51
285.5428647946
  0
SPLINE
  5
118
330
1F
100
AcDbEntity
  8
0
  6
Continuous
 62
     7
370
    25
100
AcDbSpline
210
0.0
220
0.0
230
1.0
 70
     8
 71
     3
 72
    12
 73
     8
 74
     0
 42
0.000000001
 43
0.00000001
 40
0.0
 40
0.0
 40
0.0
 40
0.0
 40
0.2314007997453524
 40
0.4627876355500152
 40
0.6941066481654705
 40
0.925447751052217
 40
1.0
 40
1.0
 40
1.0
 40
1.0
 10
6277.734048979835
 20
5429.168723902375
 30
0.0
 10
6277.740853548968
 20
5429.171366546789
 30
0.0
 10
6277.754462276611
 20
5429.176651676145
 30
0.0
 10
6277.772392254803
 20
5429.197805430324
 30
0.0
 10
6277.785887149974
 20
5429.225949769674
 30
0.0
 10
6277.792000757167
 20
5429.25158942687
 30
0.0
 10
6277.793281054826
 20
5429.266314094642
 30
0.0
 10
6277.793593088643
 20
5429.269902786881
 30
0.0
  0
ELLIPSE
  5
119
330
1F
100
AcDbEntity
  8
0
  6
Continuous
 62
     7
370
    25
100
AcDbEllipse
 10
6273.6006838811
 20
5428.8503099675
 30
0.0
 11
3.14328887722968
 21
45.783593014301
 31
0.0
210
0.0
220
0.0
230
1.0
 40
0.0905358541
 41
4.7277691918933
 42
4.731442959005975
  0
ARC
  5
11A
330
1F
100
AcDbEntity
  8
0
  6
Continuous
 62
     7
370
    25
100
AcDbCircle
 10
6276.8913210917
 20
5433.4688601706
 30
0.0
 40
4.133012720506822
100
AcDbArc
 50
282.7700435646
 51
290.7823442686
  0
LWPOLYLINE
  5
11B
330
1F
100
AcDbEntity
  8
0
  6
Continuous
 62
     7
370
    25
100
AcDbPolyline
 90
        3
 70
   128
 43
0.0
 10
6269.8274085657
 20
5429.2125631186
 10
6269.78750605
 20
5429.307811341
 10
6269.7893919782
 20
5429.3289113852
  0
LINE
  5
11C
330
1F
100
AcDbEntity
  8
0
  6
Continuous
 62
     7
370
    25
100
AcDbLine
 10
6277.4124083468
 20
5429.2888272616
 30
0.0
 11
6277.3206395456
 21
5429.1619587752
 31
0.0
  0
SPLINE
  5
11D
330
1F
100
AcDbEntity
  8
0
  6
Continuous
 62
     7
370
    25
100
AcDbSpline
210
0.0
220
0.0
230
1.0
 70
     8
 71
     3
 72
    14
 73
    10
 74
     0
 42
0.000000001
 43
0.00000001
 40
0.0
 40
0.0
 40
0.0
 40
0.0
 40
0.1931948674517782
 40
0.2971951593342483
 40
0.4034021405795857
 40
0.5096096873197254
 40
0.6136099999259362
 40
0.8068034815540203
 40
0.9999999999999999
 40
0.9999999999999999
 40
0.9999999999999999
 40
0.9999999999999999
 10
6275.023617631303
 20
5428.628646216065
 30
0.0
 10
6274.573035344861
 20
5428.605554963346
 30
0.0
 10
6273.879896462971
 20
5428.570033271586
 30
0.0
 10
6272.903357247573
 20
5428.586858959196
 30
0.0
 10
6272.171014175255
 20
5428.624291020851
 30
0.0
 10
6271.496556675738
 20
5428.687673794033
 30
0.0
 10
6270.754734887751
 20
5428.796604444085
 30
0.0
 10
6270.062618014183
 20
5428.97175645866
 30
0.0
 10
6269.945396956994
 20
5429.133505769315
 30
0.0
 10
6269.886785967754
 20
5429.214381060273
 30
0.0
  0
SPLINE
  5
11E
330
1F
100
AcDbEntity
  8
0
  6
Continuous
 62
     7
370
    25
100
AcDbSpline
210
0.0
220
0.0
230
1.0
 70
     8
 71
     3
 72
    19
 73
    15
 74
     0
 42
0.000000001
 43
0.00000001
 40
0.0
 40
0.0
 40
0.0
 40
0.0
 40
0.1197283877389626
 40
0.1841802916474312
 40
0.2500000044056691
 40
0.3158192875799551
 40
0.3802713147974322
 40
0.5000002983233034
 40
0.6197285231157446
 40
0.6841808141335421
 40
0.7499999215446077
 40
0.8158194378777721
 40
0.8802717998202402
 40
1.0
 40
1.0
 40
1.0
 40
1.0
 10
6272.177806905018
 20
5429.820441088349
 30
0.0
 10
6272.628398436593
 20
5429.843532366823
 30
0.0
 10
6273.321551340987
 20
5429.879054087978
 30
0.0
 10
6274.29802435591
 20
5429.862228214305
 30
0.0
 10
6275.03058139056
 20
5429.824796717572
 30
0.0
 10
6275.70421745675
 20
5429.761413065706
 30
0.0
 10
6276.44994334888
 20
5429.652482243857
 30
0.0
 10
6277.11464537889
 20
5429.477330866874
 30
0.0
 10
6277.358641262025
 20
5429.271902737354
 30
0.0
 10
6277.275464849078
 20
5429.103356946426
 30
0.0
 10
6277.057751460222
 20
5428.975816196034
 30
0.0
 10
6276.692473844861
 20
5428.859444929815
 30
0.0
 10
6276.070874286102
 20
5428.727638806779
 30
0.0
 10
6275.43619591123
 20
5428.667645436185
 30
0.0
 10
6275.023617631303
 20
5428.628646216065
 30
0.0
  0
SPLINE
  5
11F
330
1F
100
AcDbEntity
  8
0
  6
Continuous
 62
     7
370
    25
100
AcDbSpline
210
0.0
220
0.0
230
1.0
 70
     8
 71
     3
 72
     9
 73
     5
 74
     0
 42
0.000000001
 43
0.00000001
 40
0.0
 40
0.0
 40
0.0
 40
0.0
 40
0.4167971652302029
 40
1.0
 40
1.0
 40
1.0
 40
1.0
 10
6269.751687383758
 20
5429.802470287949
 30
0.0
 10
6269.752083928272
 20
5429.802120042305
 30
0.0
 10
6269.753035337131
 20
5429.801279715947
 30
0.0
 10
6269.75377573848
 20
5429.802370551416
 30
0.0
 10
6269.754207542645
 20
5429.803006729752
 30
0.0
  0
ARC
  5
120
330
1F
100
AcDbEntity
  8
0
  6
Continuous
 62
     7
370
    25
100
AcDbCircle
 10
6269.8537548734
 20
5429.7301527682
 30
0.0
 40
0.1233587077597017
100
AcDbArc
 50
141.661812019
 51
143.8013758128
  0
SPLINE
  5
121
330
1F
100
AcDbEntity
  8
0
  6
Continuous
 62
     7
370
    25
100
AcDbSpline
210
0.0
220
0.0
230
1.0
 70
     8
 71
     3
 72
    18
 73
    14
 74
     0
 42
0.000000001
 43
0.00000001
 40
0.0
 40
0.0
 40
0.0
 40
0.0
 40
0.1360128676471551
 40
0.209231520899034
 40
0.2840029351130228
 40
0.3587755319620405
 40
0.4319937919176136
 40
0.5680066171421869
 40
0.7040194578772733
 40
0.7772375359218289
 40
0.8520099597399142
 40
0.9267817860537568
 40
1.0
 40
1.0
 40
1.0
 40
1.0
 10
6272.18332778524
 20
5429.818116507203
 30
0.0
 10
6271.772350250644
 20
5429.779263739137
 30
0.0
 10
6271.140134666147
 20
5429.719495690024
 30
0.0
 10
6270.520948719784
 20
5429.588211775835
 30
0.0
 10
6270.157082166237
 20
5429.472268659705
 30
0.0
 10
6269.940220974079
 20
5429.345263947097
 30
0.0
 10
6269.857361980355
 20
5429.177301979275
 30
0.0
 10
6270.100422590882
 20
5428.972740637467
 30
0.0
 10
6270.7625028133
 20
5428.798303375527
 30
0.0
 10
6271.505437094671
 20
5428.689639121773
 30
0.0
 10
6272.176146544041
 20
5428.627033476832
 30
0.0
 10
6272.906986599309
 20
5428.587711304795
 30
0.0
 10
6273.411109373319
 20
5428.583973883553
 30
0.0
 10
6273.66052459787
 20
5428.582124790818
 30
0.0
  0
SPLINE
  5
122
330
1F
100
AcDbEntity
  8
0
  6
Continuous
 62
     7
370
    25
100
AcDbSpline
210
0.0
220
0.0
230
1.0
 70
     8
 71
     3
 72
    19
 73
    15
 74
     0
 42
0.000000001
 43
0.00000001
 40
0.0
 40
0.0
 40
0.0
 40
0.0
 40
0.1197283008801494
 40
0.1841796778549311
 40
0.2500003581247417
 40
0.3158193568895991
 40
0.3802708893522553
 40
0.499999606813287
 40
0.6197285472348623
 40
0.6841803306976398
 40
0.749999860065644
 40
0.8158194987109426
 40
0.880271470639561
 40
1.0
 40
1.0
 40
1.0
 40
1.0
 10
6275.018096751081
 20
5428.630940994889
 30
0.0
 10
6275.42907184774
 20
5428.669795034783
 30
0.0
 10
6276.061280442975
 20
5428.729564734163
 30
0.0
 10
6276.68048741335
 20
5428.860839087693
 30
0.0
 10
6277.04433360816
 20
5428.976822932835
 30
0.0
 10
6277.261206772525
 20
5429.103833037268
 30
0.0
 10
6277.344061311692
 20
5429.271732044359
 30
0.0
 10
6277.101011725834
 20
5429.47635758902
 30
0.0
 10
6276.438891422433
 20
5429.650804578835
 30
0.0
 10
6275.696053047335
 20
5429.759307976716
 30
0.0
 10
6275.025035603196
 20
5429.822459516994
 30
0.0
 10
6274.295317977753
 20
5429.859733705755
 30
0.0
 10
6273.322634301097
 20
5429.876524598134
 30
0.0
 10
6272.632170958286
 20
5429.841127060115
 30
0.0
 10
6272.18332778524
 20
5429.818116507203
 30
0.0
  0
LWPOLYLINE
  5
123
330
1F
100
AcDbEntity
  8
0
  6
Continuous
 62
     7
370
    25
100
AcDbPolyline
 90
       12
 70
   128
 43
0.0
 10
6277.2007201226
 20
5429.3227423045
 10
6277.0249967822
 20
5429.1298318717
 10
6276.5140820653
 20
5428.9555776927
 10
6275.7179870629
 20
5428.8172651145
 10
6274.71463926
 20
5428.7284839961
 10
6273.602253607
 20
5428.697877011
 10
6272.4897170798
 20
5428.7284839961
 10
6271.4859338836
 20
5428.8172651145
 10
6270.6891604127
 20
5428.9555776927
 10
6270.177390276
 20
5429.1298318717
 10
6270.0007202462
 20
5429.3230105254
 10
6270.0007202462
 20
5429.3232787463
  0
LWPOLYLINE
  5
124
330
1F
100
AcDbEntity
  8
0
  6
Continuous
 62
     7
370
    25
100
AcDbPolyline
 90
        3
 70
   128
 43
0.0
 10
6271.0468553365
 20
5429.5294214102
 10
6271.07922159
 20
5429.5238185736
 10
6271.2748906003
 20
5429.4928539607
  0
SPLINE
  5
125
330
1F
100
AcDbEntity
  8
0
  6
Continuous
 62
     7
370
    25
100
AcDbSpline
210
0.0
220
0.0
230
1.0
 70
     8
 71
     3
 72
     9
 73
     5
 74
     0
 42
0.000000001
 43
0.00000001
 40
0.0
 40
0.0
 40
0.0
 40
0.0
 40
0.5034938105112223
 40
1.0
 40
1.0
 40
1.0
 40
1.0
 10
6276.438106166677
 20
5429.335497698456
 30
0.0
 10
6276.440256478889
 20
5429.334799866729
 30
0.0
 10
6276.444527260709
 20
5429.333413887965
 30
0.0
 10
6276.448999583768
 20
5429.334408046261
 30
0.0
 10
6276.45122011985
 20
5429.334901652009
 30
0.0
  0
ARC
  5
126
330
1F
100
AcDbEntity
  8
0
  6
Continuous
 62
     7
370
    25
100
AcDbCircle
 10
6276.8994287606
 20
5427.3835051732
 30
0.0
 40
2.002208581319425
100
AcDbArc
 50
102.5529515885
 51
102.9356816417
  0
SPLINE
  5
127
330
1F
100
AcDbEntity
  8
0
  6
Continuous
 62
     7
370
    25
100
AcDbSpline
210
0.0
220
0.0
230
1.0
 70
     8
 71
     3
 72
    12
 73
     8
 74
     0
 42
0.000000001
 43
0.00000001
 40
0.0
 40
0.0
 40
0.0
 40
0.0
 40
0.2312806454214335
 40
0.4626016698424197
 40
0.6940178115350306
 40
0.9254691877048761
 40
1.0
 40
1.0
 40
1.0
 40
1.0
 10
6276.464265155153
 20
5429.337852081925
 30
0.0
 10
6276.471053302425
 20
5429.340495423869
 30
0.0
 10
6276.484630782107
 20
5429.345782569252
 30
0.0
 10
6276.502433794731
 20
5429.366935692054
 30
0.0
 10
6276.515787225409
 20
5429.395109616014
 30
0.0
 10
6276.521828369036
 20
5429.420768918657
 30
0.0
 10
6276.523093247048
 20
5429.435501921977
 30
0.0
 10
6276.523401344673
 20
5429.439090571076
 30
0.0
  0
LINE
  5
128
330
1F
100
AcDbEntity
  8
0
  6
Continuous
 62
     7
370
    25
100
AcDbLine
 10
6275.9089030684
 20
5429.3070364806
 30
0.0
 11
6275.9038576284
 21
5429.2863536688
 31
0.0
  0
LWPOLYLINE
  5
129
330
1F
100
AcDbEntity
  8
0
  6
Continuous
 62
     7
370
    25
100
AcDbPolyline
 90
        3
 70
   128
 43
0.0
 10
6271.3547189147
 20
5429.2213548037
 10
6271.2922197194
 20
5429.3138314101
 10
6271.2940134467
 20
5429.3298054549
  0
SPLINE
  5
12A
330
1F
100
AcDbEntity
  8
0
  6
Continuous
 62
     7
370
    25
100
AcDbSpline
210
0.0
220
0.0
230
1.0
 70
     8
 71
     3
 72
    19
 73
    15
 74
     0
 42
0.000000001
 43
0.00000001
 40
0.0
 40
0.0
 40
0.0
 40
0.0
 40
0.1197214533273516
 40
0.1848221799026344
 40
0.2499997667927241
 40
0.3151009814597277
 40
0.3802779104630865
 40
0.4999995063951512
 40
0.6197206406674994
 40
0.6848224550357168
 40
0.7500002744708214
 40
0.8150999748093397
 40
0.8802785610757867
 40
1.0
 40
1.0
 40
1.0
 40
1.0
 10
6274.446905440198
 20
5428.870164236695
 30
0.0
 10
6274.178967193525
 20
5428.85646993975
 30
0.0
 10
6273.76533263219
 20
5428.835329118757
 30
0.0
 10
6273.184328994798
 20
5428.845211339954
 30
0.0
 10
6272.750827116072
 20
5428.867680104929
 30
0.0
 10
6272.350730097912
 20
5428.904995177651
 30
0.0
 10
6271.907515481559
 20
5428.969843636659
 30
0.0
 10
6271.510759502676
 20
5429.074173567205
 30
0.0
 10
6271.366048666937
 20
5429.196608156041
 30
0.0
 10
6271.414790946877
 20
5429.296880344155
 30
0.0
 10
6271.545470196053
 20
5429.372346108437
 30
0.0
 10
6271.760351050552
 20
5429.441510676197
 30
0.0
 10
6272.130610624799
 20
5429.519837081045
 30
0.0
 10
6272.509312974619
 20
5429.555701265653
 30
0.0
 10
6272.754520027445
 20
5429.578923067719
 30
0.0
  0
SPLINE
  5
12B
330
1F
100
AcDbEntity
  8
0
  6
Continuous
 62
     7
370
    25
100
AcDbSpline
210
0.0
220
0.0
230
1.0
 70
     8
 71
     3
 72
    19
 73
    15
 74
     0
 42
0.000000001
 43
0.00000001
 40
0.0
 40
0.0
 40
0.0
 40
0.0
 40
0.1197214245654751
 40
0.1848218215183655
 40
0.2500001310629876
 40
0.3151002065185055
 40
0.3802790717928868
 40
0.5000005649632956
 40
0.6197216978477718
 40
0.6848213817335914
 40
0.7499992048451859
 40
0.8151001317831863
 40
0.8802787023911327
 40
1.0
 40
1.0
 40
1.0
 40
1.0
 10
6272.754520027445
 20
5429.578923067719
 30
0.0
 10
6273.022457524136
 20
5429.592617283713
 30
0.0
 10
6273.436090224976
 20
5429.613757943818
 30
0.0
 10
6274.017100498962
 20
5429.603876385066
 30
0.0
 10
6274.45058990104
 20
5429.581405266359
 30
0.0
 10
6274.850705973511
 20
5429.544100715909
 30
0.0
 10
6275.293899177655
 20
5429.479194714871
 30
0.0
 10
6275.690666922018
 20
5429.374890507791
 30
0.0
 10
6275.835376814332
 20
5429.252449521723
 30
0.0
 10
6275.786633601389
 20
5429.152178606681
 30
0.0
 10
6275.655952372522
 20
5429.076699818821
 30
0.0
 10
6275.441076504004
 20
5429.007588084824
 30
0.0
 10
6275.070813459234
 20
5428.929244681064
 30
0.0
 10
6274.692111899917
 20
5428.893383855871
 30
0.0
 10
6274.446905440198
 20
5428.870164236695
 30
0.0
  0
SPLINE
  5
12C
330
1F
100
AcDbEntity
  8
0
  6
Continuous
 62
     7
370
    25
100
AcDbSpline
210
0.0
220
0.0
230
1.0
 70
     8
 71
     3
 72
    19
 73
    15
 74
     0
 42
0.000000001
 43
0.00000001
 40
0.0
 40
0.0
 40
0.0
 40
0.0
 40
0.1197222563697421
 40
0.1848221753351022
 40
0.250000604577375
 40
0.3151008972949269
 40
0.3802785543508931
 40
0.5000011357550546
 40
0.6197226412040678
 40
0.6848217500077224
 40
0.7500000405029066
 40
0.8151006148363754
 40
0.8802785805738397
 40
1.0
 40
1.0
 40
1.0
 40
1.0
 10
6272.75794356923
 20
5429.577492556245
 30
0.0
 10
6272.513728902338
 20
5429.554353598651
 30
0.0
 10
6272.136720588661
 20
5429.518632650789
 30
0.0
 10
6271.767898325922
 20
5429.440651800981
 30
0.0
 10
6271.553922663765
 20
5429.371795828183
 30
0.0
 10
6271.423666558283
 20
5429.296653255949
 30
0.0
 10
6271.375053173932
 20
5429.196740624533
 30
0.0
 10
6271.519212970662
 20
5429.074787792425
 30
0.0
 10
6271.914264958616
 20
5428.970907026979
 30
0.0
 10
6272.355634560371
 20
5428.906269146149
 30
0.0
 10
6272.753941236166
 20
5428.869148560128
 30
0.0
 10
6273.185826742902
 20
5428.846764020771
 30
0.0
 10
6273.764495649656
 20
5428.836886802716
 30
0.0
 10
6274.17662816995
 20
5428.857953905415
 30
0.0
 10
6274.443481898414
 20
5428.87159474817
 30
0.0
  0
SPLINE
  5
12D
330
1F
100
AcDbEntity
  8
0
  6
Continuous
 62
     7
370
    25
100
AcDbSpline
210
0.0
220
0.0
230
1.0
 70
     8
 71
     3
 72
    19
 73
    15
 74
     0
 42
0.000000001
 43
0.00000001
 40
0.0
 40
0.0
 40
0.0
 40
0.0
 40
0.1197207311448827
 40
0.1848211693788587
 40
0.2499989686061823
 40
0.3151000515450866
 40
0.3802798579425022
 40
0.4999996750372476
 40
0.619721275824986
 40
0.6848216852215536
 40
0.7500004827189014
 40
0.8151004766681238
 40
0.880278654810802
 40
1.0
 40
1.0
 40
1.0
 40
1.0
 10
6274.443481898414
 20
5428.87159474817
 30
0.0
 10
6274.68769825723
 20
5428.894710222289
 30
0.0
 10
6275.064711933862
 20
5428.930395177739
 30
0.0
 10
6275.43352262229
 20
5429.008458725595
 30
0.0
 10
6275.647504466879
 20
5429.077238364066
 30
0.0
 10
6275.777759588599
 20
5429.152448251809
 30
0.0
 10
6275.826371715194
 20
5429.252340978735
 30
0.0
 10
6275.682209772952
 20
5429.374261026823
 30
0.0
 10
6275.287152982981
 20
5429.478158124473
 30
0.0
 10
6274.845793946559
 20
5429.542777118177
 30
0.0
 10
6274.44748723052
 20
5429.579949366947
 30
0.0
 10
6274.015594140918
 20
5429.602320575857
 30
0.0
 10
6273.436931142627
 20
5429.612201890645
 30
0.0
 10
6273.024797596823
 20
5429.591133933559
 30
0.0
 10
6272.75794356923
 20
5429.577492556245
 30
0.0
  0
ELLIPSE
  5
12E
330
1F
100
AcDbEntity
  8
0
  6
Continuous
 62
     7
370
    25
100
AcDbEllipse
 10
6273.6007027661
 20
5429.0979187737
 30
0.0
 11
-2.074075813881791
 21
13.05196776539651
 31
0.0
210
0.0
220
0.0
230
1.0
 40
0.0247178841
 41
1.52744976155424
 42
1.540541105219644
  0
SPLINE
  5
12F
330
1F
100
AcDbEntity
  8
0
  6
Continuous
 62
     7
370
    25
100
AcDbSpline
210
0.0
220
0.0
230
1.0
 70
     8
 71
     3
 72
    12
 73
     8
 74
     0
 42
0.000000001
 43
0.00000001
 40
0.0
 40
0.0
 40
0.0
 40
0.0
 40
0.2386023380772875
 40
0.4770928315056731
 40
0.7159157738153612
 40
0.9547115483505492
 40
1.0
 40
1.0
 40
1.0
 40
1.0
 10
6273.215491174267
 20
5429.44150455919
 30
0.0
 10
6273.218301517193
 20
5429.43065094341
 30
0.0
 10
6273.2239208857
 20
5429.408948799474
 30
0.0
 10
6273.245334305819
 20
5429.381847239953
 30
0.0
 10
6273.273558445987
 20
5429.362859590679
 30
0.0
 10
6273.297718209044
 20
5429.356421525224
 30
0.0
 10
6273.310908965222
 20
5429.355828081606
 30
0.0
 10
6273.3130118237
 20
5429.355733475358
 30
0.0
  0
LWPOLYLINE
  5
130
330
1F
100
AcDbEntity
  8
0
  6
Continuous
 62
     7
370
    25
100
AcDbPolyline
 90
        9
 70
   128
 43
0.0
 10
6273.3420653627
 20
5429.3550778243
 10
6273.3384313421
 20
5429.3551672312
 10
6273.3347973214
 20
5429.3552268359
 10
6273.331164232
 20
5429.3553162428
 10
6273.327532074
 20
5429.3554056498
 10
6273.3239008472
 20
5429.3554950568
 10
6273.3202696205
 20
5429.3555546614
 10
6273.3166402565
 20
5429.3556440684
 10
6273.3130118237
 20
5429.3557334754
  0
SPLINE
  5
131
330
1F
100
AcDbEntity
  8
0
  6
Continuous
 62
     7
370
    25
100
AcDbSpline
210
0.0
220
0.0
230
1.0
 70
     8
 71
     3
 72
    10
 73
     6
 74
     0
 42
0.000000001
 43
0.00000001
 40
0.0
 40
0.0
 40
0.0
 40
0.0
 40
0.3604331354200226
 40
0.7208690912685028
 40
1.0
 40
1.0
 40
1.0
 40
1.0
 10
6273.342065362738
 20
5429.355077824265
 30
0.0
 10
6273.353173135812
 20
5429.355978799808
 30
0.0
 10
6273.37538876888
 20
5429.357780757946
 30
0.0
 10
6273.403681405353
 20
5429.372402890609
 30
0.0
 10
6273.416009423391
 20
5429.387645315861
 30
0.0
 10
6273.421389831708
 20
5429.394297680527
 30
0.0
  0
LINE
  5
132
330
1F
100
AcDbEntity
  8
0
  6
Continuous
 62
     7
370
    25
100
AcDbLine
 10
6273.5715395198
 20
5429.6587336871
 30
0.0
 11
6273.3420653627
 21
5429.3550778243
 31
0.0
  0
LINE
  5
133
330
1F
100
AcDbEntity
  8
0
  6
Continuous
 62
     7
370
    25
100
AcDbLine
 10
6273.3130118237
 20
5429.3557334754
 30
0.0
 11
6273.5424859808
 21
5429.6593893382
 31
0.0
  0
LINE
  5
134
330
1F
100
AcDbEntity
  8
0
  6
Continuous
 62
     7
370
    25
100
AcDbLine
 10
6278.9998565228
 20
5429.8415411326
 30
0.0
 11
6279.1211608225
 21
5429.8443127486
 31
0.0
  0
LINE
  5
135
330
1F
100
AcDbEntity
  8
0
  6
Continuous
 62
     7
370
    25
100
AcDbLine
 10
6268.0799028264
 20
5429.8450280043
 30
0.0
 11
6268.2015763954
 21
5429.8422563883
 31
0.0
  0
LINE
  5
136
330
1F
100
AcDbEntity
  8
0
  6
Continuous
 62
     7
370
    25
100
AcDbLine
 10
6277.4666588181
 20
5429.6304512831
 30
0.0
 11
6278.3713958585
 21
5429.6097684714
 31
0.0
  0
LINE
  5
137
330
1F
100
AcDbEntity
  8
0
  6
Continuous
 62
     7
370
    25
100
AcDbLine
 10
6279.0367471413
 20
5429.5945394847
 30
0.0
 11
6279.8558970341
 21
5429.5758236262
 31
0.0
  0
LINE
  5
138
330
1F
100
AcDbEntity
  8
0
  6
Continuous
 62
     7
370
    25
100
AcDbLine
 10
6267.342288828
 20
5429.5750189635
 30
0.0
 11
6268.1648832173
 21
5429.5938242289
 31
0.0
  0
LINE
  5
139
330
1F
100
AcDbEntity
  8
0
  6
Continuous
 62
     7
370
    25
100
AcDbLine
 10
6277.4437515424
 20
5429.4861782404
 30
0.0
 11
6277.8048765273
 21
5429.4380772921
 31
0.0
  0
LINE
  5
13A
330
1F
100
AcDbEntity
  8
0
  6
Continuous
 62
     7
370
    25
100
AcDbLine
 10
6271.2693352611
 20
5429.5512367102
 30
0.0
 11
6270.2712787674
 21
5429.4794429156
 31
0.0
  0
LINE
  5
13B
330
1F
100
AcDbEntity
  8
0
  6
Continuous
 62
     7
370
    25
100
AcDbLine
 10
6267.8984178589
 20
5429.5838702532
 30
0.0
 11
6267.3635341586
 21
5429.545395455
 31
0.0
  0
LINE
  5
13C
330
1F
100
AcDbEntity
  8
0
  6
Continuous
 62
     7
370
    25
100
AcDbLine
 10
6279.2756537334
 20
5429.5837808463
 30
0.0
 11
6279.8358233073
 21
5429.5435179087
 31
0.0
  0
LINE
  5
13D
330
1F
100
AcDbEntity
  8
0
  6
Continuous
 62
     7
370
    25
100
AcDbLine
 10
6275.9187653088
 20
5429.4105101439
 30
0.0
 11
6276.4642651552
 21
5429.3378520819
 31
0.0
  0
LINE
  5
13E
330
1F
100
AcDbEntity
  8
0
  6
Continuous
 62
     7
370
    25
100
AcDbLine
 10
6268.7933285148
 20
5429.3731082293
 30
0.0
 11
6269.7646597759
 21
5429.4429946753
 31
0.0
  0
LINE
  5
13F
330
1F
100
AcDbEntity
  8
0
  6
Continuous
 62
     7
370
    25
100
AcDbLine
 10
6279.0114500919
 20
5429.3290603968
 30
0.0
 11
6279.7943491847
 21
5429.2727638098
 31
0.0
  0
LINE
  5
140
330
1F
100
AcDbEntity
  8
0
  6
Continuous
 62
     7
370
    25
100
AcDbLine
 10
6268.1900084377
 20
5429.3297160479
 30
0.0
 11
6267.4077514918
 21
5429.2734194609
 31
0.0
  0
LINE
  5
141
330
1F
100
AcDbEntity
  8
0
  6
Continuous
 62
     7
370
    25
100
AcDbLine
 10
6277.3774967888
 20
5429.2162288043
 30
0.0
 11
6277.7340489798
 21
5429.1687239024
 31
0.0
  0
SPLINE
  5
142
330
1F
100
AcDbEntity
  8
0
  6
Continuous
 62
     7
370
    25
100
AcDbSpline
210
0.0
220
0.0
230
1.0
 70
     8
 71
     3
 72
    18
 73
    14
 74
     0
 42
0.000000001
 43
0.00000001
 40
0.0
 40
0.0
 40
0.0
 40
0.0
 40
0.0358462184606774
 40
0.1319251032511385
 40
0.2311222323777784
 40
0.3303193296447494
 40
0.4263981877454459
 40
0.5175657901475221
 40
0.6119948460921483
 40
0.7104819418758865
 40
0.810038230116289
 40
0.9074781820750606
 40
1.0
 40
1.0
 40
1.0
 40
1.0
 10
6315.095030552255
 20
5322.896413883836
 30
0.0
 10
6315.094972197831
 20
5322.792065279807
 30
0.0
 10
6315.094757435621
 20
5322.408030339666
 30
0.0
 10
6315.094292189177
 20
5322.03124106527
 30
0.0
 10
6315.093688229686
 20
5321.832207644125
 30
0.0
 10
6315.09306938489
 20
5322.014451484551
 30
0.0
 10
6315.092514127938
 20
5322.524023333246
 30
0.0
 10
6315.092033097365
 20
5323.313595500467
 30
0.0
 10
6315.091645507229
 20
5324.352658038307
 30
0.0
 10
6315.091368573934
 20
5325.619484816751
 30
0.0
 10
6315.091240113522
 20
5327.017803456877
 30
0.0
 10
6315.091258624901
 20
5328.426746150163
 30
0.0
 10
6315.091390192782
 20
5329.290116633947
 30
0.0
 10
6315.091454273568
 20
5329.710625490815
 30
0.0
  0
LWPOLYLINE
  5
143
330
1F
100
AcDbEntity
  8
0
  6
Continuous
 62
     7
370
    25
100
AcDbPolyline
 90
        9
 70
   128
 43
0.0
 10
6315.0914542736
 20
5329.7106254908
 10
6315.0760203959
 20
5329.7723311993
 10
6315.0304377438
 20
5329.8316676232
 10
6314.9564534784
 20
5329.8863548848
 10
6314.8569137217
 20
5329.9342919203
 10
6314.7356443466
 20
5329.9736309859
 10
6314.5973056913
 20
5330.0028670641
 10
6314.4472137452
 20
5330.0208676669
 10
6314.2911352576
 20
5330.0269473406
  0
SPLINE
  5
144
330
1F
100
AcDbEntity
  8
0
  6
Continuous
 62
     7
370
    25
100
AcDbSpline
210
0.0
220
0.0
230
1.0
 70
     8
 71
     3
 72
    10
 73
     6
 74
     0
 42
0.000000001
 43
0.00000001
 40
0.0
 40
0.0
 40
0.0
 40
0.0
 40
0.4999917763046207
 40
0.7501307747232261
 40
1.0
 40
1.0
 40
1.0
 40
1.0
 10
6308.891136980163
 20
5330.026947340638
 30
0.0
 10
6308.529688195578
 20
5330.590666871508
 30
0.0
 10
6307.987411562937
 20
5331.43640751857
 30
0.0
 10
6307.405760945257
 20
5332.406264666527
 30
0.0
 10
6307.330090647216
 20
5332.810473911934
 30
0.0
 10
6307.292275911675
 20
5333.012469491631
 30
0.0
  0
LINE
  5
145
330
1F
100
AcDbEntity
  8
0
  6
Continuous
 62
     7
370
    25
100
AcDbLine
 10
6314.2911352576
 20
5330.0269473406
 30
0.0
 11
6308.8911369802
 21
5330.0269473406
 31
0.0
  0
SPLINE
  5
146
330
1F
100
AcDbEntity
  8
0
  6
Continuous
 62
     7
370
    25
100
AcDbSpline
210
0.0
220
0.0
230
1.0
 70
     8
 71
     3
 72
     9
 73
     5
 74
     0
 42
0.000000001
 43
0.00000001
 40
0.0
 40
0.0
 40
0.0
 40
0.0
 40
0.4999997318048265
 40
0.9999999999999999
 40
0.9999999999999999
 40
0.9999999999999999
 40
0.9999999999999999
 10
6308.092999121653
 20
5347.028933844239
 30
0.0
 10
6308.092960471685
 20
5344.767566567747
 30
0.0
 10
6308.09288317171
 20
5340.244829588812
 30
0.0
 10
6308.092360700027
 20
5335.882927991093
 30
0.0
 10
6308.092099464046
 20
5333.701976022393
 30
0.0
  0
LINE
  5
147
330
1F
100
AcDbEntity
  8
0
  6
Continuous
 62
     7
370
    25
100
AcDbLine
 10
6308.0929991217
 20
5347.0289338442
 30
0.0
 11
6308.8926531733
 21
5347.0289338442
 31
0.0
  0
LWPOLYLINE
  5
148
330
1F
100
AcDbEntity
  8
0
  6
Continuous
 62
     7
370
    25
100
AcDbPolyline
 90
        9
 70
   128
 43
0.0
 10
6308.8911369802
 20
5330.0269473406
 10
6308.8914890201
 20
5332.0549059722
 10
6308.8917944939
 20
5334.1215182158
 10
6308.8920552642
 20
5336.2214494559
 10
6308.8922694684
 20
5338.3492756697
 10
6308.8924371065
 20
5340.49951323
 10
6308.8925563158
 20
5342.6666040036
 10
6308.8926289589
 20
5344.8449451539
 10
6308.8926531733
 20
5347.0289338442
  0
LINE
  5
149
330
1F
100
AcDbEntity
  8
0
  6
Continuous
 62
     7
370
    25
100
AcDbLine
 10
6308.1557721258
 20
5333.3140391919
 30
0.0
 11
6308.092099464
 21
5333.7019760224
 31
0.0
  0
LINE
  5
14A
330
1F
100
AcDbEntity
  8
0
  6
Continuous
 62
     7
370
    25
100
AcDbLine
 10
6308.8926531733
 20
5347.0289338442
 30
0.0
 11
6314.2926514507
 21
5347.0289338442
 31
0.0
  0
LWPOLYLINE
  5
14B
330
1F
100
AcDbEntity
  8
0
  6
Continuous
 62
     7
370
    25
100
AcDbPolyline
 90
        9
 70
   128
 43
0.0
 10
6314.2926514507
 20
5347.0289338442
 10
6314.2926272364
 20
5344.8449451539
 10
6314.2925564558
 20
5342.6666040036
 10
6314.2924353839
 20
5340.49951323
 10
6314.2922696085
 20
5338.3492756697
 10
6314.2920554043
 20
5336.2214494559
 10
6314.291794634
 20
5334.1215182158
 10
6314.2914872975
 20
5332.0549059722
 10
6314.2911352576
 20
5330.0269473406
  0
SPLINE
  5
14C
330
1F
100
AcDbEntity
  8
0
  6
Continuous
 62
     7
370
    25
100
AcDbSpline
210
0.0
220
0.0
230
1.0
 70
     8
 71
     3
 72
    11
 73
     7
 74
     0
 42
0.000000001
 43
0.00000001
 40
0.0
 40
0.0
 40
0.0
 40
0.0
 40
0.250007680470489
 40
0.5000000156702765
 40
0.750007486464299
 40
1.0
 40
1.0
 40
1.0
 40
1.0
 10
6315.091454273568
 20
5329.710625490815
 30
0.0
 10
6315.091690959634
 20
5331.090606272786
 30
0.0
 10
6315.092164317239
 20
5333.850483134616
 30
0.0
 10
6315.092637337232
 20
5338.174881500659
 30
0.0
 10
6315.092941054323
 20
5342.577181695042
 30
0.0
 10
6315.092978047644
 20
5345.545046055251
 30
0.0
 10
6315.092996543752
 20
5347.028933844239
 30
0.0
  0
LINE
  5
14D
330
1F
100
AcDbEntity
  8
0
  6
Continuous
 62
     7
370
    25
100
AcDbLine
 10
6315.0929965438
 20
5347.0289338442
 30
0.0
 11
6314.2926514507
 21
5347.0289338442
 31
0.0
  0
ARC
  5
14E
330
1F
100
AcDbEntity
  8
0
  6
Continuous
 62
     7
370
    25
100
AcDbCircle
 10
6307.3437502617
 20
5333.7614081382
 30
0.0
 40
0.750705471547855
100
AcDbArc
 50
266.0682597214
 51
355.4592357464
  0
LINE
  5
14F
330
1F
100
AcDbEntity
  8
0
  6
Continuous
 62
     7
370
    25
100
AcDbLine
 10
6315.0929965438
 20
5355.3833145711
 30
0.0
 11
6315.0929965438
 21
5347.0289338442
 31
0.0
  0
LINE
  5
150
330
1F
100
AcDbEntity
  8
0
  6
Continuous
 62
     7
370
    25
100
AcDbLine
 10
6315.0943190218
 20
5355.3833145711
 30
0.0
 11
6315.0929965438
 21
5355.3833145711
 31
0.0
  0
LINE
  5
151
330
1F
100
AcDbEntity
  8
0
  6
Continuous
 62
     7
370
    25
100
AcDbLine
 10
6315.0943190218
 20
5347.2404111239
 30
0.0
 11
6315.0943190218
 21
5355.3833145711
 31
0.0
  0
SPLINE
  5
152
330
1F
100
AcDbEntity
  8
0
  6
Continuous
 62
     7
370
    25
100
AcDbSpline
210
0.0
220
0.0
230
1.0
 70
     8
 71
     3
 72
    11
 73
     7
 74
     0
 42
0.000000001
 43
0.00000001
 40
0.0
 40
0.0
 40
0.0
 40
0.0
 40
0.1277107913036681
 40
0.4184796088818247
 40
0.7092309221365383
 40
1.0
 40
1.0
 40
1.0
 40
1.0
 10
6315.095514839993
 20
5332.096405706078
 30
0.0
 10
6315.095410513133
 20
5332.710156109039
 30
0.0
 10
6315.095068657421
 20
5334.721278473564
 30
0.0
 10
6315.094693680338
 20
5338.289327278299
 30
0.0
 10
6315.094376226347
 20
5342.736542218824
 30
0.0
 10
6315.094338090375
 20
5345.739090914367
 30
0.0
 10
6315.094319021808
 20
5347.240411123902
 30
0.0
  0
LINE
  5
153
330
1F
100
AcDbEntity
  8
0
  6
Continuous
 62
     7
370
    25
100
AcDbLine
 10
6314.2926514507
 20
5355.3833145711
 30
0.0
 11
6314.2926514507
 21
5347.0289338442
 31
0.0
  0
LINE
  5
154
330
1F
100
AcDbEntity
  8
0
  6
Continuous
 62
     7
370
    25
100
AcDbLine
 10
6315.0929965438
 20
5355.3833145711
 30
0.0
 11
6314.2926514507
 21
5355.3833145711
 31
0.0
  0
ARC
  5
155
330
1F
100
AcDbEntity
  8
0
  6
Continuous
 62
     7
370
    25
100
AcDbCircle
 10
6314.2930221836
 20
5355.3833388519
 30
0.0
 40
0.7999743604924848
100
AcDbArc
 50
359.9982609536
 51
90.0017390464
  0
ARC
  5
156
330
1F
100
AcDbEntity
  8
0
  6
Continuous
 62
     7
370
    25
100
AcDbCircle
 10
6776.7013168198
 20
5355.583060619
 30
0.0
 40
462.408708511061
100
AcDbArc
 50
179.9256243465
 51
180.0247499791
  0
LINE
  5
157
330
1F
100
AcDbEntity
  8
0
  6
Continuous
 62
     7
370
    25
100
AcDbLine
 10
6308.8926531733
 20
5355.3833145711
 30
0.0
 11
6314.2926514507
 21
5355.3833145711
 31
0.0
  0
LINE
  5
158
330
1F
100
AcDbEntity
  8
0
  6
Continuous
 62
     7
370
    25
100
AcDbLine
 10
6308.8926531733
 20
5347.0289338442
 30
0.0
 11
6308.8926531733
 21
5355.3833145711
 31
0.0
  0
ARC
  5
159
330
1F
100
AcDbEntity
  8
0
  6
Continuous
 62
     7
370
    25
100
AcDbCircle
 10
6772.2097479981
 20
5355.5837459546
 30
0.0
 40
463.3171381781925
100
AcDbArc
 50
179.9258549271
 51
180.0247862032
  0
LINE
  5
15A
330
1F
100
AcDbEntity
  8
0
  6
Continuous
 62
     7
370
    25
100
AcDbLine
 10
6314.2929979027
 20
5356.1833132121
 30
0.0
 11
6308.8929977627
 21
5356.1833132121
 31
0.0
  0
LINE
  5
15B
330
1F
100
AcDbEntity
  8
0
  6
Continuous
 62
     7
370
    25
100
AcDbLine
 10
6308.8926531733
 20
5355.3833145711
 30
0.0
 11
6308.0929991217
 21
5355.3833145711
 31
0.0
  0
LINE
  5
15C
330
1F
100
AcDbEntity
  8
0
  6
Continuous
 62
     7
370
    25
100
AcDbLine
 10
6308.0929991217
 20
5347.0289338442
 30
0.0
 11
6308.0929991217
 21
5355.3833145711
 31
0.0
  0
ARC
  5
15D
330
1F
100
AcDbEntity
  8
0
  6
Continuous
 62
     7
370
    25
100
AcDbCircle
 10
6308.8929761277
 20
5355.383336206
 30
0.0
 40
0.7999770063212657
100
AcDbArc
 50
89.9984504638
 51
180.0015495362
  0
LINE
  5
15E
330
1F
100
AcDbEntity
  8
0
  6
Continuous
 62
     7
370
    25
100
AcDbLine
 10
6314.2943203808
 20
5356.1833132121
 30
0.0
 11
6314.2929979027
 21
5356.1833132121
 31
0.0
  0
ARC
  5
15F
330
1F
100
AcDbEntity
  8
0
  6
Continuous
 62
     7
370
    25
100
AcDbCircle
 10
6314.2943446617
 20
5355.3833388519
 30
0.0
 40
0.7999743604924848
100
AcDbArc
 50
359.9982609535
 51
90.0017390464
  0
SPLINE
  5
160
330
1F
100
AcDbEntity
  8
0
  6
Continuous
 62
     7
370
    25
100
AcDbSpline
210
0.0
220
0.0
230
1.0
 70
     8
 71
     3
 72
    12
 73
     8
 74
     0
 42
0.000000001
 43
0.00000001
 40
0.0
 40
0.0
 40
0.0
 40
0.0
 40
0.0003513493568512
 40
0.2502634837953593
 40
0.5001762775394129
 40
0.7500887461147481
 40
0.9999999999999999
 40
0.9999999999999999
 40
0.9999999999999999
 40
0.9999999999999999
 10
6315.664687043534
 20
5331.680216273934
 30
0.0
 10
6315.664685800254
 20
5331.68037045118
 30
0.0
 10
6315.663800221342
 20
5331.790189734533
 30
0.0
 10
6315.666643716985
 20
5331.40558867746
 30
0.0
 10
6315.662183408208
 20
5330.547988217764
 30
0.0
 10
6315.66505590604
 20
5329.133256684042
 30
0.0
 10
6315.663603002469
 20
5328.042029507726
 30
0.0
 10
6315.662876552449
 20
5327.496417245537
 30
0.0
  0
SPLINE
  5
161
330
1F
100
AcDbEntity
  8
0
  6
Continuous
 62
     7
370
    25
100
AcDbSpline
210
0.0
220
0.0
230
1.0
 70
     8
 71
     3
 72
    23
 73
    19
 74
     0
 42
0.000000001
 43
0.00000001
 40
0.0
 40
0.0
 40
0.0
 40
0.0
 40
0.2496230808556368
 40
0.4992451404422734
 40
0.7488662627220992
 40
0.8323090917164717
 40
0.8744362399363312
 40
0.9371993606009622
 40
0.9685923684016275
 40
0.9842938236497191
 40
0.9921462520277637
 40
0.9980344199967413
 40
0.9995075192176786
 40
0.9998763455831486
 40
0.999968801477776
 40
0.9999920935251898
 40
0.999997934344419
 40
1.0
 40
1.0
 40
1.0
 40
1.0
 10
6315.662876552449
 20
5327.496417245537
 30
0.0
 10
6315.663595162956
 20
5326.949644205115
 30
0.0
 10
6315.665032381032
 20
5325.856100361251
 30
0.0
 10
6315.662277519726
 20
5324.458700815603
 30
0.0
 10
6315.665400224942
 20
5323.740156849499
 30
0.0
 10
6315.665203218999
 20
5323.475754548022
 30
0.0
 10
6315.664981134679
 20
5323.381196665578
 30
0.0
 10
6315.664746113028
 20
5323.336473574966
 30
0.0
 10
6315.664660992927
 20
5323.318262763764
 30
0.0
 10
6315.664650273307
 20
5323.313683641977
 30
0.0
 10
6315.664668436577
 20
5323.312462224954
 30
0.0
 10
6315.6646736478
 20
5323.312181528382
 30
0.0
 10
6315.664683571059
 20
5323.312155621102
 30
0.0
 10
6315.664683311622
 20
5323.31215629843
 30
0.0
 10
6315.664683318418
 20
5323.312156280689
 30
0.0
 10
6315.664683318239
 20
5323.312156281157
 30
0.0
 10
6315.664683318244
 20
5323.312156281144
 30
0.0
 10
6315.664683318244
 20
5323.312156281144
 30
0.0
 10
6315.664683318244
 20
5323.312156281144
 30
0.0
  0
SPLINE
  5
162
330
1F
100
AcDbEntity
  8
0
  6
Continuous
 62
     7
370
    25
100
AcDbSpline
210
0.0
220
0.0
230
1.0
 70
     8
 71
     3
 72
    28
 73
    24
 74
     0
 42
0.000000001
 43
0.00000001
 40
0.0
 40
0.0
 40
0.0
 40
0.0
 40
0.098928982855546
 40
0.2247239684527516
 40
0.3504845445572277
 40
0.4146440321939022
 40
0.4811340349050646
 40
0.5320877309399814
 40
0.5855180369185604
 40
0.6419907145711075
 40
0.6912209257926164
 40
0.7506638999805164
 40
0.7877420183598643
 40
0.826695756273749
 40
0.8524929798409426
 40
0.8794843470241752
 40
0.8984682332704812
 40
0.9168471849298087
 40
0.9436999500948602
 40
0.94966689537254
 40
0.9559182401454759
 40
0.9721707905145669
 40
1.0
 40
1.0
 40
1.0
 40
1.0
 10
6283.131132886991
 20
5338.357009372384
 30
0.0
 10
6283.438338657524
 20
5338.996001671756
 30
0.0
 10
6284.136177631434
 20
5340.447516497649
 30
0.0
 10
6284.419294652855
 20
5343.003559392862
 30
0.0
 10
6284.130164919848
 20
5345.277274500885
 30
0.0
 10
6283.523003336587
 20
5347.013716690302
 30
0.0
 10
6282.946763685719
 20
5348.176423521958
 30
0.0
 10
6282.280502732161
 20
5349.194470096674
 30
0.0
 10
6281.548507180809
 20
5350.072417418536
 30
0.0
 10
6280.745417987761
 20
5350.867710562789
 30
0.0
 10
6279.835102617231
 20
5351.610838645213
 30
0.0
 10
6278.941050460604
 20
5352.142685355298
 30
0.0
 10
6278.068196735155
 20
5352.556645732075
 30
0.0
 10
6277.394394903032
 20
5352.832648341908
 30
0.0
 10
6276.772282592791
 20
5353.043988205677
 30
0.0
 10
6276.274670775213
 20
5353.175912301048
 30
0.0
 10
6275.823682844537
 20
5353.274625206567
 30
0.0
 10
6275.371480356417
 20
5353.366030110434
 30
0.0
 10
6275.004766956935
 20
5353.402242891902
 30
0.0
 10
6274.728234175795
 20
5353.451026860346
 30
0.0
 10
6274.526846937513
 20
5353.488972343451
 30
0.0
 10
6274.163439393104
 20
5353.492859263795
 30
0.0
 10
6273.846753975149
 20
5353.496077415687
 30
0.0
 10
6273.646827636765
 20
5353.498109063775
 30
0.0
  0
SPLINE
  5
163
330
1F
100
AcDbEntity
  8
0
  6
Continuous
 62
     7
370
    25
100
AcDbSpline
210
0.0
220
0.0
230
1.0
 70
     8
 71
     3
 72
    39
 73
    35
 74
     0
 42
0.000000001
 43
0.00000001
 40
0.0
 40
0.0
 40
0.0
 40
0.0
 40
0.0179234481419649
 40
0.0284315095680028
 40
0.0647868520445409
 40
0.0897850638944545
 40
0.1194456612231268
 40
0.1406352499491246
 40
0.1609136239470155
 40
0.1992185791843763
 40
0.2309426004927703
 40
0.284858366314183
 40
0.3346495634248216
 40
0.4187291557949223
 40
0.499882392221506
 40
0.5810143114273307
 40
0.6224048087860413
 40
0.6652987193273514
 40
0.69817066339514
 40
0.7326393293653968
 40
0.7690703881233734
 40
0.80083044542059
 40
0.8391784198414135
 40
0.8631003042937571
 40
0.8882258953230879
 40
0.9048665914758653
 40
0.9222810163386513
 40
0.9345295470476749
 40
0.9463814274819164
 40
0.963702787252706
 40
0.9675482968485636
 40
0.9715772328634225
 40
0.9820553869911525
 40
1.0
 40
1.0
 40
1.0
 40
1.0
 10
6273.645835778223
 20
5353.498109063775
 30
0.0
 10
6273.446004199298
 20
5353.498021356801
 30
0.0
 10
6273.12901645212
 20
5353.497882229462
 30
0.0
 10
6272.407207152039
 20
5353.463445198154
 30
0.0
 10
6271.618381820029
 20
5353.310833305734
 30
0.0
 10
6270.631054601575
 20
5353.08918375819
 30
0.0
 10
6269.834845762809
 20
5352.810902203311
 30
0.0
 10
6269.109280449689
 20
5352.504932304125
 30
0.0
 10
6268.3152542843
 20
5352.122146377204
 30
0.0
 10
6267.456690512951
 20
5351.611054050802
 30
0.0
 10
6266.399941882066
 20
5350.744715108576
 30
0.0
 10
6265.359083059255
 20
5349.672320146425
 30
0.0
 10
6264.171271751638
 20
5347.972328221627
 30
0.0
 10
6263.232630461393
 20
5345.752552279185
 30
0.0
 10
6262.862949981529
 20
5342.999428918244
 30
0.0
 10
6263.166643411814
 20
5340.718082097575
 30
0.0
 10
6263.771653990984
 20
5338.982675910926
 30
0.0
 10
6264.348139431209
 20
5337.819770355298
 30
0.0
 10
6265.014140687294
 20
5336.801765841075
 30
0.0
 10
6265.745991924979
 20
5335.923821208324
 30
0.0
 10
6266.548892654624
 20
5335.128525809178
 30
0.0
 10
6267.459055423647
 20
5334.385417655194
 30
0.0
 10
6268.352990820333
 20
5333.853562436644
 30
0.0
 10
6269.225692715519
 20
5333.439585027969
 30
0.0
 10
6269.899374793331
 20
5333.163593428668
 30
0.0
 10
6270.521381055831
 20
5332.952262775289
 30
0.0
 10
6271.018973386742
 20
5332.82034684942
 30
0.0
 10
6271.469907071174
 20
5332.72160573876
 30
0.0
 10
6271.922026973844
 20
5332.630209863442
 30
0.0
 10
6272.288613065888
 20
5332.594052354443
 30
0.0
 10
6272.565015597445
 20
5332.545213562561
 30
0.0
 10
6272.766241698179
 20
5332.507331916128
 30
0.0
 10
6273.129417095101
 20
5332.503387523487
 30
0.0
 10
6273.44592892702
 20
5332.500153192755
 30
0.0
 10
6273.645757547127
 20
5332.498111209542
 30
0.0
  0
SPLINE
  5
164
330
1F
100
AcDbEntity
  8
0
  6
Continuous
 62
     7
370
    25
100
AcDbSpline
210
0.0
220
0.0
230
1.0
 70
     8
 71
     3
 72
    13
 73
     9
 74
     0
 42
0.000000001
 43
0.00000001
 40
0.0
 40
0.0
 40
0.0
 40
0.0
 40
0.239454573642563
 40
0.3683577300949079
 40
0.4999946812748424
 40
0.631642834188713
 40
0.7605426330215347
 40
1.0
 40
1.0
 40
1.0
 40
1.0
 10
6273.645835778223
 20
5353.498109063775
 30
0.0
 10
6273.645825761953
 20
5353.561005994627
 30
0.0
 10
6273.645810353727
 20
5353.657761593511
 30
0.0
 10
6273.645814162925
 20
5353.774168759504
 30
0.0
 10
6273.645824204483
 20
5353.854266171273
 30
0.0
 10
6273.645842168096
 20
5353.918811110932
 30
0.0
 10
6273.64587209717
 20
5353.981141904818
 30
0.0
 10
6273.645902577149
 20
5353.991420703731
 30
0.0
 10
6273.645922391222
 20
5353.998102626473
 30
0.0
  0
SPLINE
  5
165
330
1F
100
AcDbEntity
  8
0
  6
Continuous
 62
     7
370
    18
100
AcDbSpline
210
0.0
220
0.0
230
1.0
 70
    24
 71
     3
 72
    22
 73
    18
 74
     0
 42
0.000000001
 43
0.00000001
 40
0.0
 40
0.0
 40
0.0
 40
0.0
 40
0.0663802506430514
 40
0.1331365895104294
 40
0.1998793868437724
 40
0.2665712503006854
 40
0.3332398711119383
 40
0.399924888458269
 40
0.4665422922548002
 40
0.5330901408015869
 40
0.5996465835401461
 40
0.6662886186832226
 40
0.7330262835856857
 40
0.7998063772133222
 40
0.8666302946190818
 40
0.9334061503006625
 40
1.0
 40
1.0
 40
1.0
 40
1.0
 10
6300.100563874947
 20
5450.268559536607
 30
0.0
 10
6299.999248001951
 20
5450.268559536607
 30
0.0
 10
6299.796042234225
 20
5450.268559536607
 30
0.0
 10
6298.229061573985
 20
5450.268559536607
 30
0.0
 10
6295.776441974234
 20
5450.268559536607
 30
0.0
 10
6292.451547314794
 20
5450.268559536607
 30
0.0
 10
6288.406319691003
 20
5450.268559536607
 30
0.0
 10
6283.791325214089
 20
5450.268559536607
 30
0.0
 10
6278.792154364482
 20
5450.268559536607
 30
0.0
 10
6273.593990554465
 20
5450.268559536607
 30
0.0
 10
6268.395645308885
 20
5450.268559536607
 30
0.0
 10
6263.394485791774
 20
5450.268559536607
 30
0.0
 10
6258.777748842847
 20
5450.268559536607
 30
0.0
 10
6254.725812342332
 20
5450.268559536607
 30
0.0
 10
6251.421345522047
 20
5450.268559536607
 30
0.0
 10
6248.900725912106
 20
5450.268559536607
 30
0.0
 10
6248.038061287603
 20
5450.268559536607
 30
0.0
 10
6247.60731760274
 20
5450.268559536607
 30
0.0
  0
SPLINE
  5
166
330
1F
100
AcDbEntity
  8
0
  6
Continuous
 62
     7
370
    18
100
AcDbSpline
210
0.0
220
0.0
230
1.0
 70
     8
 71
     3
 72
    23
 73
    19
 74
     0
 42
0.000000001
 43
0.00000001
 40
0.0
 40
0.0
 40
0.0
 40
0.0
 40
0.0648507618542057
 40
0.1294290370930489
 40
0.1938371570817151
 40
0.2581271517858547
 40
0.3225287474975975
 40
0.3871023986493732
 40
0.4515224694588066
 40
0.5161687575732977
 40
0.5809638442524272
 40
0.645437468107001
 40
0.7098052280287009
 40
0.7742671889503359
 40
0.8387446434963061
 40
0.9031326595593101
 40
0.9676144301028957
 40
1.0
 40
1.0
 40
1.0
 40
1.0
 10
6298.381266033755
 20
5452.248774847657
 30
0.0
 10
6298.283961528196
 20
5452.249265340333
 30
0.0
 10
6298.089761366175
 20
5452.250244264758
 30
0.0
 10
6296.593349436266
 20
5452.252354864512
 30
0.0
 10
6294.312472292755
 20
5452.25068466482
 30
0.0
 10
6291.225128919529
 20
5452.248114645405
 30
0.0
 10
6287.445473748724
 20
5452.249685597393
 30
0.0
 10
6283.139891706736
 20
5452.249373410902
 30
0.0
 10
6278.462230216767
 20
5452.248868711334
 30
0.0
 10
6273.590467465518
 20
5452.248692379518
 30
0.0
 10
6268.718283003243
 20
5452.250084489607
 30
0.0
 10
6264.044650204174
 20
5452.251293056231
 30
0.0
 10
6259.737581478966
 20
5452.249907010909
 30
0.0
 10
6255.960543606431
 20
5452.248339697924
 30
0.0
 10
6252.866003494328
 20
5452.250633359634
 30
0.0
 10
6250.6116139926
 20
5452.251784694532
 30
0.0
 10
6249.295520096474
 20
5452.250209134405
 30
0.0
 10
6249.121590254239
 20
5452.249625593462
 30
0.0
 10
6249.063440448152
 20
5452.249430498749
 30
0.0
  0
SPLINE
  5
167
330
1F
100
AcDbEntity
  8
0
  6
Continuous
 62
     7
370
    18
100
AcDbSpline
210
0.0
220
0.0
230
1.0
 70
     8
 71
     3
 72
    22
 73
    18
 74
     0
 42
0.000000001
 43
0.00000001
 40
0.0
 40
0.0
 40
0.0
 40
0.0
 40
0.0665935315320186
 40
0.1333028937887362
 40
0.1998749158884988
 40
0.2663789445729248
 40
0.3330607206575068
 40
0.3997634361865825
 40
0.46624584037907
 40
0.5327141797320014
 40
0.5993939893767053
 40
0.666086602895135
 40
0.7326853375833818
 40
0.7993032320658481
 40
0.8660433012311258
 40
0.932911711571213
 40
1.0
 40
1.0
 40
1.0
 40
1.0
 10
6251.837690210448
 20
5444.066755852372
 30
0.0
 10
6252.234327195622
 20
5444.03662849757
 30
0.0
 10
6253.028291064049
 20
5443.976321385378
 30
0.0
 10
6255.211443560711
 20
5443.869731450774
 30
0.0
 10
6258.007293714912
 20
5443.767914734963
 30
0.0
 10
6261.396246544507
 20
5443.663002845464
 30
0.0
 10
6265.213403442298
 20
5443.577678236948
 30
0.0
 10
6269.317528205091
 20
5443.530676257382
 30
0.0
 10
6273.567404585519
 20
5443.520341790765
 30
0.0
 10
6277.818059447894
 20
5443.530524037283
 30
0.0
 10
6281.925255554848
 20
5443.577748595517
 30
0.0
 10
6285.750294374958
 20
5443.662092012554
 30
0.0
 10
6289.146422776764
 20
5443.767822510122
 30
0.0
 10
6291.963339221878
 20
5443.864786182677
 30
0.0
 10
6294.088143466867
 20
5443.962591686253
 30
0.0
 10
6295.526080483078
 20
5444.064802418705
 30
0.0
 10
6295.775632855274
 20
5444.118229540029
 30
0.0
 10
6295.900613850461
 20
5444.14498694864
 30
0.0
  0
SPLINE
  5
168
330
1F
100
AcDbEntity
  8
0
  6
Continuous
 62
     8
370
    25
100
AcDbSpline
210
0.0
220
0.0
230
1.0
 70
     8
 71
     3
 72
    20
 73
    16
 74
     0
 42
0.000000001
 43
0.00000001
 40
0.0
 40
0.0
 40
0.0
 40
0.0
 40
0.0077902539109565
 40
0.0973469866467178
 40
0.1961757330405466
 40
0.2581124709233519
 40
0.3303515225395878
 40
0.3971912505047355
 40
0.4522455644430384
 40
0.5246096841366205
 40
0.6125654509109221
 40
0.6678490605991082
 40
0.7836088005187888
 40
0.9054324539209034
 40
1.0
 40
1.0
 40
1.0
 40
1.0
 10
6247.80602086197
 20
5446.474664292008
 30
0.0
 10
6247.80382486885
 20
5446.474899092236
 30
0.0
 10
6247.776383746217
 20
5446.477833155092
 30
0.0
 10
6247.706368688326
 20
5446.384002716719
 30
0.0
 10
6247.618165019881
 20
5446.161992686603
 30
0.0
 10
6247.538829991151
 20
5445.808970867063
 30
0.0
 10
6247.474338753619
 20
5445.398645378736
 30
0.0
 10
6247.417996573976
 20
5444.882717779156
 30
0.0
 10
6247.367001268384
 20
5444.255699876417
 30
0.0
 10
6247.319928451511
 20
5443.420574399264
 30
0.0
 10
6247.279805655893
 20
5442.408621088209
 30
0.0
 10
6247.240520525192
 20
5441.007385033579
 30
0.0
 10
6247.209284913881
 20
5439.160050056191
 30
0.0
 10
6247.18534352293
 20
5436.736076117153
 30
0.0
 10
6247.177247045574
 20
5434.85243528185
 30
0.0
 10
6247.173708713161
 20
5434.029244265229
 30
0.0
  0
LINE
  5
169
330
1F
100
AcDbEntity
  8
0
  6
Continuous
 62
     8
370
    25
100
AcDbLine
 10
6247.1580773951
 20
5414.2125178191
 30
0.0
 11
6247.1580922962
 21
5413.8964045855
 31
0.0
  0
LINE
  5
16A
330
1F
100
AcDbEntity
  8
0
  6
Continuous
 62
     8
370
    25
100
AcDbLine
 10
6275.6344437027
 20
5428.3728230807
 30
0.0
 11
6273.6865327121
 21
5428.3027578208
 31
0.0
  0
LINE
  5
16B
330
1F
100
AcDbEntity
  8
0
  6
Continuous
 62
     8
370
    25
100
AcDbLine
 10
6273.6863883571
 20
5428.3043075415
 30
0.0
 11
6275.6310201609
 21
5428.3742535922
 31
0.0
  0
LWPOLYLINE
  5
16C
330
1F
100
AcDbEntity
  8
0
  6
Continuous
 62
     8
370
    25
100
AcDbPolyline
 90
       12
 70
   128
 43
0.0
 10
6269.7893919782
 20
5429.3289113852
 10
6269.9736364544
 20
5429.5124340865
 10
6270.5148103074
 20
5429.6970296713
 10
6271.3580549122
 20
5429.8435080859
 10
6272.4208262176
 20
5429.9375642153
 10
6273.5990945608
 20
5429.9699593398
 10
6274.7775212289
 20
5429.9375642153
 10
6275.840754936
 20
5429.8435080859
 10
6276.6847175905
 20
5429.6970296713
 10
6277.2267976203
 20
5429.5124340865
 10
6277.4139310592
 20
5429.307811341
 10
6277.4124083468
 20
5429.2888272616
  0
SPLINE
  5
16D
330
1F
100
AcDbEntity
  8
0
  6
Continuous
 62
     8
370
    25
100
AcDbSpline
210
0.0
220
0.0
230
1.0
 70
     8
 71
     3
 72
    12
 73
     8
 74
     0
 42
0.000000001
 43
0.00000001
 40
0.0
 40
0.0
 40
0.0
 40
0.0
 40
0.1694869289409063
 40
0.3425746560389155
 40
0.5156612563091627
 40
0.6851483034384365
 40
1.0
 40
1.0
 40
1.0
 40
1.0
 10
6269.886785967754
 20
5429.214381060273
 30
0.0
 10
6269.897428170458
 20
5429.257852134904
 30
0.0
 10
6269.918938672497
 20
5429.345717839546
 30
0.0
 10
6270.145569498811
 20
5429.473223492326
 30
0.0
 10
6270.508458645856
 20
5429.58966279897
 30
0.0
 10
6271.130810703029
 20
5429.721391265283
 30
0.0
 10
6271.765328834853
 20
5429.781419094009
 30
0.0
 10
6272.177806905018
 20
5429.820441088349
 30
0.0
  0
LINE
  5
16E
330
1F
100
AcDbEntity
  8
0
  6
Continuous
 62
     8
370
    25
100
AcDbLine
 10
6273.6605245979
 20
5428.5821247908
 30
0.0
 11
6275.0180967511
 21
5428.6309409949
 31
0.0
  0
LWPOLYLINE
  5
16F
330
1F
100
AcDbEntity
  8
0
  6
Continuous
 62
     8
370
    25
100
AcDbPolyline
 90
        7
 70
   128
 43
0.0
 10
6272.7163860933
 20
5429.6841848704
 10
6273.5997362421
 20
5429.7147024485
 10
6274.4832354025
 20
5429.6841848704
 10
6275.2323801057
 20
5429.5972812983
 10
6275.7331187264
 20
5429.4672239634
 10
6275.9092187868
 20
5429.3138314101
 10
6275.9089030684
 20
5429.3070364806
  0
ARC
  5
170
330
1F
100
AcDbEntity
  8
0
  6
Continuous
 62
     8
370
    25
100
AcDbCircle
 10
6272.4980970757
 20
5427.5286532656
 30
0.0
 40
2.166556390841462
100
AcDbArc
 50
84.2174146563
 51
123.7630219654
  0
LWPOLYLINE
  5
171
330
1F
100
AcDbEntity
  8
0
  6
Continuous
 62
     8
370
    25
100
AcDbPolyline
 90
       10
 70
   128
 43
0.0
 10
6275.7007198767
 20
5429.3228615138
 10
6275.5412089997
 20
5429.183476052
 10
6275.0862770141
 20
5429.0651608321
 10
6274.4051812575
 20
5428.9861250731
 10
6273.6016147197
 20
5428.9583493086
 10
6272.7979112775
 20
5428.9861250731
 10
6272.1164280907
 20
5429.0651608321
 10
6271.6609154255
 20
5429.183476052
 10
6271.5007204921
 20
5429.3230105254
 10
6271.5007204921
 20
5429.3233681532
  0
LINE
  5
172
330
1F
100
AcDbEntity
  8
0
  6
Continuous
 62
     8
370
    25
100
AcDbLine
 10
6279.1290621632
 20
5429.8421669814
 30
0.0
 11
6279.0015813322
 21
5429.8392761561
 31
0.0
  0
LINE
  5
173
330
1F
100
AcDbEntity
  8
0
  6
Continuous
 62
     8
370
    25
100
AcDbLine
 10
6268.1987870843
 20
5429.8385609004
 30
0.0
 11
6268.0670570941
 21
5429.8415709349
 31
0.0
  0
LINE
  5
174
330
1F
100
AcDbEntity
  8
0
  6
Continuous
 62
     8
370
    25
100
AcDbLine
 10
6273.3877029629
 20
5429.6693731162
 30
0.0
 11
6273.2154911743
 21
5429.4415045592
 31
0.0
  0
LINE
  5
175
330
1F
100
AcDbEntity
  8
0
  6
Continuous
 62
     8
370
    25
100
AcDbLine
 10
6278.3869549991
 20
5429.6056557509
 30
0.0
 11
6277.4660650999
 21
5429.6266961905
 31
0.0
  0
LINE
  5
176
330
1F
100
AcDbEntity
  8
0
  6
Continuous
 62
     8
370
    25
100
AcDbLine
 10
6279.6132616592
 20
5429.6861220213
 30
0.0
 11
6279.0467076362
 21
5429.6990860316
 31
0.0
  0
LINE
  5
177
330
1F
100
AcDbEntity
  8
0
  6
Continuous
 62
     8
370
    25
100
AcDbLine
 10
6268.1545120091
 20
5429.7028411242
 30
0.0
 11
6267.5959438444
 21
5429.6900559279
 31
0.0
  0
LINE
  5
178
330
1F
100
AcDbEntity
  8
0
  6
Continuous
 62
     8
370
    25
100
AcDbLine
 10
6279.8631634456
 20
5429.571919522
 30
0.0
 11
6279.0363899791
 21
5429.5908141944
 31
0.0
  0
LINE
  5
179
330
1F
100
AcDbEntity
  8
0
  6
Continuous
 62
     8
370
    25
100
AcDbLine
 10
6268.1651020781
 20
5429.5915294501
 30
0.0
 11
6267.3378371061
 21
5429.5726049754
 31
0.0
  0
LINE
  5
17A
330
1F
100
AcDbEntity
  8
0
  6
Continuous
 62
     8
370
    25
100
AcDbLine
 10
6271.269716172
 20
5429.547243199
 30
0.0
 11
6270.2794921012
 21
5429.4759858462
 31
0.0
  0
LINE
  5
17B
330
1F
100
AcDbEntity
  8
0
  6
Continuous
 62
     8
370
    25
100
AcDbLine
 10
6275.9290312776
 20
5429.5182455393
 30
0.0
 11
6276.5234013447
 21
5429.4390905711
 31
0.0
  0
LINE
  5
17C
330
1F
100
AcDbEntity
  8
0
  6
Continuous
 62
     8
370
    25
100
AcDbLine
 10
6268.7563382448
 20
5429.4764924857
 30
0.0
 11
6269.748027286
 21
5429.5478392455
 31
0.0
  0
LINE
  5
17D
330
1F
100
AcDbEntity
  8
0
  6
Continuous
 62
     8
370
    25
100
AcDbLine
 10
6275.9183238619
 20
5429.4058907839
 30
0.0
 11
6276.4512201199
 21
5429.334901652
 31
0.0
  0
LINE
  5
17E
330
1F
100
AcDbEntity
  8
0
  6
Continuous
 62
     8
370
    25
100
AcDbLine
 10
6269.7652921439
 20
5429.4390011641
 30
0.0
 11
6268.8015409173
 21
5429.3696809622
 31
0.0
  0
LINE
  5
17F
330
1F
100
AcDbEntity
  8
0
  6
Continuous
 62
     8
370
    25
100
AcDbLine
 10
6279.8317196672
 20
5429.3806184146
 30
0.0
 11
6279.021910707
 21
5429.4388521525
 31
0.0
  0
LINE
  5
180
330
1F
100
AcDbEntity
  8
0
  6
Continuous
 62
     8
370
    25
100
AcDbLine
 10
6268.1799892695
 20
5429.4350374552
 30
0.0
 11
6267.3705228032
 21
5429.3768037173
 31
0.0
  0
LINE
  5
181
330
1F
100
AcDbEntity
  8
0
  6
Continuous
 62
     8
370
    25
100
AcDbLine
 10
6279.7893137564
 20
5429.2706478449
 30
0.0
 11
6279.0112158642
 21
5429.3266166064
 31
0.0
  0
LINE
  5
182
330
1F
100
AcDbEntity
  8
0
  6
Continuous
 62
     8
370
    25
100
AcDbLine
 10
6268.1903893487
 20
5429.3256927344
 30
0.0
 11
6267.4159638942
 21
5429.2699921938
 31
0.0
  0
LINE
  5
183
330
1F
100
AcDbEntity
  8
0
  6
Continuous
 62
     8
370
    25
100
AcDbLine
 10
6277.4173625172
 20
5429.3200004908
 30
0.0
 11
6277.7935930886
 21
5429.2699027869
 31
0.0
  0
LINE
  5
184
330
1F
100
AcDbEntity
  8
0
  6
Continuous
 62
     8
370
    25
100
AcDbLine
 10
6277.7210044102
 20
5429.1657734725
 30
0.0
 11
6277.3740252839
 21
5429.2119968745
 31
0.0
  0
LINE
  5
185
330
1F
100
AcDbEntity
  8
0
  6
Continuous
 62
     8
370
    25
100
AcDbLine
 10
6278.8968061456
 20
5429.1229475352
 30
0.0
 11
6278.9842186854
 21
5429.1112948271
 31
0.0
  0
LINE
  5
186
330
1F
100
AcDbEntity
  8
0
  6
Continuous
 62
     8
370
    25
100
AcDbLine
 10
6268.3022095249
 20
5429.1257787558
 30
0.0
 11
6268.2229167209
 21
5429.1151989314
 31
0.0
  0
LWPOLYLINE
  5
187
330
1F
100
AcDbEntity
  8
0
  6
Continuous
 62
     8
370
    25
100
AcDbPolyline
 90
        9
 70
   128
 43
0.0
 10
6314.2936796309
 20
5321.0964132163
 10
6314.293007216
 20
5321.2877143237
 10
6314.2923701913
 20
5321.8572516057
 10
6314.2918113978
 20
5322.770335159
 10
6314.2913680882
 20
5323.9713240477
 10
6314.2910644771
 20
5325.3870833727
 10
6314.2909210534
 20
5326.9313354107
 10
6314.2909452678
 20
5328.5100091311
 10
6314.2911352576
 20
5330.0269473406
  0
ARC
  5
188
330
1F
100
AcDbEntity
  8
0
  6
Continuous
 62
     8
370
    25
100
AcDbCircle
 10
6451.651223314
 20
5333.2250757511
 30
0.0
 40
144.3591039613486
100
AcDbArc
 50
179.7335495378
 51
180.0843829411
  0
SPLINE
  5
189
330
1F
100
AcDbEntity
  8
0
  6
Continuous
 62
     8
370
    25
100
AcDbSpline
210
0.0
220
0.0
230
1.0
 70
     8
 71
     3
 72
     9
 73
     5
 74
     0
 42
0.000000001
 43
0.00000001
 40
0.0
 40
0.0
 40
0.0
 40
0.0
 40
0.5623592626214697
 40
1.0
 40
1.0
 40
1.0
 40
1.0
 10
6308.891136980163
 20
5330.026947340638
 30
0.0
 10
6308.700987678357
 20
5330.675874352602
 30
0.0
 10
6308.362859875645
 20
5331.829811088594
 30
0.0
 10
6308.218812935103
 20
5332.86221651833
 30
0.0
 10
6308.155772125827
 20
5333.314039191872
 30
0.0
  0
LINE
  5
18A
330
1F
100
AcDbEntity
  8
0
  6
Continuous
 62
     7
370
    25
100
AcDbLine
 10
6578.877020903
 20
5142.9964121493
 30
0.0
 11
6578.877020903
 21
5292.9964143845
 31
0.0
  0
LINE
  5
18B
330
1F
100
AcDbEntity
  8
0
  6
Continuous
 62
     7
370
    25
100
AcDbLine
 10
6525.8770215288
 20
5292.9964143845
 30
0.0
 11
6525.8770215288
 21
5142.9964121493
 31
0.0
  0
ARC
  5
18C
330
1F
100
AcDbEntity
  8
0
  6
Continuous
 62
     7
370
    25
100
AcDbCircle
 10
6572.1270211225
 20
5142.9964129915
 30
0.0
 40
1.0
100
AcDbArc
 50
270.0
 51
0.0
  0
ARC
  5
18D
330
1F
100
AcDbEntity
  8
0
  6
Continuous
 62
     7
370
    25
100
AcDbCircle
 10
6532.6270211225
 20
5142.9964129915
 30
0.0
 40
1.0
100
AcDbArc
 50
180.0
 51
270.0
  0
LINE
  5
18E
330
1F
100
AcDbEntity
  8
0
  6
Continuous
 62
     7
370
    25
100
AcDbLine
 10
6532.6270203069
 20
5141.9964138481
 30
0.0
 11
6572.1270211936
 21
5141.9964138481
 31
0.0
  0
LINE
  5
18F
330
1F
100
AcDbEntity
  8
0
  6
Continuous
 62
     7
370
    25
100
AcDbLine
 10
6711.8768080101
 20
5447.9798007819
 30
0.0
 11
6711.8768080101
 21
5450.2685595366
 31
0.0
  0
SPLINE
  5
190
330
1F
100
AcDbEntity
  8
0
  6
Continuous
 62
     7
370
    25
100
AcDbSpline
210
0.0
220
0.0
230
1.0
 70
     8
 71
     3
 72
    11
 73
     7
 74
     0
 42
0.000000001
 43
0.00000001
 40
0.0
 40
0.0
 40
0.0
 40
0.0
 40
0.2464239514454093
 40
0.4999915677001692
 40
0.7535587646814703
 40
1.0
 40
1.0
 40
1.0
 40
1.0
 10
6711.047126255979
 20
5446.37396224466
 30
0.0
 10
6711.167758268225
 20
5446.474078582761
 30
0.0
 10
6711.412519333714
 20
5446.677213564347
 30
0.0
 10
6711.675230074897
 20
5447.082472116007
 30
0.0
 10
6711.847487190794
 20
5447.533680156632
 30
0.0
 10
6711.86712770713
 20
5447.85115902225
 30
0.0
 10
6711.876808010091
 20
5448.007636150986
 30
0.0
  0
SPLINE
  5
191
330
1F
100
AcDbEntity
  8
0
  6
Continuous
 62
     7
370
    25
100
AcDbSpline
210
0.0
220
0.0
230
1.0
 70
     8
 71
     3
 72
    11
 73
     7
 74
     0
 42
0.000000001
 43
0.00000001
 40
0.0
 40
0.0
 40
0.0
 40
0.0
 40
0.2420743419374925
 40
0.5004865124618637
 40
0.7586248223574814
 40
0.9999999999999999
 40
0.9999999999999999
 40
0.9999999999999999
 40
0.9999999999999999
 10
6711.876808010091
 20
5450.268768152863
 30
0.0
 10
6711.853144857355
 20
5450.501302597882
 30
0.0
 10
6711.804221503101
 20
5450.982065459752
 30
0.0
 10
6711.410976618793
 20
5451.616237987352
 30
0.0
 10
6710.833401167761
 20
5452.087456746276
 30
0.0
 10
6710.364037646021
 20
5452.198288369796
 30
0.0
 10
6710.13723155116
 20
5452.251844486863
 30
0.0
  0
LINE
  5
192
330
1F
100
AcDbEntity
  8
0
  6
Continuous
 62
     7
370
    25
100
AcDbLine
 10
6578.877020903
 20
5354.0463227841
 30
0.0
 11
6578.877020903
 21
5412.996434054
 31
0.0
  0
LINE
  5
193
330
1F
100
AcDbEntity
  8
0
  6
Continuous
 62
     7
370
    25
100
AcDbLine
 10
6578.877020903
 20
5292.9964143845
 30
0.0
 11
6578.877020903
 21
5331.9486904952
 31
0.0
  0
LINE
  5
194
330
1F
100
AcDbEntity
  8
0
  6
Continuous
 62
     7
370
    25
100
AcDbLine
 10
6525.8770215288
 20
5300.2964485499
 30
0.0
 11
6525.8770215288
 21
5292.9964143845
 31
0.0
  0
LINE
  5
195
330
1F
100
AcDbEntity
  8
0
  6
Continuous
 62
     7
370
    25
100
AcDbLine
 10
6525.8770215288
 20
5322.4486935946
 30
0.0
 11
6525.8770215288
 21
5303.6963719937
 31
0.0
  0
LINE
  5
196
330
1F
100
AcDbEntity
  8
0
  6
Continuous
 62
     7
370
    25
100
AcDbLine
 10
6525.8770215288
 20
5450.2685595366
 30
0.0
 11
6525.8770215288
 21
5327.5441307637
 31
0.0
  0
ARC
  5
197
330
1F
100
AcDbEntity
  8
0
  6
Continuous
 62
     7
370
    25
100
AcDbCircle
 10
6527.8770211225
 20
5450.2685634707
 30
0.0
 40
2.000000000000661
100
AcDbArc
 50
98.0681504999
 51
180.0
  0
ARC
  5
198
330
1F
100
AcDbEntity
  8
0
  6
Continuous
 62
     7
370
    25
100
AcDbCircle
 10
6685.3757086414
 20
5481.5142639638
 30
0.0
 40
43.5185336473425
100
AcDbArc
 50
299.1919231574
 51
306.1606251849
  0
LINE
  5
199
330
1F
100
AcDbEntity
  8
0
  6
Continuous
 62
     7
370
    25
100
AcDbLine
 10
6603.8619152233
 20
5437.9964102122
 30
0.0
 11
6656.0929327235
 21
5437.9964102122
 31
0.0
  0
ARC
  5
19A
330
1F
100
AcDbEntity
  8
0
  6
Continuous
 62
     7
370
    25
100
AcDbCircle
 10
6552.3772107591
 20
5277.4304624595
 30
0.0
 40
176.5659503754195
100
AcDbArc
 50
90.0000615069
 51
98.0680533266
  0
ARC
  5
19B
330
1F
100
AcDbEntity
  8
0
  6
Continuous
 62
     7
370
    25
100
AcDbCircle
 10
6685.3782932188
 20
5277.4364767016
 30
0.0
 40
176.5599361332762
100
AcDbArc
 50
81.9322224867
 51
90.0000472664
  0
LINE
  5
19C
330
1F
100
AcDbEntity
  8
0
  6
Continuous
 62
     7
370
    25
100
AcDbLine
 10
6685.3781475649
 20
5453.9964128348
 30
0.0
 11
6552.3770212159
 21
5453.9964128348
 31
0.0
  0
SPLINE
  5
19D
330
1F
100
AcDbEntity
  8
0
  6
Continuous
 62
     7
370
    25
100
AcDbSpline
210
0.0
220
0.0
230
1.0
 70
     8
 71
     3
 72
    11
 73
     7
 74
     0
 42
0.000000001
 43
0.00000001
 40
0.0
 40
0.0
 40
0.0
 40
0.0
 40
0.2431060539346
 40
0.4967446004304048
 40
0.7520997241372241
 40
1.0
 40
1.0
 40
1.0
 40
1.0
 10
6656.085660956849
 20
5437.996410212189
 30
0.0
 10
6657.383815269188
 20
5437.899358217537
 30
0.0
 10
6660.036366017072
 20
5437.701049481395
 30
0.0
 10
6663.762778116888
 20
5436.075554765432
 30
0.0
 10
6667.023011124935
 20
5433.601015650841
 30
0.0
 10
6668.500303738157
 20
5431.346463108725
 30
0.0
 10
6669.228008292665
 20
5430.235885462434
 30
0.0
  0
SPLINE
  5
19E
330
1F
100
AcDbEntity
  8
0
  6
Continuous
 62
     7
370
    25
100
AcDbSpline
210
0.0
220
0.0
230
1.0
 70
     8
 71
     3
 72
    11
 73
     7
 74
     0
 42
0.000000001
 43
0.00000001
 40
0.0
 40
0.0
 40
0.0
 40
0.0
 40
0.2234279890235912
 40
0.4847191581376174
 40
0.7450011694381014
 40
1.0
 40
1.0
 40
1.0
 40
1.0
 10
6699.904574357022
 20
5435.695045075089
 30
0.0
 10
6700.204888709505
 20
5436.42552947038
 30
0.0
 10
6700.856410126979
 20
5438.010289654928
 30
0.0
 10
6702.406421916963
 20
5440.155853597311
 30
0.0
 10
6704.345669469327
 20
5442.114857292931
 30
0.0
 10
6705.892353017461
 20
5443.077939487123
 30
0.0
 10
6706.657765708913
 20
5443.554543337495
 30
0.0
  0
LINE
  5
19F
330
1F
100
AcDbEntity
  8
0
  6
Continuous
 62
     7
370
    25
100
AcDbLine
 10
6578.9263158069
 20
5331.6962052199
 30
0.0
 11
6578.4261452929
 21
5334.7567845198
 31
0.0
  0
LINE
  5
1A0
330
1F
100
AcDbEntity
  8
0
  6
Continuous
 62
     7
370
    25
100
AcDbLine
 10
6578.4261452929
 20
5351.0639447781
 30
0.0
 11
6578.9276699499
 21
5354.3035466286
 31
0.0
  0
LINE
  5
1A1
330
1F
100
AcDbEntity
  8
0
  6
Continuous
 62
     7
370
    25
100
AcDbLine
 10
6525.8744883314
 20
5327.6098448845
 30
0.0
 11
6525.8744659797
 21
5322.382174811
 31
0.0
  0
LINE
  5
1A2
330
1F
100
AcDbEntity
  8
0
  6
Continuous
 62
     7
370
    25
100
AcDbLine
 10
6525.8740245328
 20
5303.6252338502
 30
0.0
 11
6525.8736594543
 21
5300.4579175326
 31
0.0
  0
SPLINE
  5
1A3
330
1F
100
AcDbEntity
  8
0
  6
Continuous
 62
     7
370
    25
100
AcDbSpline
210
0.0
220
0.0
230
1.0
 70
     8
 71
     3
 72
    10
 73
     6
 74
     0
 42
0.000000001
 43
0.00000001
 40
0.0
 40
0.0
 40
0.0
 40
0.0
 40
0.1791292380183196
 40
0.9078006488112201
 40
0.9999999999999999
 40
0.9999999999999999
 40
0.9999999999999999
 40
0.9999999999999999
 10
6692.280961476315
 20
5431.706272444398
 30
0.0
 10
6692.323444074647
 20
5431.802772606316
 30
0.0
 10
6692.538739638651
 20
5432.291821242758
 30
0.0
 10
6692.674774671152
 20
5432.873519722905
 30
0.0
 10
6692.729146221575
 20
5433.353426743645
 30
0.0
 10
6692.735253177632
 20
5433.407329401643
 30
0.0
  0
SPLINE
  5
1A4
330
1F
100
AcDbEntity
  8
0
  6
Continuous
 62
     7
370
    25
100
AcDbSpline
210
0.0
220
0.0
230
1.0
 70
     8
 71
     3
 72
     9
 73
     5
 74
     0
 42
0.000000001
 43
0.00000001
 40
0.0
 40
0.0
 40
0.0
 40
0.0
 40
0.4112617106253252
 40
1.0
 40
1.0
 40
1.0
 40
1.0
 10
6676.392747364987
 20
5430.526696524293
 30
0.0
 10
6676.503597770499
 20
5430.31801775751
 30
0.0
 10
6676.773135154232
 20
5429.810606633666
 30
0.0
 10
6677.140277219609
 20
5429.367737379704
 30
0.0
 10
6677.356427811135
 20
5429.10700329271
 30
0.0
  0
ARC
  5
1A5
330
1F
100
AcDbEntity
  8
0
  6
Continuous
 62
     7
370
    25
100
AcDbCircle
 10
6684.063334077
 20
5434.7399799374
 30
0.0
 40
9.430976835307773
100
AcDbArc
 50
352.7296429499
 51
359.1694009576
  0
ARC
  5
1A6
330
1F
100
AcDbEntity
  8
0
  6
Continuous
 62
     7
370
    25
100
AcDbCircle
 10
6684.0649606838
 20
5434.737503235
 30
0.0
 40
9.420249702798198
100
AcDbArc
 50
200.8261919005
 51
207.2733164946
  0
LINE
  5
1A7
330
1F
100
AcDbEntity
  8
0
  6
Continuous
 62
     7
370
    25
100
AcDbLine
 10
6693.4187843428
 20
5433.5448373171
 30
0.0
 11
6693.4184863195
 21
5433.5464764449
 31
0.0
  0
LINE
  5
1A8
330
1F
100
AcDbEntity
  8
0
  6
Continuous
 62
     7
370
    25
100
AcDbLine
 10
6675.6919532046
 20
5430.4208088728
 30
0.0
 11
6675.6922437773
 21
5430.4191697451
 31
0.0
  0
LINE
  5
1A9
330
1F
100
AcDbEntity
  8
0
  6
Continuous
 62
     7
370
    25
100
AcDbLine
 10
6677.3464514837
 20
5429.0999699446
 30
0.0
 11
6678.013725482
 21
5428.0481863829
 31
0.0
  0
LINE
  5
1AA
330
1F
100
AcDbEntity
  8
0
  6
Continuous
 62
     7
370
    25
100
AcDbLine
 10
6692.0482351408
 20
5430.5228222224
 30
0.0
 11
6692.3155321703
 21
5431.7394126269
 31
0.0
  0
ARC
  5
1AB
330
1F
100
AcDbEntity
  8
0
  6
Continuous
 62
     7
370
    25
100
AcDbCircle
 10
6691.9505602784
 20
5430.544293096
 30
0.0
 40
0.1000000000709755
100
AcDbArc
 50
279.9999876878
 51
347.6082391919
  0
ARC
  5
1AC
330
1F
100
AcDbEntity
  8
0
  6
Continuous
 62
     7
370
    25
100
AcDbCircle
 10
6678.0981649249
 20
5428.1017422762
 30
0.0
 40
0.1000000000677611
100
AcDbArc
 50
212.3917589047
 51
280.000010422
  0
LINE
  5
1AD
330
1F
100
AcDbEntity
  8
0
  6
Continuous
 62
     7
370
    25
100
AcDbLine
 10
6578.877020903
 20
5292.9964143845
 30
0.0
 11
6525.8770215288
 21
5292.9964143845
 31
0.0
  0
LINE
  5
1AE
330
1F
100
AcDbEntity
  8
0
  6
Continuous
 62
     7
370
    25
100
AcDbLine
 10
6525.8770215288
 20
5142.9964121493
 30
0.0
 11
6578.877020903
 21
5142.9964121493
 31
0.0
  0
SPLINE
  5
1AF
330
1F
100
AcDbEntity
  8
0
  6
Continuous
 62
     7
370
    18
100
AcDbSpline
210
0.0
220
0.0
230
1.0
 70
     8
 71
     3
 72
    11
 73
     7
 74
     0
 42
0.000000001
 43
0.00000001
 40
0.0
 40
0.0
 40
0.0
 40
0.0
 40
0.2500170710013669
 40
0.5000171081601577
 40
0.7500032297406636
 40
1.0
 40
1.0
 40
1.0
 40
1.0
 10
6603.865554831971
 20
5447.99681790796
 30
0.0
 10
6603.865543656149
 20
5447.840127361762
 30
0.0
 10
6603.865521305265
 20
5447.526756944805
 30
0.0
 10
6603.865532478172
 20
5447.084247670143
 30
0.0
 10
6603.865610713699
 20
5446.685209159798
 30
0.0
 10
6603.865677766867
 20
5446.483216145928
 30
0.0
 10
6603.865711294164
 20
5446.382217487961
 30
0.0
  0
SPLINE
  5
1B0
330
1F
100
AcDbEntity
  8
0
  6
Continuous
 62
     7
370
    18
100
AcDbSpline
210
0.0
220
0.0
230
1.0
 70
     8
 71
     3
 72
    21
 73
    17
 74
     0
 42
0.000000001
 43
0.00000001
 40
0.0
 40
0.0
 40
0.0
 40
0.0
 40
0.0643480316829291
 40
0.1283883418357263
 40
0.1921846371338979
 40
0.2555148071759296
 40
0.3183652895919798
 40
0.3812792475792199
 40
0.4436698512850236
 40
0.5057111155640697
 40
0.5881185640588706
 40
0.6710124821307306
 40
0.7528838517111717
 40
0.8350105796305148
 40
0.9175569533505705
 40
1.0
 40
1.0
 40
1.0
 40
1.0
 10
6552.3758617193
 20
5413.896404585511
 30
0.0
 10
6552.481398878238
 20
5415.382282644246
 30
0.0
 10
6552.691968502263
 20
5418.346933079413
 30
0.0
 10
6553.892873992882
 20
5422.646308980221
 30
0.0
 10
6555.577162222651
 20
5426.736582708926
 30
0.0
 10
6557.79057024061
 20
5430.542223958586
 30
0.0
 10
6560.46407576504
 20
5434.010090777714
 30
0.0
 10
6563.527192946663
 20
5437.107373947737
 30
0.0
 10
6566.906893463337
 20
5439.823695509395
 30
0.0
 10
6570.938988040808
 20
5442.401857150106
 30
0.0
 10
6575.693127983143
 20
5444.673334158183
 30
0.0
 10
6581.148526805234
 20
5446.410245454614
 30
0.0
 10
6586.761646032227
 20
5447.477111680977
 30
0.0
 10
6592.441423613958
 20
5447.984371598897
 30
0.0
 10
6598.15109323757
 20
5448.043759546687
 30
0.0
 10
6601.961529747957
 20
5448.012458586639
 30
0.0
 10
6603.865554831971
 20
5447.99681790796
 30
0.0
  0
SPLINE
  5
1B1
330
1F
100
AcDbEntity
  8
0
  6
Continuous
 62
     7
370
    18
100
AcDbSpline
210
0.0
220
0.0
230
1.0
 70
     8
 71
     3
 72
    20
 73
    16
 74
     0
 42
0.000000001
 43
0.00000001
 40
0.0
 40
0.0
 40
0.0
 40
0.0
 40
0.125071407446158
 40
0.2500851229337697
 40
0.3334287014731077
 40
0.4167504348093318
 40
0.5000610313738277
 40
0.562567281658058
 40
0.6250708529854496
 40
0.6875698489587103
 40
0.7500629963227096
 40
0.8125560499310133
 40
0.8750469250342324
 40
0.9375352493086265
 40
0.9999999999999999
 40
0.9999999999999999
 40
0.9999999999999999
 40
0.9999999999999999
 10
6603.865711294164
 20
5446.382217487961
 30
0.0
 10
6601.008537933054
 20
5446.439953374485
 30
0.0
 10
6595.295509145368
 20
5446.555398515572
 30
0.0
 10
6587.66723058955
 20
5446.332669323298
 30
0.0
 10
6581.070488216477
 20
5445.293282617235
 30
0.0
 10
6575.560799568602
 20
5443.726502239392
 30
0.0
 10
6570.76328409767
 20
5441.578545893422
 30
0.0
 10
6566.699652855425
 20
5439.080565759888
 30
0.0
 10
6563.316866766896
 20
5436.434638672158
 30
0.0
 10
6560.269768726097
 20
5433.406372836456
 30
0.0
 10
6557.635121490013
 20
5430.012332561675
 30
0.0
 10
6555.471384418311
 20
5426.297516844294
 30
0.0
 10
6553.83746045409
 20
5422.328209944569
 30
0.0
 10
6552.682603977623
 20
5418.178104241587
 30
0.0
 10
6552.478096277969
 20
5415.323458285523
 30
0.0
 10
6552.3758617193
 20
5413.896404585511
 30
0.0
  0
LINE
  5
1B2
330
1F
100
AcDbEntity
  8
0
  6
Continuous
 62
     7
370
    18
100
AcDbLine
 10
6685.3666885719
 20
5447.996817908
 30
0.0
 11
6685.3666885719
 21
5450.2685595366
 31
0.0
  0
SPLINE
  5
1B3
330
1F
100
AcDbEntity
  8
0
  6
Continuous
 62
     7
370
    25
100
AcDbSpline
210
0.0
220
0.0
230
1.0
 70
     8
 71
     3
 72
    21
 73
    17
 74
     0
 42
0.000000001
 43
0.00000001
 40
0.0
 40
0.0
 40
0.0
 40
0.0
 40
0.0628637016319272
 40
0.1258203090968106
 40
0.188700855757164
 40
0.2515320296090667
 40
0.3143604069175556
 40
0.3771054889500843
 40
0.4388490553609714
 40
0.5014401703703211
 40
0.5846301159636343
 40
0.6663419958053096
 40
0.7501616039506022
 40
0.832748114065162
 40
0.9154790708799956
 40
1.0
 40
1.0
 40
1.0
 40
1.0
 10
6552.3758617193
 20
5413.896404585511
 30
0.0
 10
6552.47710117942
 20
5415.348029232237
 30
0.0
 10
6552.679729720762
 20
5418.253423871784
 30
0.0
 10
6553.839989098999
 20
5422.47935172209
 30
0.0
 10
6555.47622978584
 20
5426.526558600231
 30
0.0
 10
6557.643741236852
 20
5430.319982455768
 30
0.0
 10
6560.279017927082
 20
5433.797068245945
 30
0.0
 10
6563.30467419604
 20
5436.904047549301
 30
0.0
 10
6566.657588126724
 20
5439.643425143487
 30
0.0
 10
6570.683158715167
 20
5442.261360289768
 30
0.0
 10
6575.425702961027
 20
5444.565904936687
 30
0.0
 10
6580.903246277868
 20
5446.349849928347
 30
0.0
 10
6586.539974110927
 20
5447.449214473312
 30
0.0
 10
6592.278217731957
 20
5447.977187596681
 30
0.0
 10
6598.05084655105
 20
5448.046254867189
 30
0.0
 10
6601.913538899043
 20
5448.013414051296
 30
0.0
 10
6603.865554831971
 20
5447.99681790796
 30
0.0
  0
LINE
  5
1B4
330
1F
100
AcDbEntity
  8
0
  6
Continuous
 62
     7
370
    18
100
AcDbLine
 10
6685.3666885719
 20
5450.2685595366
 30
0.0
 11
6552.3655584977
 21
5450.2685595366
 31
0.0
  0
LINE
  5
1B5
330
1F
100
AcDbEntity
  8
0
  6
Continuous
 62
     7
370
    18
100
AcDbLine
 10
6603.865554832
 20
5447.996817908
 30
0.0
 11
6685.3666885719
 21
5447.996817908
 31
0.0
  0
SPLINE
  5
1B6
330
1F
100
AcDbEntity
  8
0
  6
Continuous
 62
     7
370
    18
100
AcDbSpline
210
0.0
220
0.0
230
1.0
 70
     8
 71
     3
 72
    11
 73
     7
 74
     0
 42
0.000000001
 43
0.00000001
 40
0.0
 40
0.0
 40
0.0
 40
0.0
 40
0.2499960639617552
 40
0.4999884574323131
 40
0.7499986769887931
 40
1.0
 40
1.0
 40
1.0
 40
1.0
 10
6603.865554831971
 20
5447.99681790796
 30
0.0
 10
6603.865542879837
 20
5447.840144505689
 30
0.0
 10
6603.865518975744
 20
5447.526800001456
 30
0.0
 10
6603.865541795455
 20
5447.084178620114
 30
0.0
 10
6603.865598136586
 20
5446.685320165026
 30
0.0
 10
6603.865671091877
 20
5446.483270383529
 30
0.0
 10
6603.865707568873
 20
5446.382247290284
 30
0.0
  0
LWPOLYLINE
  5
1B7
330
1F
100
AcDbEntity
  8
0
  6
Continuous
 62
     7
370
    18
100
AcDbPolyline
 90
        9
 70
   128
 43
0.0
 10
6685.3670461998
 20
5446.3822472903
 10
6685.366971694
 20
5446.5316761347
 10
6685.3668971882
 20
5446.7012811514
 10
6685.3668375835
 20
5446.8887377593
 10
6685.3667779789
 20
5447.0914829585
 10
6685.3667481766
 20
5447.3066557261
 10
6685.3667183742
 20
5447.5313652369
 10
6685.3667034731
 20
5447.762482247
 10
6685.3666885719
 20
5447.996817908
  0
LWPOLYLINE
  5
1B8
330
1F
100
AcDbEntity
  8
0
  6
Continuous
 62
     7
370
    18
100
AcDbPolyline
 90
        9
 70
   128
 43
0.0
 10
6685.3666885719
 20
5450.2685595366
 10
6685.3667034731
 20
5450.6241608473
 10
6685.3667481766
 20
5450.9684074732
 10
6685.3668077812
 20
5451.2903917643
 10
6685.3668971882
 20
5451.5797723147
 10
6685.3670163975
 20
5451.8273998114
 10
6685.3671356068
 20
5452.0253468367
 10
6685.3672846184
 20
5452.1672952982
 10
6685.36743363
 20
5452.2487748477
  0
LINE
  5
1B9
330
1F
100
AcDbEntity
  8
0
  6
Continuous
 62
     7
370
    18
100
AcDbLine
 10
6685.36743363
 20
5452.2487748477
 30
0.0
 11
6552.3663021587
 21
5452.2487748477
 31
0.0
  0
LWPOLYLINE
  5
1BA
330
1F
100
AcDbEntity
  8
0
  6
Continuous
 62
     7
370
    18
100
AcDbPolyline
 90
        9
 70
   128
 43
0.0
 10
6552.3655584977
 20
5450.2685595366
 10
6552.3655724675
 20
5450.6241608473
 10
6552.3656134457
 20
5450.9684074732
 10
6552.3656800353
 20
5451.2903917643
 10
6552.3657703735
 20
5451.5797723147
 10
6552.3658816666
 20
5451.8273998114
 10
6552.3660101891
 20
5452.0253468367
 10
6552.3661522158
 20
5452.1672952982
 10
6552.3663021587
 20
5452.2487748477
  0
LINE
  5
1BB
330
1F
100
AcDbEntity
  8
0
  6
Continuous
 62
     7
370
    18
100
AcDbLine
 10
6578.8770190403
 20
5412.9964042517
 30
0.0
 11
6552.3689731919
 21
5412.9964042517
 31
0.0
  0
LINE
  5
1BC
330
1F
100
AcDbEntity
  8
0
  6
Continuous
 62
     7
370
    18
100
AcDbLine
 10
6552.3758617193
 20
5413.8964045855
 30
0.0
 11
6552.3689731919
 21
5412.9964042517
 31
0.0
  0
SPLINE
  5
1BD
330
1F
100
AcDbEntity
  8
0
  6
Continuous
 62
     7
370
    18
100
AcDbSpline
210
0.0
220
0.0
230
1.0
 70
     8
 71
     3
 72
    30
 73
    26
 74
     0
 42
0.000000001
 43
0.00000001
 40
0.0
 40
0.0
 40
0.0
 40
0.0
 40
0.0478689360613089
 40
0.0983285572701114
 40
0.1502658733016174
 40
0.1974816817211653
 40
0.2495858509279969
 40
0.2822399357820609
 40
0.3203255728673901
 40
0.3555645961547695
 40
0.3845901519133771
 40
0.4227417269823618
 40
0.4691134793514781
 40
0.4982599236671733
 40
0.5592903960368043
 40
0.6235178650867866
 40
0.6878112585956074
 40
0.7488022227770209
 40
0.7789089738203246
 40
0.8098928526574269
 40
0.8417183586309919
 40
0.874351500835958
 40
0.9201775980457282
 40
0.9612386775660727
 40
1.0
 40
1.0
 40
1.0
 40
1.0
 10
6603.865707568873
 20
5446.382247290284
 30
0.0
 10
6602.771352088633
 20
5446.388846483464
 30
0.0
 10
6600.523414190558
 20
5446.402402020687
 30
0.0
 10
6597.089419198674
 20
5446.481672075837
 30
0.0
 10
6593.66963586609
 20
5446.496046629699
 30
0.0
 10
6590.213863117004
 20
5446.391328332318
 30
0.0
 10
6587.205248375519
 20
5446.160783231792
 30
0.0
 10
6584.419422817793
 20
5445.809279599292
 30
0.0
 10
6582.031439608357
 20
5445.398565178328
 30
0.0
 10
6579.748752663439
 20
5444.882730960398
 30
0.0
 10
6577.492648673323
 20
5444.255706589352
 30
0.0
 10
6575.033402097687
 20
5443.420507942968
 30
0.0
 10
6572.63670571017
 20
5442.40888508537
 30
0.0
 10
6569.846877521561
 20
5441.006539863276
 30
0.0
 10
6566.825076706663
 20
5439.167558283828
 30
0.0
 10
6563.391972598864
 20
5436.507258974522
 30
0.0
 10
6560.307168889151
 20
5433.448886436754
 30
0.0
 10
6558.11856273704
 20
5430.637122972153
 30
0.0
 10
6556.627417681166
 20
5428.276023304283
 30
0.0
 10
6555.610045818606
 20
5426.409537346957
 30
0.0
 10
6554.695006777762
 20
5424.426915607776
 30
0.0
 10
6553.79989050276
 20
5422.067525345769
 30
0.0
 10
6553.049936728015
 20
5419.436575488539
 30
0.0
 10
6552.514440598158
 20
5416.606470617738
 30
0.0
 10
6552.421158834344
 20
5414.782240680088
 30
0.0
 10
6552.3758617193
 20
5413.896404585511
 30
0.0
  0
SPLINE
  5
1BE
330
1F
100
AcDbEntity
  8
0
  6
Continuous
 62
     7
370
    18
100
AcDbSpline
210
0.0
220
0.0
230
1.0
 70
     8
 71
     3
 72
    11
 73
     7
 74
     0
 42
0.000000001
 43
0.00000001
 40
0.0
 40
0.0
 40
0.0
 40
0.0
 40
0.2500000642674198
 40
0.5000000147173012
 40
0.750000083467975
 40
1.0
 40
1.0
 40
1.0
 40
1.0
 10
6603.876965396155
 20
5437.996410212189
 30
0.0
 10
6603.875962982784
 20
5438.100054057002
 30
0.0
 10
6603.873958156497
 20
5438.307341699439
 30
0.0
 10
6603.871023557084
 20
5439.997262305349
 30
0.0
 10
6603.868223072242
 20
5442.579384571396
 30
0.0
 10
6603.866546069827
 20
5445.114626641262
 30
0.0
 10
6603.865707568873
 20
5446.382247290284
 30
0.0
  0
SPLINE
  5
1BF
330
1F
100
AcDbEntity
  8
0
  6
Continuous
 62
     7
370
    25
100
AcDbSpline
210
0.0
220
0.0
230
1.0
 70
     8
 71
     3
 72
    14
 73
    10
 74
     0
 42
0.000000001
 43
0.00000001
 40
0.0
 40
0.0
 40
0.0
 40
0.0
 40
0.1400107138480486
 40
0.2799856102122379
 40
0.4199676481696233
 40
0.5599753717500593
 40
0.7066342195239502
 40
0.8533364205633673
 40
1.0
 40
1.0
 40
1.0
 40
1.0
 10
6578.877019040336
 20
5412.996404251725
 30
0.0
 10
6578.994379873358
 20
5414.828759722936
 30
0.0
 10
6579.229071516199
 20
5418.493001912927
 30
0.0
 10
6581.086838664264
 20
5423.726452294472
 30
0.0
 10
6583.963195910683
 20
5428.436470866743
 30
0.0
 10
6587.870119189533
 20
5432.482904273354
 30
0.0
 10
6592.661718613235
 20
5435.569771443463
 30
0.0
 10
6598.116265233461
 20
5437.612975228525
 30
0.0
 10
6601.95690054846
 20
5437.868609769063
 30
0.0
 10
6603.876965396155
 20
5437.996410212189
 30
0.0
  0
SPLINE
  5
1C0
330
1F
100
AcDbEntity
  8
0
  6
Continuous
 62
     7
370
    25
100
AcDbSpline
210
0.0
220
0.0
230
1.0
 70
     8
 71
     3
 72
    13
 73
     9
 74
     0
 42
0.000000001
 43
0.00000001
 40
0.0
 40
0.0
 40
0.0
 40
0.0
 40
0.1693035130552422
 40
0.338091223178028
 40
0.5068999029316511
 40
0.6757644140031573
 40
0.8446546709393583
 40
1.0
 40
1.0
 40
1.0
 40
1.0
 10
6525.877023391475
 20
5303.496413311631
 30
0.0
 10
6525.87827081596
 20
5303.4737145184
 30
0.0
 10
6525.880761864503
 20
5303.428386086463
 30
0.0
 10
6525.897981854594
 20
5303.081284867666
 30
0.0
 10
6525.91426349315
 20
5302.58494287079
 30
0.0
 10
6525.921132404522
 20
5301.997898176094
 30
0.0
 10
6525.914517422782
 20
5301.41458867396
 30
0.0
 10
6525.904010517218
 20
5301.117050400191
 30
0.0
 10
6525.898976527204
 20
5300.974496087701
 30
0.0
  0
SPLINE
  5
1C1
330
1F
100
AcDbEntity
  8
0
  6
Continuous
 62
     7
370
    25
100
AcDbSpline
210
0.0
220
0.0
230
1.0
 70
     8
 71
     3
 72
    15
 73
    11
 74
     0
 42
0.000000001
 43
0.00000001
 40
0.0
 40
0.0
 40
0.0
 40
0.0
 40
0.1252985942820192
 40
0.2502176119382515
 40
0.3751498450350169
 40
0.5001202414343643
 40
0.6251060006975833
 40
0.7501027761563442
 40
0.8750826973545562
 40
1.0
 40
1.0
 40
1.0
 40
1.0
 10
6525.877023391475
 20
5327.546410641343
 30
0.0
 10
6525.880733865197
 20
5327.507791012058
 30
0.0
 10
6525.888143572219
 20
5327.430668746888
 30
0.0
 10
6525.938196772177
 20
5326.840358967389
 30
0.0
 10
6525.985486905534
 20
5325.998196081181
 30
0.0
 10
6526.005591354357
 20
5324.995438242438
 30
0.0
 10
6525.985392588416
 20
5323.992695738789
 30
0.0
 10
6525.938050150256
 20
5323.150761699027
 30
0.0
 10
6525.888086976259
 20
5322.561523014901
 30
0.0
 10
6525.880710636955
 20
5322.484777072666
 30
0.0
 10
6525.877023391475
 20
5322.446413716943
 30
0.0
  0
SPLINE
  5
1C2
330
1F
100
AcDbEntity
  8
0
  6
Continuous
 62
     7
370
    25
100
AcDbSpline
210
0.0
220
0.0
230
1.0
 70
     8
 71
     3
 72
    19
 73
    15
 74
     0
 42
0.000000001
 43
0.00000001
 40
0.0
 40
0.0
 40
0.0
 40
0.0
 40
0.101706798285075
 40
0.203176519460457
 40
0.3096194261131222
 40
0.4185975490216223
 40
0.4717374029398663
 40
0.5268231396630962
 40
0.6226644251800572
 40
0.7227015187268282
 40
0.8320721416360147
 40
0.8856610417099471
 40
0.9409117877205107
 40
0.9999999999999999
 40
0.9999999999999999
 40
0.9999999999999999
 40
0.9999999999999999
 10
6578.877019040336
 20
5331.947602710396
 30
0.0
 10
6578.828430717534
 20
5332.062653087237
 30
0.0
 10
6578.731367330622
 20
5332.292485660116
 30
0.0
 10
6578.046429985212
 20
5334.033763214375
 30
0.0
 10
6577.221550291654
 20
5336.666403058155
 30
0.0
 10
6576.658578633613
 20
5339.536072504692
 30
0.0
 10
6576.454367011118
 20
5342.031920862877
 30
0.0
 10
6576.451365482291
 20
5344.426510162888
 30
0.0
 10
6576.781317588277
 20
5347.300873788681
 30
0.0
 10
6577.504871096638
 20
5350.331820663614
 30
0.0
 10
6578.186802027089
 20
5352.303211778367
 30
0.0
 10
6578.604285532738
 20
5353.377105514809
 30
0.0
 10
6578.830109790064
 20
5353.932330565415
 30
0.0
 10
6578.861036632684
 20
5354.006757608966
 30
0.0
 10
6578.877019040336
 20
5354.045220098168
 30
0.0
  0
LWPOLYLINE
  5
1C3
330
1F
100
AcDbEntity
  8
0
  6
Continuous
 62
     7
370
    18
100
AcDbPolyline
 90
        9
 70
   128
 43
0.0
 10
6685.3685065136
 20
5444.1449869486
 10
6685.3683127985
 20
5444.407277188
 10
6685.3681339846
 20
5444.6746338221
 10
6685.3679551706
 20
5444.9469376418
 10
6685.3677614555
 20
5445.2242482516
 10
6685.3675826416
 20
5445.5064464423
 10
6685.3674038277
 20
5445.7935620162
 10
6685.3672250137
 20
5446.0855055663
 10
6685.3670461998
 20
5446.3822472903
  0
SPLINE
  5
1C4
330
1F
100
AcDbEntity
  8
0
  6
Continuous
 62
     7
370
    25
100
AcDbSpline
210
0.0
220
0.0
230
1.0
 70
     8
 71
     3
 72
    23
 73
    19
 74
     0
 42
0.000000001
 43
0.00000001
 40
0.0
 40
0.0
 40
0.0
 40
0.0
 40
0.0248077437845359
 40
0.0941677433247305
 40
0.1657596489746263
 40
0.2314668476815407
 40
0.2992558378604726
 40
0.3620585050947471
 40
0.4267390527760439
 40
0.4886215257836134
 40
0.5522570653094911
 40
0.6149528934400377
 40
0.6793400780270593
 40
0.7444711766708709
 40
0.8113051685735295
 40
0.8799311614466823
 40
0.9503650759601723
 40
1.0
 40
1.0
 40
1.0
 40
1.0
 10
6675.435839496602
 20
5431.418918451935
 30
0.0
 10
6675.171084011557
 20
5431.372251526604
 30
0.0
 10
6674.166098359654
 20
5431.195108490761
 30
0.0
 10
6672.691412543109
 20
5430.935179780913
 30
0.0
 10
6671.136246722618
 20
5430.661126426524
 30
0.0
 10
6670.013538825961
 20
5430.463348182847
 30
0.0
 10
6669.347359719682
 20
5430.34608546218
 30
0.0
 10
6669.113754598944
 20
5430.305056718741
 30
0.0
 10
6669.300344027089
 20
5430.338188868687
 30
0.0
 10
6669.893616794746
 20
5430.44294706785
 30
0.0
 10
6670.857436646004
 20
5430.613087045788
 30
0.0
 10
6672.184994647291
 20
5430.847324326861
 30
0.0
 10
6673.836425919824
 20
5431.138629110775
 30
0.0
 10
6675.796654630344
 20
5431.484428941452
 30
0.0
 10
6678.024780762373
 20
5431.877391528189
 30
0.0
 10
6680.486115422855
 20
5432.311444800413
 30
0.0
 10
6682.844307337647
 20
5432.727285020182
 30
0.0
 10
6684.365740180859
 20
5432.995569556871
 30
0.0
 10
6684.994681082715
 20
5433.106474957139
 30
0.0
  0
ARC
  5
1C5
330
1F
100
AcDbEntity
  8
0
  6
Continuous
 62
     7
370
    18
100
AcDbCircle
 10
6987.6272001849
 20
5428.3832400076
 30
0.0
 40
302.6693750059876
100
AcDbArc
 50
177.0149267583
 51
179.1058480454
  0
SPLINE
  5
1C6
330
1F
100
AcDbEntity
  8
0
  6
Continuous
 62
     7
370
    25
100
AcDbSpline
210
0.0
220
0.0
230
1.0
 70
     8
 71
     3
 72
    17
 73
    13
 74
     0
 42
0.000000001
 43
0.00000001
 40
0.0
 40
0.0
 40
0.0
 40
0.0
 40
0.1064748865892898
 40
0.2160422959372241
 40
0.3225175469938422
 40
0.4320875996117827
 40
0.5385860566692926
 40
0.6481944874979919
 40
0.7542916937606525
 40
0.8635200830100828
 40
0.9691131306596305
 40
1.0
 40
1.0
 40
1.0
 40
1.0
 10
6684.994681082715
 20
5433.106474957139
 30
0.0
 10
6685.823780389112
 20
5433.252673326759
 30
0.0
 10
6687.506059877278
 20
5433.549316342277
 30
0.0
 10
6689.945572371617
 20
5433.979371365618
 30
0.0
 10
6692.265707440826
 20
5434.388424800253
 30
0.0
 10
6694.357119946544
 20
5434.757051429281
 30
0.0
 10
6696.202179414229
 20
5435.082279049726
 30
0.0
 10
6697.705449335374
 20
5435.347178372381
 30
0.0
 10
6698.868105610361
 20
5435.552009060159
 30
0.0
 10
6699.582446869596
 20
5435.677784653404
 30
0.0
 10
6699.91370788539
 20
5435.73602615828
 30
0.0
 10
6699.855419243544
 20
5435.725695271796
 30
0.0
 10
6699.842227898587
 20
5435.723357281357
 30
0.0
  0
SPLINE
  5
1C7
330
1F
100
AcDbEntity
  8
0
  6
Continuous
 62
     7
370
    25
100
AcDbSpline
210
0.0
220
0.0
230
1.0
 70
     8
 71
     3
 72
    13
 73
     9
 74
     0
 42
0.000000001
 43
0.00000001
 40
0.0
 40
0.0
 40
0.0
 40
0.0
 40
0.1930743114812434
 40
0.3916091658607125
 40
0.5863039484379743
 40
0.7866012596168591
 40
0.9821009236394449
 40
1.0
 40
1.0
 40
1.0
 40
1.0
 10
6699.773816667546
 20
5435.711138329179
 30
0.0
 10
6699.634646841451
 20
5435.686541335961
 30
0.0
 10
6699.352371177267
 20
5435.636651695423
 30
0.0
 10
6698.421902449035
 20
5435.472384244738
 30
0.0
 10
6697.134748893184
 20
5435.245275289033
 30
0.0
 10
6695.481508105754
 20
5434.953649000537
 30
0.0
 10
6694.179932295366
 20
5434.723991865132
 30
0.0
 10
6693.397081396648
 20
5434.585937979913
 30
0.0
 10
6693.331418834676
 20
5434.574358544022
 30
0.0
  0
LWPOLYLINE
  5
1C8
330
1F
100
AcDbEntity
  8
0
  6
Continuous
 62
     7
370
    25
100
AcDbPolyline
 90
       24
 70
   128
 43
0.0
 10
6696.2928309069
 20
5435.0974787089
 10
6696.1108877287
 20
5435.0655604216
 10
6695.5724044666
 20
5434.9707890364
 10
6694.6937425957
 20
5434.8159957739
 10
6693.5016049967
 20
5434.6059192034
 10
6692.0322163925
 20
5434.3469370219
 10
6690.3302057609
 20
5434.0469170424
 10
6688.4473099337
 20
5433.7149787757
 10
6686.4407195673
 20
5433.3611954066
 10
6684.3714251146
 20
5432.9963553759
 10
6682.3022796736
 20
5432.6314855429
 10
6680.2961661444
 20
5432.2777319762
 10
6678.4140377269
 20
5431.9457937094
 10
6676.7130776272
 20
5431.64577373
 10
6675.2449705229
 20
5431.3867915484
 10
6674.0543304906
 20
5431.1767149779
 10
6673.1773226485
 20
5431.0219217154
 10
6672.6406051741
 20
5430.9271205279
 10
6672.4604799375
 20
5430.8952022406
 10
6672.6424231157
 20
5430.9271205279
 10
6673.1809063778
 20
5431.0219217154
 10
6674.0595607982
 20
5431.1767149779
 10
6675.2516983971
 20
5431.3867915484
 10
6675.2601995096
 20
5431.3882816645
  0
LWPOLYLINE
  5
1C9
330
1F
100
AcDbEntity
  8
0
  6
Continuous
 62
     7
370
    25
100
AcDbPolyline
 90
        6
 70
   128
 43
0.0
 10
6693.493319951
 20
5434.6032667967
 10
6693.5083403215
 20
5434.6059192034
 10
6694.6989729032
 20
5434.8159957739
 10
6695.5759807453
 20
5434.9707890364
 10
6696.1127056703
 20
5435.0655604216
 10
6696.2928309069
 20
5435.0974787089
  0
LWPOLYLINE
  5
1CA
330
1F
100
AcDbEntity
  8
0
  6
Continuous
 62
     7
370
    25
100
AcDbPolyline
 90
       16
 70
   128
 43
0.0
 10
6677.3464514837
 20
5429.0999699446
 10
6677.5207280145
 20
5429.1308153483
 10
6678.0368297324
 20
5429.2219210478
 10
6678.8706093058
 20
5429.3690551135
 10
6679.9831001983
 20
5429.5653034064
 10
6681.3222675547
 20
5429.8015166136
 10
6682.8255041466
 20
5430.0666082713
 10
6684.4225062952
 20
5430.3482402178
 10
6686.0386117325
 20
5430.6331802222
 10
6687.59825667
 20
5430.9081662509
 10
6689.0284999237
 20
5431.1602938983
 10
6690.2624650822
 20
5431.377791247
 10
6691.2424697504
 20
5431.5504957053
 10
6691.9226928577
 20
5431.6703308436
 10
6692.2713055239
 20
5431.7316640231
 10
6692.3155321703
 20
5431.7394126269
  0
LWPOLYLINE
  5
1CB
330
1F
100
AcDbEntity
  8
0
  6
Continuous
 62
     7
370
    25
100
AcDbPolyline
 90
       18
 70
   128
 43
0.0
 10
6675.6919532046
 20
5430.4208088728
 10
6675.7370366678
 20
5430.4288256976
 10
6676.0972647891
 20
5430.4924834582
 10
6676.8037660942
 20
5430.6171763751
 10
6677.8276099787
 20
5430.7978380534
 10
6679.1268869266
 20
5431.0270179125
 10
6680.6483923421
 20
5431.2953878256
 10
6682.3298468218
 20
5431.5919209334
 10
6684.1024144516
 20
5431.9044876906
 10
6685.8935191259
 20
5432.2203029009
 10
6687.6298322306
 20
5432.5264323565
 10
6689.2402752266
 20
5432.8103292796
 10
6690.6588955746
 20
5433.0604005667
 10
6691.8276383505
 20
5433.2663644167
 10
6692.6986559257
 20
5433.4198165747
 10
6693.2362749205
 20
5433.5144985529
 10
6693.4184863195
 20
5433.5464764449
 10
6693.4184863195
 20
5433.5464764449
  0
LWPOLYLINE
  5
1CC
330
1F
100
AcDbEntity
  8
0
  6
Continuous
 62
     7
370
    25
100
AcDbPolyline
 90
       17
 70
   128
 43
0.0
 10
6675.6922437773
 20
5430.4191697451
 10
6675.7373272405
 20
5430.4271865698
 10
6676.0975553617
 20
5430.4908443305
 10
6676.8040566668
 20
5430.6155372473
 10
6677.8279005513
 20
5430.7961989256
 10
6679.1271774993
 20
5431.0253787848
 10
6680.6486829147
 20
5431.2937486979
 10
6682.330144845
 20
5431.5902818057
 10
6684.1027124748
 20
5431.9028485629
 10
6685.893802248
 20
5432.2186637732
 10
6687.6301153526
 20
5432.5247932288
 10
6689.2405583486
 20
5432.8086901518
 10
6690.6591935978
 20
5433.0587316367
 10
6691.8279363737
 20
5433.264725289
 10
6692.698953949
 20
5433.418177447
 10
6693.2365729437
 20
5433.5128296229
 10
6693.4187843428
 20
5433.5448373171
  0
SPLINE
  5
1CD
330
1F
100
AcDbEntity
  8
0
  6
Continuous
 62
     7
370
    25
100
AcDbSpline
210
0.0
220
0.0
230
1.0
 70
     8
 71
     3
 72
    19
 73
    15
 74
     0
 42
0.000000001
 43
0.00000001
 40
0.0
 40
0.0
 40
0.0
 40
0.0
 40
0.1197283918233804
 40
0.1841802504036497
 40
0.2499999710198407
 40
0.3158195596936113
 40
0.3802714664281545
 40
0.50000009230515
 40
0.6197282037651758
 40
0.6841800281256717
 40
0.7499996783979999
 40
0.8158196508084383
 40
0.8802713527771547
 40
1.0
 40
1.0
 40
1.0
 40
1.0
 10
6678.643917940606
 20
5428.096227726609
 30
0.0
 10
6678.395625029639
 20
5428.052516772957
 30
0.0
 10
6678.013671761753
 20
5427.985275458962
 30
0.0
 10
6678.193531389315
 20
5428.017119050709
 30
0.0
 10
6678.594753399436
 20
5428.087966750541
 30
0.0
 10
6679.275066409399
 20
5428.208036611415
 30
0.0
 10
6680.444072034385
 20
5428.41426213781
 30
0.0
 10
6682.324288596658
 20
5428.745892591432
 30
0.0
 10
6684.529848506763
 20
5429.134840343811
 30
0.0
 10
6686.339874415305
 20
5429.453950273318
 30
0.0
 10
6687.70949332648
 20
5429.695448224247
 30
0.0
 10
6688.959708059371
 20
5429.915828322693
 30
0.0
 10
6690.375417670562
 20
5430.165370372883
 30
0.0
 10
6691.020314609517
 20
5430.278995924084
 30
0.0
 10
6691.439537607183
 20
5430.352859577805
 30
0.0
  0
LINE
  5
1CE
330
1F
100
AcDbEntity
  8
0
  6
Continuous
 62
     7
370
    25
100
AcDbLine
 10
6691.4395376072
 20
5430.3528595778
 30
0.0
 11
6691.866604887
 21
5430.4279912325
 31
0.0
  0
SPLINE
  5
1CF
330
1F
100
AcDbEntity
  8
0
  6
Continuous
 62
     7
370
    25
100
AcDbSpline
210
0.0
220
0.0
230
1.0
 70
     8
 71
     3
 72
    12
 73
     8
 74
     0
 42
0.000000001
 43
0.00000001
 40
0.0
 40
0.0
 40
0.0
 40
0.0
 40
0.2059158676398059
 40
0.4162015292280266
 40
0.6264868988400104
 40
0.8324026953826823
 40
1.0
 40
1.0
 40
1.0
 40
1.0
 10
6691.967023812284
 20
5430.445664009721
 30
0.0
 10
6691.947036472971
 20
5430.442106242923
 30
0.0
 10
6691.906637637842
 20
5430.434915209035
 30
0.0
 10
6691.486345996927
 20
5430.360705279399
 30
0.0
 10
6690.801001828451
 20
5430.239747485927
 30
0.0
 10
6689.982650006972
 20
5430.09538085136
 30
0.0
 10
6689.244702927395
 20
5429.965214533926
 30
0.0
 10
6688.913582168569
 20
5429.906808218629
 30
0.0
  0
LINE
  5
1D0
330
1F
100
AcDbEntity
  8
0
  6
Continuous
 62
     7
370
    25
100
AcDbLine
 10
6679.9460708127
 20
5428.3256758067
 30
0.0
 11
6678.6439179406
 21
5428.0962277266
 31
0.0
  0
LINE
  5
1D1
330
1F
100
AcDbEntity
  8
0
  6
Continuous
 62
     7
370
    25
100
AcDbLine
 10
6682.7615483627
 20
5428.8220036837
 30
0.0
 11
6681.9649918899
 21
5428.6815751406
 31
0.0
  0
LWPOLYLINE
  5
1D2
330
1F
100
AcDbEntity
  8
0
  6
Continuous
 62
     7
370
    25
100
AcDbPolyline
 90
        4
 70
   128
 43
0.0
 10
6679.6239747629
 20
5428.2689619872
 10
6678.9580865726
 20
5428.1516600463
 10
6678.6107330546
 20
5428.0905056807
 10
6678.5666181669
 20
5428.0827868792
  0
LINE
  5
1D3
330
1F
100
AcDbEntity
  8
0
  6
Continuous
 62
     7
370
    25
100
AcDbLine
 10
6689.871145688
 20
5430.0762642237
 30
0.0
 11
6690.1935174093
 21
5430.1329780432
 31
0.0
  0
SPLINE
  5
1D4
330
1F
100
AcDbEntity
  8
0
  6
Continuous
 62
     7
370
    25
100
AcDbSpline
210
0.0
220
0.0
230
1.0
 70
     8
 71
     3
 72
     9
 73
     5
 74
     0
 42
0.000000001
 43
0.00000001
 40
0.0
 40
0.0
 40
0.0
 40
0.0
 40
0.6554993579858317
 40
1.0
 40
1.0
 40
1.0
 40
1.0
 10
6680.220430992593
 20
5428.374253592164
 30
0.0
 10
6680.532521831366
 20
5428.42922977312
 30
0.0
 10
6681.008633417091
 20
5428.513098933763
 30
0.0
 10
6681.806514362191
 20
5428.653767677509
 30
0.0
 10
6682.081384860028
 20
5428.70222815004
 30
0.0
  0
SPLINE
  5
1D5
330
1F
100
AcDbEntity
  8
0
  6
Continuous
 62
     7
370
    25
100
AcDbSpline
210
0.0
220
0.0
230
1.0
 70
     8
 71
     3
 72
    12
 73
     8
 74
     0
 42
0.000000001
 43
0.00000001
 40
0.0
 40
0.0
 40
0.0
 40
0.0
 40
0.2151918762756582
 40
0.4668524314859422
 40
0.723853333565122
 40
0.980853405722921
 40
0.9999999999999999
 40
0.9999999999999999
 40
0.9999999999999999
 40
0.9999999999999999
 10
6687.923265896787
 20
5429.732315621049
 30
0.0
 10
6688.185505504037
 20
5429.77856579032
 30
0.0
 10
6688.754426600853
 20
5429.878904169048
 30
0.0
 10
6689.38525466456
 20
5429.990178114402
 30
0.0
 10
6689.886378827908
 20
5430.078577594627
 30
0.0
 10
6690.145719489698
 20
5430.124474800378
 30
0.0
 10
6690.175981587579
 20
5430.129779052922
 30
0.0
 10
6690.178079806317
 20
5430.130146822602
 30
0.0
  0
LINE
  5
1D6
330
1F
100
AcDbEntity
  8
0
  6
Continuous
 62
     7
370
    25
100
AcDbLine
 10
6690.1848449335
 20
5430.1314283225
 30
0.0
 11
6689.8630245552
 21
5430.0748039099
 31
0.0
  0
LINE
  5
1D7
330
1F
100
AcDbEntity
  8
0
  6
Continuous
 62
     7
370
    25
100
AcDbLine
 10
6681.4372598157
 20
5428.5889495226
 30
0.0
 11
6681.384226583
 21
5428.5796213957
 31
0.0
  0
LINE
  5
1D8
330
1F
100
AcDbEntity
  8
0
  6
Continuous
 62
     7
370
    25
100
AcDbLine
 10
6688.4206517563
 20
5429.8204410883
 30
0.0
 11
6688.6992289648
 21
5429.8694659087
 31
0.0
  0
LINE
  5
1D9
330
1F
100
AcDbEntity
  8
0
  6
Continuous
 62
     7
370
    25
100
AcDbLine
 10
6688.4075387344
 20
5429.8181165072
 30
0.0
 11
6687.6573993788
 21
5429.6859432074
 31
0.0
  0
SPLINE
  5
1DA
330
1F
100
AcDbEntity
  8
0
  6
Continuous
 62
     7
370
    25
100
AcDbSpline
210
0.0
220
0.0
230
1.0
 70
     8
 71
     3
 72
    13
 73
     9
 74
     0
 42
0.000000001
 43
0.00000001
 40
0.0
 40
0.0
 40
0.0
 40
0.0
 40
0.049435142673208
 40
0.2656643526456173
 40
0.4864838901383661
 40
0.7073016630686761
 40
0.9235312743888855
 40
1.0
 40
1.0
 40
1.0
 40
1.0
 10
6682.645319305409
 20
5428.802185139329
 30
0.0
 10
6682.597588157792
 20
5428.793766633736
 30
0.0
 10
6682.341081070986
 20
5428.748525602404
 30
0.0
 10
6682.018374920816
 20
5428.691582579326
 30
0.0
 10
6681.644402845197
 20
5428.625607829706
 30
0.0
 10
6681.450884062991
 20
5428.591411164184
 30
0.0
 10
6681.351285323351
 20
5428.573826724729
 30
0.0
 10
6681.430539146264
 20
5428.587778224765
 30
0.0
 10
6681.451244555463
 20
5428.591423115403
 30
0.0
  0
SPLINE
  5
1DB
330
1F
100
AcDbEntity
  8
0
  6
Continuous
 62
     7
370
    25
100
AcDbSpline
210
0.0
220
0.0
230
1.0
 70
     8
 71
     3
 72
    12
 73
     8
 74
     0
 42
0.000000001
 43
0.00000001
 40
0.0
 40
0.0
 40
0.0
 40
0.0
 40
0.3525864976216952
 40
0.5423886171488213
 40
0.736223182216617
 40
0.9300527954397958
 40
1.0
 40
1.0
 40
1.0
 40
1.0
 10
6681.675924263944
 20
5428.630940994889
 30
0.0
 10
6681.896502853429
 20
5428.669800795843
 30
0.0
 10
6682.235821905438
 20
5428.729579357541
 30
0.0
 10
6682.980365052952
 20
5428.860810225272
 30
0.0
 10
6683.638869109855
 20
5428.976935988491
 30
0.0
 10
6684.20753011256
 20
5429.077163325532
 30
0.0
 10
6684.54792203349
 20
5429.13718989686
 30
0.0
 10
6684.638185702313
 20
5429.153107485444
 30
0.0
  0
SPLINE
  5
1DC
330
1F
100
AcDbEntity
  8
0
  6
Continuous
 62
     7
370
    25
100
AcDbSpline
210
0.0
220
0.0
230
1.0
 70
     8
 71
     3
 72
    13
 73
     9
 74
     0
 42
0.000000001
 43
0.00000001
 40
0.0
 40
0.0
 40
0.0
 40
0.0
 40
0.158732853559304
 40
0.3013182818434312
 40
0.4469295478189741
 40
0.5925410555465518
 40
0.7351269007699971
 40
1.0
 40
1.0
 40
1.0
 40
1.0
 10
6686.89481755351
 20
5429.551057896287
 30
0.0
 10
6687.134812834021
 20
5429.593378779135
 30
0.0
 10
6687.590389382622
 20
5429.673715366173
 30
0.0
 10
6688.072394403826
 20
5429.758761510601
 30
0.0
 10
6688.434241730259
 20
5429.822607085515
 30
0.0
 10
6688.644262652723
 20
5429.859696031712
 30
0.0
 10
6688.739221356204
 20
5429.876543686022
 30
0.0
 10
6688.538208995968
 20
5429.841134580011
 30
0.0
 10
6688.407538734426
 20
5429.818116507203
 30
0.0
  0
LINE
  5
1DD
330
1F
100
AcDbEntity
  8
0
  6
Continuous
 62
     7
370
    25
100
AcDbLine
 10
6687.0511456356
 20
5429.5789230677
 30
0.0
 11
6687.2168167457
 21
5429.608069739
 31
0.0
  0
SPLINE
  5
1DE
330
1F
100
AcDbEntity
  8
0
  6
Continuous
 62
     7
370
    25
100
AcDbSpline
210
0.0
220
0.0
230
1.0
 70
     8
 71
     3
 72
    12
 73
     8
 74
     0
 42
0.000000001
 43
0.00000001
 40
0.0
 40
0.0
 40
0.0
 40
0.0
 40
0.3148277887352838
 40
0.4860178761607521
 40
0.6574144182390386
 40
0.8286054885024489
 40
1.0
 40
1.0
 40
1.0
 40
1.0
 10
6687.043024502744
 20
5429.577492556245
 30
0.0
 10
6686.911776102216
 20
5429.554353539583
 30
0.0
 10
6686.709160351143
 20
5429.518632500536
 30
0.0
 10
6686.266523455216
 20
5429.440652098619
 30
0.0
 10
6685.87609692897
 20
5429.37179468907
 30
0.0
 10
6685.449668649259
 20
5429.296657510784
 30
0.0
 10
6685.154399009107
 20
5429.244578534522
 30
0.0
 10
6685.006676517476
 20
5429.218523583085
 30
0.0
  0
SPLINE
  5
1DF
330
1F
100
AcDbEntity
  8
0
  6
Continuous
 62
     7
370
    25
100
AcDbSpline
210
0.0
220
0.0
230
1.0
 70
     8
 71
     3
 72
    11
 73
     7
 74
     0
 42
0.000000001
 43
0.00000001
 40
0.0
 40
0.0
 40
0.0
 40
0.0
 40
0.2498469578590886
 40
0.4999978108883314
 40
0.7498503933738162
 40
0.9999999999999999
 40
0.9999999999999999
 40
0.9999999999999999
 40
0.9999999999999999
 10
6683.533339105596
 20
5428.958677134186
 30
0.0
 10
6683.433287563947
 20
5428.941024764433
 30
0.0
 10
6683.233062785433
 20
5428.905698553903
 30
0.0
 10
6683.028013600254
 20
5428.869535537937
 30
0.0
 10
6682.893469155585
 20
5428.845787115565
 30
0.0
 10
6682.881450723512
 20
5428.843640987598
 30
0.0
 10
6682.875437937726
 20
5428.842567286164
 30
0.0
  0
SPLINE
  5
1E0
330
1F
100
AcDbEntity
  8
0
  6
Continuous
 62
     7
370
    25
100
AcDbSpline
210
0.0
220
0.0
230
1.0
 70
     8
 71
     3
 72
    12
 73
     8
 74
     0
 42
0.000000001
 43
0.00000001
 40
0.0
 40
0.0
 40
0.0
 40
0.0
 40
0.375417977865767
 40
0.5795586863818059
 40
0.7839419820204797
 40
0.9880847121898964
 40
1.0
 40
1.0
 40
1.0
 40
1.0
 10
6683.040438495625
 20
5428.87159474817
 30
0.0
 10
6683.171721341149
 20
5428.894717447092
 30
0.0
 10
6683.374391745824
 20
5428.930413555972
 30
0.0
 10
6683.816723386943
 20
5429.008422319301
 30
0.0
 10
6684.208110171237
 20
5429.077377695574
 30
0.0
 10
6684.498178133791
 20
5429.128516781425
 30
0.0
 10
6684.653477903275
 20
5429.155917701028
 30
0.0
 10
6684.662042461385
 20
5429.15742882219
 30
0.0
  0
SPLINE
  5
1E1
330
1F
100
AcDbEntity
  8
0
  6
Continuous
 62
     7
370
    25
100
AcDbSpline
210
0.0
220
0.0
230
1.0
 70
     8
 71
     3
 72
    14
 73
    10
 74
     0
 42
0.000000001
 43
0.00000001
 40
0.0
 40
0.0
 40
0.0
 40
0.0
 40
0.1408273341361862
 40
0.3465502542521826
 40
0.4584151661284725
 40
0.5704147757442577
 40
0.6822789737390053
 40
0.7942775190902771
 40
1.0
 40
1.0
 40
1.0
 40
1.0
 10
6685.327543221463
 20
5429.27476056543
 30
0.0
 10
6685.512718668462
 20
5429.307414333389
 30
0.0
 10
6685.968401499017
 20
5429.387769270569
 30
0.0
 10
6686.480252641354
 20
5429.478059155257
 30
0.0
 10
6686.847273123855
 20
5429.542796719999
 30
0.0
 10
6687.05761896319
 20
5429.579944128294
 30
0.0
 10
6687.184438236148
 20
5429.602321947051
 30
0.0
 10
6687.240179158562
 20
5429.612201198742
 30
0.0
 10
6687.120509741098
 20
5429.591133661629
 30
0.0
 10
6687.043024502744
 20
5429.577492556245
 30
0.0
  0
LINE
  5
1E2
330
1F
100
AcDbEntity
  8
0
  6
Continuous
 62
     7
370
    25
100
AcDbLine
 10
6578.4261452929
 20
5351.5318412396
 30
0.0
 11
6578.4261452929
 21
5334.460981569
 31
0.0
  0
LWPOLYLINE
  5
1E3
330
1F
100
AcDbEntity
  8
0
  6
Continuous
 62
     7
370
    25
100
AcDbPolyline
 90
       10
 70
   128
 43
0.0
 10
6525.8770233915
 20
5303.6964166972
 10
6525.876947023
 20
5303.6870587679
 10
6525.8766564504
 20
5303.4684438321
 10
6525.8764292077
 20
5302.9952425572
 10
6525.8763044104
 20
5302.3492921206
 10
6525.8763044104
 20
5301.6423065278
 10
6525.8764292077
 20
5300.9965647074
 10
6525.8766564504
 20
5300.5237508627
 10
6525.876947023
 20
5300.3056276652
 10
6525.8770233915
 20
5300.2964187476
  0
LINE
  5
1E4
330
1F
100
AcDbEntity
  8
0
  6
Continuous
 62
     7
370
    25
100
AcDbLine
 10
6525.9516614452
 20
5324.9981034609
 30
0.0
 11
6525.8765130267
 21
5324.9981034609
 31
0.0
  0
LINE
  5
1E5
330
1F
100
AcDbEntity
  8
0
  6
Continuous
 62
     7
370
    25
100
AcDbLine
 10
6525.9310456887
 20
5323.9761967274
 30
0.0
 11
6525.8767682091
 21
5323.9761967274
 31
0.0
  0
LINE
  5
1E6
330
1F
100
AcDbEntity
  8
0
  6
Continuous
 62
     7
370
    25
100
AcDbLine
 10
6525.8767682091
 20
5326.0200250956
 30
0.0
 11
6525.931658499
 21
5326.0200250956
 31
0.0
  0
SPLINE
  5
1E7
330
1F
100
AcDbEntity
  8
0
  6
Continuous
 62
     7
370
    18
100
AcDbSpline
210
0.0
220
0.0
230
1.0
 70
     8
 71
     3
 72
    25
 73
    21
 74
     0
 42
0.000000001
 43
0.00000001
 40
0.0
 40
0.0
 40
0.0
 40
0.0
 40
0.0276501401553306
 40
0.055347956861688
 40
0.0914288909080391
 40
0.135933235433055
 40
0.1888842406475595
 40
0.2502760275945045
 40
0.3226282906224218
 40
0.3884589540138982
 40
0.4477423776704864
 40
0.5004511060390315
 40
0.553567926824186
 40
0.6256380032980872
 40
0.6993617325679571
 40
0.7503945017332079
 40
0.7994399509159823
 40
0.8574233196677843
 40
0.9243274346632494
 40
0.9999999999999999
 40
0.9999999999999999
 40
0.9999999999999999
 40
0.9999999999999999
 10
6685.366688571919
 20
5447.99681790796
 30
0.0
 10
6685.750319392981
 20
5447.996783510137
 30
0.0
 10
6686.5182425216
 20
5447.996714655177
 30
0.0
 10
6687.784294981659
 20
5447.996494905955
 30
0.0
 10
6689.277224603347
 20
5447.996278127717
 30
0.0
 10
6691.101713373758
 20
5447.995898995979
 30
0.0
 10
6693.236934436617
 20
5447.995454730728
 30
0.0
 10
6695.679773598143
 20
5447.9949208967
 30
0.0
 10
6698.17947935372
 20
5447.994477194695
 30
0.0
 10
6700.505778903544
 20
5447.994508531286
 30
0.0
 10
6702.462478652854
 20
5447.994759357271
 30
0.0
 10
6704.149835951142
 20
5447.995895772834
 30
0.0
 10
6705.823293366705
 20
5447.996319666157
 30
0.0
 10
6707.48421282766
 20
5447.995276910226
 30
0.0
 10
6708.866242370168
 20
5447.99414899292
 30
0.0
 10
6709.877380080225
 20
5447.994213184917
 30
0.0
 10
6710.640133474985
 20
5447.99506357738
 30
0.0
 10
6711.282201711198
 20
5447.99541793976
 30
0.0
 10
6711.774480067887
 20
5447.99573440491
 30
0.0
 10
6711.841055742105
 20
5447.99579974962
 30
0.0
 10
6711.876390777577
 20
5447.995834431321
 30
0.0
  0
SPLINE
  5
1E8
330
1F
100
AcDbEntity
  8
0
  6
Continuous
 62
     7
370
    18
100
AcDbSpline
210
0.0
220
0.0
230
1.0
 70
    24
 71
     3
 72
    16
 73
    12
 74
     0
 42
0.000000001
 43
0.00000001
 40
0.0
 40
0.0
 40
0.0
 40
0.0
 40
0.0001673244823315
 40
0.1249655151852409
 40
0.2499241978973708
 40
0.3750621933921214
 40
0.5002797458451107
 40
0.6255794710824994
 40
0.75078907707714
 40
0.8757685777986605
 40
0.9999999999999999
 40
0.9999999999999999
 40
0.9999999999999999
 40
0.9999999999999999
 10
6711.876122556676
 20
5450.268559536607
 30
0.0
 10
6711.876351318994
 20
5450.268559536607
 30
0.0
 10
6712.047201397373
 20
5450.268559536604
 30
0.0
 10
6711.459058165427
 20
5450.268559536608
 30
0.0
 10
6710.034514860195
 20
5450.268559536607
 30
0.0
 10
6707.54461963315
 20
5450.268559536607
 30
0.0
 10
6704.225352752212
 20
5450.268559536607
 30
0.0
 10
6700.169760760647
 20
5450.268559536607
 30
0.0
 10
6695.549642200893
 20
5450.268559536607
 30
0.0
 10
6690.548548711015
 20
5450.268559536607
 30
0.0
 10
6687.090515189691
 20
5450.268559536607
 30
0.0
 10
6685.366688571919
 20
5450.268559536607
 30
0.0
  0
LINE
  5
1E9
330
1F
100
AcDbEntity
  8
0
  6
Continuous
 62
     7
370
    18
100
AcDbLine
 10
6552.3756340109
 20
5414.7003818366
 30
0.0
 11
6552.3655584977
 21
5450.2685595366
 31
0.0
  0
LINE
  5
1EA
330
1F
100
AcDbEntity
  8
0
  6
Continuous
 62
     7
370
    18
100
AcDbLine
 10
6603.9058326707
 20
5446.3822472903
 30
0.0
 11
6685.3670461998
 21
5446.3822472903
 31
0.0
  0
SPLINE
  5
1EB
330
1F
100
AcDbEntity
  8
0
  6
Continuous
 62
     7
370
    18
100
AcDbSpline
210
0.0
220
0.0
230
1.0
 70
     8
 71
     3
 72
    15
 73
    11
 74
     0
 42
0.000000001
 43
0.00000001
 40
0.0
 40
0.0
 40
0.0
 40
0.0
 40
0.1254982842337675
 40
0.2503185300464008
 40
0.3750920889063057
 40
0.5004102294417563
 40
0.6256110594618982
 40
0.7503900529138634
 40
0.8754021027938897
 40
1.0
 40
1.0
 40
1.0
 40
1.0
 10
6685.367046199788
 20
5446.382247290284
 30
0.0
 10
6687.054727883904
 20
5446.381143128296
 30
0.0
 10
6690.420973095409
 20
5446.37894076985
 30
0.0
 10
6695.268192799903
 20
5446.373535026854
 30
0.0
 10
6699.736997220554
 20
5446.376071714211
 30
0.0
 10
6703.661495430779
 20
5446.38262507639
 30
0.0
 10
6706.878262939702
 20
5446.380481516515
 30
0.0
 10
6709.247368364995
 20
5446.379467921161
 30
0.0
 10
6710.769683319945
 20
5446.379572775145
 30
0.0
 10
6710.96088036628
 20
5446.380680878786
 30
0.0
 10
6711.056320272435
 20
5446.381234011323
 30
0.0
  0
SPLINE
  5
1EC
330
1F
100
AcDbEntity
  8
0
  6
Continuous
 62
     7
370
    18
100
AcDbSpline
210
0.0
220
0.0
230
1.0
 70
     8
 71
     3
 72
    16
 73
    12
 74
     0
 42
0.000000001
 43
0.00000001
 40
0.0
 40
0.0
 40
0.0
 40
0.0
 40
0.0001592202810349
 40
0.1256520784165994
 40
0.2505223385944268
 40
0.375187565208898
 40
0.5000352370260374
 40
0.6249129163530102
 40
0.7496173743536453
 40
0.8745034127538786
 40
0.9999999999999999
 40
0.9999999999999999
 40
0.9999999999999999
 40
0.9999999999999999
 10
6710.156886182775
 20
5452.248953661591
 30
0.0
 10
6710.157090069934
 20
5452.248953661263
 30
0.0
 10
6710.317991967187
 20
5452.248953401719
 30
0.0
 10
6709.752378834513
 20
5452.250177915108
 30
0.0
 10
6708.415290343055
 20
5452.251268057181
 30
0.0
 10
6706.095445878688
 20
5452.249913959046
 30
0.0
 10
6703.012425857156
 20
5452.248336924082
 30
0.0
 10
6699.225670460039
 20
5452.250637498143
 30
0.0
 10
6694.918681977906
 20
5452.251770924022
 30
0.0
 10
6690.24399881656
 20
5452.249943592469
 30
0.0
 10
6686.99559572942
 20
5452.249165062067
 30
0.0
 10
6685.367433629979
 20
5452.248774847657
 30
0.0
  0
LINE
  5
1ED
330
1F
100
AcDbEntity
  8
0
  6
Continuous
 62
     7
370
    18
100
AcDbLine
 10
6552.3655584977
 20
5450.2685595366
 30
0.0
 11
6525.8770215288
 21
5450.2685595366
 31
0.0
  0
LINE
  5
1EE
330
1F
100
AcDbEntity
  8
0
  6
Continuous
 62
     7
370
    18
100
AcDbLine
 10
6552.3663021587
 20
5452.2487748477
 30
0.0
 11
6527.59631937
 21
5452.2487748477
 31
0.0
  0
SPLINE
  5
1EF
330
1F
100
AcDbEntity
  8
0
  6
Continuous
 62
     7
370
    18
100
AcDbSpline
210
0.0
220
0.0
230
1.0
 70
     8
 71
     3
 72
    16
 73
    12
 74
     0
 42
0.000000001
 43
0.00000001
 40
0.0
 40
0.0
 40
0.0
 40
0.0
 40
0.1253222646594382
 40
0.2501197110187774
 40
0.3751342261882523
 40
0.4998913634941981
 40
0.6245210799469763
 40
0.7494838981459173
 40
0.874485957231186
 40
0.9990751490067071
 40
1.0
 40
1.0
 40
1.0
 40
1.0
 10
6685.368506513585
 20
5444.14498694864
 30
0.0
 10
6686.789646540758
 20
5444.120031479623
 30
0.0
 10
6689.625975216113
 20
5444.070225048851
 30
0.0
 10
6693.683813414137
 20
5443.97542317991
 30
0.0
 10
6697.386989915578
 20
5443.869980651695
 30
0.0
 10
6700.609571702141
 20
5443.767815002115
 30
0.0
 10
6703.2105021374
 20
5443.663153155895
 30
0.0
 10
6705.150936283398
 20
5443.57717532182
 30
0.0
 10
6706.262721683614
 20
5443.532535049733
 30
0.0
 10
6706.733749296495
 20
5443.519746664658
 30
0.0
 10
6706.600720808454
 20
5443.523816953488
 30
0.0
 10
6706.599740587224
 20
5443.523846945435
 30
0.0
  0
SPLINE
  5
1F0
330
1F
100
AcDbEntity
  8
0
  6
Continuous
 62
     7
370
    18
100
AcDbSpline
210
0.0
220
0.0
230
1.0
 70
     8
 71
     3
 72
    20
 73
    16
 74
     0
 42
0.000000001
 43
0.00000001
 40
0.0
 40
0.0
 40
0.0
 40
0.0
 40
0.000819179114447
 40
0.0631745749967642
 40
0.1257024333088168
 40
0.1882833323336105
 40
0.2506814565079035
 40
0.3133194637040812
 40
0.375969378640473
 40
0.4375058122098779
 40
0.5004062665874459
 40
0.6251502155857972
 40
0.750136943566844
 40
0.8750246119608323
 40
1.0
 40
1.0
 40
1.0
 40
1.0
 10
6656.092932723512
 20
5437.997423491151
 30
0.0
 10
6656.092171046257
 20
5437.997091676777
 30
0.0
 10
6656.033430978281
 20
5437.971502362141
 30
0.0
 10
6656.242053852556
 20
5438.062196005241
 30
0.0
 10
6656.734583328764
 20
5438.2781581511
 30
0.0
 10
6657.587934770139
 20
5438.647264859388
 30
0.0
 10
6658.732971795701
 20
5439.121305434988
 30
0.0
 10
6660.165630901543
 20
5439.674757449989
 30
0.0
 10
6661.823373692731
 20
5440.274062220188
 30
0.0
 10
6663.689322937983
 20
5440.892172495633
 30
0.0
 10
6666.402306374294
 20
5441.70458749204
 30
0.0
 10
6670.166228507719
 20
5442.653095948702
 30
0.0
 10
6675.0488797723
 20
5443.521139230704
 30
0.0
 10
6680.15815920673
 20
5444.088652890065
 30
0.0
 10
6683.631317636362
 20
5444.126204534685
 30
0.0
 10
6685.368506513585
 20
5444.14498694864
 30
0.0
  0
ARC
  5
1F1
330
1F
100
AcDbEntity
  8
0
  6
Continuous
 62
     8
370
    25
100
AcDbCircle
 10
6664.796274469
 20
5452.4330426522
 30
0.0
 40
112.430123313612
100
AcDbArc
 50
179.203261568
 51
180.0939051912
  0
ARC
  5
1F2
330
1F
100
AcDbEntity
  8
0
  6
Continuous
 62
     8
370
    25
100
AcDbCircle
 10
6797.973881109
 20
5452.4322902646
 30
0.0
 40
112.6065970170164
100
AcDbArc
 50
179.2041274109
 51
180.0933752
  0
LWPOLYLINE
  5
1F3
330
1F
100
AcDbEntity
  8
0
  6
Continuous
 62
     8
370
    25
100
AcDbPolyline
 90
       16
 70
   128
 43
0.0
 10
6678.013725482
 20
5428.0481863829
 10
6678.1889780388
 20
5428.0791807982
 10
6678.7073149309
 20
5428.1707037303
 10
6679.5427485332
 20
5428.3181060168
 10
6680.6533842311
 20
5428.5140264842
 10
6681.9835289345
 20
5428.748630366
 10
6683.4664924965
 20
5429.0101755473
 10
6685.027895771
 20
5429.2854894015
 10
6686.5894629583
 20
5429.560833058
 10
6688.0728735552
 20
5429.822348437
 10
6689.403755866
 20
5430.0569523188
 10
6690.5153675899
 20
5430.2528727862
 10
6691.3519634828
 20
5430.400304875
 10
6691.8716116772
 20
5430.4917980048
 10
6692.0482351408
 20
5430.5228222224
 10
6692.0482351408
 20
5430.5228222224
  0
LINE
  5
1F4
330
1F
100
AcDbEntity
  8
0
  6
Continuous
 62
     8
370
    25
100
AcDbLine
 10
6680.2123024092
 20
5428.3728230807
 30
0.0
 11
6679.8141284809
 21
5428.3027578208
 31
0.0
  0
LINE
  5
1F5
330
1F
100
AcDbEntity
  8
0
  6
Continuous
 62
     8
370
    25
100
AcDbLine
 10
6679.8229276166
 20
5428.3043075415
 30
0.0
 11
6680.2204309926
 21
5428.3742535922
 31
0.0
  0
LINE
  5
1F6
330
1F
100
AcDbEntity
  8
0
  6
Continuous
 62
     8
370
    25
100
AcDbLine
 10
6681.6628112421
 20
5428.6286462161
 30
0.0
 11
6681.4372598157
 21
5428.5889495226
 31
0.0
  0
LINE
  5
1F7
330
1F
100
AcDbEntity
  8
0
  6
Continuous
 62
     8
370
    25
100
AcDbLine
 10
6681.4512445555
 20
5428.5914231154
 30
0.0
 11
6681.6759242639
 21
5428.6309409949
 31
0.0
  0
LINE
  5
1F8
330
1F
100
AcDbEntity
  8
0
  6
Continuous
 62
     8
370
    25
100
AcDbLine
 10
6683.0323024616
 20
5428.8701642367
 30
0.0
 11
6682.8666313515
 21
5428.8410175654
 31
0.0
  0
LINE
  5
1F9
330
1F
100
AcDbEntity
  8
0
  6
Continuous
 62
     8
370
    25
100
AcDbLine
 10
6682.8754379377
 20
5428.8425672862
 30
0.0
 11
6683.0404384956
 21
5428.8715947482
 31
0.0
  0
LINE
  5
1FA
330
1F
100
AcDbEntity
  8
0
  6
Continuous
 62
     8
370
    25
100
AcDbLine
 10
6578.4261452929
 20
5351.5318561408
 30
0.0
 11
6578.4261452929
 21
5334.4609964701
 31
0.0
  0
LINE
  5
1FB
330
1F
100
AcDbEntity
  8
0
  6
Continuous
 62
     7
370
    25
100
AcDbLine
 10
6300.9609233947
 20
4962.0622928573
 30
0.0
 11
6314.2909098775
 21
4962.0565270392
 31
0.0
  0
LINE
  5
1FC
330
1F
100
AcDbEntity
  8
0
  6
Continuous
 62
     7
370
    25
100
AcDbLine
 10
6314.2964475216
 20
4974.8565255517
 30
0.0
 11
6300.9664591761
 21
4974.8622913697
 31
0.0
  0
ARC
  5
1FD
330
1F
100
AcDbEntity
  8
0
  6
Continuous
 62
     7
370
    25
100
AcDbCircle
 10
6314.2961011091
 20
4974.0565259277
 30
0.0
 40
0.7999999999991655
100
AcDbArc
 50
359.9752170641
 51
89.9752170642
  0
ARC
  5
1FE
330
1F
100
AcDbEntity
  8
0
  6
Continuous
 62
     7
370
    25
100
AcDbCircle
 10
6314.2912566184
 20
4962.8565269754
 30
0.0
 40
0.800000000000075
100
AcDbArc
 50
269.9752170641
 51
359.9752170641
  0
ARC
  5
1FF
330
1F
100
AcDbEntity
  8
0
  6
Continuous
 62
     7
370
    25
100
AcDbCircle
 10
6315.0919486137
 20
4964.4561807907
 30
0.0
 40
0.6000000000000562
100
AcDbArc
 50
269.9752170641
 51
359.975217064
  0
ARC
  5
200
330
1F
100
AcDbEntity
  8
0
  6
Continuous
 62
     7
370
    25
100
AcDbCircle
 10
6315.0954089642
 20
4972.4561800423
 30
0.0
 40
0.6000000000000562
100
AcDbArc
 50
359.9752170641
 51
89.9752170642
  0
SPLINE
  5
201
330
1F
100
AcDbEntity
  8
0
  6
Continuous
 62
     7
370
    25
100
AcDbSpline
210
0.0
220
0.0
230
1.0
 70
     8
 71
     3
 72
    10
 73
     6
 74
     0
 42
0.000000001
 43
0.00000001
 40
0.0
 40
0.0
 40
0.0
 40
0.0
 40
0.4870747290267656
 40
0.706989849427795
 40
1.0
 40
1.0
 40
1.0
 40
1.0
 10
6316.323091125594
 20
4968.455648873162
 30
0.0
 10
6316.293097975373
 20
4969.146127846007
 30
0.0
 10
6316.249562863622
 20
4970.148359322932
 30
0.0
 10
6315.99014109315
 20
4971.544412409909
 30
0.0
 10
6315.77444239446
 20
4972.238912676146
 30
0.0
 10
6315.651223844396
 20
4972.635648105454
 30
0.0
  0
SPLINE
  5
202
330
1F
100
AcDbEntity
  8
0
  6
Continuous
 62
     7
370
    25
100
AcDbSpline
210
0.0
220
0.0
230
1.0
 70
     8
 71
     3
 72
    11
 73
     7
 74
     0
 42
0.000000001
 43
0.00000001
 40
0.0
 40
0.0
 40
0.0
 40
0.0
 40
0.1087032563987733
 40
0.4058413691322248
 40
0.7287791103178726
 40
1.0
 40
1.0
 40
1.0
 40
1.0
 10
6315.63992503892
 20
4964.280347726702
 30
0.0
 10
6315.694661846859
 20
4964.424434992162
 30
0.0
 10
6315.899020592052
 20
4964.962381830428
 30
0.0
 10
6316.106272525691
 20
4965.978537177773
 30
0.0
 10
6316.293988927912
 20
4967.228607616543
 30
0.0
 10
6316.313970128667
 20
4968.071078620002
 30
0.0
 10
6316.323091125594
 20
4968.455648873162
 30
0.0
  0
LINE
  5
203
330
1F
100
AcDbEntity
  8
0
  6
Continuous
 62
     7
370
    25
100
AcDbLine
 10
6271.9695585207
 20
4994.9748365992
 30
0.0
 11
6271.911129205
 21
4994.916457575
 31
0.0
  0
ARC
  5
204
330
1F
100
AcDbEntity
  8
0
  6
Continuous
 62
     7
370
    25
100
AcDbCircle
 10
6299.7416421118
 20
4962.5949452967
 30
0.0
 40
1.330550000000213
100
AcDbArc
 50
288.0997976881
 51
336.4015020086
  0
ARC
  5
205
330
1F
100
AcDbEntity
  8
0
  6
Continuous
 62
     7
370
    25
100
AcDbCircle
 10
6299.7467183379
 20
4974.3306941989
 30
0.0
 40
1.330550000000767
100
AcDbArc
 50
23.5489321197
 51
114.3586261328
  0
SPLINE
  5
206
330
1F
100
AcDbEntity
  8
0
  6
Continuous
 62
     7
370
    18
100
AcDbSpline
210
0.0
220
0.0
230
1.0
 70
     8
 71
     3
 72
    23
 73
    19
 74
     0
 42
0.000000001
 43
0.00000001
 40
0.0
 40
0.0
 40
0.0
 40
0.0
 40
0.0628148422252019
 40
0.1253657522580427
 40
0.1877518488810166
 40
0.2500235286351951
 40
0.3124033058038733
 40
0.3749497369178659
 40
0.4373474091784961
 40
0.4999641968962083
 40
0.5627251118083257
 40
0.6251746558740818
 40
0.6875216594908026
 40
0.7499599067688034
 40
0.8124131612655365
 40
0.874779785103882
 40
0.9372372201021468
 40
1.0
 40
1.0
 40
1.0
 40
1.0
 10
6298.381266033755
 20
4835.462247844946
 30
0.0
 10
6298.283961528421
 20
4833.832828253
 30
0.0
 10
6298.089761366849
 20
4830.58083548104
 30
0.0
 10
6296.593349433583
 20
4825.904727002969
 30
0.0
 10
6294.31247230278
 20
4821.600313965154
 30
0.0
 10
6291.225128882145
 20
4817.822155222881
 30
0.0
 10
6287.445473888682
 20
4814.736136281424
 30
0.0
 10
6283.139891183405
 20
4812.433999712271
 30
0.0
 10
6278.462232167409
 20
4811.011609390274
 30
0.0
 10
6273.590460149516
 20
4810.531214238442
 30
0.0
 10
6268.718310316443
 20
4811.023950440894
 30
0.0
 10
6264.044548911612
 20
4812.455795466861
 30
0.0
 10
6259.737959110587
 20
4814.75032472447
 30
0.0
 10
6255.959131732701
 20
4817.840134188378
 30
0.0
 10
6252.871270766976
 20
4821.625069774729
 30
0.0
 10
6250.591974758519
 20
4825.932544760703
 30
0.0
 10
6249.104560940276
 20
4830.607099644331
 30
0.0
 10
6248.914918503651
 20
4833.855519907505
 30
0.0
 10
6248.819866067277
 20
4835.483690615904
 30
0.0
  0
LWPOLYLINE
  5
207
330
1F
100
AcDbEntity
  8
0
  6
Continuous
 62
     7
370
    18
100
AcDbPolyline
 90
        9
 70
   128
 43
0.0
 10
6248.8198660673
 20
4835.4836906159
 10
6254.9881235124
 20
4835.4810233081
 10
6261.1794423671
 20
4835.478341099
 10
6267.3861541213
 20
4835.47565889
 10
6273.6005669818
 20
4835.472976681
 10
6279.8149796096
 20
4835.4702795708
 10
6286.0216913638
 20
4835.4675973618
 10
6292.2130113826
 20
4835.4649151528
 10
6298.3812660338
 20
4835.4622478449
  0
LINE
  5
208
330
1F
100
AcDbEntity
  8
0
  6
Continuous
 62
     7
370
    18
100
AcDbLine
 10
6298.4387947605
 20
4968.4633844385
 30
0.0
 11
6298.3812660338
 21
4835.4622478449
 31
0.0
  0
LINE
  5
209
330
1F
100
AcDbEntity
  8
0
  6
Continuous
 62
     7
370
    18
100
AcDbLine
 10
6248.8198660673
 20
4835.4836906159
 30
0.0
 11
6248.8773957254
 21
4968.4848220872
 31
0.0
  0
LWPOLYLINE
  5
20A
330
1F
100
AcDbEntity
  8
0
  6
Continuous
 62
     7
370
    18
100
AcDbPolyline
 90
        9
 70
   128
 43
0.0
 10
6248.8773957254
 20
4968.4848220872
 10
6255.0456513078
 20
4968.482153848
 10
6261.2369720251
 20
4968.4794758299
 10
6267.4436837793
 20
4968.4767912926
 10
6273.6580957086
 20
4968.47410303
 10
6279.8725083363
 20
4968.471415233
 10
6286.0792200905
 20
4968.46873023
 10
6292.2705401094
 20
4968.466052212
 10
6298.4387947605
 20
4968.4633844385
  0
ARC
  5
20B
330
1F
100
AcDbEntity
  8
0
  6
Continuous
 62
     7
370
    18
100
AcDbCircle
 10
6273.6580957268
 20
4968.4741031234
 30
0.0
 40
24.78070175438225
100
AcDbArc
 50
359.9752170641
 51
179.9752170641
  0
SPLINE
  5
20C
330
1F
100
AcDbEntity
  8
0
  6
Continuous
 62
     7
370
    25
100
AcDbSpline
210
0.0
220
0.0
230
1.0
 70
     8
 71
     3
 72
    23
 73
    19
 74
     0
 42
0.000000001
 43
0.00000001
 40
0.0
 40
0.0
 40
0.0
 40
0.0
 40
0.0622520982470648
 40
0.1248568959923016
 40
0.1874489943442852
 40
0.2499933263704579
 40
0.312515861198712
 40
0.3750537728702695
 40
0.4375282758426404
 40
0.4999375491691642
 40
0.5623548822192562
 40
0.6248524847278634
 40
0.687439769832107
 40
0.750066845041727
 40
0.812735018652074
 40
0.8753581194712439
 40
0.9378661340268386
 40
1.0
 40
1.0
 40
1.0
 40
1.0
 10
6300.100563874947
 20
4835.461502786887
 30
0.0
 10
6299.999248001312
 20
4833.734495399917
 30
0.0
 10
6299.796042232304
 20
4830.270695981671
 30
0.0
 10
6298.22906158172
 20
4825.267047158063
 30
0.0
 10
6295.776441945249
 20
4820.649964513392
 30
0.0
 10
6292.451547422897
 20
4816.606385616665
 30
0.0
 10
6288.406319287651
 20
4813.290528798156
 30
0.0
 10
6283.791326719206
 20
4810.832706479827
 30
0.0
 10
6278.792148756163
 20
4809.30998377433
 30
0.0
 10
6273.594011462504
 20
4808.805862877548
 30
0.0
 10
6268.395567222478
 20
4809.312855363746
 30
0.0
 10
6263.394777807997
 20
4810.837878803215
 30
0.0
 10
6258.776657035931
 20
4813.300798122698
 30
0.0
 10
6254.729890828683
 20
4816.627302078396
 30
0.0
 10
6251.406118292323
 20
4820.680953690929
 30
0.0
 10
6248.956717275061
 20
4825.301591087949
 30
0.0
 10
6247.398142609325
 20
4830.302548485179
 30
0.0
 10
6247.199562230152
 20
4833.760600057691
 30
0.0
 10
6247.100570088731
 20
4835.484435673964
 30
0.0
  0
LWPOLYLINE
  5
20D
330
1F
100
AcDbEntity
  8
0
  6
Continuous
 62
     7
370
    18
100
AcDbPolyline
 90
        9
 70
   128
 43
0.0
 10
6247.1005700887
 20
4835.484435674
 10
6247.1324362219
 20
4835.4844207728
 10
6247.2270176173
 20
4835.4843760693
 10
6247.381300515
 20
4835.4843164647
 10
6247.5903712572
 20
4835.4842270577
 10
6247.8475615741
 20
4835.4841078484
 10
6248.1446832777
 20
4835.4839886391
 10
6248.4722666801
 20
4835.4838396275
 10
6248.8198660673
 20
4835.4836906159
  0
LWPOLYLINE
  5
20E
330
1F
100
AcDbEntity
  8
0
  6
Continuous
 62
     7
370
    18
100
AcDbPolyline
 90
        9
 70
   128
 43
0.0
 10
6298.3812660338
 20
4835.4622478449
 10
6298.7288682149
 20
4835.4620988333
 10
6299.0564488233
 20
4835.4619647229
 10
6299.3535705269
 20
4835.4618306124
 10
6299.6107645691
 20
4835.4617263043
 10
6299.8198334486
 20
4835.4616368973
 10
6299.9741163463
 20
4835.4615623915
 10
6300.0686996044
 20
4835.461517688
 10
6300.1005638749
 20
4835.4615027869
  0
LINE
  5
20F
330
1F
100
AcDbEntity
  8
0
  6
Continuous
 62
     7
370
    25
100
AcDbLine
 10
6300.158093533
 20
4968.4626407774
 30
0.0
 11
6300.1005638749
 21
4835.4615027869
 31
0.0
  0
LWPOLYLINE
  5
210
330
1F
100
AcDbEntity
  8
0
  6
Continuous
 62
     7
370
    25
100
AcDbPolyline
 90
        9
 70
   128
 43
0.0
 10
6298.4387947605
 20
4968.4633844385
 10
6298.786397873
 20
4968.4632340299
 10
6299.1139784814
 20
4968.4630924688
 10
6299.411100185
 20
4968.4629639463
 10
6299.6682923646
 20
4968.4628526533
 10
6299.8773612441
 20
4968.462762315
 10
6300.0316460044
 20
4968.4626952598
 10
6300.1262273998
 20
4968.4626542816
 10
6300.158093533
 20
4968.4626407774
  0
LINE
  5
211
330
1F
100
AcDbEntity
  8
0
  6
Continuous
 62
     7
370
    25
100
AcDbLine
 10
6247.1005700887
 20
4835.484435674
 30
0.0
 11
6247.1580997468
 21
4968.4855657482
 31
0.0
  0
LWPOLYLINE
  5
212
330
1F
100
AcDbEntity
  8
0
  6
Continuous
 62
     7
370
    18
100
AcDbPolyline
 90
        9
 70
   128
 43
0.0
 10
6247.1580997468
 20
4968.4855657482
 10
6247.1899621547
 20
4968.4855517784
 10
6247.2845472754
 20
4968.4855108002
 10
6247.4388301731
 20
4968.4854442106
 10
6247.64789719
 20
4968.4853538723
 10
6247.9050912322
 20
4968.4852425793
 10
6248.2022129358
 20
4968.4851140568
 10
6248.5297926129
 20
4968.4849720301
 10
6248.8773957254
 20
4968.4848220872
  0
ARC
  5
213
330
1F
100
AcDbEntity
  8
0
  6
Continuous
 62
     7
370
    25
100
AcDbCircle
 10
6273.6580957268
 20
4968.4741031234
 30
0.0
 40
26.49999999999975
100
AcDbArc
 50
359.9752170641
 51
179.9752170641
  0
LWPOLYLINE
  5
214
330
1F
100
AcDbEntity
  8
0
  6
Continuous
 62
     7
370
    18
100
AcDbPolyline
 90
        9
 70
   128
 43
0.0
 10
6308.8943202407
 20
4969.9416899906
 10
6308.7382492037
 20
4969.9417575115
 10
6308.5881740213
 20
4969.9418222384
 10
6308.4498651684
 20
4969.9418823087
 10
6308.3286349089
 20
4969.9419349285
 10
6308.2291454435
 20
4969.9419777693
 10
6308.1552170576
 20
4969.9420098999
 10
6308.1096921475
 20
4969.9420294577
 10
6308.0943215997
 20
4969.942035977
  0
ARC
  5
215
330
1F
100
AcDbEntity
  8
0
  6
Continuous
 62
     7
370
    18
100
AcDbCircle
 10
6308.894320757
 20
4969.9416900144
 30
0.0
 40
0.8000000000009845
100
AcDbArc
 50
89.9752170642
 51
179.9752170641
  0
LWPOLYLINE
  5
216
330
1F
100
AcDbEntity
  8
0
  6
Continuous
 62
     7
370
    18
100
AcDbPolyline
 90
        9
 70
   128
 43
0.0
 10
6308.8946666927
 20
4970.7416900286
 10
6308.8946592421
 20
4970.7263180839
 10
6308.8946406157
 20
4970.6807936394
 10
6308.8946089507
 20
4970.6068657191
 10
6308.8945661099
 20
4970.5073753224
 10
6308.8945120932
 20
4970.3861459942
 10
6308.8944524885
 20
4970.2478366757
 10
6308.8943891586
 20
4970.0977624247
 10
6308.8943202407
 20
4969.9416899906
  0
LINE
  5
217
330
1F
100
AcDbEntity
  8
0
  6
Continuous
 62
     7
370
    18
100
AcDbLine
 10
6308.8929977627
 20
4966.8844136262
 30
0.0
 11
6308.8943202407
 21
4969.9416899906
 31
0.0
  0
LWPOLYLINE
  5
218
330
1F
100
AcDbEntity
  8
0
  6
Continuous
 62
     7
370
    18
100
AcDbPolyline
 90
        9
 70
   128
 43
0.0
 10
6308.0929991217
 20
4966.8847596125
 10
6308.1083696694
 20
4966.8847530933
 10
6308.1538945795
 20
4966.8847333027
 10
6308.2278229655
 20
4966.8847014049
 10
6308.3273124308
 20
4966.8846583312
 10
6308.4485426904
 20
4966.8846059443
 10
6308.5868515433
 20
4966.8845461068
 10
6308.7369267256
 20
4966.8844811471
 10
6308.8929977627
 20
4966.8844136262
  0
LINE
  5
219
330
1F
100
AcDbEntity
  8
0
  6
Continuous
 62
     7
370
    18
100
AcDbLine
 10
6308.0929991217
 20
4966.8847596125
 30
0.0
 11
6308.0943215997
 21
4969.942035977
 31
0.0
  0
LINE
  5
21A
330
1F
100
AcDbEntity
  8
0
  6
Continuous
 62
     7
370
    18
100
AcDbLine
 10
6308.8943202407
 20
4969.9416899906
 30
0.0
 11
6314.2943203808
 21
4969.9393542336
 31
0.0
  0
LINE
  5
21B
330
1F
100
AcDbEntity
  8
0
  6
Continuous
 62
     7
370
    18
100
AcDbLine
 10
6314.2943203808
 20
4969.9393542336
 30
0.0
 11
6314.2929979027
 21
4966.8820778692
 31
0.0
  0
LINE
  5
21C
330
1F
100
AcDbEntity
  8
0
  6
Continuous
 62
     7
370
    18
100
AcDbLine
 10
6314.2929979027
 20
4966.8820778692
 30
0.0
 11
6308.8929977627
 21
4966.8844136262
 31
0.0
  0
LINE
  5
21D
330
1F
100
AcDbEntity
  8
0
  6
Continuous
 62
     7
370
    18
100
AcDbLine
 10
6314.2946668328
 20
4970.7393542716
 30
0.0
 11
6308.8946666927
 21
4970.7416900286
 31
0.0
  0
LWPOLYLINE
  5
21E
330
1F
100
AcDbEntity
  8
0
  6
Continuous
 62
     7
370
    18
100
AcDbPolyline
 90
        9
 70
   128
 43
0.0
 10
6314.2943203808
 20
4969.9393542336
 10
6314.294387436
 20
4970.0954266676
 10
6314.2944526286
 20
4970.2455009186
 10
6314.2945122332
 20
4970.3838102372
 10
6314.2945643873
 20
4970.5050395654
 10
6314.2946072281
 20
4970.6045299621
 10
6314.2946407558
 20
4970.6784578824
 10
6314.2946593822
 20
4970.7239823268
 10
6314.2946668328
 20
4970.7393542716
  0
ARC
  5
21F
330
1F
100
AcDbEntity
  8
0
  6
Continuous
 62
     7
370
    18
100
AcDbCircle
 10
6308.8929983509
 20
4966.8844136926
 30
0.0
 40
0.8000000000018939
100
AcDbArc
 50
179.9752170643
 51
269.9752170641
  0
LWPOLYLINE
  5
220
330
1F
100
AcDbEntity
  8
0
  6
Continuous
 62
     7
370
    18
100
AcDbPolyline
 90
        9
 70
   128
 43
0.0
 10
6308.8929977627
 20
4966.8844136262
 10
6308.8929307074
 20
4966.728341425
 10
6308.8928655149
 20
4966.5782669412
 10
6308.8928059102
 20
4966.4399576226
 10
6308.8927537562
 20
4966.3187282944
 10
6308.8927109153
 20
4966.2192381305
 10
6308.8926792503
 20
4966.1453100938
 10
6308.8926587612
 20
4966.099785533
 10
6308.8926531733
 20
4966.084413821
  0
LWPOLYLINE
  5
221
330
1F
100
AcDbEntity
  8
0
  6
Continuous
 62
     7
370
    25
100
AcDbPolyline
 90
        9
 70
   128
 43
0.0
 10
6314.2926514507
 20
4966.082078064
 10
6314.2926589013
 20
4966.0974497759
 10
6314.2926775278
 20
4966.1429744532
 10
6314.2927110554
 20
4966.2169023735
 10
6314.2927538962
 20
4966.3163925374
 10
6314.2928060503
 20
4966.4376218656
 10
6314.2928656549
 20
4966.5759311842
 10
6314.2929308475
 20
4966.726005668
 10
6314.2929979027
 20
4966.8820778692
  0
LINE
  5
222
330
1F
100
AcDbEntity
  8
0
  6
Continuous
 62
     7
370
    18
100
AcDbLine
 10
6308.8926531733
 20
4966.084413821
 30
0.0
 11
6314.2926514507
 21
4966.082078064
 31
0.0
  0
ARC
  5
223
330
1F
100
AcDbEntity
  8
0
  6
Continuous
 62
     7
370
    18
100
AcDbCircle
 10
6314.2943202518
 20
4969.9393542778
 30
0.0
 40
0.800000000000075
100
AcDbArc
 50
359.9752170641
 51
89.9752170641
  0
LWPOLYLINE
  5
224
330
1F
100
AcDbEntity
  8
0
  6
Continuous
 62
     7
370
    18
100
AcDbPolyline
 90
        9
 70
   128
 43
0.0
 10
6315.0943190218
 20
4969.9390082473
 10
6315.078948474
 20
4969.9390147665
 10
6315.0334254266
 20
4969.93903479
 10
6314.9594970406
 20
4969.9390664549
 10
6314.8600057126
 20
4969.9391097614
 10
6314.7387773157
 20
4969.9391619155
 10
6314.6004684628
 20
4969.9392219858
 10
6314.4503932805
 20
4969.9392867127
 10
6314.2943203808
 20
4969.9393542336
  0
LINE
  5
225
330
1F
100
AcDbEntity
  8
0
  6
Continuous
 62
     7
370
    25
100
AcDbLine
 10
6315.0943190218
 20
4969.9390082473
 30
0.0
 11
6315.0929965438
 21
4966.8817318829
 31
0.0
  0
LWPOLYLINE
  5
226
330
1F
100
AcDbEntity
  8
0
  6
Continuous
 62
     7
370
    18
100
AcDbPolyline
 90
        9
 70
   128
 43
0.0
 10
6314.2929979027
 20
4966.8820778692
 10
6314.4490708024
 20
4966.8820103483
 10
6314.5991459848
 20
4966.8819456214
 10
6314.7374548377
 20
4966.8818857839
 10
6314.8586832346
 20
4966.8818331642
 10
6314.9581745626
 20
4966.8817903233
 10
6315.0321029485
 20
4966.8817581927
 10
6315.077625996
 20
4966.8817386349
 10
6315.0929965438
 20
4966.8817318829
  0
ARC
  5
227
330
1F
100
AcDbEntity
  8
0
  6
Continuous
 62
     7
370
    18
100
AcDbCircle
 10
6314.2929978458
 20
4966.882077956
 30
0.0
 40
0.8000000000000745
100
AcDbArc
 50
269.9752170642
 51
359.9752170642
  0
LWPOLYLINE
  5
228
330
1F
100
AcDbEntity
  8
0
  6
Continuous
 62
     7
370
    18
100
AcDbPolyline
 90
        9
 70
   128
 43
0.0
 10
6308.8946666927
 20
4970.7416900286
 10
6308.8946909071
 20
4970.7984695064
 10
6308.8947654129
 20
4970.9686579967
 10
6308.8948883475
 20
4971.251806602
 10
6308.8950578482
 20
4971.6471665391
 10
6308.8952776403
 20
4972.1536951923
 10
6308.8955439986
 20
4972.7700528541
 10
6308.895856923
 20
4973.4946134353
 10
6308.8962164135
 20
4974.3254630679
  0
SPLINE
  5
229
330
1F
100
AcDbEntity
  8
0
  6
Continuous
 62
     7
370
    18
100
AcDbSpline
210
0.0
220
0.0
230
1.0
 70
     8
 71
     3
 72
     9
 73
     5
 74
     0
 42
0.000000001
 43
0.00000001
 40
0.0
 40
0.0
 40
0.0
 40
0.0
 40
0.499293589868422
 40
1.0
 40
1.0
 40
1.0
 40
1.0
 10
6308.095245471703
 20
4972.081385445011
 30
0.0
 10
6308.174175578339
 20
4972.530506038686
 30
0.0
 10
6308.332259135265
 20
4973.43001807487
 30
0.0
 10
6308.708053677363
 20
4974.02670040193
 30
0.0
 10
6308.896216413485
 20
4974.325463067901
 30
0.0
  0
SPLINE
  5
22A
330
1F
100
AcDbEntity
  8
0
  6
Continuous
 62
     7
370
    18
100
AcDbSpline
210
0.0
220
0.0
230
1.0
 70
     8
 71
     3
 72
     9
 73
     5
 74
     0
 42
0.000000001
 43
0.00000001
 40
0.0
 40
0.0
 40
0.0
 40
0.0
 40
0.5000002492272826
 40
1.0
 40
1.0
 40
1.0
 40
1.0
 10
6308.095245471703
 20
4972.081385445011
 30
0.0
 10
6308.094976940361
 20
4971.459061498533
 30
0.0
 10
6308.094439877944
 20
4970.214414225977
 30
0.0
 10
6308.094361025774
 20
4970.03282869646
 30
0.0
 10
6308.094321599709
 20
4969.942035976958
 30
0.0
  0
ARC
  5
22B
330
1F
100
AcDbEntity
  8
0
  6
Continuous
 62
     7
370
    25
100
AcDbCircle
 10
6314.322736485
 20
4963.3468926897
 30
0.0
 40
0.7694859397122952
100
AcDbArc
 50
267.6463165775
 51
357.4396652572
  0
LWPOLYLINE
  5
22C
330
1F
100
AcDbEntity
  8
0
  6
Continuous
 62
     7
370
    18
100
AcDbPolyline
 90
        9
 70
   128
 43
0.0
 10
6314.2926514507
 20
4966.082078064
 10
6314.2926272364
 20
4966.0265793876
 10
6314.2925564558
 20
4965.8602268986
 10
6314.2924353839
 20
4965.5834499366
 10
6314.2922696085
 20
4965.1969628843
 10
6314.2920554043
 20
4964.7017633919
 10
6314.291794634
 20
4964.0991298014
 10
6314.2914872975
 20
4963.3906176981
 10
6314.2911352576
 20
4962.578055923
  0
SPLINE
  5
22D
330
1F
100
AcDbEntity
  8
0
  6
Continuous
 62
     7
370
    25
100
AcDbSpline
210
0.0
220
0.0
230
1.0
 70
     8
 71
     3
 72
    11
 73
     7
 74
     0
 42
0.000000001
 43
0.00000001
 40
0.0
 40
0.0
 40
0.0
 40
0.0
 40
0.250007680470489
 40
0.5000000156702765
 40
0.750007486464299
 40
1.0
 40
1.0
 40
1.0
 40
1.0
 10
6315.091454273568
 20
4963.312518675041
 30
0.0
 10
6315.091690959634
 20
4963.859948358699
 30
0.0
 10
6315.092164317239
 20
4964.954774125218
 30
0.0
 10
6315.092637337232
 20
4966.04324078809
 30
0.0
 10
6315.092941054323
 20
4966.75325011285
 30
0.0
 10
6315.092978047644
 20
4966.838905480298
 30
0.0
 10
6315.092996543752
 20
4966.881731882852
 30
0.0
  0
LWPOLYLINE
  5
22E
330
1F
100
AcDbEntity
  8
0
  6
Continuous
 62
     7
370
    18
100
AcDbPolyline
 90
        9
 70
   128
 43
0.0
 10
6314.2962165536
 20
4974.3231273109
 10
6314.295857063
 20
4973.4922776783
 10
6314.2955441387
 20
4972.7677170971
 10
6314.2952777804
 20
4972.1513594353
 10
6314.2950579883
 20
4971.6448307821
 10
6314.2948866249
 20
4971.249470845
 10
6314.2947636903
 20
4970.9663222396
 10
6314.2946910472
 20
4970.7961337493
 10
6314.2946668328
 20
4970.7393542716
  0
ARC
  5
22F
330
1F
100
AcDbEntity
  8
0
  6
Continuous
 62
     7
370
    25
100
AcDbCircle
 10
6314.3278317671
 20
4973.5549354779
 30
0.0
 40
0.7688421255442687
100
AcDbArc
 50
2.5733794091
 51
92.3566986284
  0
SPLINE
  5
230
330
1F
100
AcDbEntity
  8
0
  6
Continuous
 62
     7
370
    25
100
AcDbSpline
210
0.0
220
0.0
230
1.0
 70
     8
 71
     3
 72
    11
 73
     7
 74
     0
 42
0.000000001
 43
0.00000001
 40
0.0
 40
0.0
 40
0.0
 40
0.0
 40
0.2499921683297281
 40
0.4999997211172365
 40
0.7499922234151373
 40
1.0
 40
1.0
 40
1.0
 40
1.0
 10
6315.095898544894
 20
4973.589455600989
 30
0.0
 10
6315.095656619781
 20
4973.029730420268
 30
0.0
 10
6315.095172754667
 20
4971.910245613472
 30
0.0
 10
6315.094688908173
 20
4970.796856632911
 30
0.0
 10
6315.094377419444
 20
4970.070405360934
 30
0.0
 10
6315.094338488082
 20
4969.982808177146
 30
0.0
 10
6315.094319021808
 20
4969.939008247268
 30
0.0
  0
LINE
  5
231
330
1F
100
AcDbEntity
  8
0
  6
Continuous
 62
     7
370
    25
100
AcDbLine
 10
6308.8962164135
 20
4974.3254630679
 30
0.0
 11
6314.2962165536
 21
4974.3231273109
 31
0.0
  0
LWPOLYLINE
  5
232
330
1F
100
AcDbEntity
  8
0
  6
Continuous
 62
     7
370
    18
100
AcDbPolyline
 90
        9
 70
   128
 43
0.0
 10
6308.8911369802
 20
4962.5803916801
 10
6308.8914890201
 20
4963.3929533969
 10
6308.8917944939
 20
4964.1014655439
 10
6308.8920552642
 20
4964.7040991489
 10
6308.8922694684
 20
4965.1992985831
 10
6308.8924371065
 20
4965.5857856936
 10
6308.8925563158
 20
4965.8625626556
 10
6308.8926289589
 20
4966.0289151447
 10
6308.8926531733
 20
4966.084413821
  0
SPLINE
  5
233
330
1F
100
AcDbEntity
  8
0
  6
Continuous
 62
     7
370
    18
100
AcDbSpline
210
0.0
220
0.0
230
1.0
 70
     8
 71
     3
 72
     9
 73
     5
 74
     0
 42
0.000000001
 43
0.00000001
 40
0.0
 40
0.0
 40
0.0
 40
0.0
 40
0.5007034494641024
 40
1.0
 40
1.0
 40
1.0
 40
1.0
 10
6308.891136980163
 20
4962.580391680051
 30
0.0
 10
6308.703230819638
 20
4962.876300550291
 30
0.0
 10
6308.327946485717
 20
4963.467286832804
 30
0.0
 10
6308.170641367135
 20
4964.361541391911
 30
0.0
 10
6308.092099464046
 20
4964.808039608572
 30
0.0
  0
SPLINE
  5
234
330
1F
100
AcDbEntity
  8
0
  6
Continuous
 62
     7
370
    18
100
AcDbSpline
210
0.0
220
0.0
230
1.0
 70
     8
 71
     3
 72
     9
 73
     5
 74
     0
 42
0.000000001
 43
0.00000001
 40
0.0
 40
0.0
 40
0.0
 40
0.0
 40
0.4999997318048265
 40
0.9999999999999999
 40
0.9999999999999999
 40
0.9999999999999999
 40
0.9999999999999999
 10
6308.092999121653
 20
4966.884759612542
 30
0.0
 10
6308.092960471685
 20
4966.7966723869
 30
0.0
 10
6308.09288317171
 20
4966.62049784112
 30
0.0
 10
6308.092360700027
 20
4965.412192568796
 30
0.0
 10
6308.092099464046
 20
4964.808039608572
 30
0.0
  0
LINE
  5
235
330
1F
100
AcDbEntity
  8
0
  6
Continuous
 62
     7
370
    25
100
AcDbLine
 10
6314.2911352576
 20
4962.578055923
 30
0.0
 11
6308.8911369802
 21
4962.5803916801
 31
0.0
  0
LWPOLYLINE
  5
236
330
1F
100
AcDbEntity
  8
0
  6
Continuous
 62
     7
370
    18
100
AcDbPolyline
 90
        9
 70
   128
 43
0.0
 10
6308.092099464
 20
4964.8080396086
 10
6308.0767624439
 20
4964.88719155
 10
6308.0312710614
 20
4964.9633150051
 10
6307.9573724778
 20
4965.0334846314
 10
6307.8579090894
 20
4965.0950038425
 10
6307.7367030443
 20
4965.1455084762
 10
6307.5984090925
 20
4965.1830576562
 10
6307.4483450861
 20
4965.2062084146
 10
6307.2922759117
 20
4965.2140710472
  0
LWPOLYLINE
  5
237
330
1F
100
AcDbEntity
  8
0
  6
Continuous
 62
     7
370
    25
100
AcDbPolyline
 90
        9
 70
   128
 43
0.0
 10
6307.2922759117
 20
4965.2140710472
 10
6307.2926037372
 20
4965.9705099269
 10
6307.2929483266
 20
4966.770499604
 10
6307.2933078171
 20
4967.6000428239
 10
6307.2936728955
 20
4968.4446248078
 10
6307.294037974
 20
4969.2894684935
 10
6307.2943974645
 20
4970.1197905319
 10
6307.2947439165
 20
4970.9210636878
 10
6307.295071742
 20
4971.6792678313
  0
LWPOLYLINE
  5
238
330
1F
100
AcDbEntity
  8
0
  6
Continuous
 62
     7
370
    18
100
AcDbPolyline
 90
        9
 70
   128
 43
0.0
 10
6307.295071742
 20
4971.6792678313
 10
6307.451148367
 20
4971.6869335474
 10
6307.6012328626
 20
4971.7097709739
 10
6307.7395584793
 20
4971.746902805
 10
6307.8608092279
 20
4971.7969017887
 10
6307.9603247703
 20
4971.8578470723
 10
6308.0342829586
 20
4971.9273959139
 10
6308.0798395337
 20
4972.0028754176
 10
6308.0952454717
 20
4972.081385445
  0
SPLINE
  5
239
330
1F
100
AcDbEntity
  8
0
  6
Continuous
 62
     7
370
    25
100
AcDbSpline
210
0.0
220
0.0
230
1.0
 70
     8
 71
     3
 72
    10
 73
     6
 74
     0
 42
0.000000001
 43
0.00000001
 40
0.0
 40
0.0
 40
0.0
 40
0.0
 40
0.2498689874723557
 40
0.5000079031796408
 40
1.0
 40
1.0
 40
1.0
 40
1.0
 10
6307.295071742044
 20
4971.679267831308
 30
0.0
 10
6307.333150673104
 20
4971.985290176717
 30
0.0
 10
6307.409349671096
 20
4972.59766545707
 30
0.0
 10
6307.9918417667
 20
4973.568617198895
 30
0.0
 10
6308.534507896477
 20
4974.022759318019
 30
0.0
 10
6308.896216413485
 20
4974.325463067901
 30
0.0
  0
SPLINE
  5
23A
330
1F
100
AcDbEntity
  8
0
  6
Continuous
 62
     7
370
    25
100
AcDbSpline
210
0.0
220
0.0
230
1.0
 70
     8
 71
     3
 72
    10
 73
     6
 74
     0
 42
0.000000001
 43
0.00000001
 40
0.0
 40
0.0
 40
0.0
 40
0.0
 40
0.4999917763046207
 40
0.7501307747232261
 40
1.0
 40
1.0
 40
1.0
 40
1.0
 10
6308.891136980163
 20
4962.580391680051
 30
0.0
 10
6308.529688195578
 20
4962.88078146416
 30
0.0
 10
6307.987411562937
 20
4963.331452119462
 30
0.0
 10
6307.405760945257
 20
4964.298392772469
 30
0.0
 10
6307.330090647216
 20
4964.908954762626
 30
0.0
 10
6307.292275911675
 20
4965.214071047188
 30
0.0
  0
SPLINE
  5
23B
330
1F
100
AcDbEntity
  8
0
  6
Continuous
 62
     7
370
    25
100
AcDbSpline
210
0.0
220
0.0
230
1.0
 70
     8
 71
     3
 72
    15
 73
    11
 74
     0
 42
0.000000001
 43
0.00000001
 40
0.0
 40
0.0
 40
0.0
 40
0.0
 40
0.1249995409472844
 40
0.2499996954806549
 40
0.3750000262882695
 40
0.5000000022237452
 40
0.6249999875517098
 40
0.7500003026483096
 40
0.875000455103407
 40
1.0
 40
1.0
 40
1.0
 40
1.0
 10
6315.666493809329
 20
4972.640193890941
 30
0.0
 10
6315.667158917807
 20
4972.575406730421
 30
0.0
 10
6315.668489138026
 20
4972.445832091364
 30
0.0
 10
6315.664882730026
 20
4971.48597973874
 30
0.0
 10
6315.667768840689
 20
4970.09816010501
 30
0.0
 10
6315.663496507349
 20
4968.455933873075
 30
0.0
 10
6315.666345045799
 20
4966.813704577948
 30
0.0
 10
6315.662263053844
 20
4965.425888082082
 30
0.0
 10
6315.665035994754
 20
4964.466033126156
 30
0.0
 10
6315.663596365384
 20
4964.336459461191
 30
0.0
 10
6315.662876552449
 20
4964.271672786156
 30
0.0
  0
SPLINE
  5
23C
330
1F
100
AcDbEntity
  8
0
  6
Continuous
 62
     7
370
    25
100
AcDbSpline
210
0.0
220
0.0
230
1.0
 70
     8
 71
     3
 72
    12
 73
     8
 74
     0
 42
0.000000001
 43
0.00000001
 40
0.0
 40
0.0
 40
0.0
 40
0.0
 40
0.2299568884220871
 40
0.4601098083015494
 40
0.6842194156823332
 40
0.896477863550896
 40
1.0
 40
1.0
 40
1.0
 40
1.0
 10
6315.021407640086
 20
4964.56776688264
 30
0.0
 10
6315.020214192567
 20
4964.580142566546
 30
0.0
 10
6315.017826280153
 20
4964.604904484263
 30
0.0
 10
6314.999040934099
 20
4964.637678896707
 30
0.0
 10
6314.971703580431
 20
4964.661471600255
 30
0.0
 10
6314.94393000223
 20
4964.672191662196
 30
0.0
 10
6314.927003409569
 20
4964.673100548201
 30
0.0
 10
6314.921454376088
 20
4964.673398507687
 30
0.0
  0
SPLINE
  5
23D
330
1F
100
AcDbEntity
  8
0
  6
Continuous
 62
     7
370
    25
100
AcDbSpline
210
0.0
220
0.0
230
1.0
 70
     8
 71
     3
 72
    12
 73
     8
 74
     0
 42
0.000000001
 43
0.00000001
 40
0.0
 40
0.0
 40
0.0
 40
0.0
 40
0.2004836525282312
 40
0.4008136031380753
 40
0.6058729178030848
 40
0.8214883674269474
 40
1.0
 40
1.0
 40
1.0
 40
1.0
 10
6314.92472518097
 20
4972.239109579635
 30
0.0
 10
6314.935520342259
 20
4972.240187513995
 30
0.0
 10
6314.957102388668
 20
4972.24234255631
 30
0.0
 10
6314.986025478762
 20
4972.259080576786
 30
0.0
 10
6315.008647012275
 20
4972.283963478487
 30
0.0
 10
6315.022426245677
 20
4972.313893536783
 30
0.0
 10
6315.024040454873
 20
4972.335065869613
 30
0.0
 10
6315.024771577226
 20
4972.344655435693
 30
0.0
  0
LINE
  5
23E
330
1F
100
AcDbEntity
  8
0
  6
Continuous
 62
     7
370
    25
100
AcDbLine
 10
6275.4279364259
 20
4994.9149357939
 30
0.0
 11
6275.369558333
 21
4994.9733651096
 31
0.0
  0
LWPOLYLINE
  5
23F
330
1F
100
AcDbEntity
  8
0
  6
Continuous
 62
     7
370
    25
100
AcDbPolyline
 90
        3
 70
   128
 43
0.0
 10
6275.369558333
 20
4994.9733651096
 10
6275.2225509272
 20
4994.9734284395
 10
6274.8495580987
 20
4994.9735904896
  0
LWPOLYLINE
  5
240
330
1F
100
AcDbEntity
  8
0
  6
Continuous
 62
     7
370
    25
100
AcDbPolyline
 90
        4
 70
   128
 43
0.0
 10
6272.4895578236
 20
4994.9746112192
 10
6272.2939325855
 20
4994.9746950382
 10
6272.0065851123
 20
4994.9748198354
 10
6271.9695585207
 20
4994.9748365992
  0
LINE
  5
241
330
1F
100
AcDbEntity
  8
0
  6
Continuous
 62
     7
370
    25
100
AcDbLine
 10
6273.0795581252
 20
4994.9743560368
 30
0.0
 11
6272.4895578236
 21
4994.9746112192
 31
0.0
  0
LINE
  5
242
330
1F
100
AcDbEntity
  8
0
  6
Continuous
 62
     7
370
    25
100
AcDbLine
 10
6273.0795581252
 20
4994.9743560368
 30
0.0
 11
6273.0795553313
 21
4994.9677864874
 31
0.0
  0
LINE
  5
243
330
1F
100
AcDbEntity
  8
0
  6
Continuous
 62
     7
370
    25
100
AcDbLine
 10
6272.4895466478
 20
4994.9483255708
 30
0.0
 11
6272.4895578236
 21
4994.9746112192
 31
0.0
  0
LINE
  5
244
330
1F
100
AcDbEntity
  8
0
  6
Continuous
 62
     7
370
    25
100
AcDbLine
 10
6274.2595577971
 20
4994.973845672
 30
0.0
 11
6274.2595550032
 21
4994.9672761226
 31
0.0
  0
LINE
  5
245
330
1F
100
AcDbEntity
  8
0
  6
Continuous
 62
     7
370
    25
100
AcDbLine
 10
6274.2595577971
 20
4994.973845672
 30
0.0
 11
6273.0795581252
 21
4994.9743560368
 31
0.0
  0
LINE
  5
246
330
1F
100
AcDbEntity
  8
0
  6
Continuous
 62
     7
370
    25
100
AcDbLine
 10
6274.8495580987
 20
4994.9735904896
 30
0.0
 11
6274.8495469228
 21
4994.9473048413
 31
0.0
  0
LINE
  5
247
330
1F
100
AcDbEntity
  8
0
  6
Continuous
 62
     7
370
    25
100
AcDbLine
 10
6274.8495580987
 20
4994.9735904896
 30
0.0
 11
6274.2595577971
 21
4994.973845672
 31
0.0
  0
LINE
  5
248
330
1F
100
AcDbEntity
  8
0
  6
Continuous
 62
     8
370
    25
100
AcDbLine
 10
6247.1580103398
 20
4968.3443856278
 30
0.0
 11
6247.1580922962
 21
4968.4752625266
 31
0.0
  0
LWPOLYLINE
  5
249
330
1F
100
AcDbEntity
  8
0
  6
Continuous
 62
     8
370
    25
100
AcDbPolyline
 90
        3
 70
   128
 43
0.0
 10
6314.2962165536
 20
4974.3231273109
 10
6314.2964102687
 20
4974.7709537709
 10
6314.2964475216
 20
4974.8565255517
  0
LWPOLYLINE
  5
24A
330
1F
100
AcDbEntity
  8
0
  6
Continuous
 62
     8
370
    25
100
AcDbPolyline
 90
        3
 70
   128
 43
0.0
 10
6314.2909098775
 20
4962.0565270392
 10
6314.2909452678
 20
4962.1373011118
 10
6314.2911352576
 20
4962.578055923
  0
ENDSEC
  0
SECTION
  2
OBJECTS
  0
DICTIONARY
  5
C
330
0
100
AcDbDictionary
281
     1
  3
ACAD_GROUP
350
D
  3
ACAD_LAYOUT
350
1A
  3
ACAD_MLINESTYLE
350
17
  3
ACAD_PLOTSETTINGS
350
19
  3
ACAD_PLOTSTYLENAME
350
E
  3
ACAD_SCALELIST
350
47
  0
DICTIONARY
  5
D
102
{ACAD_REACTORS
330
C
102
}
330
C
100
AcDbDictionary
281
     1
  0
DICTIONARY
  5
1A
102
{ACAD_REACTORS
330
C
102
}
330
C
100
AcDbDictionary
281
     1
  3
Layout1
350
1E
  3
Layout2
350
26
  3
Model
350
22
  0
DICTIONARY
  5
17
102
{ACAD_REACTORS
330
C
102
}
330
C
100
AcDbDictionary
281
     1
  3
Standard
350
18
  0
DICTIONARY
  5
19
102
{ACAD_REACTORS
330
C
102
}
330
C
100
AcDbDictionary
281
     1
  0
ACDBDICTIONARYWDFLT
  5
E
102
{ACAD_REACTORS
330
C
102
}
330
C
100
AcDbDictionary
281
     1
  3
Normal
350
F
100
AcDbDictionaryWithDefault
340
F
  0
DICTIONARY
  5
47
102
{ACAD_REACTORS
330
C
102
}
330
C
100
AcDbDictionary
281
     1
  3
A0
350
48
  3
A1
350
49
  3
A2
350
4A
  3
A3
350
4B
  3
A4
350
4C
  3
A5
350
4D
  3
A6
350
4E
  3
A7
350
4F
  3
A8
350
50
  3
A9
350
51
  3
B0
350
52
  3
B1
350
53
  3
B2
350
54
  3
B3
350
55
  3
B4
350
56
  3
B5
350
57
  3
B6
350
58
  3
B7
350
59
  3
B8
350
5A
  3
B9
350
5B
  3
C0
350
5C
  3
C1
350
5D
  3
C2
350
5E
  3
C3
350
5F
  3
C4
350
60
  3
C5
350
61
  3
C6
350
62
  3
C7
350
63
  3
C8
350
64
  3
C9
350
65
  3
D0
350
66
  3
D1
350
67
  3
D2
350
68
  0
LAYOUT
  5
1E
102
{ACAD_REACTORS
330
1A
102
}
330
1A
100
AcDbPlotSettings
  1

  2
none_device
  4

  6

 40
0.0
 41
0.0
 42
0.0
 43
0.0
 44
0.0
 45
0.0
 46
0.0
 47
0.0
 48
0.0
 49
0.0
140
0.0
141
0.0
142
1.0
143
1.0
 70
   688
 72
     1
 73
     0
 74
     5
  7

 75
    16
147
1.0
148
0.0
149
0.0
100
AcDbLayout
  1
Layout1
 70
     1
 71
     1
 10
0.0
 20
0.0
 11
420.0
 21
297.0
 12
0.0
 22
0.0
 32
0.0
 14
1.0000000000E+20
 24
1.0000000000E+20
 34
1.0000000000E+20
 15
-1.0000000000E+20
 25
-1.0000000000E+20
 35
-1.0000000000E+20
146
0.0
 13
0.0
 23
0.0
 33
0.0
 16
1.0
 26
0.0
 36
0.0
 17
0.0
 27
1.0
 37
0.0
 76
     0
330
1B
  0
LAYOUT
  5
26
102
{ACAD_REACTORS
330
1A
102
}
330
1A
100
AcDbPlotSettings
  1

  2
none_device
  4

  6

 40
0.0
 41
0.0
 42
0.0
 43
0.0
 44
0.0
 45
0.0
 46
0.0
 47
0.0
 48
0.0
 49
0.0
140
0.0
141
0.0
142
1.0
143
1.0
 70
   688
 72
     1
 73
     0
 74
     5
  7

 75
    16
147
1.0
148
0.0
149
0.0
100
AcDbLayout
  1
Layout2
 70
     1
 71
     2
 10
0.0
 20
0.0
 11
0.0
 21
0.0
 12
0.0
 22
0.0
 32
0.0
 14
0.0
 24
0.0
 34
0.0
 15
0.0
 25
0.0
 35
0.0
146
0.0
 13
0.0
 23
0.0
 33
0.0
 16
1.0
 26
0.0
 36
0.0
 17
0.0
 27
1.0
 37
0.0
 76
     0
330
23
  0
LAYOUT
  5
22
102
{ACAD_REACTORS
330
1A
102
}
330
1A
100
AcDbPlotSettings
  1

  2
none_device
  4
Letter_(8.50_x_11.00_Inches)
  6

 40
6.35
 41
6.35
 42
6.35000508
 43
6.35000508
 44
215.9
 45
279.4
 46
0.0
 47
0.0
 48
0.0
 49
0.0
140
0.0
141
0.0
142
1.0
143
1.0
 70
  1712
 72
     1
 73
     0
 74
     0
  7

 75
     0
147
1.0
148
0.0
149
0.0
100
AcDbLayout
  1
Model
 70
     1
 71
     0
 10
0.0
 20
0.0
 11
20000.0
 21
10000.0
 12
0.0
 22
0.0
 32
0.0
 14
0.0
 24
0.0
 34
0.0
 15
20000.0
 25
10000.0
 35
0.0
146
0.0
 13
0.0
 23
0.0
 33
0.0
 16
1.0
 26
0.0
 36
0.0
 17
0.0
 27
1.0
 37
0.0
 76
     0
330
1F
331
29
  0
MLINESTYLE
  5
18
102
{ACAD_REACTORS
330
17
102
}
330
17
100
AcDbMlineStyle
  2
Standard
 70
     0
  3

 62
   256
 51
90.0
 52
90.0
 71
     2
 49
0.5
 62
   256
  6
BYLAYER
 49
-0.5
 62
   256
  6
BYLAYER
  0
ACDBPLACEHOLDER
  5
F
102
{ACAD_REACTORS
330
E
102
}
330
E
  0
SCALE
  5
48
102
{ACAD_REACTORS
330
47
102
}
330
47
100
AcDbScale
 70
     0
300
1:1
140
1.0
141
1.0
290
     1
  0
SCALE
  5
49
102
{ACAD_REACTORS
330
47
102
}
330
47
100
AcDbScale
 70
     0
300
1:2
140
1.0
141
2.0
290
     0
  0
SCALE
  5
4A
102
{ACAD_REACTORS
330
47
102
}
330
47
100
AcDbScale
 70
     0
300
1:4
140
1.0
141
4.0
290
     0
  0
SCALE
  5
4B
102
{ACAD_REACTORS
330
47
102
}
330
47
100
AcDbScale
 70
     0
300
1:5
140
1.0
141
5.0
290
     0
  0
SCALE
  5
4C
102
{ACAD_REACTORS
330
47
102
}
330
47
100
AcDbScale
 70
     0
300
1:8
140
1.0
141
8.0
290
     0
  0
SCALE
  5
4D
102
{ACAD_REACTORS
330
47
102
}
330
47
100
AcDbScale
 70
     0
300
1:10
140
1.0
141
10.0
290
     0
  0
SCALE
  5
4E
102
{ACAD_REACTORS
330
47
102
}
330
47
100
AcDbScale
 70
     0
300
1:16
140
1.0
141
16.0
290
     0
  0
SCALE
  5
4F
102
{ACAD_REACTORS
330
47
102
}
330
47
100
AcDbScale
 70
     0
300
1:20
140
1.0
141
20.0
290
     0
  0
SCALE
  5
50
102
{ACAD_REACTORS
330
47
102
}
330
47
100
AcDbScale
 70
     0
300
1:30
140
1.0
141
30.0
290
     0
  0
SCALE
  5
51
102
{ACAD_REACTORS
330
47
102
}
330
47
100
AcDbScale
 70
     0
300
1:40
140
1.0
141
40.0
290
     0
  0
SCALE
  5
52
102
{ACAD_REACTORS
330
47
102
}
330
47
100
AcDbScale
 70
     0
300
1:50
140
1.0
141
50.0
290
     0
  0
SCALE
  5
53
102
{ACAD_REACTORS
330
47
102
}
330
47
100
AcDbScale
 70
     0
300
1:100
140
1.0
141
100.0
290
     0
  0
SCALE
  5
54
102
{ACAD_REACTORS
330
47
102
}
330
47
100
AcDbScale
 70
     0
300
2:1
140
2.0
141
1.0
290
     0
  0
SCALE
  5
55
102
{ACAD_REACTORS
330
47
102
}
330
47
100
AcDbScale
 70
     0
300
4:1
140
4.0
141
1.0
290
     0
  0
SCALE
  5
56
102
{ACAD_REACTORS
330
47
102
}
330
47
100
AcDbScale
 70
     0
300
8:1
140
8.0
141
1.0
290
     0
  0
SCALE
  5
57
102
{ACAD_REACTORS
330
47
102
}
330
47
100
AcDbScale
 70
     0
300
10:1
140
10.0
141
1.0
290
     0
  0
SCALE
  5
58
102
{ACAD_REACTORS
330
47
102
}
330
47
100
AcDbScale
 70
     0
300
100:1
140
100.0
141
1.0
290
     0
  0
SCALE
  5
59
102
{ACAD_REACTORS
330
47
102
}
330
47
100
AcDbScale
 70
     0
300
1/128" = 1'-0"
140
0.0078125
141
12.0
290
     0
  0
SCALE
  5
5A
102
{ACAD_REACTORS
330
47
102
}
330
47
100
AcDbScale
 70
     0
300
1/64" = 1'-0"
140
0.015625
141
12.0
290
     0
  0
SCALE
  5
5B
102
{ACAD_REACTORS
330
47
102
}
330
47
100
AcDbScale
 70
     0
300
1/32" = 1'-0"
140
0.03125
141
12.0
290
     0
  0
SCALE
  5
5C
102
{ACAD_REACTORS
330
47
102
}
330
47
100
AcDbScale
 70
     0
300
1/16" = 1'-0"
140
0.0625
141
12.0
290
     0
  0
SCALE
  5
5D
102
{ACAD_REACTORS
330
47
102
}
330
47
100
AcDbScale
 70
     0
300
3/32" = 1'-0"
140
0.09375
141
12.0
290
     0
  0
SCALE
  5
5E
102
{ACAD_REACTORS
330
47
102
}
330
47
100
AcDbScale
 70
     0
300
1/8" = 1'-0"
140
0.125
141
12.0
290
     0
  0
SCALE
  5
5F
102
{ACAD_REACTORS
330
47
102
}
330
47
100
AcDbScale
 70
     0
300
3/16" = 1'-0"
140
0.1875
141
12.0
290
     0
  0
SCALE
  5
60
102
{ACAD_REACTORS
330
47
102
}
330
47
100
AcDbScale
 70
     0
300
1/4" = 1'-0"
140
0.25
141
12.0
290
     0
  0
SCALE
  5
61
102
{ACAD_REACTORS
330
47
102
}
330
47
100
AcDbScale
 70
     0
300
3/8" = 1'-0"
140
0.375
141
12.0
290
     0
  0
SCALE
  5
62
102
{ACAD_REACTORS
330
47
102
}
330
47
100
AcDbScale
 70
     0
300
1/2" = 1'-0"
140
0.5
141
12.0
290
     0
  0
SCALE
  5
63
102
{ACAD_REACTORS
330
47
102
}
330
47
100
AcDbScale
 70
     0
300
3/4" = 1'-0"
140
0.75
141
12.0
290
     0
  0
SCALE
  5
64
102
{ACAD_REACTORS
330
47
102
}
330
47
100
AcDbScale
 70
     0
300
1" = 1'-0"
140
1.0
141
12.0
290
     0
  0
SCALE
  5
65
102
{ACAD_REACTORS
330
47
102
}
330
47
100
AcDbScale
 70
     0
300
1-1/2" = 1'-0"
140
1.5
141
12.0
290
     0
  0
SCALE
  5
66
102
{ACAD_REACTORS
330
47
102
}
330
47
100
AcDbScale
 70
     0
300
3" = 1'-0"
140
3.0
141
12.0
290
     0
  0
SCALE
  5
67
102
{ACAD_REACTORS
330
47
102
}
330
47
100
AcDbScale
 70
     0
300
6" = 1'-0"
140
6.0
141
12.0
290
     0
  0
SCALE
  5
68
102
{ACAD_REACTORS
330
47
102
}
330
47
100
AcDbScale
 70
     0
300
1'-0" = 1'-0"
140
12.0
141
12.0
290
     0
  0
ENDSEC
  0
EOF
