  0
SECTION
  2
HEADER
  9
$ACADVER
  1
AC1015
  9
$ACADMAINTVER
 70
     6
  9
$DWGCODEPAGE
  3
ANSI_1250
  9
$INSBASE
 10
0.0
 20
0.0
 30
0.0
  9
$EXTMIN
 10
0.0
 20
0.0
 30
0.0
  9
$EXTMAX
 10
20000.0
 20
10000.0
 30
0.0
  9
$LIMMIN
 10
0.0
 20
0.0
  9
$LIMMAX
 10
20000.0
 20
10000.0
  9
$ORTHOMODE
 70
     0
  9
$REGENMODE
 70
     1
  9
$FILLMODE
 70
     1
  9
$QTEXTMODE
 70
     0
  9
$MIRRTEXT
 70
     1
  9
$LTSCALE
 40
1.0
  9
$ATTMODE
 70
     1
  9
$TEXTSIZE
 40
2.0
  9
$TRACEWID
 40
1.0
  9
$TEXTSTYLE
  7
Standard
  9
$CLAYER
  8
0
  9
$CELTYPE
  6
ByLayer
  9
$CECOLOR
 62
   256
  9
$CELTSCALE
 40
1.0
  9
$DISPSILH
 70
     0
  9
$DIMSCALE
 40
1.0
  9
$DIMASZ
 40
2.0
  9
$DIMEXO
 40
1.0
  9
$DIMDLI
 40
3.75
  9
$DIMRND
 40
0.0
  9
$DIMDLE
 40
0.0
  9
$DIMEXE
 40
1.0
  9
$DIMTP
 40
0.0
  9
$DIMTM
 40
0.0
  9
$DIMTXT
 40
2.0
  9
$DIMCEN
 40
2.5
  9
$DIMTSZ
 40
0.0
  9
$DIMTOL
 70
     0
  9
$DIMLIM
 70
     0
  9
$DIMTIH
 70
     1
  9
$DIMTOH
 70
     1
  9
$DIMSE1
 70
     0
  9
$DIMSE2
 70
     0
  9
$DIMTAD
 70
     1
  9
$DIMZIN
 70
     0
  9
$DIMBLK
  1

  9
$DIMASO
 70
     1
  9
$DIMSHO
 70
     1
  9
$DIMPOST
  1

  9
$DIMAPOST
  1

  9
$DIMALT
 70
     0
  9
$DIMALTD
 70
     3
  9
$DIMALTF
 40
0.0393700787
  9
$DIMLFAC
 40
1.0
  9
$DIMTOFL
 70
     1
  9
$DIMTVP
 40
0.0
  9
$DIMTIX
 70
     0
  9
$DIMSOXD
 70
     0
  9
$DIMSAH
 70
     0
  9
$DIMBLK1
  1

  9
$DIMBLK2
  1

  9
$DIMSTYLE
  2
ISO-25
  9
$DIMCLRD
 70
     0
  9
$DIMCLRE
 70
     0
  9
$DIMCLRT
 70
     0
  9
$DIMTFAC
 40
1.0
  9
$DIMGAP
 40
1.524
  9
$DIMJUST
 70
     0
  9
$DIMSD1
 70
     0
  9
$DIMSD2
 70
     0
  9
$DIMTOLJ
 70
     0
  9
$DIMTZIN
 70
     0
  9
$DIMALTZ
 70
     0
  9
$DIMALTTZ
 70
     0
  9
$DIMUPT
 70
     0
  9
$DIMDEC
 70
     2
  9
$DIMTDEC
 70
     0
  9
$DIMALTU
 70
     2
  9
$DIMALTTD
 70
     3
  9
$DIMTXSTY
  7
Standard
  9
$DIMAUNIT
 70
     0
  9
$DIMADEC
 70
     2
  9
$DIMALTRND
 40
0.0
  9
$DIMAZIN
 70
     0
  9
$DIMDSEP
 70
    44
  9
$DIMATFIT
 70
     3
  9
$DIMFRAC
 70
     0
  9
$DIMLDRBLK
  1

  9
$DIMLUNIT
 70
     2
  9
$DIMLWD
 70
    -2
  9
$DIMLWE
 70
    -2
  9
$DIMTMOVE
 70
     0
  9
$LUNITS
 70
     2
  9
$LUPREC
 70
     3
  9
$SKETCHINC
 40
1.0
  9
$FILLETRAD
 40
10.0
  9
$AUNITS
 70
     0
  9
$AUPREC
 70
     2
  9
$MENU
  1
.
  9
$ELEVATION
 40
0.0
  9
$PELEVATION
 40
0.0
  9
$THICKNESS
 40
0.0
  9
$LIMCHECK
 70
     0
  9
$CHAMFERA
 40
0.0
  9
$CHAMFERB
 40
0.0
  9
$CHAMFERC
 40
0.0
  9
$CHAMFERD
 40
0.0
  9
$SKPOLY
 70
     0
  9
$TDCREATE
 40
2459345.336974282
  9
$TDUCREATE
 40
2459345.253640949
  9
$TDUPDATE
 40
2459345.336974468
  9
$TDUUPDATE
 40
2459345.253641134
  9
$TDINDWG
 40
0.0000000116
  9
$TDUSRTIMER
 40
0.0000000116
  9
$USRTIMER
 70
     1
  9
$ANGBASE
 50
0.0
  9
$ANGDIR
 70
     0
  9
$PDMODE
 70
     0
  9
$PDSIZE
 40
-1.0
  9
$PLINEWID
 40
0.0
  9
$SPLFRAME
 70
     0
  9
$SPLINETYPE
 70
     6
  9
$SPLINESEGS
 70
     8
  9
$HANDSEED
  5
2F6
  9
$SURFTAB1
 70
     6
  9
$SURFTAB2
 70
     6
  9
$SURFTYPE
 70
     6
  9
$SURFU
 70
     6
  9
$SURFV
 70
     6
  9
$UCSBASE
  2

  9
$UCSNAME
  2

  9
$UCSORG
 10
0.0
 20
0.0
 30
0.0
  9
$UCSXDIR
 10
1.0
 20
0.0
 30
0.0
  9
$UCSYDIR
 10
0.0
 20
1.0
 30
0.0
  9
$UCSORTHOREF
  2

  9
$UCSORTHOVIEW
 70
     0
  9
$UCSORGTOP
 10
0.0
 20
0.0
 30
0.0
  9
$UCSORGBOTTOM
 10
0.0
 20
0.0
 30
0.0
  9
$UCSORGLEFT
 10
0.0
 20
0.0
 30
0.0
  9
$UCSORGRIGHT
 10
0.0
 20
0.0
 30
0.0
  9
$UCSORGFRONT
 10
0.0
 20
0.0
 30
0.0
  9
$UCSORGBACK
 10
0.0
 20
0.0
 30
0.0
  9
$PUCSBASE
  2

  9
$PUCSNAME
  2

  9
$PUCSORG
 10
0.0
 20
0.0
 30
0.0
  9
$PUCSXDIR
 10
1.0
 20
0.0
 30
0.0
  9
$PUCSYDIR
 10
0.0
 20
1.0
 30
0.0
  9
$PUCSORTHOREF
  2

  9
$PUCSORTHOVIEW
 70
     0
  9
$PUCSORGTOP
 10
0.0
 20
0.0
 30
0.0
  9
$PUCSORGBOTTOM
 10
0.0
 20
0.0
 30
0.0
  9
$PUCSORGLEFT
 10
0.0
 20
0.0
 30
0.0
  9
$PUCSORGRIGHT
 10
0.0
 20
0.0
 30
0.0
  9
$PUCSORGFRONT
 10
0.0
 20
0.0
 30
0.0
  9
$PUCSORGBACK
 10
0.0
 20
0.0
 30
0.0
  9
$USERI1
 70
     0
  9
$USERI2
 70
     0
  9
$USERI3
 70
     0
  9
$USERI4
 70
     0
  9
$USERI5
 70
     0
  9
$USERR1
 40
0.0
  9
$USERR2
 40
0.0
  9
$USERR3
 40
0.0
  9
$USERR4
 40
0.0
  9
$USERR5
 40
0.0
  9
$WORLDVIEW
 70
     1
  9
$SHADEDGE
 70
     3
  9
$SHADEDIF
 70
    70
  9
$TILEMODE
 70
     1
  9
$MAXACTVP
 70
    64
  9
$PINSBASE
 10
0.0
 20
0.0
 30
0.0
  9
$PLIMCHECK
 70
     0
  9
$PEXTMIN
 10
1.0000000000E+20
 20
1.0000000000E+20
 30
1.0000000000E+20
  9
$PEXTMAX
 10
-1.0000000000E+20
 20
-1.0000000000E+20
 30
-1.0000000000E+20
  9
$PLIMMIN
 10
0.0
 20
0.0
  9
$PLIMMAX
 10
420.0
 20
297.0
  9
$UNITMODE
 70
     0
  9
$VISRETAIN
 70
     1
  9
$PLINEGEN
 70
     0
  9
$PSLTSCALE
 70
     1
  9
$TREEDEPTH
 70
  3020
  9
$CMLSTYLE
  2
Standard
  9
$CMLJUST
 70
     0
  9
$CMLSCALE
 40
20.0
  9
$PROXYGRAPHICS
 70
     1
  9
$MEASUREMENT
 70
     1
  9
$CELWEIGHT
370
    -1
  9
$ENDCAPS
280
     0
  9
$JOINSTYLE
280
     0
  9
$LWDISPLAY
290
     1
  9
$INSUNITS
 70
     4
  9
$HYPERLINKBASE
  1

  9
$STYLESHEET
  1

  9
$XEDIT
290
     1
  9
$CEPSNTYPE
380
     0
  9
$PSTYLEMODE
290
     1
  9
$FINGERPRINTGUID
  2
{8731be91-125b-433d-aa6f-d95e3d04cc43}
  9
$VERSIONGUID
  2
{FAEB1C32-E019-11D5-929B-00C0DF256EC4}
  9
$EXTNAMES
290
     1
  9
$PSVPSCALE
 40
0.0
  9
$OLESTARTUP
290
     0
  0
ENDSEC
  0
SECTION
  2
CLASSES
  0
CLASS
  1
ACDBDICTIONARYWDFLT
  2
AcDbDictionaryWithDefault
  3
ObjectDBX Classes
 90
        0
280
     0
281
     0
  0
CLASS
  1
VISUALSTYLE
  2
AcDbVisualStyle
  3
ObjectDBX Classes
 90
     4095
280
     0
281
     0
  0
CLASS
  1
MATERIAL
  2
AcDbMaterial
  3
ObjectDBX Classes
 90
     1153
280
     0
281
     0
  0
CLASS
  1
SCALE
  2
AcDbScale
  3
ObjectDBX Classes
 90
     1153
280
     0
281
     0
  0
CLASS
  1
TABLESTYLE
  2
AcDbTableStyle
  3
ObjectDBX Classes
 90
     4095
280
     0
281
     0
  0
CLASS
  1
MLEADERSTYLE
  2
AcDbMLeaderStyle
  3
ACDB_MLEADERSTYLE_CLASS
 90
     4095
280
     0
281
     0
  0
CLASS
  1
SUN
  2
AcDbSun
  3
SCENEOE
 90
     1153
280
     0
281
     0
  0
CLASS
  1
ACDBPLACEHOLDER
  2
AcDbPlaceHolder
  3
ObjectDBX Classes
 90
        0
280
     0
281
     0
  0
CLASS
  1
LAYOUT
  2
AcDbLayout
  3
ObjectDBX Classes
 90
        0
280
     0
281
     0
  0
ENDSEC
  0
SECTION
  2
TABLES
  0
TABLE
  2
VPORT
  5
8
330
0
100
AcDbSymbolTable
 70
     1
  0
VPORT
  5
29
330
8
100
AcDbSymbolTableRecord
100
AcDbViewportTableRecord
  2
*Active
 70
     0
 10
0.0
 20
0.0
 11
1.0
 21
1.0
 12
10000.0
 22
5000.0
 13
0.0
 23
0.0
 14
10.0
 24
10.0
 15
10.0
 25
10.0
 16
0.0
 26
0.0
 36
1.0
 17
0.0
 27
0.0
 37
0.0
 40
10000.0
 41
2.0
 42
50.0
 43
0.0
 44
0.0
 50
0.0
 51
0.0
 71
     0
 72
  2000
 73
     1
 74
     3
 75
     0
 76
     0
 77
     0
 78
     0
281
     0
 65
     1
110
0.0
120
0.0
130
0.0
111
1.0
121
0.0
131
0.0
112
0.0
122
1.0
132
0.0
 79
     0
146
0.0
  0
ENDTAB
  0
TABLE
  2
LTYPE
  5
5
330
0
100
AcDbSymbolTable
 70
     6
  0
LTYPE
  5
14
330
5
100
AcDbSymbolTableRecord
100
AcDbLinetypeTableRecord
  2
ByBlock
 70
     0
  3

 72
    65
 73
     0
 40
0.0
  0
LTYPE
  5
15
330
5
100
AcDbSymbolTableRecord
100
AcDbLinetypeTableRecord
  2
ByLayer
 70
     0
  3

 72
    65
 73
     0
 40
0.0
  0
LTYPE
  5
16
330
5
100
AcDbSymbolTableRecord
100
AcDbLinetypeTableRecord
  2
Continuous
 70
     0
  3
Solid line
 72
    65
 73
     0
 40
0.0
  0
LTYPE
  5
6E
330
5
100
AcDbSymbolTableRecord
100
AcDbLinetypeTableRecord
  2
HIDDEN
 70
     0
  3
Hidden __ __ __ __ __ __ __ __ __ __ __ __ __ __
 72
    65
 73
     2
 40
1.905
 49
1.27
 74
     0
 49
-0.635
 74
     0
  0
LTYPE
  5
6F
330
5
100
AcDbSymbolTableRecord
100
AcDbLinetypeTableRecord
  2
PHANTOM
 70
     0
  3
Phantom ______  __  __  ______  __  __  ______
 72
    65
 73
     6
 40
12.7
 49
6.35
 74
     0
 49
-1.27
 74
     0
 49
1.27
 74
     0
 49
-1.27
 74
     0
 49
1.27
 74
     0
 49
-1.27
 74
     0
  0
LTYPE
  5
70
330
5
100
AcDbSymbolTableRecord
100
AcDbLinetypeTableRecord
  2
CENTER
 70
     0
  3
Center ____ _ ____ _ ____ _ ____ _ ____ _ ____
 72
    65
 73
     4
 40
10.16
 49
6.35
 74
     0
 49
-1.27
 74
     0
 49
1.27
 74
     0
 49
-1.27
 74
     0
  0
LTYPE
  5
71
330
5
100
AcDbSymbolTableRecord
100
AcDbLinetypeTableRecord
  2
CENTERX2
 70
     0
  3
Center (2x) ________  __  ________  __  _____
 72
    65
 73
     4
 40
20.32
 49
12.7
 74
     0
 49
-2.54
 74
     0
 49
2.54
 74
     0
 49
-2.54
 74
     0
  0
LTYPE
  5
72
330
5
100
AcDbSymbolTableRecord
100
AcDbLinetypeTableRecord
  2
DOT2
 70
     0
  3
Dot (.5x) ........................................
 72
    65
 73
     2
 40
0.635
 49
0.0
 74
     0
 49
-0.635
 74
     0
  0
ENDTAB
  0
TABLE
  2
LAYER
  5
2
330
0
100
AcDbSymbolTable
 70
    13
  0
LAYER
  5
10
330
2
100
AcDbSymbolTableRecord
100
AcDbLayerTableRecord
  2
0
 70
     0
 62
     7
  6
Continuous
370
    -3
390
F
  0
LAYER
  5
73
330
2
100
AcDbSymbolTableRecord
100
AcDbLayerTableRecord
  2
FORMAT
 70
     0
 62
     7
  6
Continuous
370
    -3
390
F
  0
LAYER
  5
74
330
2
100
AcDbSymbolTableRecord
100
AcDbLayerTableRecord
  2
OSA
 70
     0
 62
     7
  6
CENTER
370
    -3
390
F
  0
LAYER
  5
75
330
2
100
AcDbSymbolTableRecord
100
AcDbLayerTableRecord
  2
0_35
 70
     0
 62
     7
  6
Continuous
370
    35
390
F
  0
LAYER
  5
76
330
2
100
AcDbSymbolTableRecord
100
AcDbLayerTableRecord
  2
0_5
 70
     0
 62
     7
  6
Continuous
370
    50
390
F
  0
LAYER
  5
77
330
2
100
AcDbSymbolTableRecord
100
AcDbLayerTableRecord
  2
0_25
 70
     0
 62
     7
  6
Continuous
370
    25
390
F
  0
LAYER
  5
78
330
2
100
AcDbSymbolTableRecord
100
AcDbLayerTableRecord
  2
0_18
 70
     0
 62
     7
  6
Continuous
370
    -3
390
F
  0
LAYER
  5
79
330
2
100
AcDbSymbolTableRecord
100
AcDbLayerTableRecord
  2
SLD-0
 70
     0
 62
   179
  6
Continuous
370
    -3
390
F
  0
LAYER
  5
7A
330
2
100
AcDbSymbolTableRecord
100
AcDbLayerTableRecord
  2
KOTY
 70
     0
 62
     7
  6
Continuous
370
    -3
390
F
  0
LAYER
  5
7B
330
2
100
AcDbSymbolTableRecord
100
AcDbLayerTableRecord
  2
SILNA
 70
     0
 62
   179
  6
Continuous
370
    -3
390
F
  0
LAYER
  5
7C
330
2
100
AcDbSymbolTableRecord
100
AcDbLayerTableRecord
  2
0_18_1
 70
     0
 62
   179
  6
Continuous
370
    -3
390
F
  0
LAYER
  5
7D
330
2
100
AcDbSymbolTableRecord
100
AcDbLayerTableRecord
  2
0_35_1
 70
     0
 62
   179
  6
Continuous
370
    35
390
F
  0
LAYER
  5
7E
330
2
100
AcDbSymbolTableRecord
100
AcDbLayerTableRecord
  2
0_5_1
 70
     0
 62
   179
  6
Continuous
370
    50
390
F
  0
ENDTAB
  0
TABLE
  2
STYLE
  5
3
330
0
100
AcDbSymbolTable
 70
     1
  0
STYLE
  5
11
330
3
100
AcDbSymbolTableRecord
100
AcDbTextStyleTableRecord
  2
Standard
 70
     0
 40
0.0
 41
1.0
 50
0.0
 71
     0
 42
2.0
  3
txt
  4

  0
ENDTAB
  0
TABLE
  2
VIEW
  5
6
330
0
100
AcDbSymbolTable
 70
     0
  0
ENDTAB
  0
TABLE
  2
UCS
  5
7
330
0
100
AcDbSymbolTable
 70
     0
  0
ENDTAB
  0
TABLE
  2
APPID
  5
9
330
0
100
AcDbSymbolTable
 70
     1
  0
APPID
  5
12
330
9
100
AcDbSymbolTableRecord
100
AcDbRegAppTableRecord
  2
ACAD
 70
     0
  0
ENDTAB
  0
TABLE
  2
DIMSTYLE
  5
A
330
0
100
AcDbSymbolTable
 70
     1
100
AcDbDimStyleTable
  0
DIMSTYLE
105
27
330
A
100
AcDbSymbolTableRecord
100
AcDbDimStyleTableRecord
  2
ISO-25
 70
     0
 41
2.5
 42
0.625
 43
3.75
 44
1.25
 73
     0
 74
     0
 77
     1
 78
     8
140
2.5
141
2.5
143
0.0393700787
147
0.625
171
     3
172
     1
178
     0
271
     2
272
     2
274
     3
278
    44
283
     0
284
     8
340
11
  0
ENDTAB
  0
TABLE
  2
BLOCK_RECORD
  5
1
330
0
100
AcDbSymbolTable
 70
     1
  0
BLOCK_RECORD
  5
1F
330
1
100
AcDbSymbolTableRecord
100
AcDbBlockTableRecord
  2
*Model_Space
340
22
  0
BLOCK_RECORD
  5
1B
330
1
100
AcDbSymbolTableRecord
100
AcDbBlockTableRecord
  2
*Paper_Space
340
1E
  0
BLOCK_RECORD
  5
23
330
1
100
AcDbSymbolTableRecord
100
AcDbBlockTableRecord
  2
*Paper_Space0
340
26
  0
ENDTAB
  0
ENDSEC
  0
SECTION
  2
BLOCKS
  0
BLOCK
  5
20
330
1F
100
AcDbEntity
  8
0
100
AcDbBlockBegin
  2
*Model_Space
 70
     0
 10
0.0
 20
0.0
 30
0.0
  3
*Model_Space
  1

  0
ENDBLK
  5
21
330
1F
100
AcDbEntity
  8
0
100
AcDbBlockEnd
  0
BLOCK
  5
1C
330
1B
100
AcDbEntity
 67
     1
  8
0
100
AcDbBlockBegin
  2
*Paper_Space
 70
     0
 10
0.0
 20
0.0
 30
0.0
  3
*Paper_Space
  1

  0
ENDBLK
  5
1D
330
1B
100
AcDbEntity
 67
     1
  8
0
100
AcDbBlockEnd
  0
BLOCK
  5
24
330
23
100
AcDbEntity
  8
0
100
AcDbBlockBegin
  2
*Paper_Space0
 70
     0
 10
0.0
 20
0.0
 30
0.0
  3
*Paper_Space0
  1

  0
ENDBLK
  5
25
330
23
100
AcDbEntity
  8
0
100
AcDbBlockEnd
  0
ENDSEC
  0
SECTION
  2
ENTITIES
  0
LINE
  5
7F
330
1F
100
AcDbEntity
  8
0
  6
Continuous
 62
     7
370
    25
100
AcDbLine
 10
6354.331609655
 20
4858.907820921
 30
0.0
 11
6354.331609655
 21
4858.9075308096
 31
0.0
  0
LINE
  5
80
330
1F
100
AcDbEntity
  8
0
  6
Continuous
 62
     7
370
    25
100
AcDbLine
 10
6380.772609655
 20
4858.9075308096
 30
0.0
 11
6380.772609655
 21
4858.907820921
 31
0.0
  0
ARC
  5
81
330
1F
100
AcDbEntity
  8
0
  6
Continuous
 62
     7
370
    25
100
AcDbCircle
 10
6354.302109655
 20
4857.407820921
 30
0.0
 40
1.500000000000614
100
AcDbArc
 50
271.1268896477
 51
88.8731103523
  0
ARC
  5
82
330
1F
100
AcDbEntity
  8
0
  6
Continuous
 62
     7
370
    25
100
AcDbCircle
 10
6380.802109655
 20
4857.407820921
 30
0.0
 40
1.500000000000614
100
AcDbArc
 50
91.1268896477
 51
268.8731103523
  0
LINE
  5
83
330
1F
100
AcDbEntity
  8
0
  6
Continuous
 62
     7
370
    25
100
AcDbLine
 10
6354.331609655
 20
4855.9081110323
 30
0.0
 11
6354.331609655
 21
4850.907820921
 31
0.0
  0
LINE
  5
84
330
1F
100
AcDbEntity
  8
0
  6
Continuous
 62
     7
370
    25
100
AcDbLine
 10
6380.772609655
 20
4850.907820921
 30
0.0
 11
6380.772609655
 21
4855.9081110323
 31
0.0
  0
LINE
  5
85
330
1F
100
AcDbEntity
  8
0
  6
Continuous
 62
     7
370
    25
100
AcDbLine
 10
6354.331609655
 20
4850.907820921
 30
0.0
 11
6355.331609655
 21
4849.907820921
 31
0.0
  0
LINE
  5
86
330
1F
100
AcDbEntity
  8
0
  6
Continuous
 62
     7
370
    25
100
AcDbLine
 10
6379.772609655
 20
4849.907820921
 30
0.0
 11
6380.772609655
 21
4850.907820921
 31
0.0
  0
LINE
  5
87
330
1F
100
AcDbEntity
  8
0
  6
Continuous
 62
     7
370
    25
100
AcDbLine
 10
6352.802109655
 20
4859.4851711901
 30
0.0
 11
6353.802109655
 21
4858.907820921
 31
0.0
  0
LINE
  5
88
330
1F
100
AcDbEntity
  8
0
  6
Continuous
 62
     7
370
    25
100
AcDbLine
 10
6381.302109655
 20
4858.907820921
 30
0.0
 11
6382.302109655
 21
4859.4851711901
 31
0.0
  0
LINE
  5
89
330
1F
100
AcDbEntity
  8
0
  6
Continuous
 62
     7
370
    25
100
AcDbLine
 10
6352.802109655
 20
4860.407820921
 30
0.0
 11
6352.802109655
 21
4859.4851711901
 31
0.0
  0
LINE
  5
8A
330
1F
100
AcDbEntity
  8
0
  6
Continuous
 62
     7
370
    25
100
AcDbLine
 10
6382.302109655
 20
4859.4851711901
 30
0.0
 11
6382.302109655
 21
4860.407820921
 31
0.0
  0
LWPOLYLINE
  5
8B
330
1F
100
AcDbEntity
  8
0
  6
Continuous
 62
     7
370
    25
100
AcDbPolyline
 90
        3
 70
   128
 43
0.0
 10
6400.9205663513
 20
4912.3063529676
 10
6401.3857801615
 20
4911.9211869845
 10
6401.8596957691
 20
4911.5277080469
  0
LWPOLYLINE
  5
8C
330
1F
100
AcDbEntity
  8
0
  6
Continuous
 62
     7
370
    25
100
AcDbPolyline
 90
        3
 70
   128
 43
0.0
 10
6423.2445235408
 20
4911.5277080469
 10
6423.7184391485
 20
4911.9211869845
 10
6424.1836529586
 20
4912.3063529676
  0
LINE
  5
8D
330
1F
100
AcDbEntity
  8
0
  6
Continuous
 62
     7
370
    25
100
AcDbLine
 10
6398.552109655
 20
4952.856741074
 30
0.0
 11
6398.552109655
 21
4916.6220838953
 31
0.0
  0
LINE
  5
8E
330
1F
100
AcDbEntity
  8
0
  6
Continuous
 62
     7
370
    25
100
AcDbLine
 10
6426.552109655
 20
4916.6220838953
 30
0.0
 11
6426.552109655
 21
4952.856741074
 31
0.0
  0
LINE
  5
8F
330
1F
100
AcDbEntity
  8
0
  6
Continuous
 62
     7
370
    25
100
AcDbLine
 10
6420.052109655
 20
4916.3909089873
 30
0.0
 11
6420.052109655
 21
4917.256934391
 31
0.0
  0
LINE
  5
90
330
1F
100
AcDbEntity
  8
0
  6
Continuous
 62
     7
370
    25
100
AcDbLine
 10
6405.052109655
 20
4917.256934391
 30
0.0
 11
6405.052109655
 21
4916.3909089873
 31
0.0
  0
CIRCLE
  5
91
330
1F
100
AcDbEntity
  8
0
  6
Continuous
 62
     7
370
    25
100
AcDbCircle
 10
6351.052109655
 20
5006.907820921
 30
0.0
 40
0.7499999999995904
  0
CIRCLE
  5
92
330
1F
100
AcDbEntity
  8
0
  6
Continuous
 62
     7
370
    25
100
AcDbCircle
 10
6351.052109655
 20
5006.907820921
 30
0.0
 40
4.499999999999548
  0
ARC
  5
93
330
1F
100
AcDbEntity
  8
0
  6
Continuous
 62
     7
370
    25
100
AcDbCircle
 10
6349.5360826038
 20
5005.6033432554
 30
0.0
 40
0.6110625643869246
100
AcDbArc
 50
141.116100899
 51
300.3051265474
  0
LINE
  5
94
330
1F
100
AcDbEntity
  8
0
  6
Continuous
 62
     7
370
    25
100
AcDbLine
 10
6350.0494820849
 20
5005.1956308342
 30
0.0
 11
6349.8444277522
 21
5005.0757821433
 31
0.0
  0
ARC
  5
95
330
1F
100
AcDbEntity
  8
0
  6
Continuous
 62
     7
370
    25
100
AcDbCircle
 10
6350.301784522
 20
5004.7639556319
 30
0.0
 40
0.4999999999962804
100
AcDbArc
 50
21.1161008986
 51
120.3051265477
  0
LINE
  5
96
330
1F
100
AcDbEntity
  8
0
  6
Continuous
 62
     7
370
    25
100
AcDbLine
 10
6350.8537757871
 20
5004.722523381
 30
0.0
 11
6350.768210689
 21
5004.9440851152
 31
0.0
  0
ARC
  5
97
330
1F
100
AcDbEntity
  8
0
  6
Continuous
 62
     7
370
    25
100
AcDbCircle
 10
6351.4238069264
 20
5004.942664149
 30
0.0
 40
0.6110625643873191
100
AcDbArc
 50
201.116100899
 51
0.3051265473
  0
LINE
  5
98
330
1F
100
AcDbEntity
  8
0
  6
Continuous
 62
     7
370
    25
100
AcDbLine
 10
6352.0335959812
 20
5005.1834249314
 30
0.0
 11
6352.0348608258
 21
5004.9459183246
 31
0.0
  0
ARC
  5
99
330
1F
100
AcDbEntity
  8
0
  6
Continuous
 62
     7
370
    25
100
AcDbCircle
 10
6352.5335888911
 20
5005.1860876502
 30
0.0
 40
0.4999999999979615
100
AcDbArc
 50
81.1161008986
 51
180.3051265477
  0
LINE
  5
9A
330
1F
100
AcDbEntity
  8
0
  6
Continuous
 62
     7
370
    25
100
AcDbLine
 10
6352.8454659054
 20
5005.6434099829
 30
0.0
 11
6352.6108052661
 21
5005.6800893015
 31
0.0
  0
ARC
  5
9B
330
1F
100
AcDbEntity
  8
0
  6
Continuous
 62
     7
370
    25
100
AcDbCircle
 10
6352.9398339776
 20
5006.2471418146
 30
0.0
 40
0.6110625643869266
100
AcDbArc
 50
261.1161008991
 51
60.3051265472
  0
LINE
  5
9C
330
1F
100
AcDbEntity
  8
0
  6
Continuous
 62
     7
370
    25
100
AcDbLine
 10
6353.0362235513
 20
5006.8956150182
 30
0.0
 11
6353.2425427286
 21
5006.7779571023
 31
0.0
  0
ARC
  5
9D
330
1F
100
AcDbEntity
  8
0
  6
Continuous
 62
     7
370
    25
100
AcDbCircle
 10
6353.283914024
 20
5007.3299529393
 30
0.0
 40
0.49999999999293
100
AcDbArc
 50
141.1161008982
 51
240.3051265483
  0
LINE
  5
9E
330
1F
100
AcDbEntity
  8
0
  6
Continuous
 62
     7
370
    25
100
AcDbLine
 10
6353.0437997734
 20
5007.8287075229
 30
0.0
 11
6352.894704232
 21
5007.6438251072
 31
0.0
  0
ARC
  5
9F
330
1F
100
AcDbEntity
  8
0
  6
Continuous
 62
     7
370
    25
100
AcDbCircle
 10
6352.5681367062
 20
5008.2122985865
 30
0.0
 40
0.6110625643864657
100
AcDbArc
 50
321.116100899
 51
120.3051265473
  0
LINE
  5
A0
330
1F
100
AcDbEntity
  8
0
  6
Continuous
 62
     7
370
    25
100
AcDbLine
 10
6352.054737225
 20
5008.6200110078
 30
0.0
 11
6352.2597915577
 21
5008.7398596987
 31
0.0
  0
ARC
  5
A1
330
1F
100
AcDbEntity
  8
0
  6
Continuous
 62
     7
370
    25
100
AcDbCircle
 10
6351.8024347879
 20
5009.05168621
 30
0.0
 40
0.5000000000056601
100
AcDbArc
 50
201.1161008997
 51
300.3051265466
  0
LINE
  5
A2
330
1F
100
AcDbEntity
  8
0
  6
Continuous
 62
     7
370
    25
100
AcDbLine
 10
6351.2504435229
 20
5009.0931184609
 30
0.0
 11
6351.3360086209
 21
5008.8715567267
 31
0.0
  0
ARC
  5
A3
330
1F
100
AcDbEntity
  8
0
  6
Continuous
 62
     7
370
    25
100
AcDbCircle
 10
6350.6804123835
 20
5008.8729776929
 30
0.0
 40
0.6110625643867983
100
AcDbArc
 50
21.1161008991
 51
180.3051265473
  0
LINE
  5
A4
330
1F
100
AcDbEntity
  8
0
  6
Continuous
 62
     7
370
    25
100
AcDbLine
 10
6350.0706233287
 20
5008.6322169106
 30
0.0
 11
6350.0693584841
 21
5008.8697235173
 31
0.0
  0
ARC
  5
A5
330
1F
100
AcDbEntity
  8
0
  6
Continuous
 62
     7
370
    25
100
AcDbCircle
 10
6349.5706304188
 20
5008.6295541917
 30
0.0
 40
0.5000000000059389
100
AcDbArc
 50
261.1161008996
 51
0.3051265467
  0
LINE
  5
A6
330
1F
100
AcDbEntity
  8
0
  6
Continuous
 62
     7
370
    25
100
AcDbLine
 10
6349.2587534045
 20
5008.172231859
 30
0.0
 11
6349.4934140439
 21
5008.1355525405
 31
0.0
  0
ARC
  5
A7
330
1F
100
AcDbEntity
  8
0
  6
Continuous
 62
     7
370
    25
100
AcDbCircle
 10
6349.1643853323
 20
5007.5685000273
 30
0.0
 40
0.6110625643868155
100
AcDbArc
 50
81.116100899
 51
240.3051265474
  0
LINE
  5
A8
330
1F
100
AcDbEntity
  8
0
  6
Continuous
 62
     7
370
    25
100
AcDbLine
 10
6349.0679957587
 20
5006.9200268238
 30
0.0
 11
6348.8616765814
 21
5007.0376847396
 31
0.0
  0
ARC
  5
A9
330
1F
100
AcDbEntity
  8
0
  6
Continuous
 62
     7
370
    25
100
AcDbCircle
 10
6348.8203052859
 20
5006.4856889027
 30
0.0
 40
0.5000000000034402
100
AcDbArc
 50
321.1161008993
 51
60.3051265468
  0
LINE
  5
AA
330
1F
100
AcDbEntity
  8
0
  6
Continuous
 62
     7
370
    25
100
AcDbLine
 10
6349.0604195366
 20
5005.986934319
 30
0.0
 11
6349.2095150779
 21
5006.1718167347
 31
0.0
  0
CIRCLE
  5
AB
330
1F
100
AcDbEntity
  8
0
  6
Continuous
 62
     7
370
    25
100
AcDbCircle
 10
6351.052109655
 20
4883.907820921
 30
0.0
 40
0.7499999999993178
  0
CIRCLE
  5
AC
330
1F
100
AcDbEntity
  8
0
  6
Continuous
 62
     7
370
    25
100
AcDbCircle
 10
6351.052109655
 20
4883.907820921
 30
0.0
 40
4.500000000000666
  0
ARC
  5
AD
330
1F
100
AcDbEntity
  8
0
  6
Continuous
 62
     7
370
    25
100
AcDbCircle
 10
6350.2838453711
 20
4882.0612646694
 30
0.0
 40
0.6110625643864099
100
AcDbArc
 50
167.8156140385
 51
327.0046396867
  0
LINE
  5
AE
330
1F
100
AcDbEntity
  8
0
  6
Continuous
 62
     7
370
    25
100
AcDbLine
 10
6350.9256935803
 20
4881.9277007444
 30
0.0
 11
6350.7963525075
 21
4881.7284976446
 31
0.0
  0
ARC
  5
AF
330
1F
100
AcDbEntity
  8
0
  6
Continuous
 62
     7
370
    25
100
AcDbCircle
 10
6351.3450509147
 20
4881.6554151846
 30
0.0
 40
0.5000000000033659
100
AcDbArc
 50
47.8156140388
 51
147.0046396864
  0
LINE
  5
B0
330
1F
100
AcDbEntity
  8
0
  6
Continuous
 62
     7
370
    25
100
AcDbLine
 10
6351.8568022079
 20
4881.8664166111
 30
0.0
 11
6351.6808102562
 21
4882.0259089965
 31
0.0
  0
ARC
  5
B1
330
1F
100
AcDbEntity
  8
0
  6
Continuous
 62
     7
370
    25
100
AcDbCircle
 10
6352.2671421364
 20
4882.3192064085
 30
0.0
 40
0.6110625643868777
100
AcDbArc
 50
227.8156140384
 51
27.0046396868
  0
LINE
  5
B2
330
1F
100
AcDbEntity
  8
0
  6
Continuous
 62
     7
370
    25
100
AcDbLine
 10
6352.7037359931
 20
4882.8082813005
 30
0.0
 11
6352.8115804016
 21
4882.5966670958
 31
0.0
  0
ARC
  5
B3
330
1F
100
AcDbEntity
  8
0
  6
Continuous
 62
     7
370
    25
100
AcDbCircle
 10
6353.1492208721
 20
4883.0353126255
 30
0.0
 40
0.4999999999999526
100
AcDbArc
 50
107.8156140381
 51
207.0046396869
  0
LINE
  5
B4
330
1F
100
AcDbEntity
  8
0
  6
Continuous
 62
     7
370
    25
100
AcDbLine
 10
6353.2223639232
 20
4883.5840029591
 30
0.0
 11
6352.9962434899
 21
4883.5113356507
 31
0.0
  0
ARC
  5
B5
330
1F
100
AcDbEntity
  8
0
  6
Continuous
 62
     7
370
    25
100
AcDbCircle
 10
6353.0354064203
 20
4884.1657626601
 30
0.0
 40
0.6110625643872158
100
AcDbArc
 50
287.8156140385
 51
87.0046396867
  0
LINE
  5
B6
330
1F
100
AcDbEntity
  8
0
  6
Continuous
 62
     7
370
    25
100
AcDbLine
 10
6352.8301520678
 20
4884.7884014771
 30
0.0
 11
6353.0673375491
 21
4884.7759903722
 31
0.0
  0
ARC
  5
B7
330
1F
100
AcDbEntity
  8
0
  6
Continuous
 62
     7
370
    25
100
AcDbCircle
 10
6352.8562796124
 20
4885.2877183619
 30
0.0
 40
0.5000000000036365
100
AcDbArc
 50
167.8156140388
 51
267.0046396863
  0
LINE
  5
B8
330
1F
100
AcDbEntity
  8
0
  6
Continuous
 62
     7
370
    25
100
AcDbLine
 10
6352.4176713703
 20
4885.625407269
 30
0.0
 11
6352.3675428887
 21
4885.3932475752
 31
0.0
  0
ARC
  5
B9
330
1F
100
AcDbEntity
  8
0
  6
Continuous
 62
     7
370
    25
100
AcDbCircle
 10
6351.8203739389
 20
4885.7543771725
 30
0.0
 40
0.6110625643879356
100
AcDbArc
 50
347.8156140384
 51
147.0046396868
  0
LINE
  5
BA
330
1F
100
AcDbEntity
  8
0
  6
Continuous
 62
     7
370
    25
100
AcDbLine
 10
6351.1785257297
 20
4885.8879410975
 30
0.0
 11
6351.3078668025
 21
4886.0871441973
 31
0.0
  0
ARC
  5
BB
330
1F
100
AcDbEntity
  8
0
  6
Continuous
 62
     7
370
    25
100
AcDbCircle
 10
6350.7591683953
 20
4886.1602266573
 30
0.0
 40
0.4999999999928854
100
AcDbArc
 50
227.8156140375
 51
327.0046396875
  0
LINE
  5
BC
330
1F
100
AcDbEntity
  8
0
  6
Continuous
 62
     7
370
    25
100
AcDbLine
 10
6350.247417102
 20
4885.9492252309
 30
0.0
 11
6350.4234090538
 21
4885.7897328455
 31
0.0
  0
ARC
  5
BD
330
1F
100
AcDbEntity
  8
0
  6
Continuous
 62
     7
370
    25
100
AcDbCircle
 10
6349.8370771736
 20
4885.4964354334
 30
0.0
 40
0.6110625643873848
100
AcDbArc
 50
47.8156140384
 51
207.0046396866
  0
LINE
  5
BE
330
1F
100
AcDbEntity
  8
0
  6
Continuous
 62
     7
370
    25
100
AcDbLine
 10
6349.4004833169
 20
4885.0073605414
 30
0.0
 11
6349.2926389084
 21
4885.2189747461
 31
0.0
  0
ARC
  5
BF
330
1F
100
AcDbEntity
  8
0
  6
Continuous
 62
     7
370
    25
100
AcDbCircle
 10
6348.9549984378
 20
4884.7803292164
 30
0.0
 40
0.4999999999965202
100
AcDbArc
 50
287.8156140379
 51
27.0046396872
  0
LINE
  5
C0
330
1F
100
AcDbEntity
  8
0
  6
Continuous
 62
     7
370
    25
100
AcDbLine
 10
6348.8818553867
 20
4884.2316388828
 30
0.0
 11
6349.1079758201
 21
4884.3043061912
 31
0.0
  0
ARC
  5
C1
330
1F
100
AcDbEntity
  8
0
  6
Continuous
 62
     7
370
    25
100
AcDbCircle
 10
6349.0688128897
 20
4883.6498791818
 30
0.0
 40
0.6110625643866239
100
AcDbArc
 50
107.8156140383
 51
267.0046396868
  0
LINE
  5
C2
330
1F
100
AcDbEntity
  8
0
  6
Continuous
 62
     7
370
    25
100
AcDbLine
 10
6349.2740672422
 20
4883.0272403648
 30
0.0
 11
6349.0368817609
 21
4883.0396514697
 31
0.0
  0
ARC
  5
C3
330
1F
100
AcDbEntity
  8
0
  6
Continuous
 62
     7
370
    25
100
AcDbCircle
 10
6349.2479396976
 20
4882.5279234801
 30
0.0
 40
0.4999999999992444
100
AcDbArc
 50
347.8156140384
 51
87.0046396868
  0
LINE
  5
C4
330
1F
100
AcDbEntity
  8
0
  6
Continuous
 62
     7
370
    25
100
AcDbLine
 10
6349.6865479397
 20
4882.1902345729
 30
0.0
 11
6349.7366764213
 21
4882.4223942667
 31
0.0
  0
ARC
  5
C5
330
1F
100
AcDbEntity
  8
0
  6
Continuous
 62
     7
370
    25
100
AcDbCircle
 10
6349.9435388508
 20
5008.5724742699
 30
0.0
 40
0.6110625643868878
100
AcDbArc
 50
44.0669963236
 51
203.2560219719
  0
LINE
  5
C6
330
1F
100
AcDbEntity
  8
0
  6
Continuous
 62
     7
370
    25
100
AcDbLine
 10
6349.4759038319
 20
5008.1129898472
 30
0.0
 11
6349.3821252932
 21
5008.331202069
 31
0.0
  0
ARC
  5
C7
330
1F
100
AcDbEntity
  8
0
  6
Continuous
 62
     7
370
    25
100
AcDbCircle
 10
6349.0165289738
 20
5007.9155696361
 30
0.0
 40
0.5000000000026642
100
AcDbArc
 50
284.0669963239
 51
23.2560219716
  0
LINE
  5
C8
330
1F
100
AcDbEntity
  8
0
  6
Continuous
 62
     7
370
    25
100
AcDbLine
 10
6348.9076695564
 20
5007.3728352487
 30
0.0
 11
6349.1380571253
 21
5007.430563545
 31
0.0
  0
ARC
  5
C9
330
1F
100
AcDbEntity
  8
0
  6
Continuous
 62
     7
370
    25
100
AcDbCircle
 10
6349.0561921642
 20
5006.7800971171
 30
0.0
 40
0.6110625643864511
100
AcDbArc
 50
104.0669963237
 51
263.2560219718
  0
LINE
  5
CA
330
1F
100
AcDbEntity
  8
0
  6
Continuous
 62
     7
370
    25
100
AcDbLine
 10
6349.2202998375
 20
5006.1453710997
 30
0.0
 11
6348.9844332406
 21
5006.1732626138
 31
0.0
  0
ARC
  5
CB
330
1F
100
AcDbEntity
  8
0
  6
Continuous
 62
     7
370
    25
100
AcDbCircle
 10
6349.1615833264
 20
5005.6488306972
 30
0.0
 40
0.50000000000173
100
AcDbArc
 50
344.0669963238
 51
83.2560219718
  0
LINE
  5
CC
330
1F
100
AcDbEntity
  8
0
  6
Continuous
 62
     7
370
    25
100
AcDbLine
 10
6349.5771753848
 20
5005.2831884826
 30
0.0
 11
6349.642374998
 21
5005.5115741181
 31
0.0
  0
ARC
  5
CD
330
1F
100
AcDbEntity
  8
0
  6
Continuous
 62
     7
370
    25
100
AcDbCircle
 10
6350.1647629684
 20
5005.1154437682
 30
0.0
 40
0.6110625643868097
100
AcDbArc
 50
164.0669963236
 51
323.2560219719
  0
LINE
  5
CE
330
1F
100
AcDbEntity
  8
0
  6
Continuous
 62
     7
370
    25
100
AcDbLine
 10
6350.7965056606
 20
5004.9402021734
 30
0.0
 11
6350.6544176024
 21
5004.7498814657
 31
0.0
  0
ARC
  5
CF
330
1F
100
AcDbEntity
  8
0
  6
Continuous
 62
     7
370
    25
100
AcDbCircle
 10
6351.1971640076
 20
5004.641081982
 30
0.0
 40
0.4999999999967599
100
AcDbArc
 50
44.0669963232
 51
143.2560219723
  0
LINE
  5
D0
330
1F
100
AcDbEntity
  8
0
  6
Continuous
 62
     7
370
    25
100
AcDbLine
 10
6351.7216154833
 20
5004.8181741549
 30
0.0
 11
6351.5564275277
 21
5004.988831494
 31
0.0
  0
ARC
  5
D1
330
1F
100
AcDbEntity
  8
0
  6
Continuous
 62
     7
370
    25
100
AcDbCircle
 10
6352.1606804591
 20
5005.243167572
 30
0.0
 40
0.6110625643871619
100
AcDbArc
 50
224.0669963236
 51
23.2560219719
  0
LINE
  5
D2
330
1F
100
AcDbEntity
  8
0
  6
Continuous
 62
     7
370
    25
100
AcDbLine
 10
6352.6283154781
 20
5005.7026519947
 30
0.0
 11
6352.7220940168
 21
5005.4844397729
 31
0.0
  0
ARC
  5
D3
330
1F
100
AcDbEntity
  8
0
  6
Continuous
 62
     7
370
    25
100
AcDbCircle
 10
6353.0876903362
 20
5005.9000722058
 30
0.0
 40
0.500000000001352
100
AcDbArc
 50
104.0669963239
 51
203.2560219718
  0
LINE
  5
D4
330
1F
100
AcDbEntity
  8
0
  6
Continuous
 62
     7
370
    25
100
AcDbLine
 10
6353.1965497535
 20
5006.4428065932
 30
0.0
 11
6352.9661621847
 21
5006.3850782969
 31
0.0
  0
ARC
  5
D5
330
1F
100
AcDbEntity
  8
0
  6
Continuous
 62
     7
370
    25
100
AcDbCircle
 10
6353.0480271457
 20
5007.0355447248
 30
0.0
 40
0.6110625643867967
100
AcDbArc
 50
284.0669963236
 51
83.2560219719
  0
LINE
  5
D6
330
1F
100
AcDbEntity
  8
0
  6
Continuous
 62
     7
370
    25
100
AcDbLine
 10
6352.8839194725
 20
5007.6702707422
 30
0.0
 11
6353.1197860694
 21
5007.6423792281
 31
0.0
  0
ARC
  5
D7
330
1F
100
AcDbEntity
  8
0
  6
Continuous
 62
     7
370
    25
100
AcDbCircle
 10
6352.9426359836
 20
5008.1668111448
 30
0.0
 40
0.4999999999956699
100
AcDbArc
 50
164.0669963231
 51
263.2560219723
  0
LINE
  5
D8
330
1F
100
AcDbEntity
  8
0
  6
Continuous
 62
     7
370
    25
100
AcDbLine
 10
6352.5270439252
 20
5008.5324533593
 30
0.0
 11
6352.4618443119
 21
5008.3040677238
 31
0.0
  0
ARC
  5
D9
330
1F
100
AcDbEntity
  8
0
  6
Continuous
 62
     7
370
    25
100
AcDbCircle
 10
6351.9394563416
 20
5008.7001980737
 30
0.0
 40
0.6110625643865601
100
AcDbArc
 50
344.0669963237
 51
143.2560219718
  0
LINE
  5
DA
330
1F
100
AcDbEntity
  8
0
  6
Continuous
 62
     7
370
    25
100
AcDbLine
 10
6351.3077136494
 20
5008.8754396685
 30
0.0
 11
6351.4498017076
 21
5009.0657603762
 31
0.0
  0
ARC
  5
DB
330
1F
100
AcDbEntity
  8
0
  6
Continuous
 62
     7
370
    25
100
AcDbCircle
 10
6350.9070553023
 20
5009.1745598599
 30
0.0
 40
0.4999999999999283
100
AcDbArc
 50
224.0669963233
 51
323.256021972
  0
LINE
  5
DC
330
1F
100
AcDbEntity
  8
0
  6
Continuous
 62
     7
370
    25
100
AcDbLine
 10
6350.3826038266
 20
5008.9974676871
 30
0.0
 11
6350.5477917822
 21
5008.8268103479
 31
0.0
  0
CIRCLE
  5
DD
330
1F
100
AcDbEntity
  8
0
  6
Continuous
 62
     7
370
    25
100
AcDbCircle
 10
6474.052109655
 20
4883.907820921
 30
0.0
 40
0.7499999999986747
  0
CIRCLE
  5
DE
330
1F
100
AcDbEntity
  8
0
  6
Continuous
 62
     7
370
    25
100
AcDbCircle
 10
6474.052109655
 20
4883.907820921
 30
0.0
 40
4.500000000000525
  0
ARC
  5
DF
330
1F
100
AcDbEntity
  8
0
  6
Continuous
 62
     7
370
    25
100
AcDbCircle
 10
6475.1327009207
 20
4882.224870382
 30
0.0
 40
0.6110625643875901
100
AcDbArc
 50
223.1092532972
 51
22.2982789452
  0
LINE
  5
E0
330
1F
100
AcDbEntity
  8
0
  6
Continuous
 62
     7
370
    25
100
AcDbLine
 10
6475.6079508864
 20
4882.6764740973
 30
0.0
 11
6475.6980689085
 21
4882.4567248535
 31
0.0
  0
ARC
  5
E1
330
1F
100
AcDbEntity
  8
0
  6
Continuous
 62
     7
370
    25
100
AcDbCircle
 10
6476.0705614445
 20
4882.8661882813
 30
0.0
 40
0.4999999999969791
100
AcDbArc
 50
103.1092532967
 51
202.2982789457
  0
LINE
  5
E2
330
1F
100
AcDbEntity
  8
0
  6
Continuous
 62
     7
370
    25
100
AcDbLine
 10
6476.1884774539
 20
4883.4070272617
 30
0.0
 11
6475.9571571434
 21
4883.3531579564
 31
0.0
  0
ARC
  5
E3
330
1F
100
AcDbEntity
  8
0
  6
Continuous
 62
     7
370
    25
100
AcDbCircle
 10
6476.0498832079
 20
4884.0021651387
 30
0.0
 40
0.6110625643871379
100
AcDbArc
 50
283.1092532973
 51
82.2982789452
  0
LINE
  5
E4
330
1F
100
AcDbEntity
  8
0
  6
Continuous
 62
     7
370
    25
100
AcDbLine
 10
6475.8964079008
 20
4884.6395455398
 30
0.0
 11
6476.1317753395
 21
4884.6077154143
 31
0.0
  0
ARC
  5
E5
330
1F
100
AcDbEntity
  8
0
  6
Continuous
 62
     7
370
    25
100
AcDbCircle
 10
6475.9634158771
 20
4885.1350351271
 30
0.0
 40
0.4999999999963095
100
AcDbArc
 50
163.1092532967
 51
262.2982789461
  0
LINE
  5
E6
330
1F
100
AcDbEntity
  8
0
  6
Continuous
 62
     7
370
    25
100
AcDbLine
 10
6475.5539935854
 20
4885.507572877
 30
0.0
 11
6475.4849856171
 21
4885.2803089591
 31
0.0
  0
ARC
  5
E7
330
1F
100
AcDbEntity
  8
0
  6
Continuous
 62
     7
370
    25
100
AcDbCircle
 10
6474.9692919422
 20
4885.6851156776
 30
0.0
 40
0.6110625643862513
100
AcDbArc
 50
343.1092532971
 51
142.2982789454
  0
LINE
  5
E8
330
1F
100
AcDbEntity
  8
0
  6
Continuous
 62
     7
370
    25
100
AcDbLine
 10
6474.3405666694
 20
4885.8708923635
 30
0.0
 11
6474.485816086
 21
4886.0588114818
 31
0.0
  0
ARC
  5
E9
330
1F
100
AcDbEntity
  8
0
  6
Continuous
 62
     7
370
    25
100
AcDbCircle
 10
6473.9449640876
 20
4886.1766677669
 30
0.0
 40
0.5000000000052024
100
AcDbArc
 50
223.1092532977
 51
322.2982789447
  0
LINE
  5
EA
330
1F
100
AcDbEntity
  8
0
  6
Continuous
 62
     7
370
    25
100
AcDbLine
 10
6473.4176257865
 20
4886.0083665362
 30
0.0
 11
6473.5799381286
 21
4885.8349719237
 31
0.0
  0
ARC
  5
EB
330
1F
100
AcDbEntity
  8
0
  6
Continuous
 62
     7
370
    25
100
AcDbCircle
 10
6472.9715183893
 20
4885.5907714599
 30
0.0
 40
0.611062564386709
100
AcDbArc
 50
43.1092532971
 51
202.2982789454
  0
LINE
  5
EC
330
1F
100
AcDbEntity
  8
0
  6
Continuous
 62
     7
370
    25
100
AcDbLine
 10
6472.4962684235
 20
4885.1391677446
 30
0.0
 11
6472.4061504015
 21
4885.3589169885
 31
0.0
  0
ARC
  5
ED
330
1F
100
AcDbEntity
  8
0
  6
Continuous
 62
     7
370
    25
100
AcDbCircle
 10
6472.0336578655
 20
4884.9494535607
 30
0.0
 40
0.5000000000040136
100
AcDbArc
 50
283.1092532976
 51
22.2982789449
  0
LINE
  5
EE
330
1F
100
AcDbEntity
  8
0
  6
Continuous
 62
     7
370
    25
100
AcDbLine
 10
6471.9157418561
 20
4884.4086145802
 30
0.0
 11
6472.1470621665
 21
4884.4624838855
 31
0.0
  0
ARC
  5
EF
330
1F
100
AcDbEntity
  8
0
  6
Continuous
 62
     7
370
    25
100
AcDbCircle
 10
6472.0543361021
 20
4883.8134767032
 30
0.0
 40
0.6110625643867253
100
AcDbArc
 50
103.1092532971
 51
262.2982789454
  0
LINE
  5
F0
330
1F
100
AcDbEntity
  8
0
  6
Continuous
 62
     7
370
    25
100
AcDbLine
 10
6472.2078114091
 20
4883.1760963021
 30
0.0
 11
6471.9724439704
 21
4883.2079264276
 31
0.0
  0
ARC
  5
F1
330
1F
100
AcDbEntity
  8
0
  6
Continuous
 62
     7
370
    25
100
AcDbCircle
 10
6472.1408034328
 20
4882.6806067148
 30
0.0
 40
0.4999999999987215
100
AcDbArc
 50
343.1092532969
 51
82.2982789456
  0
LINE
  5
F2
330
1F
100
AcDbEntity
  8
0
  6
Continuous
 62
     7
370
    25
100
AcDbLine
 10
6472.5502257246
 20
4882.3080689649
 30
0.0
 11
6472.6192336929
 21
4882.5353328828
 31
0.0
  0
ARC
  5
F3
330
1F
100
AcDbEntity
  8
0
  6
Continuous
 62
     7
370
    25
100
AcDbCircle
 10
6473.1349273678
 20
4882.1305261643
 30
0.0
 40
0.6110625643873636
100
AcDbArc
 50
163.1092532973
 51
322.2982789453
  0
LINE
  5
F4
330
1F
100
AcDbEntity
  8
0
  6
Continuous
 62
     7
370
    25
100
AcDbLine
 10
6473.7636526406
 20
4881.9447494784
 30
0.0
 11
6473.618403224
 21
4881.7568303601
 31
0.0
  0
ARC
  5
F5
330
1F
100
AcDbEntity
  8
0
  6
Continuous
 62
     7
370
    25
100
AcDbCircle
 10
6474.1592552223
 20
4881.6389740751
 30
0.0
 40
0.4999999999996085
100
AcDbArc
 50
43.109253297
 51
142.2982789454
  0
LINE
  5
F6
330
1F
100
AcDbEntity
  8
0
  6
Continuous
 62
     7
370
    25
100
AcDbLine
 10
6474.6865935235
 20
4881.8072753057
 30
0.0
 11
6474.5242811814
 21
4881.9806699182
 31
0.0
  0
CIRCLE
  5
F7
330
1F
100
AcDbEntity
  8
0
  6
Continuous
 62
     7
370
    25
100
AcDbCircle
 10
6474.052109655
 20
5006.907820921
 30
0.0
 40
0.7499999999997057
  0
CIRCLE
  5
F8
330
1F
100
AcDbEntity
  8
0
  6
Continuous
 62
     7
370
    25
100
AcDbCircle
 10
6474.052109655
 20
5006.907820921
 30
0.0
 40
4.500000000000338
  0
ARC
  5
F9
330
1F
100
AcDbEntity
  8
0
  6
Continuous
 62
     7
370
    25
100
AcDbCircle
 10
6474.6712806356
 20
5005.0060776952
 30
0.0
 40
0.6110625643869345
100
AcDbArc
 50
208.4397391718
 51
7.6287648201
  0
LINE
  5
FA
330
1F
100
AcDbEntity
  8
0
  6
Continuous
 62
     7
370
    25
100
AcDbLine
 10
6475.2454042956
 20
5005.3226064754
 30
0.0
 11
6475.2769346958
 21
5005.0871986975
 31
0.0
  0
ARC
  5
FB
330
1F
100
AcDbEntity
  8
0
  6
Continuous
 62
     7
370
    25
100
AcDbCircle
 10
6475.7409788042
 20
5005.3889834776
 30
0.0
 40
0.5000000000042853
100
AcDbArc
 50
88.4397391721
 51
187.6287648197
  0
LINE
  5
FC
330
1F
100
AcDbEntity
  8
0
  6
Continuous
 62
     7
370
    25
100
AcDbLine
 10
6475.9920148814
 20
5005.8823310995
 30
0.0
 11
6475.7545929658
 21
5005.8887980978
 31
0.0
  0
ARC
  5
FD
330
1F
100
AcDbEntity
  8
0
  6
Continuous
 62
     7
370
    25
100
AcDbCircle
 10
6476.0086530903
 20
5006.4931671066
 30
0.0
 40
0.6110625643867017
100
AcDbArc
 50
268.4397391718
 51
67.6287648201
  0
LINE
  5
FE
330
1F
100
AcDbEntity
  8
0
  6
Continuous
 62
     7
370
    25
100
AcDbLine
 10
6476.0215929555
 20
5007.1486371712
 30
0.0
 11
6476.2412272716
 21
5007.0582394097
 31
0.0
  0
ARC
  5
FF
330
1F
100
AcDbEntity
  8
0
  6
Continuous
 62
     7
370
    25
100
AcDbCircle
 10
6476.2118960398
 20
5007.6110057862
 30
0.0
 40
0.5000000000034814
100
AcDbArc
 50
148.4397391722
 51
247.6287648196
  0
LINE
  5
100
330
1F
100
AcDbEntity
  8
0
  6
Continuous
 62
     7
370
    25
100
AcDbLine
 10
6475.9101625049
 20
5008.0750832172
 30
0.0
 11
6475.7858509623
 21
5007.872703306
 31
0.0
  0
ARC
  5
101
330
1F
100
AcDbEntity
  8
0
  6
Continuous
 62
     7
370
    25
100
AcDbCircle
 10
6475.3894821096
 20
5008.3949103324
 30
0.0
 40
0.6110625643858948
100
AcDbArc
 50
328.4397391719
 51
127.6287648201
  0
LINE
  5
102
330
1F
100
AcDbEntity
  8
0
  6
Continuous
 62
     7
370
    25
100
AcDbLine
 10
6474.8282983149
 20
5008.7338516167
 30
0.0
 11
6475.0164022308
 21
5008.8788616332
 31
0.0
  0
ARC
  5
103
330
1F
100
AcDbEntity
  8
0
  6
Continuous
 62
     7
370
    25
100
AcDbCircle
 10
6474.5230268906
 20
5009.1298432296
 30
0.0
 40
0.5000000000001149
100
AcDbArc
 50
208.4397391718
 51
307.62876482
  0
LINE
  5
104
330
1F
100
AcDbEntity
  8
0
  6
Continuous
 62
     7
370
    25
100
AcDbLine
 10
6473.9702572785
 20
5009.1005730387
 30
0.0
 11
6474.0833676515
 21
5008.8917261292
 31
0.0
  0
ARC
  5
105
330
1F
100
AcDbEntity
  8
0
  6
Continuous
 62
     7
370
    25
100
AcDbCircle
 10
6473.4329386743
 20
5008.8095641467
 30
0.0
 40
0.6110625643883633
100
AcDbArc
 50
28.439739172
 51
187.6287648199
  0
LINE
  5
106
330
1F
100
AcDbEntity
  8
0
  6
Continuous
 62
     7
370
    25
100
AcDbLine
 10
6472.8588150144
 20
5008.4930353665
 30
0.0
 11
6472.8272846142
 21
5008.7284431445
 31
0.0
  0
ARC
  5
107
330
1F
100
AcDbEntity
  8
0
  6
Continuous
 62
     7
370
    25
100
AcDbCircle
 10
6472.3632405058
 20
5008.4266583644
 30
0.0
 40
0.4999999999970176
100
AcDbArc
 50
268.4397391714
 51
7.6287648206
  0
LINE
  5
108
330
1F
100
AcDbEntity
  8
0
  6
Continuous
 62
     7
370
    25
100
AcDbLine
 10
6472.1122044286
 20
5007.9333107424
 30
0.0
 11
6472.3496263442
 21
5007.9268437441
 31
0.0
  0
ARC
  5
109
330
1F
100
AcDbEntity
  8
0
  6
Continuous
 62
     7
370
    25
100
AcDbCircle
 10
6472.0955662197
 20
5007.3224747353
 30
0.0
 40
0.6110625643863064
100
AcDbArc
 50
88.4397391719
 51
247.62876482
  0
LINE
  5
10A
330
1F
100
AcDbEntity
  8
0
  6
Continuous
 62
     7
370
    25
100
AcDbLine
 10
6472.0826263544
 20
5006.6670046707
 30
0.0
 11
6471.8629920383
 21
5006.7574024322
 31
0.0
  0
ARC
  5
10B
330
1F
100
AcDbEntity
  8
0
  6
Continuous
 62
     7
370
    25
100
AcDbCircle
 10
6471.8923232702
 20
5006.2046360558
 30
0.0
 40
0.500000000003387
100
AcDbArc
 50
328.4397391723
 51
67.6287648196
  0
LINE
  5
10C
330
1F
100
AcDbEntity
  8
0
  6
Continuous
 62
     7
370
    25
100
AcDbLine
 10
6472.1940568051
 20
5005.7405586247
 30
0.0
 11
6472.3183683477
 21
5005.9429385359
 31
0.0
  0
ARC
  5
10D
330
1F
100
AcDbEntity
  8
0
  6
Continuous
 62
     7
370
    25
100
AcDbCircle
 10
6472.7147372003
 20
5005.4207315096
 30
0.0
 40
0.6110625643861998
100
AcDbArc
 50
148.4397391717
 51
307.6287648202
  0
LINE
  5
10E
330
1F
100
AcDbEntity
  8
0
  6
Continuous
 62
     7
370
    25
100
AcDbLine
 10
6473.275920995
 20
5005.0817902252
 30
0.0
 11
6473.0878170791
 21
5004.9367802087
 31
0.0
  0
ARC
  5
10F
330
1F
100
AcDbEntity
  8
0
  6
Continuous
 62
     7
370
    25
100
AcDbCircle
 10
6473.5811924194
 20
5004.6857986124
 30
0.0
 40
0.4999999999994952
100
AcDbArc
 50
28.4397391717
 51
127.6287648201
  0
LINE
  5
110
330
1F
100
AcDbEntity
  8
0
  6
Continuous
 62
     7
370
    25
100
AcDbLine
 10
6474.1339620314
 20
5004.7150688032
 30
0.0
 11
6474.0208516585
 21
5004.9239157127
 31
0.0
  0
ARC
  5
111
330
1F
100
AcDbEntity
  8
0
  6
Continuous
 62
     7
370
    25
100
AcDbCircle
 10
6475.5061717009
 20
4885.2810301427
 30
0.0
 40
0.611062564387108
100
AcDbArc
 50
323.7674189046
 51
122.9564445529
  0
LINE
  5
112
330
1F
100
AcDbEntity
  8
0
  6
Continuous
 62
     7
370
    25
100
AcDbLine
 10
6474.9744619485
 20
4885.6645574362
 30
0.0
 11
6475.1737528519
 21
4885.7937631789
 31
0.0
  0
ARC
  5
113
330
1F
100
AcDbEntity
  8
0
  6
Continuous
 62
     7
370
    25
100
AcDbCircle
 10
6474.7024612825
 20
4886.0840996125
 30
0.0
 40
0.4999999999981917
100
AcDbArc
 50
203.7674189043
 51
302.9564445531
  0
LINE
  5
114
330
1F
100
AcDbEntity
  8
0
  6
Continuous
 62
     7
370
    25
100
AcDbLine
 10
6474.1491443413
 20
4886.0999536567
 30
0.0
 11
6474.244866785
 21
4885.8825871417
 31
0.0
  0
ARC
  5
115
330
1F
100
AcDbEntity
  8
0
  6
Continuous
 62
     7
370
    25
100
AcDbCircle
 10
6473.5899066072
 20
4885.8536802023
 30
0.0
 40
0.6110625643879154
100
AcDbArc
 50
23.7674189046
 51
182.9564445527
  0
LINE
  5
116
330
1F
100
AcDbEntity
  8
0
  6
Continuous
 62
     7
370
    25
100
AcDbLine
 10
6472.9919073518
 20
4885.5849696961
 30
0.0
 11
6472.979657348
 21
4885.8221635524
 31
0.0
  0
LINE
  5
117
330
1F
100
AcDbEntity
  8
0
  6
Continuous
 62
     7
370
    25
100
AcDbLine
 10
6472.2021843606
 20
4885.0879217922
 30
0.0
 11
6472.4382905064
 21
4885.0621366027
 31
0.0
  0
ARC
  5
118
330
1F
100
AcDbEntity
  8
0
  6
Continuous
 62
     7
370
    25
100
AcDbCircle
 10
6472.1358445613
 20
4884.4804709806
 30
0.0
 40
0.6110625643864366
100
AcDbArc
 50
83.7674189044
 51
242.9564445528
  0
LINE
  5
119
330
1F
100
AcDbEntity
  8
0
  6
Continuous
 62
     7
370
    25
100
AcDbLine
 10
6472.0695550582
 20
4883.8282331808
 30
0.0
 11
6471.8580141511
 21
4883.9362212945
 31
0.0
  0
ARC
  5
11A
330
1F
100
AcDbEntity
  8
0
  6
Continuous
 62
     7
370
    25
100
AcDbCircle
 10
6471.8422212086
 20
4883.382902606
 30
0.0
 40
0.4999999999999005
100
AcDbArc
 50
323.7674189043
 51
62.9564445529
  0
LINE
  5
11B
330
1F
100
AcDbEntity
  8
0
  6
Continuous
 62
     7
370
    25
100
AcDbLine
 10
6472.1051496742
 20
4882.8957890565
 30
0.0
 11
6472.2455333763
 21
4883.087370382
 31
0.0
  0
ARC
  5
11C
330
1F
100
AcDbEntity
  8
0
  6
Continuous
 62
     7
370
    25
100
AcDbCircle
 10
6472.5980476091
 20
4882.5346116992
 30
0.0
 40
0.6110625643862863
100
AcDbArc
 50
143.7674189045
 51
302.9564445529
  0
LINE
  5
11D
330
1F
100
AcDbEntity
  8
0
  6
Continuous
 62
     7
370
    25
100
AcDbLine
 10
6473.1297573614
 20
4882.1510844057
 30
0.0
 11
6472.9304664581
 21
4882.0218786631
 31
0.0
  0
ARC
  5
11E
330
1F
100
AcDbEntity
  8
0
  6
Continuous
 62
     7
370
    25
100
AcDbCircle
 10
6473.4017580275
 20
4881.7315422294
 30
0.0
 40
0.4999999999941452
100
AcDbArc
 50
23.7674189038
 51
122.9564445537
  0
LINE
  5
11F
330
1F
100
AcDbEntity
  8
0
  6
Continuous
 62
     7
370
    25
100
AcDbLine
 10
6473.9550749686
 20
4881.7156881853
 30
0.0
 11
6473.8593525249
 21
4881.9330547003
 31
0.0
  0
ARC
  5
120
330
1F
100
AcDbEntity
  8
0
  6
Continuous
 62
     7
370
    25
100
AcDbCircle
 10
6474.5143127027
 20
4881.9619616397
 30
0.0
 40
0.6110625643885096
100
AcDbArc
 50
203.7674189047
 51
2.9564445528
  0
LINE
  5
121
330
1F
100
AcDbEntity
  8
0
  6
Continuous
 62
     7
370
    25
100
AcDbLine
 10
6475.1123119582
 20
4882.2306721458
 30
0.0
 11
6475.1245619619
 21
4881.9934782895
 31
0.0
  0
ARC
  5
122
330
1F
100
AcDbEntity
  8
0
  6
Continuous
 62
     7
370
    25
100
AcDbCircle
 10
6475.6116464738
 20
4882.2564605444
 30
0.0
 40
0.4999999999974865
100
AcDbArc
 50
83.767418904
 51
182.9564445532
  0
LINE
  5
123
330
1F
100
AcDbEntity
  8
0
  6
Continuous
 62
     7
370
    25
100
AcDbLine
 10
6475.9020349494
 20
4882.7277200497
 30
0.0
 11
6475.6659288036
 21
4882.7535052392
 31
0.0
  0
ARC
  5
124
330
1F
100
AcDbEntity
  8
0
  6
Continuous
 62
     7
370
    25
100
AcDbCircle
 10
6475.9683747487
 20
4883.3351708614
 30
0.0
 40
0.611062564386023
100
AcDbArc
 50
263.7674189044
 51
62.9564445529
  0
LINE
  5
125
330
1F
100
AcDbEntity
  8
0
  6
Continuous
 62
     7
370
    25
100
AcDbLine
 10
6476.0346642518
 20
4883.9874086611
 30
0.0
 11
6476.2462051588
 21
4883.8794205474
 31
0.0
  0
ARC
  5
126
330
1F
100
AcDbEntity
  8
0
  6
Continuous
 62
     7
370
    25
100
AcDbCircle
 10
6476.2619981013
 20
4884.4327392359
 30
0.0
 40
0.5000000000024934
100
AcDbArc
 50
143.7674189048
 51
242.9564445525
  0
LINE
  5
127
330
1F
100
AcDbEntity
  8
0
  6
Continuous
 62
     7
370
    25
100
AcDbLine
 10
6475.9990696357
 20
4884.9198527854
 30
0.0
 11
6475.8586859337
 21
4884.7282714599
 31
0.0
  0
ARC
  5
128
330
1F
100
AcDbEntity
  8
0
  6
Continuous
 62
     7
370
    25
100
AcDbCircle
 10
6472.4925728361
 20
4885.5591812975
 30
0.0
 40
0.5000000000003957
100
AcDbArc
 50
263.7674189044
 51
2.9564445529
  0
LINE
  5
129
330
1F
100
AcDbEntity
  8
0
  6
Continuous
 62
     7
370
    25
100
AcDbLine
 10
6373.494541817
 20
4859.4851711901
 30
0.0
 11
6373.494541817
 21
4860.407820921
 31
0.0
  0
LWPOLYLINE
  5
12A
330
1F
100
AcDbEntity
  8
0
  6
Continuous
 62
     7
370
    25
100
AcDbPolyline
 90
        3
 70
   128
 43
0.0
 10
6370.1621862822
 20
4858.907820921
 10
6370.5347916691
 20
4858.9514514097
 10
6373.494541817
 20
4859.4851711901
  0
LINE
  5
12B
330
1F
100
AcDbEntity
  8
0
  6
Continuous
 62
     7
370
    25
100
AcDbLine
 10
6361.609677493
 20
4859.4851711901
 30
0.0
 11
6364.9420330278
 21
4858.907820921
 31
0.0
  0
LINE
  5
12C
330
1F
100
AcDbEntity
  8
0
  6
Continuous
 62
     7
370
    25
100
AcDbLine
 10
6361.609677493
 20
4860.407820921
 30
0.0
 11
6361.609677493
 21
4859.4851711901
 31
0.0
  0
LINE
  5
12D
330
1F
100
AcDbEntity
  8
0
  6
Continuous
 62
     7
370
    25
100
AcDbLine
 10
6370.1621862822
 20
4858.907820921
 30
0.0
 11
6364.9420330278
 21
4858.907820921
 31
0.0
  0
LINE
  5
12E
330
1F
100
AcDbEntity
  8
0
  6
Continuous
 62
     7
370
    25
100
AcDbLine
 10
6354.331609655
 20
4858.9075308096
 30
0.0
 11
6380.772609655
 21
4858.9075308096
 31
0.0
  0
LINE
  5
12F
330
1F
100
AcDbEntity
  8
0
  6
Continuous
 62
     7
370
    25
100
AcDbLine
 10
6356.1028208042
 20
4855.9081110323
 30
0.0
 11
6354.331609655
 21
4855.9081110323
 31
0.0
  0
LINE
  5
130
330
1F
100
AcDbEntity
  8
0
  6
Continuous
 62
     7
370
    25
100
AcDbLine
 10
6380.772609655
 20
4855.9081110323
 30
0.0
 11
6356.1028208042
 21
4855.9081110323
 31
0.0
  0
LINE
  5
131
330
1F
100
AcDbEntity
  8
0
  6
Continuous
 62
     7
370
    25
100
AcDbLine
 10
6354.331609655
 20
4850.907820921
 30
0.0
 11
6380.772609655
 21
4850.907820921
 31
0.0
  0
LINE
  5
132
330
1F
100
AcDbEntity
  8
0
  6
Continuous
 62
     7
370
    25
100
AcDbLine
 10
6379.772609655
 20
4849.907820921
 30
0.0
 11
6355.331609655
 21
4849.907820921
 31
0.0
  0
LWPOLYLINE
  5
133
330
1F
100
AcDbEntity
  8
0
  6
Continuous
 62
     7
370
    25
100
AcDbPolyline
 90
        3
 70
   128
 43
0.0
 10
6357.1658050175
 20
4858.907820921
 10
6357.9055949653
 20
4859.1132768724
 10
6358.8319827849
 20
4859.4851711901
  0
LINE
  5
134
330
1F
100
AcDbEntity
  8
0
  6
Continuous
 62
     7
370
    25
100
AcDbLine
 10
6358.8319827849
 20
4859.4851711901
 30
0.0
 11
6361.609677493
 21
4859.4851711901
 31
0.0
  0
LINE
  5
135
330
1F
100
AcDbEntity
  8
0
  6
Continuous
 62
     7
370
    25
100
AcDbLine
 10
6357.1658050175
 20
4858.907820921
 30
0.0
 11
6364.9420330278
 21
4858.907820921
 31
0.0
  0
LINE
  5
136
330
1F
100
AcDbEntity
  8
0
  6
Continuous
 62
     7
370
    25
100
AcDbLine
 10
6376.2722365251
 20
4859.4851711901
 30
0.0
 11
6377.9384142925
 21
4858.907820921
 31
0.0
  0
LINE
  5
137
330
1F
100
AcDbEntity
  8
0
  6
Continuous
 62
     7
370
    25
100
AcDbLine
 10
6373.494541817
 20
4859.4851711901
 30
0.0
 11
6376.2722365251
 21
4859.4851711901
 31
0.0
  0
LINE
  5
138
330
1F
100
AcDbEntity
  8
0
  6
Continuous
 62
     7
370
    25
100
AcDbLine
 10
6370.1621862822
 20
4858.907820921
 30
0.0
 11
6377.9384142925
 21
4858.907820921
 31
0.0
  0
LINE
  5
139
330
1F
100
AcDbEntity
  8
0
  6
Continuous
 62
     7
370
    25
100
AcDbLine
 10
6358.8319827849
 20
4859.4851711901
 30
0.0
 11
6358.8319827849
 21
4860.407820921
 31
0.0
  0
LINE
  5
13A
330
1F
100
AcDbEntity
  8
0
  6
Continuous
 62
     7
370
    25
100
AcDbLine
 10
6376.2722365251
 20
4860.407820921
 30
0.0
 11
6376.2722365251
 21
4859.4851711901
 31
0.0
  0
LWPOLYLINE
  5
13B
330
1F
100
AcDbEntity
  8
0
  6
Continuous
 62
     7
370
    25
100
AcDbPolyline
 90
        3
 70
   128
 43
0.0
 10
6352.8895506229
 20
4859.4851711901
 10
6353.3333918449
 20
4859.2919244578
 10
6354.5557283903
 20
4858.907820921
  0
LINE
  5
13C
330
1F
100
AcDbEntity
  8
0
  6
Continuous
 62
     7
370
    25
100
AcDbLine
 10
6352.8895506229
 20
4860.407820921
 30
0.0
 11
6352.8895506229
 21
4859.4851711901
 31
0.0
  0
LINE
  5
13D
330
1F
100
AcDbEntity
  8
0
  6
Continuous
 62
     7
370
    25
100
AcDbLine
 10
6357.1658050175
 20
4858.907820921
 30
0.0
 11
6354.5557283903
 21
4858.907820921
 31
0.0
  0
LINE
  5
13E
330
1F
100
AcDbEntity
  8
0
  6
Continuous
 62
     7
370
    25
100
AcDbLine
 10
6382.2146686871
 20
4859.4851711901
 30
0.0
 11
6382.2146686871
 21
4860.407820921
 31
0.0
  0
LWPOLYLINE
  5
13F
330
1F
100
AcDbEntity
  8
0
  6
Continuous
 62
     7
370
    25
100
AcDbPolyline
 90
        3
 70
   128
 43
0.0
 10
6380.5484909197
 20
4858.907820921
 10
6380.7347936131
 20
4858.9514514097
 10
6382.2146686871
 20
4859.4851711901
  0
LINE
  5
140
330
1F
100
AcDbEntity
  8
0
  6
Continuous
 62
     7
370
    25
100
AcDbLine
 10
6380.5484909197
 20
4858.907820921
 30
0.0
 11
6377.9384142925
 21
4858.907820921
 31
0.0
  0
LINE
  5
141
330
1F
100
AcDbEntity
  8
0
  6
Continuous
 62
     7
370
    25
100
AcDbLine
 10
6352.802109655
 20
4859.4851711901
 30
0.0
 11
6352.8895506229
 21
4859.4851711901
 31
0.0
  0
LINE
  5
142
330
1F
100
AcDbEntity
  8
0
  6
Continuous
 62
     7
370
    25
100
AcDbLine
 10
6353.802109655
 20
4858.907820921
 30
0.0
 11
6354.5557283903
 21
4858.907820921
 31
0.0
  0
LINE
  5
143
330
1F
100
AcDbEntity
  8
0
  6
Continuous
 62
     7
370
    25
100
AcDbLine
 10
6382.2146686871
 20
4859.4851711901
 30
0.0
 11
6382.302109655
 21
4859.4851711901
 31
0.0
  0
LINE
  5
144
330
1F
100
AcDbEntity
  8
0
  6
Continuous
 62
     7
370
    25
100
AcDbLine
 10
6380.5484909197
 20
4858.907820921
 30
0.0
 11
6381.302109655
 21
4858.907820921
 31
0.0
  0
LWPOLYLINE
  5
145
330
1F
100
AcDbEntity
  8
0
  6
Continuous
 62
     7
370
    25
100
AcDbPolyline
 90
       38
 70
   128
 43
0.0
 10
6400.9448233906
 20
4912.3160521018
 10
6400.4320586701
 20
4912.7406252671
 10
6399.6177961998
 20
4913.6545071672
 10
6399.2404893879
 20
4914.2203612235
 10
6398.9439205468
 20
4914.8003170875
 10
6398.7302595198
 20
4915.3889143482
 10
6398.5971452995
 20
4916.0005804598
 10
6398.552109655
 20
4916.6220838953
 10
6398.5973300399
 20
4917.2448589661
 10
6398.7302525636
 20
4917.8552295424
 10
6398.9439100235
 20
4918.4438265703
 10
6399.2404800732
 20
4919.0237906708
 10
6399.6177961998
 20
4919.5896606234
 10
6400.9115350827
 20
4920.9303375454
 10
6402.6526147184
 20
4922.1054506957
 10
6404.7741263927
 20
4923.069841135
 10
6407.1945416019
 20
4923.7864478796
 10
6409.8208451468
 20
4924.227732134
 10
6412.552109655
 20
4924.3767355919
 10
6415.2833741632
 20
4924.227732134
 10
6417.9096777081
 20
4923.7864478796
 10
6420.3300929173
 20
4923.069841135
 10
6422.4516045916
 20
4922.1054506957
 10
6423.6550882873
 20
4921.3456863191
 10
6424.6721606363
 20
4920.503542527
 10
6425.4864231101
 20
4919.5896606234
 10
6425.8637299235
 20
4919.0238065645
 10
6426.1602987653
 20
4918.4438506981
 10
6426.3739597921
 20
4917.8552534354
 10
6426.5070740105
 20
4917.24358733
 10
6426.552109655
 20
4916.6220838953
 10
6426.5068892665
 20
4915.9993087998
 10
6426.3739667436
 20
4915.3889382387
 10
6426.1603092849
 20
4914.8003412165
 10
6425.8637392359
 20
4914.2203771185
 10
6425.4864231101
 20
4913.6545071672
 10
6424.1926842272
 20
4912.3138302452
 10
6424.1824220784
 20
4912.3069039761
  0
LWPOLYLINE
  5
146
330
1F
100
AcDbEntity
  8
0
  6
Continuous
 62
     7
370
    25
100
AcDbPolyline
 90
       33
 70
   128
 43
0.0
 10
6412.552109655
 20
4908.4140690048
 10
6415.0287018348
 20
4908.5438577431
 10
6417.410119966
 20
4908.9282362497
 10
6419.6048474853
 20
4909.552433074
 10
6421.5285422451
 20
4910.3924606822
 10
6423.1072777345
 20
4911.4160372844
 10
6424.2803840339
 20
4912.5838274058
 10
6425.0027793263
 20
4913.8509535269
 10
6425.2467023656
 20
4915.1687207015
 10
6425.0027793263
 20
4916.4864878761
 10
6424.2803840339
 20
4917.7536139972
 10
6423.1072777345
 20
4918.9214041186
 10
6421.5285422451
 20
4919.9449807207
 10
6419.6048474853
 20
4920.7850083289
 10
6417.410119966
 20
4921.4092051533
 10
6415.0287018348
 20
4921.7935836598
 10
6412.552109655
 20
4921.9233723981
 10
6410.0755174752
 20
4921.7935836598
 10
6407.694099344
 20
4921.4092051533
 10
6405.4993718246
 20
4920.7850083289
 10
6403.5756770649
 20
4919.9449807207
 10
6401.9969415755
 20
4918.9214041186
 10
6400.823835276
 20
4917.7536139972
 10
6400.1014399836
 20
4916.4864878761
 10
6399.8575169443
 20
4915.1687207015
 10
6400.1014399836
 20
4913.8509535269
 10
6400.823835276
 20
4912.5838274058
 10
6401.9969415755
 20
4911.4160372844
 10
6403.5756770649
 20
4910.3924606822
 10
6405.4993718246
 20
4909.552433074
 10
6407.694099344
 20
4908.9282362497
 10
6410.0755174752
 20
4908.5438577431
 10
6412.552109655
 20
4908.4140690048
  0
LWPOLYLINE
  5
147
330
1F
100
AcDbEntity
  8
0
  6
Continuous
 62
     7
370
    25
100
AcDbPolyline
 90
       43
 70
   128
 43
0.0
 10
6412.552109655
 20
4910.8373835835
 10
6413.9493809004
 20
4910.8897390855
 10
6415.3154394151
 20
4911.0456360563
 10
6416.6197697092
 20
4911.3015920152
 10
6417.8332351993
 20
4911.6518893289
 10
6418.9287290716
 20
4912.0887029343
 10
6419.8817798031
 20
4912.6022751373
 10
6420.6710978155
 20
4913.1811335835
 10
6421.2790510485
 20
4913.8123475318
 10
6421.6920588317
 20
4914.4818167056
 10
6421.9008952536
 20
4915.1745862698
 10
6421.9008952536
 20
4915.8751808972
 10
6421.6920588317
 20
4916.5679504614
 10
6421.2790510485
 20
4917.2374196352
 10
6420.6710978155
 20
4917.8686335835
 10
6419.8817798031
 20
4918.4474920297
 10
6418.9287290716
 20
4918.9610642327
 10
6417.8332351993
 20
4919.3978778381
 10
6416.6197697092
 20
4919.7481751518
 10
6415.3154394151
 20
4920.0041311106
 10
6413.9493809004
 20
4920.1600280814
 10
6412.552109655
 20
4920.2123835835
 10
6411.1548384096
 20
4920.1600280814
 10
6409.7887798949
 20
4920.0041311106
 10
6408.4844496008
 20
4919.7481751518
 10
6407.2709841106
 20
4919.3978778381
 10
6406.1754902384
 20
4918.9610642327
 10
6405.2224395068
 20
4918.4474920297
 10
6404.4331214945
 20
4917.8686335835
 10
6403.8251682614
 20
4917.2374196352
 10
6403.4121604783
 20
4916.5679504614
 10
6403.2033240564
 20
4915.8751808972
 10
6403.2033240564
 20
4915.1745862698
 10
6403.4121604783
 20
4914.4818167056
 10
6403.8251682614
 20
4913.8123475318
 10
6404.4331214945
 20
4913.1811335835
 10
6405.2224395068
 20
4912.6022751373
 10
6406.1754902384
 20
4912.0887029343
 10
6407.2709841106
 20
4911.6518893289
 10
6408.4844496008
 20
4911.3015920152
 10
6409.7887798949
 20
4911.0456360563
 10
6411.1548384096
 20
4910.8897390855
 10
6412.552109655
 20
4910.8373835835
  0
ELLIPSE
  5
148
330
1F
100
AcDbEntity
  8
0
  6
Continuous
 62
     7
370
    25
100
AcDbEllipse
 10
6412.552109655
 20
4952.856741074
 30
0.0
 11
0.0
 21
18.2757020506524
 31
3.552713678800501E-15
210
6.851662094829538E-15
220
-1.943954694027022E-16
230
1.0
 40
0.7660444431
 41
0.0
 42
1.570796326794897
  0
ELLIPSE
  5
149
330
1F
100
AcDbEntity
  8
0
  6
Continuous
 62
     7
370
    25
100
AcDbEllipse
 10
6412.552109655
 20
4952.856741074
 30
0.0
 11
0.0
 21
18.2757020506524
 31
3.552713678800501E-15
210
6.851662094829538E-15
220
-1.943954694027022E-16
230
1.0
 40
0.7660444431
 41
4.71238898038475
 42
6.283185307179586
  0
ARC
  5
14A
330
1F
100
AcDbEntity
  8
0
  6
Continuous
 62
     7
370
    25
100
AcDbCircle
 10
6412.5539720709
 20
4929.9942157103
 30
0.0
 40
18.22869249255214
100
AcDbArc
 50
262.1161047022
 51
274.1421465325
  0
ARC
  5
14B
330
1F
100
AcDbEntity
  8
0
  6
Continuous
 62
     7
370
    25
100
AcDbCircle
 10
6412.7624035344
 20
4927.2515939341
 30
0.0
 40
16.34152884028437
100
AcDbArc
 50
274.4554352093
 51
284.5804830355
  0
LINE
  5
14C
330
1F
100
AcDbEntity
  8
0
  6
Continuous
 62
     7
370
    25
100
AcDbLine
 10
6416.8762152285
 20
4912.3023697925
 30
0.0
 11
6416.8762152285
 21
4911.4363443887
 31
0.0
  0
ARC
  5
14D
330
1F
100
AcDbEntity
  8
0
  6
Continuous
 62
     7
370
    25
100
AcDbCircle
 10
6414.1799637268
 20
4922.9604863405
 30
0.0
 40
10.99387195263186
100
AcDbArc
 50
284.1966321096
 51
299.5442419007
  0
ARC
  5
14E
330
1F
100
AcDbEntity
  8
0
  6
Continuous
 62
     7
370
    25
100
AcDbCircle
 10
6417.4843007465
 20
4916.715773479
 30
0.0
 40
4.667637097113745
100
AcDbArc
 50
303.4178834075
 51
326.8396714357
  0
LINE
  5
14F
330
1F
100
AcDbEntity
  8
0
  6
Continuous
 62
     7
370
    25
100
AcDbLine
 10
6421.3917816081
 20
4915.0286773843
 30
0.0
 11
6421.3917816081
 21
4914.1626519805
 31
0.0
  0
ARC
  5
150
330
1F
100
AcDbEntity
  8
0
  6
Continuous
 62
     7
370
    25
100
AcDbCircle
 10
6419.200848501
 20
4916.4341909439
 30
0.0
 40
2.603009075327816
100
AcDbArc
 50
327.3192729169
 51
356.9112175278
  0
LINE
  5
151
330
1F
100
AcDbEntity
  8
0
  6
Continuous
 62
     7
370
    25
100
AcDbLine
 10
6421.6829803243
 20
4916.5876424719
 30
0.0
 11
6421.6829803243
 21
4916.2647654692
 31
0.0
  0
ARC
  5
152
330
1F
100
AcDbEntity
  8
0
  6
Continuous
 62
     7
370
    25
100
AcDbCircle
 10
6418.4154648303
 20
4915.1042958247
 30
0.0
 40
3.46746987005589
100
AcDbArc
 50
19.5526737768
 51
48.1436316319
  0
LINE
  5
153
330
1F
100
AcDbEntity
  8
0
  6
Continuous
 62
     7
370
    25
100
AcDbLine
 10
6420.7291880445
 20
4917.8175901724
 30
0.0
 11
6420.7291880445
 21
4917.6869363702
 31
0.0
  0
LINE
  5
154
330
1F
100
AcDbEntity
  8
0
  6
Continuous
 62
     7
370
    25
100
AcDbLine
 10
6417.9622592261
 20
4919.3530981353
 30
0.0
 11
6417.9622592261
 21
4919.2763093664
 31
0.0
  0
ARC
  5
155
330
1F
100
AcDbEntity
  8
0
  6
Continuous
 62
     7
370
    25
100
AcDbCircle
 10
6413.1475546027
 20
4905.6605014004
 30
0.0
 40
14.44200841901339
100
AcDbArc
 50
70.5258261228
 51
81.5226494902
  0
LINE
  5
156
330
1F
100
AcDbEntity
  8
0
  6
Continuous
 62
     7
370
    25
100
AcDbLine
 10
6415.2765728609
 20
4920.0100793774
 30
0.0
 11
6415.2765728609
 21
4919.9447195601
 31
0.0
  0
LINE
  5
157
330
1F
100
AcDbEntity
  8
0
  6
Continuous
 62
     7
370
    25
100
AcDbLine
 10
6411.0723458835
 20
4920.1536232656
 30
0.0
 11
6411.0723458835
 21
4920.0903189182
 31
0.0
  0
ARC
  5
158
330
1F
100
AcDbEntity
  8
0
  6
Continuous
 62
     7
370
    25
100
AcDbCircle
 10
6412.3418157756
 20
4903.7981732328
 30
0.0
 40
16.34152884034408
100
AcDbArc
 50
94.4554352093
 51
104.5804830355
  0
LINE
  5
159
330
1F
100
AcDbEntity
  8
0
  6
Continuous
 62
     7
370
    25
100
AcDbLine
 10
6408.2280040815
 20
4919.6839921415
 30
0.0
 11
6408.2280040815
 21
4919.6134227783
 31
0.0
  0
LINE
  5
15A
330
1F
100
AcDbEntity
  8
0
  6
Continuous
 62
     7
370
    25
100
AcDbLine
 10
6405.0492580892
 20
4918.3354815351
 30
0.0
 11
6405.0492580892
 21
4918.229958369
 31
0.0
  0
ARC
  5
15B
330
1F
100
AcDbEntity
  8
0
  6
Continuous
 62
     7
370
    25
100
AcDbCircle
 10
6407.6199185635
 20
4914.3339936879
 30
0.0
 40
4.667637097141734
100
AcDbArc
 50
123.4178834077
 51
146.8396714357
  0
LINE
  5
15C
330
1F
100
AcDbEntity
  8
0
  6
Continuous
 62
     7
370
    25
100
AcDbLine
 10
6403.7124377018
 20
4917.0861991154
 30
0.0
 11
6403.7124377018
 21
4916.8871151864
 31
0.0
  0
ARC
  5
15D
330
1F
100
AcDbEntity
  8
0
  6
Continuous
 62
     7
370
    25
100
AcDbCircle
 10
6405.7001161746
 20
4916.3982072228
 30
0.0
 40
2.398240891999118
100
AcDbArc
 50
182.49199474
 51
198.1528709836
  0
LINE
  5
15E
330
1F
100
AcDbEntity
  8
0
  6
Continuous
 62
     7
370
    25
100
AcDbLine
 10
6403.4212389856
 20
4915.6510271015
 30
0.0
 11
6403.4212389856
 21
4914.7850016977
 31
0.0
  0
ARC
  5
15F
330
1F
100
AcDbEntity
  8
0
  6
Continuous
 62
     7
370
    25
100
AcDbCircle
 10
6406.6887544797
 20
4915.9454713423
 30
0.0
 40
3.467469870043796
100
AcDbArc
 50
199.5526737768
 51
228.1436316319
  0
ARC
  5
160
330
1F
100
AcDbEntity
  8
0
  6
Continuous
 62
     7
370
    25
100
AcDbCircle
 10
6409.8773673918
 20
4920.7097849684
 30
0.0
 40
8.521280637448152
100
AcDbArc
 50
233.8929957823
 51
251.2760474247
  0
LINE
  5
161
330
1F
100
AcDbEntity
  8
0
  6
Continuous
 62
     7
370
    25
100
AcDbLine
 10
6407.1419600839
 20
4912.6394832044
 30
0.0
 11
6407.1419600839
 21
4911.7734578006
 31
0.0
  0
ARC
  5
162
330
1F
100
AcDbEntity
  8
0
  6
Continuous
 62
     7
370
    25
100
AcDbCircle
 10
6411.9566647071
 20
4925.3892657661
 30
0.0
 40
14.44200841865482
100
AcDbArc
 50
250.5258261226
 51
261.5226494904
  0
ARC
  5
163
330
1F
100
AcDbEntity
  8
0
  6
Continuous
 62
     7
370
    25
100
AcDbCircle
 10
6406.514102968
 20
4916.3819521274
 30
0.0
 40
2.208833121748722
100
AcDbArc
 50
158.6874116099
 51
216.1343935592
  0
LWPOLYLINE
  5
164
330
1F
100
AcDbEntity
  8
0
  6
Continuous
 62
     7
370
    25
100
AcDbPolyline
 90
        3
 70
   128
 43
0.0
 10
6405.5032270921
 20
4918.5342565218
 10
6405.8324947552
 20
4918.7840907396
 10
6405.8840001716
 20
4918.8198396119
  0
LWPOLYLINE
  5
165
330
1F
100
AcDbEntity
  8
0
  6
Continuous
 62
     7
370
    25
100
AcDbPolyline
 90
        3
 70
   128
 43
0.0
 10
6419.2202191383
 20
4918.8198396119
 10
6419.8674320912
 20
4918.2980375654
 10
6420.2484010738
 20
4917.8766409951
  0
LWPOLYLINE
  5
166
330
1F
100
AcDbEntity
  8
0
  6
Continuous
 62
     7
370
    25
100
AcDbPolyline
 90
       21
 70
   128
 43
0.0
 10
6420.6478904491
 20
4917.1847656074
 10
6420.6880650089
 20
4917.0744165729
 10
6420.8017461847
 20
4916.4296295486
 10
6420.7122939301
 20
4915.7838890956
 10
6420.4219108566
 20
4915.1530954869
 10
6419.9377471591
 20
4914.5527809546
 10
6419.2717245548
 20
4913.9977272349
 10
6418.4402427305
 20
4913.5016015925
 10
6417.4637755282
 20
4913.0766202872
 10
6416.3663668113
 20
4912.7332477692
 10
6415.1750384244
 20
4912.4799390094
 10
6413.9191248262
 20
4912.3229313103
 10
6412.6295507777
 20
4912.2660907224
 10
6411.3380698716
 20
4912.3108168497
 10
6410.0764826542
 20
4912.4560083864
 10
6408.8758535897
 20
4912.6980902352
 10
6407.7657461504
 20
4913.0311015374
 10
6406.7734948655
 20
4913.4468424495
 10
6405.9235322549
 20
4913.9350760506
 10
6405.2367872188
 20
4914.4837804091
 10
6404.7301696993
 20
4915.0794446025
  0
LINE
  5
167
330
1F
100
AcDbEntity
  8
0
  6
Continuous
 62
     7
370
    25
100
AcDbLine
 10
6420.9378126052
 20
4915.1416606101
 30
0.0
 11
6421.3917816081
 21
4915.0286773843
 31
0.0
  0
ARC
  5
168
330
1F
100
AcDbEntity
  8
0
  6
Continuous
 62
     7
370
    25
100
AcDbCircle
 10
6417.2126268295
 20
4917.5133046356
 30
0.0
 40
4.416073419580752
100
AcDbArc
 50
302.7404731133
 51
327.5170817301
  0
LINE
  5
169
330
1F
100
AcDbEntity
  8
0
  6
Continuous
 62
     7
370
    25
100
AcDbLine
 10
6416.8762152285
 20
4912.3023697925
 30
0.0
 11
6416.7149930784
 21
4912.5427632779
 31
0.0
  0
ARC
  5
16A
330
1F
100
AcDbEntity
  8
0
  6
Continuous
 62
     7
370
    25
100
AcDbCircle
 10
6412.7496192098
 20
4927.472688165
 30
0.0
 40
15.44755149057542
100
AcDbArc
 50
274.1616250788
 51
284.8742931659
  0
ARC
  5
16B
330
1F
100
AcDbEntity
  8
0
  6
Continuous
 62
     7
370
    25
100
AcDbCircle
 10
6411.9909118308
 20
4925.7119433362
 30
0.0
 40
13.65204150340114
100
AcDbArc
 50
250.206596382
 51
261.841879231
  0
LINE
  5
16C
330
1F
100
AcDbEntity
  8
0
  6
Continuous
 62
     7
370
    25
100
AcDbLine
 10
6407.3679265356
 20
4912.8664677058
 30
0.0
 11
6407.1419600839
 21
4912.6394832044
 31
0.0
  0
ARC
  5
16D
330
1F
100
AcDbEntity
  8
0
  6
Continuous
 62
     7
370
    25
100
AcDbCircle
 10
6407.0112200661
 20
4916.7859280969
 30
0.0
 40
3.283080146481648
100
AcDbArc
 50
198.7311729335
 51
228.9651324752
  0
LINE
  5
16E
330
1F
100
AcDbEntity
  8
0
  6
Continuous
 62
     7
370
    25
100
AcDbLine
 10
6403.4212389856
 20
4915.6510271015
 30
0.0
 11
6403.9020259564
 21
4915.7316381766
 31
0.0
  0
LWPOLYLINE
  5
16F
330
1F
100
AcDbEntity
  8
0
  6
Continuous
 62
     7
370
    25
100
AcDbPolyline
 90
        3
 70
   128
 43
0.0
 10
6404.7301696993
 20
4915.9454700063
 10
6404.416154301
 20
4916.5734268054
 10
6404.3476901143
 20
4916.8239216891
  0
ARC
  5
170
330
1F
100
AcDbEntity
  8
0
  6
Continuous
 62
     7
370
    25
100
AcDbCircle
 10
6417.7631976079
 20
4917.6015390659
 30
0.0
 40
3.092688600442158
100
AcDbArc
 50
306.6080645204
 51
345.4374174836
  0
LWPOLYLINE
  5
171
330
1F
100
AcDbEntity
  8
0
  6
Continuous
 62
     7
370
    25
100
AcDbPolyline
 90
        3
 70
   128
 43
0.0
 10
6405.496734377
 20
4915.1189341754
 10
6405.2367872188
 20
4915.3498058129
 10
6404.7301696993
 20
4915.9454700063
  0
LINE
  5
172
330
1F
100
AcDbEntity
  8
0
  6
Continuous
 62
     7
370
    25
100
AcDbLine
 10
6417.7362927744
 20
4919.0493248649
 30
0.0
 11
6417.9622592261
 21
4919.2763093664
 31
0.0
  0
ARC
  5
173
330
1F
100
AcDbEntity
  8
0
  6
Continuous
 62
     7
370
    25
100
AcDbCircle
 10
6413.1133074791
 20
4906.2038492343
 30
0.0
 40
13.65204150360464
100
AcDbArc
 50
70.2065963821
 51
81.8418792309
  0
LINE
  5
174
330
1F
100
AcDbEntity
  8
0
  6
Continuous
 62
     7
370
    25
100
AcDbLine
 10
6415.0506064092
 20
4919.7177350586
 30
0.0
 11
6415.2765728609
 21
4919.9447195601
 31
0.0
  0
LWPOLYLINE
  5
175
330
1F
100
AcDbEntity
  8
0
  6
Continuous
 62
     7
370
    25
100
AcDbPolyline
 90
        3
 70
   128
 43
0.0
 10
6405.052109655
 20
4917.256934391
 10
6405.0523012433
 20
4917.2837382537
 10
6405.1487006095
 20
4917.8568374051
  0
ARC
  5
176
330
1F
100
AcDbEntity
  8
0
  6
Continuous
 62
     7
370
    25
100
AcDbCircle
 10
6417.8091359124
 20
4917.186590196
 30
0.0
 40
2.244076539672198
100
AcDbArc
 50
1.7963227928
 51
36.7383002808
  0
LINE
  5
177
330
1F
100
AcDbEntity
  8
0
  6
Continuous
 62
     7
370
    25
100
AcDbLine
 10
6411.0723458835
 20
4920.0903189182
 30
0.0
 11
6411.2335680336
 21
4919.8499254328
 31
0.0
  0
ARC
  5
178
330
1F
100
AcDbEntity
  8
0
  6
Continuous
 62
     7
370
    25
100
AcDbCircle
 10
6412.3546001002
 20
4904.4431044057
 30
0.0
 40
15.44755149056154
100
AcDbArc
 50
94.1616250788
 51
104.8742931659
  0
LINE
  5
179
330
1F
100
AcDbEntity
  8
0
  6
Continuous
 62
     7
370
    25
100
AcDbLine
 10
6408.2280040815
 20
4919.6134227783
 30
0.0
 11
6408.3892262316
 21
4919.3730292929
 31
0.0
  0
LINE
  5
17A
330
1F
100
AcDbEntity
  8
0
  6
Continuous
 62
     7
370
    25
100
AcDbLine
 10
6411.2335680336
 20
4920.1657906336
 30
0.0
 11
6411.2335680336
 21
4919.8499254328
 31
0.0
  0
LWPOLYLINE
  5
17B
330
1F
100
AcDbEntity
  8
0
  6
Continuous
 62
     7
370
    25
100
AcDbPolyline
 90
        9
 70
   128
 43
0.0
 10
6405.4412551498
 20
4915.1986686375
 10
6405.1457653132
 20
4915.8001333338
 10
6405.0523012433
 20
4916.4177128499
 10
6405.1634123964
 20
4917.0345612265
 10
6405.4760679497
 20
4917.6338524479
 10
6405.981739475
 20
4918.1992394118
 10
6406.666633571
 20
4918.7152998357
 10
6407.5120681123
 20
4919.1679569365
 10
6408.3142212907
 20
4919.4848668979
  0
ARC
  5
17C
330
1F
100
AcDbEntity
  8
0
  6
Continuous
 62
     7
370
    25
100
AcDbCircle
 10
6412.5499239871
 20
4905.496269414
 30
0.0
 40
14.64551077998787
100
AcDbArc
 50
80.1687245434
 51
95.1567721422
  0
LWPOLYLINE
  5
17D
330
1F
100
AcDbEntity
  8
0
  6
Continuous
 62
     7
370
    25
100
AcDbPolyline
 90
       24
 70
   128
 43
0.0
 10
6417.7709428427
 20
4919.0841310427
 10
6418.5034388317
 20
4918.672995808
 10
6419.1735087492
 20
4918.1520928245
 10
6419.6629641601
 20
4917.583149337
 10
6419.9584539968
 20
4916.9816846407
 10
6420.0519180667
 20
4916.3641051246
 10
6419.9408069136
 20
4915.747256748
 10
6419.6281513602
 20
4915.1479655266
 10
6419.122479835
 20
4914.5825785627
 10
6418.437585739
 20
4914.0665181388
 10
6417.5921511976
 20
4913.6138610381
 10
6416.6092374614
 20
4913.2369545661
 10
6415.5156558548
 20
4912.946079749
 10
6414.3412364332
 20
4912.7491708936
 10
6413.118014297
 20
4912.65159916
 10
6411.8793557574
 20
4912.6560260509
 10
6410.6590481904
 20
4912.7623308122
 10
6409.4903784053
 20
4912.967613727
 10
6408.4052246673
 20
4913.2662752127
 10
6407.4331871417
 20
4913.6501685625
 10
6406.6007804782
 20
4914.1088221665
 10
6405.9307105607
 20
4914.62972515
 10
6405.4412551498
 20
4915.1986686375
 10
6405.4412551498
 20
4915.1986686375
  0
LINE
  5
17E
330
1F
100
AcDbEntity
  8
0
  6
Continuous
 62
     7
370
    25
100
AcDbLine
 10
6415.0506064092
 20
4920.0428515717
 30
0.0
 11
6415.0506064092
 21
4919.7177350586
 31
0.0
  0
LINE
  5
17F
330
1F
100
AcDbEntity
  8
0
  6
Continuous
 62
     7
370
    25
100
AcDbLine
 10
6405.5032270921
 20
4918.6153479343
 30
0.0
 11
6405.5032270921
 21
4918.1169751432
 31
0.0
  0
LINE
  5
180
330
1F
100
AcDbEntity
  8
0
  6
Continuous
 62
     7
370
    25
100
AcDbLine
 10
6405.5032270921
 20
4918.1169751432
 30
0.0
 11
6405.0492580892
 21
4918.229958369
 31
0.0
  0
ARC
  5
181
330
1F
100
AcDbEntity
  8
0
  6
Continuous
 62
     7
370
    25
100
AcDbCircle
 10
6407.8915924804
 20
4914.4024879351
 30
0.0
 40
4.416073419554138
100
AcDbArc
 50
122.7404731132
 51
147.5170817302
  0
LINE
  5
182
330
1F
100
AcDbEntity
  8
0
  6
Continuous
 62
     7
370
    25
100
AcDbLine
 10
6404.1664067048
 20
4916.7741319606
 30
0.0
 11
6403.7124377018
 21
4916.8871151864
 31
0.0
  0
LINE
  5
183
330
1F
100
AcDbEntity
  8
0
  6
Continuous
 62
     7
370
    25
100
AcDbLine
 10
6420.7291880445
 20
4917.6869363702
 30
0.0
 11
6420.2484010738
 21
4917.6063252952
 31
0.0
  0
LINE
  5
184
330
1F
100
AcDbEntity
  8
0
  6
Continuous
 62
     7
370
    25
100
AcDbLine
 10
6421.6829803243
 20
4916.2647654692
 30
0.0
 11
6421.2021933536
 21
4916.1841543941
 31
0.0
  0
ARC
  5
185
330
1F
100
AcDbEntity
  8
0
  6
Continuous
 62
     7
370
    25
100
AcDbCircle
 10
6418.0929992438
 20
4915.1298644738
 30
0.0
 40
3.283080146502948
100
AcDbArc
 50
18.7311729336
 51
48.965132475
  0
LINE
  5
186
330
1F
100
AcDbEntity
  8
0
  6
Continuous
 62
     7
370
    25
100
AcDbLine
 10
6420.2484010738
 20
4918.2015290305
 30
0.0
 11
6420.2484010738
 21
4917.6063252952
 31
0.0
  0
LINE
  5
187
330
1F
100
AcDbEntity
  8
0
  6
Continuous
 62
     7
370
    25
100
AcDbLine
 10
6403.9020259564
 20
4915.7316381766
 30
0.0
 11
6403.9020259564
 21
4914.8656127728
 31
0.0
  0
LINE
  5
188
330
1F
100
AcDbEntity
  8
0
  6
Continuous
 62
     7
370
    25
100
AcDbLine
 10
6403.4212389856
 20
4914.7850016977
 30
0.0
 11
6403.9020259564
 21
4914.8656127728
 31
0.0
  0
ARC
  5
189
330
1F
100
AcDbEntity
  8
0
  6
Continuous
 62
     7
370
    25
100
AcDbCircle
 10
6407.0112200662
 20
4915.9199026931
 30
0.0
 40
3.283080146494976
100
AcDbArc
 50
198.7311729335
 51
228.9651324751
  0
LINE
  5
18A
330
1F
100
AcDbEntity
  8
0
  6
Continuous
 62
     7
370
    25
100
AcDbLine
 10
6404.3750312654
 20
4913.3628307967
 30
0.0
 11
6404.8558182362
 21
4913.4434418718
 31
0.0
  0
LINE
  5
18B
330
1F
100
AcDbEntity
  8
0
  6
Continuous
 62
     7
370
    25
100
AcDbLine
 10
6404.8558182362
 20
4914.3094672755
 30
0.0
 11
6404.8558182362
 21
4913.4434418718
 31
0.0
  0
LINE
  5
18C
330
1F
100
AcDbEntity
  8
0
  6
Continuous
 62
     7
370
    25
100
AcDbLine
 10
6420.9378126052
 20
4915.1416606101
 30
0.0
 11
6420.9378126052
 21
4914.2756352064
 31
0.0
  0
LINE
  5
18D
330
1F
100
AcDbEntity
  8
0
  6
Continuous
 62
     7
370
    25
100
AcDbLine
 10
6420.9378126052
 20
4914.2756352064
 30
0.0
 11
6421.3917816081
 21
4914.1626519805
 31
0.0
  0
ARC
  5
18E
330
1F
100
AcDbEntity
  8
0
  6
Continuous
 62
     7
370
    25
100
AcDbCircle
 10
6417.2126268295
 20
4916.6472792319
 30
0.0
 40
4.416073419580752
100
AcDbArc
 50
302.7404731133
 51
327.5170817301
  0
LINE
  5
18F
330
1F
100
AcDbEntity
  8
0
  6
Continuous
 62
     7
370
    25
100
AcDbLine
 10
6419.6009922178
 20
4912.9327920238
 30
0.0
 11
6420.0549612208
 21
4912.8198087979
 31
0.0
  0
LINE
  5
190
330
1F
100
AcDbEntity
  8
0
  6
Continuous
 62
     7
370
    25
100
AcDbLine
 10
6419.6009922178
 20
4913.7988174276
 30
0.0
 11
6419.6009922178
 21
4912.9327920238
 31
0.0
  0
LINE
  5
191
330
1F
100
AcDbEntity
  8
0
  6
Continuous
 62
     7
370
    25
100
AcDbLine
 10
6407.3679265356
 20
4912.8664677058
 30
0.0
 11
6407.3679265356
 21
4912.0004423021
 31
0.0
  0
LINE
  5
192
330
1F
100
AcDbEntity
  8
0
  6
Continuous
 62
     7
370
    25
100
AcDbLine
 10
6410.0536129008
 20
4912.1980575122
 30
0.0
 11
6410.0536129008
 21
4911.3320321084
 31
0.0
  0
ARC
  5
193
330
1F
100
AcDbEntity
  8
0
  6
Continuous
 62
     7
370
    25
100
AcDbCircle
 10
6411.9909118308
 20
4924.8459179325
 30
0.0
 40
13.65204150349154
100
AcDbArc
 50
250.206596382
 51
261.841879231
  0
LINE
  5
194
330
1F
100
AcDbEntity
  8
0
  6
Continuous
 62
     7
370
    25
100
AcDbLine
 10
6407.3679265356
 20
4912.0004423021
 30
0.0
 11
6407.1419600839
 21
4911.7734578006
 31
0.0
  0
LINE
  5
195
330
1F
100
AcDbEntity
  8
0
  6
Continuous
 62
     7
370
    25
100
AcDbLine
 10
6410.0536129008
 20
4911.3320321084
 30
0.0
 11
6409.827646449
 21
4911.1050476069
 31
0.0
  0
LINE
  5
196
330
1F
100
AcDbEntity
  8
0
  6
Continuous
 62
     7
370
    25
100
AcDbLine
 10
6416.7149930784
 20
4912.5427632779
 30
0.0
 11
6416.7149930784
 21
4911.6767378741
 31
0.0
  0
ARC
  5
197
330
1F
100
AcDbEntity
  8
0
  6
Continuous
 62
     7
370
    25
100
AcDbCircle
 10
6412.7496192098
 20
4926.6066627612
 30
0.0
 40
15.44755149053857
100
AcDbArc
 50
274.1616250788
 51
284.8742931659
  0
LINE
  5
198
330
1F
100
AcDbEntity
  8
0
  6
Continuous
 62
     7
370
    25
100
AcDbLine
 10
6413.8706512763
 20
4912.065867138
 30
0.0
 11
6413.8706512763
 21
4911.1998417342
 31
0.0
  0
LINE
  5
199
330
1F
100
AcDbEntity
  8
0
  6
Continuous
 62
     7
370
    25
100
AcDbLine
 10
6416.8762152285
 20
4911.4363443887
 30
0.0
 11
6416.7149930784
 21
4911.6767378741
 31
0.0
  0
LINE
  5
19A
330
1F
100
AcDbEntity
  8
0
  6
Continuous
 62
     7
370
    25
100
AcDbLine
 10
6414.0318734264
 20
4910.9594482488
 30
0.0
 11
6413.8706512763
 21
4911.1998417342
 31
0.0
  0
ARC
  5
19B
330
1F
100
AcDbEntity
  8
0
  6
Continuous
 62
     7
370
    25
100
AcDbCircle
 10
6461.8002021083
 20
4978.4790941043
 30
0.0
 40
0.6676186886570576
100
AcDbArc
 50
180.0
 51
0.0
  0
LINE
  5
19C
330
1F
100
AcDbEntity
  8
0
  6
Continuous
 62
     7
370
    25
100
AcDbLine
 10
6462.4678207969
 20
4981.4201256389
 30
0.0
 11
6462.4678207969
 21
4978.4790941043
 31
0.0
  0
ARC
  5
19D
330
1F
100
AcDbEntity
  8
0
  6
Continuous
 62
     7
370
    25
100
AcDbCircle
 10
6462.7079309132
 20
4981.4201256389
 30
0.0
 40
0.2401101162877239
100
AcDbArc
 50
90.0
 51
180.0
  0
LINE
  5
19E
330
1F
100
AcDbEntity
  8
0
  6
Continuous
 62
     7
370
    25
100
AcDbLine
 10
6463.3323440921
 20
4981.6602357552
 30
0.0
 11
6462.7079309132
 21
4981.6602357552
 31
0.0
  0
ARC
  5
19F
330
1F
100
AcDbEntity
  8
0
  6
Continuous
 62
     7
370
    25
100
AcDbCircle
 10
6463.3323440921
 20
4981.4201256389
 30
0.0
 40
0.2401101162877239
100
AcDbArc
 50
0.0
 51
90.0
  0
LINE
  5
1A0
330
1F
100
AcDbEntity
  8
0
  6
Continuous
 62
     7
370
    25
100
AcDbLine
 10
6463.5724542084
 20
4978.4790941043
 30
0.0
 11
6463.5724542084
 21
4981.4201256389
 31
0.0
  0
ARC
  5
1A1
330
1F
100
AcDbEntity
  8
0
  6
Continuous
 62
     7
370
    25
100
AcDbCircle
 10
6464.240072897
 20
4978.4790941043
 30
0.0
 40
0.6676186886570576
100
AcDbArc
 50
180.0
 51
0.0
  0
LINE
  5
1A2
330
1F
100
AcDbEntity
  8
0
  6
Continuous
 62
     7
370
    25
100
AcDbLine
 10
6464.9076915857
 20
4980.9109714037
 30
0.0
 11
6464.9076915857
 21
4978.4790941043
 31
0.0
  0
ARC
  5
1A3
330
1F
100
AcDbEntity
  8
0
  6
Continuous
 62
     7
370
    25
100
AcDbCircle
 10
6465.147801702
 20
4980.9109714037
 30
0.0
 40
0.2401101162877239
100
AcDbArc
 50
90.0
 51
180.0
  0
LINE
  5
1A4
330
1F
100
AcDbEntity
  8
0
  6
Continuous
 62
     7
370
    25
100
AcDbLine
 10
6465.8949212439
 20
4981.15108152
 30
0.0
 11
6465.147801702
 21
4981.15108152
 31
0.0
  0
ARC
  5
1A5
330
1F
100
AcDbEntity
  8
0
  6
Continuous
 62
     7
370
    25
100
AcDbCircle
 10
6465.8949212439
 20
4980.9109714037
 30
0.0
 40
0.2401101162877239
100
AcDbArc
 50
0.0
 51
90.0
  0
LINE
  5
1A6
330
1F
100
AcDbEntity
  8
0
  6
Continuous
 62
     7
370
    25
100
AcDbLine
 10
6466.1350313602
 20
4978.4790941043
 30
0.0
 11
6466.1350313602
 21
4980.9109714037
 31
0.0
  0
ARC
  5
1A7
330
1F
100
AcDbEntity
  8
0
  6
Continuous
 62
     7
370
    25
100
AcDbCircle
 10
6466.8026500488
 20
4978.4790941043
 30
0.0
 40
0.6676186886570576
100
AcDbArc
 50
180.0
 51
0.0
  0
LINE
  5
1A8
330
1F
100
AcDbEntity
  8
0
  6
Continuous
 62
     7
370
    25
100
AcDbLine
 10
6467.4702687375
 20
4979.9946210951
 30
0.0
 11
6467.4702687375
 21
4978.4790941043
 31
0.0
  0
ARC
  5
1A9
330
1F
100
AcDbEntity
  8
0
  6
Continuous
 62
     7
370
    25
100
AcDbCircle
 10
6467.7103788538
 20
4979.9946210951
 30
0.0
 40
0.2401101162868144
100
AcDbArc
 50
90.0
 51
180.0
  0
LINE
  5
1AA
330
1F
100
AcDbEntity
  8
0
  6
Continuous
 62
     7
370
    25
100
AcDbLine
 10
6468.3724065783
 20
4980.2347312114
 30
0.0
 11
6467.7103788538
 21
4980.2347312114
 31
0.0
  0
ARC
  5
1AB
330
1F
100
AcDbEntity
  8
0
  6
Continuous
 62
     7
370
    25
100
AcDbCircle
 10
6468.3724065783
 20
4979.9946210951
 30
0.0
 40
0.2401101162877239
100
AcDbArc
 50
0.0
 51
90.0
  0
LINE
  5
1AC
330
1F
100
AcDbEntity
  8
0
  6
Continuous
 62
     7
370
    25
100
AcDbLine
 10
6468.6125166946
 20
4972.1114588142
 30
0.0
 11
6468.6125166946
 21
4979.9946210951
 31
0.0
  0
ARC
  5
1AD
330
1F
100
AcDbEntity
  8
0
  6
Continuous
 62
     7
370
    25
100
AcDbCircle
 10
6465.086516144
 20
4972.1114588142
 30
0.0
 40
3.526000550637946
100
AcDbArc
 50
270.0
 51
0.0
  0
LINE
  5
1AE
330
1F
100
AcDbEntity
  8
0
  6
Continuous
 62
     7
370
    25
100
AcDbLine
 10
6462.719291737
 20
4968.5854582636
 30
0.0
 11
6465.086516144
 21
4968.5854582636
 31
0.0
  0
ARC
  5
1AF
330
1F
100
AcDbEntity
  8
0
  6
Continuous
 62
     7
370
    25
100
AcDbCircle
 10
6462.719291737
 20
4973.8783885913
 30
0.0
 40
5.292930327734211
100
AcDbArc
 50
180.0
 51
270.0
  0
LINE
  5
1B0
330
1F
100
AcDbEntity
  8
0
  6
Continuous
 62
     7
370
    25
100
AcDbLine
 10
6457.4263614092
 20
4978.3244963534
 30
0.0
 11
6457.4263614092
 21
4973.8783885913
 31
0.0
  0
ARC
  5
1B1
330
1F
100
AcDbEntity
  8
0
  6
Continuous
 62
     7
370
    25
100
AcDbCircle
 10
6457.0830473659
 20
4976.8238539907
 30
0.0
 40
1.539412885871518
100
AcDbArc
 50
0.0
 51
77.1137478469
  0
LINE
  5
1B2
330
1F
100
AcDbEntity
  8
0
  6
Continuous
 62
     7
370
    25
100
AcDbLine
 10
6458.6224602518
 20
4974.8694331087
 30
0.0
 11
6458.6224602518
 21
4976.8238539907
 31
0.0
  0
ARC
  5
1B3
330
1F
100
AcDbEntity
  8
0
  6
Continuous
 62
     7
370
    25
100
AcDbCircle
 10
6459.2900789405
 20
4974.8694331087
 30
0.0
 40
0.6676186886570576
100
AcDbArc
 50
180.0
 51
0.0
  0
LINE
  5
1B4
330
1F
100
AcDbEntity
  8
0
  6
Continuous
 62
     7
370
    25
100
AcDbLine
 10
6459.9576976291
 20
4986.1499343784
 30
0.0
 11
6459.9576976291
 21
4974.8694331087
 31
0.0
  0
ARC
  5
1B5
330
1F
100
AcDbEntity
  8
0
  6
Continuous
 62
     7
370
    25
100
AcDbCircle
 10
6460.5451405244
 20
4986.1499343784
 30
0.0
 40
0.5874428952447488
100
AcDbArc
 50
0.0
 51
180.0
  0
LINE
  5
1B6
330
1F
100
AcDbEntity
  8
0
  6
Continuous
 62
     7
370
    25
100
AcDbLine
 10
6461.1325834196
 20
4978.4790941043
 30
0.0
 11
6461.1325834196
 21
4986.1499343784
 31
0.0
  0
CIRCLE
  5
1B7
330
1F
100
AcDbEntity
  8
0
  6
Continuous
 62
     7
370
    25
100
AcDbCircle
 10
6462.552109655
 20
4977.407820921
 30
0.0
 40
12.5
  0
LINE
  5
1B8
330
1F
100
AcDbEntity
  8
0
  6
Continuous
 62
     7
370
    25
100
AcDbLine
 10
6462.1621834196
 20
4982.6042147339
 30
0.0
 11
6462.1621834196
 21
4986.1499343784
 31
0.0
  0
ARC
  5
1B9
330
1F
100
AcDbEntity
  8
0
  6
Continuous
 62
     7
370
    25
100
AcDbCircle
 10
6457.0830473659
 20
4976.8238539907
 30
0.0
 40
2.569012885871402
100
AcDbArc
 50
44.0944057146
 51
105.4941474424
  0
LINE
  5
1BA
330
1F
100
AcDbEntity
  8
0
  6
Continuous
 62
     7
370
    25
100
AcDbLine
 10
6456.3967614092
 20
4979.2995031568
 30
0.0
 11
6456.3967614092
 21
4973.8783885913
 31
0.0
  0
ARC
  5
1BB
330
1F
100
AcDbEntity
  8
0
  6
Continuous
 62
     7
370
    25
100
AcDbCircle
 10
6462.719291737
 20
4973.8783885913
 30
0.0
 40
6.322530327734057
100
AcDbArc
 50
180.0
 51
270.0
  0
LINE
  5
1BC
330
1F
100
AcDbEntity
  8
0
  6
Continuous
 62
     7
370
    25
100
AcDbLine
 10
6462.719291737
 20
4967.5558582636
 30
0.0
 11
6465.086516144
 21
4967.5558582636
 31
0.0
  0
ARC
  5
1BD
330
1F
100
AcDbEntity
  8
0
  6
Continuous
 62
     7
370
    25
100
AcDbCircle
 10
6465.086516144
 20
4972.1114588142
 30
0.0
 40
4.555600550637791
100
AcDbArc
 50
270.0
 51
0.0
  0
LINE
  5
1BE
330
1F
100
AcDbEntity
  8
0
  6
Continuous
 62
     7
370
    25
100
AcDbLine
 10
6469.6421166946
 20
4972.1114588142
 30
0.0
 11
6469.6421166946
 21
4979.9482293425
 31
0.0
  0
ARC
  5
1BF
330
1F
100
AcDbEntity
  8
0
  6
Continuous
 62
     7
370
    25
100
AcDbCircle
 10
6468.2885054484
 20
4979.9482293425
 30
0.0
 40
1.353611246208857
100
AcDbArc
 50
0.0
 51
90.0
  0
LINE
  5
1C0
330
1F
100
AcDbEntity
  8
0
  6
Continuous
 62
     7
370
    25
100
AcDbLine
 10
6468.2885054484
 20
4981.3018405887
 30
0.0
 11
6467.7942799837
 21
4981.3018405887
 31
0.0
  0
ARC
  5
1C1
330
1F
100
AcDbEntity
  8
0
  6
Continuous
 62
     7
370
    25
100
AcDbCircle
 10
6467.7942799837
 20
4979.9482293425
 30
0.0
 40
1.353611246209267
100
AcDbArc
 50
90.0
 51
118.7365577358
  0
ARC
  5
1C2
330
1F
100
AcDbEntity
  8
0
  6
Continuous
 62
     7
370
    25
100
AcDbCircle
 10
6465.811020114
 20
4980.896809266
 30
0.0
 40
1.353611246208857
100
AcDbArc
 50
10.1404867648
 51
90.0000000001
  0
LINE
  5
1C3
330
1F
100
AcDbEntity
  8
0
  6
Continuous
 62
     7
370
    25
100
AcDbLine
 10
6465.811020114
 20
4982.2504205122
 30
0.0
 11
6465.2317028319
 21
4982.2504205122
 31
0.0
  0
ARC
  5
1C4
330
1F
100
AcDbEntity
  8
0
  6
Continuous
 62
     7
370
    25
100
AcDbCircle
 10
6465.2317028319
 20
4980.896809266
 30
0.0
 40
1.353611246208857
100
AcDbArc
 50
90.0
 51
124.744002227
  0
ARC
  5
1C5
330
1F
100
AcDbEntity
  8
0
  6
Continuous
 62
     7
370
    25
100
AcDbCircle
 10
6463.2484429622
 20
4981.4059635012
 30
0.0
 40
1.353611246208593
100
AcDbArc
 50
26.4592691592
 51
90.0
  0
LINE
  5
1C6
330
1F
100
AcDbEntity
  8
0
  6
Continuous
 62
     7
370
    25
100
AcDbLine
 10
6463.2484429622
 20
4982.7595747474
 30
0.0
 11
6462.7918320431
 21
4982.7595747474
 31
0.0
  0
ARC
  5
1C7
330
1F
100
AcDbEntity
  8
0
  6
Continuous
 62
     7
370
    25
100
AcDbCircle
 10
6462.7918320431
 20
4981.4059635012
 30
0.0
 40
1.35361124620922
100
AcDbArc
 50
90.0
 51
117.7207121261
  0
LINE
  5
1C8
330
1F
100
AcDbEntity
  8
0
  6
Continuous
 62
     7
370
    25
100
AcDbLine
 10
6458.9280976291
 20
4986.1499343784
 30
0.0
 11
6458.9280976291
 21
4978.6114827928
 31
0.0
  0
ARC
  5
1C9
330
1F
100
AcDbEntity
  8
0
  6
Continuous
 62
     7
370
    25
100
AcDbCircle
 10
6460.5451405244
 20
4986.1499343784
 30
0.0
 40
1.617042895244595
100
AcDbArc
 50
0.0
 51
180.0
  0
CIRCLE
  5
1CA
330
1F
100
AcDbEntity
  8
0
  6
Continuous
 62
     7
370
    25
100
AcDbCircle
 10
6462.552109655
 20
4977.407820921
 30
0.0
 40
14.0
  0
LINE
  5
1CB
330
1F
100
AcDbEntity
  8
0
  6
Continuous
 62
     7
370
    25
100
AcDbLine
 10
6332.552109655
 20
4861.907820921
 30
0.0
 11
6492.552109655
 21
4861.907820921
 31
0.0
  0
LINE
  5
1CC
330
1F
100
AcDbEntity
  8
0
  6
Continuous
 62
     7
370
    25
100
AcDbLine
 10
6492.552109655
 20
4860.407820921
 30
0.0
 11
6492.552109655
 21
4861.907820921
 31
0.0
  0
LINE
  5
1CD
330
1F
100
AcDbEntity
  8
0
  6
Continuous
 62
     7
370
    25
100
AcDbLine
 10
6492.552109655
 20
4860.407820921
 30
0.0
 11
6332.552109655
 21
4860.407820921
 31
0.0
  0
LINE
  5
1CE
330
1F
100
AcDbEntity
  8
0
  6
Continuous
 62
     7
370
    25
100
AcDbLine
 10
6332.552109655
 20
4861.907820921
 30
0.0
 11
6332.552109655
 21
4860.407820921
 31
0.0
  0
CIRCLE
  5
1CF
330
1F
100
AcDbEntity
  8
0
  6
Continuous
 62
     7
370
    25
100
AcDbCircle
 10
6351.052109655
 20
5006.907820921
 30
0.0
 40
5.199999999999818
  0
CIRCLE
  5
1D0
330
1F
100
AcDbEntity
  8
0
  6
Continuous
 62
     7
370
    25
100
AcDbCircle
 10
6351.052109655
 20
4883.907820921
 30
0.0
 40
5.199999999999818
  0
ARC
  5
1D1
330
1F
100
AcDbEntity
  8
0
  6
Continuous
 62
     7
370
    25
100
AcDbCircle
 10
6332.552109655
 20
5025.407820921
 30
0.0
 40
3.5
100
AcDbArc
 50
90.0
 51
180.0
  0
LINE
  5
1D2
330
1F
100
AcDbEntity
  8
0
  6
Continuous
 62
     7
370
    25
100
AcDbLine
 10
6329.052109655
 20
5025.407820921
 30
0.0
 11
6327.552109655
 21
5025.407820921
 31
0.0
  0
ARC
  5
1D3
330
1F
100
AcDbEntity
  8
0
  6
Continuous
 62
     7
370
    25
100
AcDbCircle
 10
6332.552109655
 20
5025.407820921
 30
0.0
 40
5.0
100
AcDbArc
 50
90.0
 51
180.0
  0
LINE
  5
1D4
330
1F
100
AcDbEntity
  8
0
  6
Continuous
 62
     7
370
    25
100
AcDbLine
 10
6332.552109655
 20
5028.907820921
 30
0.0
 11
6332.552109655
 21
5030.407820921
 31
0.0
  0
ARC
  5
1D5
330
1F
100
AcDbEntity
  8
0
  6
Continuous
 62
     7
370
    25
100
AcDbCircle
 10
6332.552109655
 20
4865.407820921
 30
0.0
 40
3.5
100
AcDbArc
 50
180.0
 51
270.0
  0
ARC
  5
1D6
330
1F
100
AcDbEntity
  8
0
  6
Continuous
 62
     7
370
    25
100
AcDbCircle
 10
6332.552109655
 20
4865.407820921
 30
0.0
 40
5.0
100
AcDbArc
 50
180.0
 51
270.0
  0
LINE
  5
1D7
330
1F
100
AcDbEntity
  8
0
  6
Continuous
 62
     7
370
    25
100
AcDbLine
 10
6329.052109655
 20
4865.407820921
 30
0.0
 11
6327.552109655
 21
4865.407820921
 31
0.0
  0
ARC
  5
1D8
330
1F
100
AcDbEntity
  8
0
  6
Continuous
 62
     7
370
    25
100
AcDbCircle
 10
6492.552109655
 20
4865.407820921
 30
0.0
 40
5.0
100
AcDbArc
 50
270.0
 51
0.0
  0
ARC
  5
1D9
330
1F
100
AcDbEntity
  8
0
  6
Continuous
 62
     7
370
    25
100
AcDbCircle
 10
6492.552109655
 20
4865.407820921
 30
0.0
 40
3.5
100
AcDbArc
 50
270.0
 51
0.0
  0
LINE
  5
1DA
330
1F
100
AcDbEntity
  8
0
  6
Continuous
 62
     7
370
    25
100
AcDbLine
 10
6497.552109655
 20
4865.407820921
 30
0.0
 11
6496.052109655
 21
4865.407820921
 31
0.0
  0
CIRCLE
  5
1DB
330
1F
100
AcDbEntity
  8
0
  6
Continuous
 62
     7
370
    25
100
AcDbCircle
 10
6474.052109655
 20
5006.907820921
 30
0.0
 40
5.199999999999818
  0
LINE
  5
1DC
330
1F
100
AcDbEntity
  8
0
  6
Continuous
 62
     7
370
    25
100
AcDbLine
 10
6492.552109655
 20
5028.907820921
 30
0.0
 11
6332.552109655
 21
5028.907820921
 31
0.0
  0
LINE
  5
1DD
330
1F
100
AcDbEntity
  8
0
  6
Continuous
 62
     7
370
    25
100
AcDbLine
 10
6332.552109655
 20
5030.407820921
 30
0.0
 11
6492.552109655
 21
5030.407820921
 31
0.0
  0
LINE
  5
1DE
330
1F
100
AcDbEntity
  8
0
  6
Continuous
 62
     7
370
    25
100
AcDbLine
 10
6492.552109655
 20
5030.407820921
 30
0.0
 11
6492.552109655
 21
5028.907820921
 31
0.0
  0
CIRCLE
  5
1DF
330
1F
100
AcDbEntity
  8
0
  6
Continuous
 62
     7
370
    25
100
AcDbCircle
 10
6474.052109655
 20
4883.907820921
 30
0.0
 40
5.199999999999818
  0
ARC
  5
1E0
330
1F
100
AcDbEntity
  8
0
  6
Continuous
 62
     7
370
    25
100
AcDbCircle
 10
6492.552109655
 20
5025.407820921
 30
0.0
 40
5.0
100
AcDbArc
 50
0.0
 51
90.0
  0
LINE
  5
1E1
330
1F
100
AcDbEntity
  8
0
  6
Continuous
 62
     7
370
    25
100
AcDbLine
 10
6497.552109655
 20
5025.407820921
 30
0.0
 11
6496.052109655
 21
5025.407820921
 31
0.0
  0
ARC
  5
1E2
330
1F
100
AcDbEntity
  8
0
  6
Continuous
 62
     7
370
    25
100
AcDbCircle
 10
6492.552109655
 20
5025.407820921
 30
0.0
 40
3.5
100
AcDbArc
 50
0.0
 51
90.0
  0
LINE
  5
1E3
330
1F
100
AcDbEntity
  8
0
  6
Continuous
 62
     7
370
    25
100
AcDbLine
 10
6497.552109655
 20
5025.407820921
 30
0.0
 11
6497.552109655
 21
4865.407820921
 31
0.0
  0
LINE
  5
1E4
330
1F
100
AcDbEntity
  8
0
  6
Continuous
 62
     7
370
    25
100
AcDbLine
 10
6496.052109655
 20
4865.407820921
 30
0.0
 11
6496.052109655
 21
5025.407820921
 31
0.0
  0
LINE
  5
1E5
330
1F
100
AcDbEntity
  8
0
  6
Continuous
 62
     7
370
    25
100
AcDbLine
 10
6329.052109655
 20
5025.407820921
 30
0.0
 11
6329.052109655
 21
4865.407820921
 31
0.0
  0
LINE
  5
1E6
330
1F
100
AcDbEntity
  8
0
  6
Continuous
 62
     7
370
    25
100
AcDbLine
 10
6327.552109655
 20
4865.407820921
 30
0.0
 11
6327.552109655
 21
5025.407820921
 31
0.0
  0
LINE
  5
1E7
330
1F
100
AcDbEntity
  8
0
  6
Continuous
 62
     7
370
    25
100
AcDbLine
 10
6731.9331402577
 20
5008.1295541917
 30
0.0
 11
6731.9424057244
 21
5008.1295541917
 31
0.0
  0
LINE
  5
1E8
330
1F
100
AcDbEntity
  8
0
  6
Continuous
 62
     7
370
    25
100
AcDbLine
 10
6731.9526186969
 20
5005.2639556319
 30
0.0
 11
6731.9331402577
 21
5005.2639556319
 31
0.0
  0
LINE
  5
1E9
330
1F
100
AcDbEntity
  8
0
  6
Continuous
 62
     7
370
    25
100
AcDbLine
 10
6731.9461713171
 20
5006.157820921
 30
0.0
 11
6732.0194161516
 21
5006.157820921
 31
0.0
  0
LINE
  5
1EA
330
1F
100
AcDbEntity
  8
0
  6
Continuous
 62
     7
370
    25
100
AcDbLine
 10
6732.0194161516
 20
5007.657820921
 30
0.0
 11
6731.955581159
 21
5007.657820921
 31
0.0
  0
ARC
  5
1EB
330
1F
100
AcDbEntity
  8
0
  6
Continuous
 62
     7
370
    25
100
AcDbCircle
 10
6711.5331402577
 20
5006.907820921
 30
0.0
 40
20.50000000000031
100
AcDbArc
 50
357.9033450422
 51
2.0966549578
  0
LINE
  5
1EC
330
1F
100
AcDbEntity
  8
0
  6
Continuous
 62
     7
370
    25
100
AcDbLine
 10
6731.949960589
 20
4885.7526644266
 30
0.0
 11
6731.9367070565
 21
4885.89388786
 31
0.0
  0
LINE
  5
1ED
330
1F
100
AcDbEntity
  8
0
  6
Continuous
 62
     7
370
    25
100
AcDbLine
 10
6731.9337047466
 20
4881.8911482821
 30
0.0
 11
6731.9490878146
 21
4882.0533438106
 31
0.0
  0
LINE
  5
1EE
330
1F
100
AcDbEntity
  8
0
  6
Continuous
 62
     7
370
    25
100
AcDbLine
 10
6731.9331402577
 20
4883.157820921
 30
0.0
 11
6732.0194161516
 21
4883.157820921
 31
0.0
  0
LINE
  5
1EF
330
1F
100
AcDbEntity
  8
0
  6
Continuous
 62
     7
370
    25
100
AcDbLine
 10
6732.0194161516
 20
4884.657820921
 30
0.0
 11
6731.9558468307
 21
4884.657820921
 31
0.0
  0
ARC
  5
1F0
330
1F
100
AcDbEntity
  8
0
  6
Continuous
 62
     7
370
    25
100
AcDbCircle
 10
6711.5331402577
 20
4883.907820921
 30
0.0
 40
20.50000000000031
100
AcDbArc
 50
357.9033450422
 51
2.0966549578
  0
LINE
  5
1F1
330
1F
100
AcDbEntity
  8
0
  6
Continuous
 62
     7
370
    25
100
AcDbLine
 10
6731.9331402577
 20
4885.6602266573
 30
0.0
 11
6731.9555270928
 21
4885.6602266573
 31
0.0
  0
LINE
  5
1F2
330
1F
100
AcDbEntity
  8
0
  6
Continuous
 62
     7
370
    25
100
AcDbLine
 10
6731.9555270928
 20
4882.1554151846
 30
0.0
 11
6731.9331402577
 21
4882.1554151846
 31
0.0
  0
LINE
  5
1F3
330
1F
100
AcDbEntity
  8
0
  6
Continuous
 62
     7
370
    25
100
AcDbLine
 10
6731.9546291858
 20
5008.7002466404
 30
0.0
 11
6731.9252440872
 21
5009.0083211965
 31
0.0
  0
LINE
  5
1F4
330
1F
100
AcDbEntity
  8
0
  6
Continuous
 62
     7
370
    25
100
AcDbLine
 10
6731.9256801046
 20
5004.8115579139
 30
0.0
 11
6731.9543226308
 21
5005.1119059779
 31
0.0
  0
LINE
  5
1F5
330
1F
100
AcDbEntity
  8
0
  6
Continuous
 62
     7
370
    25
100
AcDbLine
 10
6731.9428158463
 20
5006.157820921
 30
0.0
 11
6732.0194161516
 21
5006.157820921
 31
0.0
  0
LINE
  5
1F6
330
1F
100
AcDbEntity
  8
0
  6
Continuous
 62
     7
370
    25
100
AcDbLine
 10
6731.9332597528
 20
5008.6745598599
 30
0.0
 11
6731.9556136347
 21
5008.6745598599
 31
0.0
  0
LINE
  5
1F7
330
1F
100
AcDbEntity
  8
0
  6
Continuous
 62
     7
370
    25
100
AcDbLine
 10
6731.95340809
 20
4882.2315422294
 30
0.0
 11
6731.9331402577
 21
4882.2315422294
 31
0.0
  0
LINE
  5
1F8
330
1F
100
AcDbEntity
  8
0
  6
Continuous
 62
     7
370
    25
100
AcDbLine
 10
6731.9331402577
 20
4885.5840996125
 30
0.0
 11
6731.95340809
 21
4885.5840996125
 31
0.0
  0
LINE
  5
1F9
330
1F
100
AcDbEntity
  8
0
  6
Continuous
 62
     7
370
    25
100
AcDbLine
 10
6631.7126402577
 20
4858.907820921
 30
0.0
 11
6631.7126402577
 21
4858.9075308096
 31
0.0
  0
LINE
  5
1FA
330
1F
100
AcDbEntity
  8
0
  6
Continuous
 62
     7
370
    25
100
AcDbLine
 10
6658.1536402577
 20
4858.9075308096
 30
0.0
 11
6658.1536402577
 21
4858.907820921
 31
0.0
  0
LINE
  5
1FB
330
1F
100
AcDbEntity
  8
0
  6
Continuous
 62
     7
370
    25
100
AcDbLine
 10
6631.7126402577
 20
4855.9081110323
 30
0.0
 11
6631.7126402577
 21
4850.907820921
 31
0.0
  0
LINE
  5
1FC
330
1F
100
AcDbEntity
  8
0
  6
Continuous
 62
     7
370
    25
100
AcDbLine
 10
6658.1536402577
 20
4850.907820921
 30
0.0
 11
6658.1536402577
 21
4855.9081110323
 31
0.0
  0
ARC
  5
1FD
330
1F
100
AcDbEntity
  8
0
  6
Continuous
 62
     7
370
    25
100
AcDbCircle
 10
6631.6831402577
 20
4857.407820921
 30
0.0
 40
1.500000000000631
100
AcDbArc
 50
271.1268896477
 51
88.8731103523
  0
ARC
  5
1FE
330
1F
100
AcDbEntity
  8
0
  6
Continuous
 62
     7
370
    25
100
AcDbCircle
 10
6658.1831402577
 20
4857.407820921
 30
0.0
 40
1.500000000000631
100
AcDbArc
 50
91.1268896477
 51
268.8731103523
  0
LINE
  5
1FF
330
1F
100
AcDbEntity
  8
0
  6
Continuous
 62
     7
370
    25
100
AcDbLine
 10
6631.7126402577
 20
4850.907820921
 30
0.0
 11
6632.7126402577
 21
4849.907820921
 31
0.0
  0
LINE
  5
200
330
1F
100
AcDbEntity
  8
0
  6
Continuous
 62
     7
370
    25
100
AcDbLine
 10
6657.1536402577
 20
4849.907820921
 30
0.0
 11
6658.1536402577
 21
4850.907820921
 31
0.0
  0
LINE
  5
201
330
1F
100
AcDbEntity
  8
0
  6
Continuous
 62
     7
370
    25
100
AcDbLine
 10
6670.5331402577
 20
5021.907820921
 30
0.0
 11
6670.5331402577
 21
5022.807820921
 31
0.0
  0
LINE
  5
202
330
1F
100
AcDbEntity
  8
0
  6
Continuous
 62
     7
370
    25
100
AcDbLine
 10
6657.3331402577
 20
5022.807820921
 30
0.0
 11
6657.3331402577
 21
5021.907820921
 31
0.0
  0
ARC
  5
203
330
1F
100
AcDbEntity
  8
0
  6
Continuous
 62
     7
370
    25
100
AcDbCircle
 10
6669.7331402577
 20
5022.807820921
 30
0.0
 40
0.8000000000001819
100
AcDbArc
 50
0.0
 51
90.0
  0
ARC
  5
204
330
1F
100
AcDbEntity
  8
0
  6
Continuous
 62
     7
370
    25
100
AcDbCircle
 10
6658.1331402577
 20
5022.807820921
 30
0.0
 40
0.8000000000001819
100
AcDbArc
 50
90.0
 51
180.0
  0
LINE
  5
205
330
1F
100
AcDbEntity
  8
0
  6
Continuous
 62
     7
370
    25
100
AcDbLine
 10
6668.6831402577
 20
5020.897820921
 30
0.0
 11
6668.6831402577
 21
5020.907820921
 31
0.0
  0
LINE
  5
206
330
1F
100
AcDbEntity
  8
0
  6
Continuous
 62
     7
370
    25
100
AcDbLine
 10
6659.1831402577
 20
5020.907820921
 30
0.0
 11
6659.1831402577
 21
5020.897820921
 31
0.0
  0
LINE
  5
207
330
1F
100
AcDbEntity
  8
0
  6
Continuous
 62
     7
370
    25
100
AcDbLine
 10
6731.9331402577
 20
4934.5810390233
 30
0.0
 11
6762.5774235696
 21
4908.8674321986
 31
0.0
  0
LINE
  5
208
330
1F
100
AcDbEntity
  8
0
  6
Continuous
 62
     7
370
    25
100
AcDbLine
 10
6787.6549229779
 20
4924.3763157956
 30
0.0
 11
6731.9331402577
 21
4971.1324431246
 31
0.0
  0
LINE
  5
209
330
1F
100
AcDbEntity
  8
0
  6
Continuous
 62
     7
370
    25
100
AcDbLine
 10
6762.5774235696
 20
4908.8674321986
 30
0.0
 11
6764.255622832
 21
4908.4140690048
 31
0.0
  0
LINE
  5
20A
330
1F
100
AcDbEntity
  8
0
  6
Continuous
 62
     7
370
    25
100
AcDbLine
 10
6787.6544226841
 20
4921.9233723981
 30
0.0
 11
6787.6544226841
 21
4924.3767355919
 31
0.0
  0
LINE
  5
20B
330
1F
100
AcDbEntity
  8
0
  6
Continuous
 62
     7
370
    25
100
AcDbLine
 10
6733.9331402577
 20
4989.907820921
 30
0.0
 11
6732.4331402577
 21
4991.407820921
 31
0.0
  0
LINE
  5
20C
330
1F
100
AcDbEntity
  8
0
  6
Continuous
 62
     7
370
    25
100
AcDbLine
 10
6732.4331402577
 20
4991.407820921
 30
0.0
 11
6731.9331402577
 21
4991.407820921
 31
0.0
  0
LWPOLYLINE
  5
20D
330
1F
100
AcDbEntity
  8
0
  6
Continuous
 62
     7
370
    25
100
AcDbPolyline
 90
        7
 70
   128
 43
0.0
 10
6731.9368934189
 20
5004.9440851152
 10
6731.9488611966
 20
5005.0879905203
 10
6731.9554448536
 20
5005.1957160521
 10
6731.955888638
 20
5005.2547247115
 10
6731.9501977377
 20
5005.2588745606
 10
6731.9390121839
 20
5005.2079604988
 10
6731.9368934189
 20
5005.1956308342
  0
ARC
  5
20E
330
1F
100
AcDbEntity
  8
0
  6
Continuous
 62
     7
370
    25
100
AcDbCircle
 10
6730.682666228
 20
5005.4703625293
 30
0.0
 40
1.276911504273715
100
AcDbArc
 50
350.6975847608
 51
9.4070981941
  0
ARC
  5
20F
330
1F
100
AcDbEntity
  8
0
  6
Continuous
 62
     7
370
    25
100
AcDbCircle
 10
6731.6627008881
 20
5008.6152660336
 30
0.0
 40
0.2954166737143296
100
AcDbArc
 50
348.9278330422
 51
11.5786286063
  0
ARC
  5
210
330
1F
100
AcDbEntity
  8
0
  6
Continuous
 62
     7
370
    25
100
AcDbCircle
 10
6730.4988310945
 20
5008.3838847255
 30
0.0
 40
1.459346471195745
100
AcDbArc
 50
350.2024880412
 51
9.7975119588
  0
ARC
  5
211
330
1F
100
AcDbEntity
  8
0
  6
Continuous
 62
     7
370
    25
100
AcDbCircle
 10
6728.8164938383
 20
5006.5459217792
 30
0.0
 40
3.142745316930337
100
AcDbArc
 50
353.1634336031
 51
6.8365663969
  0
LINE
  5
212
330
1F
100
AcDbEntity
  8
0
  6
Continuous
 62
     7
370
    25
100
AcDbLine
 10
6732.0194161516
 20
5006.7684344442
 30
0.0
 11
6732.0194161516
 21
5007.657820921
 31
0.0
  0
LINE
  5
213
330
1F
100
AcDbEntity
  8
0
  6
Continuous
 62
     7
370
    25
100
AcDbLine
 10
6732.0194161516
 20
5006.157820921
 30
0.0
 11
6732.0194161516
 21
5006.7684344442
 31
0.0
  0
ARC
  5
214
330
1F
100
AcDbEntity
  8
0
  6
Continuous
 62
     7
370
    25
100
AcDbCircle
 10
6728.5466355862
 20
4882.3229022408
 30
0.0
 40
3.413214378652325
100
AcDbArc
 50
353.3510535575
 51
357.1160489401
  0
ARC
  5
215
330
1F
100
AcDbEntity
  8
0
  6
Continuous
 62
     7
370
    25
100
AcDbCircle
 10
6727.7148666455
 20
4884.9946443347
 30
0.0
 40
4.240801176473455
100
AcDbArc
 50
0.0408182996
 51
5.3933312589
  0
LWPOLYLINE
  5
216
330
1F
100
AcDbEntity
  8
0
  6
Continuous
 62
     7
370
    25
100
AcDbPolyline
 90
        6
 70
   128
 43
0.0
 10
6731.9368934189
 20
4885.7897328455
 10
6731.9488611966
 20
4885.6996484147
 10
6731.9554448536
 20
4885.6612057761
 10
6731.955888638
 20
4885.6788166382
 10
6731.9501977377
 20
4885.7500245375
 10
6731.9498342976
 20
4885.7538209391
  0
ARC
  5
217
330
1F
100
AcDbEntity
  8
0
  6
Continuous
 62
     7
370
    25
100
AcDbCircle
 10
6728.9516309056
 20
4884.6558333663
 30
0.0
 40
3.00588815957417
100
AcDbArc
 50
353.2841087887
 51
6.7158912113
  0
ARC
  5
218
330
1F
100
AcDbEntity
  8
0
  6
Continuous
 62
     7
370
    25
100
AcDbCircle
 10
6730.2531014642
 20
4882.7248173157
 30
0.0
 40
1.710735235847566
100
AcDbArc
 50
349.8177649229
 51
10.1822350771
  0
LINE
  5
219
330
1F
100
AcDbEntity
  8
0
  6
Continuous
 62
     7
370
    25
100
AcDbLine
 10
6732.0194161516
 20
4883.4521837404
 30
0.0
 11
6732.0194161516
 21
4884.657820921
 31
0.0
  0
LINE
  5
21A
330
1F
100
AcDbEntity
  8
0
  6
Continuous
 62
     7
370
    25
100
AcDbLine
 10
6732.0194161516
 20
4883.157820921
 30
0.0
 11
6732.0194161516
 21
4883.4521837404
 31
0.0
  0
ARC
  5
21B
330
1F
100
AcDbEntity
  8
0
  6
Continuous
 62
     7
370
    25
100
AcDbCircle
 10
6729.1155026151
 20
5007.7717766961
 30
0.0
 40
2.841948712117464
100
AcDbArc
 50
353.1042561612
 51
6.8957438388
  0
ARC
  5
21C
330
1F
100
AcDbEntity
  8
0
  6
Continuous
 62
     7
370
    25
100
AcDbCircle
 10
6730.0063015759
 20
5005.8284726089
 30
0.0
 40
1.956427744040077
100
AcDbArc
 50
350.6782678479
 51
9.3217321521
  0
ARC
  5
21D
330
1F
100
AcDbEntity
  8
0
  6
Continuous
 62
     7
370
    25
100
AcDbCircle
 10
6726.931285598
 20
5005.5206463056
 30
0.0
 40
5.039149238410676
100
AcDbArc
 50
353.385592984
 51
355.6045106432
  0
LWPOLYLINE
  5
21E
330
1F
100
AcDbEntity
  8
0
  6
Continuous
 62
     7
370
    25
100
AcDbPolyline
 90
        5
 70
   128
 43
0.0
 10
6731.9368934189
 20
5008.8268103479
 10
6731.9488611966
 20
5008.7276895401
 10
6731.9554448536
 20
5008.6786513996
 10
6731.955888638
 20
5008.6853489499
 10
6731.9544022579
 20
5008.7013322094
  0
LINE
  5
21F
330
1F
100
AcDbEntity
  8
0
  6
Continuous
 62
     7
370
    25
100
AcDbLine
 10
6732.0194161516
 20
5007.65628998
 30
0.0
 11
6732.0194161516
 21
5007.657820921
 31
0.0
  0
LINE
  5
220
330
1F
100
AcDbEntity
  8
0
  6
Continuous
 62
     7
370
    25
100
AcDbLine
 10
6732.0194161516
 20
5006.157820921
 30
0.0
 11
6732.0194161516
 21
5007.65628998
 31
0.0
  0
LWPOLYLINE
  5
221
330
1F
100
AcDbEntity
  8
0
  6
Continuous
 62
     7
370
    25
100
AcDbPolyline
 90
        3
 70
   128
 43
0.0
 10
6731.9558137547
 20
5005.6869590172
 10
6731.955888638
 20
5005.6664279197
 10
6731.9549500318
 20
5005.6413180421
  0
LWPOLYLINE
  5
222
330
1F
100
AcDbEntity
  8
0
  6
Continuous
 62
     7
370
    25
100
AcDbPolyline
 90
        6
 70
   128
 43
0.0
 10
6731.9542085892
 20
4882.1554151846
 10
6731.9554448536
 20
4882.1745046542
 10
6731.955888638
 20
4882.2262097336
 10
6731.9501977377
 20
4882.2226424287
 10
6731.9390121839
 20
4882.1644365872
 10
6731.9368934189
 20
4882.1510844057
  0
ARC
  5
223
330
1F
100
AcDbEntity
  8
0
  6
Continuous
 62
     7
370
    25
100
AcDbCircle
 10
6728.520144433
 20
4882.5853060313
 30
0.0
 40
3.435103903110218
100
AcDbArc
 50
354.07432978
 51
1.9024769688
  0
LINE
  5
224
330
1F
100
AcDbEntity
  8
0
  6
Continuous
 62
     7
370
    25
100
AcDbLine
 10
6726.9331402577
 20
5018.897820921
 30
0.0
 11
6628.9331402577
 21
5018.897820921
 31
0.0
  0
LINE
  5
225
330
1F
100
AcDbEntity
  8
0
  6
Continuous
 62
     7
370
    25
100
AcDbLine
 10
6628.9331402577
 20
4871.917820921
 30
0.0
 11
6726.9331402577
 21
4871.917820921
 31
0.0
  0
LINE
  5
226
330
1F
100
AcDbEntity
  8
0
  6
Continuous
 62
     7
370
    25
100
AcDbLine
 10
6628.9331402577
 20
4871.917820921
 30
0.0
 11
6628.9331402577
 21
5018.897820921
 31
0.0
  0
LINE
  5
227
330
1F
100
AcDbEntity
  8
0
  6
Continuous
 62
     7
370
    25
100
AcDbLine
 10
6628.9331402577
 20
5018.897820921
 30
0.0
 11
6628.9331402577
 21
5020.897820921
 31
0.0
  0
LINE
  5
228
330
1F
100
AcDbEntity
  8
0
  6
Continuous
 62
     7
370
    25
100
AcDbLine
 10
6726.2260334765
 20
5020.897820921
 30
0.0
 11
6628.9331402577
 21
5020.897820921
 31
0.0
  0
ARC
  5
229
330
1F
100
AcDbEntity
  8
0
  6
Continuous
 62
     7
370
    25
100
AcDbCircle
 10
6722.2575232476
 20
5018.3697406739
 30
0.0
 40
4.705344107742556
100
AcDbArc
 50
6.4438749229
 51
32.4985663461
  0
LINE
  5
22A
330
1F
100
AcDbEntity
  8
0
  6
Continuous
 62
     7
370
    25
100
AcDbLine
 10
6626.9331402577
 20
5018.897820921
 30
0.0
 11
6628.9331402577
 21
5018.897820921
 31
0.0
  0
LINE
  5
22B
330
1F
100
AcDbEntity
  8
0
  6
Continuous
 62
     7
370
    25
100
AcDbLine
 10
6626.9331402577
 20
4871.917820921
 30
0.0
 11
6626.9331402577
 21
5018.897820921
 31
0.0
  0
LINE
  5
22C
330
1F
100
AcDbEntity
  8
0
  6
Continuous
 62
     7
370
    25
100
AcDbLine
 10
6628.9331402577
 20
4871.917820921
 30
0.0
 11
6626.9331402577
 21
4871.917820921
 31
0.0
  0
ARC
  5
22D
330
1F
100
AcDbEntity
  8
0
  6
Continuous
 62
     7
370
    25
100
AcDbCircle
 10
6723.6568487426
 20
4871.9511648947
 30
0.0
 40
3.276461187396884
100
AcDbArc
 50
321.6406579459
 51
359.4169007851
  0
LINE
  5
22E
330
1F
100
AcDbEntity
  8
0
  6
Continuous
 62
     7
370
    25
100
AcDbLine
 10
6628.9331402577
 20
4869.917820921
 30
0.0
 11
6726.2260334765
 21
4869.917820921
 31
0.0
  0
LINE
  5
22F
330
1F
100
AcDbEntity
  8
0
  6
Continuous
 62
     7
370
    25
100
AcDbLine
 10
6628.9331402577
 20
4869.917820921
 30
0.0
 11
6628.9331402577
 21
4871.917820921
 31
0.0
  0
LINE
  5
230
330
1F
100
AcDbEntity
  8
0
  6
Continuous
 62
     7
370
    25
100
AcDbLine
 10
6728.9331402577
 20
4871.917820921
 30
0.0
 11
6726.9331402577
 21
4871.917820921
 31
0.0
  0
LINE
  5
231
330
1F
100
AcDbEntity
  8
0
  6
Continuous
 62
     7
370
    25
100
AcDbLine
 10
6726.9331402577
 20
4869.917820921
 30
0.0
 11
6726.9331402577
 21
4870.917820921
 31
0.0
  0
ARC
  5
232
330
1F
100
AcDbEntity
  8
0
  6
Continuous
 62
     7
370
    25
100
AcDbCircle
 10
6726.9331402577
 20
4871.917820921
 30
0.0
 40
0.999999999998181
100
AcDbArc
 50
269.9999999999
 51
0.0000000001
  0
ARC
  5
233
330
1F
100
AcDbEntity
  8
0
  6
Continuous
 62
     7
370
    25
100
AcDbCircle
 10
6726.9331402577
 20
4871.917820921
 30
0.0
 40
2.000000000001819
100
AcDbArc
 50
270.0000000001
 51
359.9999999999
  0
ARC
  5
234
330
1F
100
AcDbEntity
  8
0
  6
Continuous
 62
     7
370
    25
100
AcDbCircle
 10
6628.9331402577
 20
4870.907820921
 30
0.0
 40
2.0
100
AcDbArc
 50
180.0
 51
270.0
  0
LINE
  5
235
330
1F
100
AcDbEntity
  8
0
  6
Continuous
 62
     7
370
    25
100
AcDbLine
 10
6626.9331402577
 20
4870.907820921
 30
0.0
 11
6627.9331402577
 21
4870.907820921
 31
0.0
  0
ARC
  5
236
330
1F
100
AcDbEntity
  8
0
  6
Continuous
 62
     7
370
    25
100
AcDbCircle
 10
6628.9331402577
 20
4870.907820921
 30
0.0
 40
1.0
100
AcDbArc
 50
180.0
 51
270.0
  0
LINE
  5
237
330
1F
100
AcDbEntity
  8
0
  6
Continuous
 62
     7
370
    25
100
AcDbLine
 10
6628.9331402577
 20
4869.907820921
 30
0.0
 11
6628.9331402577
 21
4868.907820921
 31
0.0
  0
LINE
  5
238
330
1F
100
AcDbEntity
  8
0
  6
Continuous
 62
     7
370
    25
100
AcDbLine
 10
6626.9331402577
 20
4871.917820921
 30
0.0
 11
6626.9331402577
 21
4870.907820921
 31
0.0
  0
LINE
  5
239
330
1F
100
AcDbEntity
  8
0
  6
Continuous
 62
     7
370
    25
100
AcDbLine
 10
6627.9331402577
 20
4871.917820921
 30
0.0
 11
6627.9331402577
 21
4870.907820921
 31
0.0
  0
LINE
  5
23A
330
1F
100
AcDbEntity
  8
0
  6
Continuous
 62
     7
370
    25
100
AcDbLine
 10
6626.9331402577
 20
5019.907820921
 30
0.0
 11
6627.9331402577
 21
5019.907820921
 31
0.0
  0
ARC
  5
23B
330
1F
100
AcDbEntity
  8
0
  6
Continuous
 62
     7
370
    25
100
AcDbCircle
 10
6628.9331402577
 20
5019.907820921
 30
0.0
 40
2.000000000000909
100
AcDbArc
 50
90.0
 51
180.0
  0
LINE
  5
23C
330
1F
100
AcDbEntity
  8
0
  6
Continuous
 62
     7
370
    25
100
AcDbLine
 10
6628.9331402577
 20
5020.907820921
 30
0.0
 11
6628.9331402577
 21
5021.907820921
 31
0.0
  0
ARC
  5
23D
330
1F
100
AcDbEntity
  8
0
  6
Continuous
 62
     7
370
    25
100
AcDbCircle
 10
6628.9331402577
 20
5019.907820921
 30
0.0
 40
1.000000000000909
100
AcDbArc
 50
90.0
 51
180.0
  0
LINE
  5
23E
330
1F
100
AcDbEntity
  8
0
  6
Continuous
 62
     7
370
    25
100
AcDbLine
 10
6626.9331402577
 20
5019.907820921
 30
0.0
 11
6626.9331402577
 21
5018.897820921
 31
0.0
  0
LINE
  5
23F
330
1F
100
AcDbEntity
  8
0
  6
Continuous
 62
     7
370
    25
100
AcDbLine
 10
6627.9331402577
 20
5019.907820921
 30
0.0
 11
6627.9331402577
 21
5018.897820921
 31
0.0
  0
LINE
  5
240
330
1F
100
AcDbEntity
  8
0
  6
Continuous
 62
     7
370
    25
100
AcDbLine
 10
6726.9331402577
 20
4868.907820921
 30
0.0
 11
6726.9331402577
 21
4869.907820921
 31
0.0
  0
LINE
  5
241
330
1F
100
AcDbEntity
  8
0
  6
Continuous
 62
     7
370
    25
100
AcDbLine
 10
6726.9331402577
 20
4868.907820921
 30
0.0
 11
6628.9331402577
 21
4868.907820921
 31
0.0
  0
LINE
  5
242
330
1F
100
AcDbEntity
  8
0
  6
Continuous
 62
     7
370
    25
100
AcDbLine
 10
6726.9331402577
 20
4869.907820921
 30
0.0
 11
6628.9331402577
 21
4869.907820921
 31
0.0
  0
LINE
  5
243
330
1F
100
AcDbEntity
  8
0
  6
Continuous
 62
     7
370
    25
100
AcDbLine
 10
6628.9331402577
 20
5021.907820921
 30
0.0
 11
6726.9331402577
 21
5021.907820921
 31
0.0
  0
LINE
  5
244
330
1F
100
AcDbEntity
  8
0
  6
Continuous
 62
     7
370
    25
100
AcDbLine
 10
6628.9331402577
 20
5020.907820921
 30
0.0
 11
6726.9331402577
 21
5020.907820921
 31
0.0
  0
LINE
  5
245
330
1F
100
AcDbEntity
  8
0
  6
Continuous
 62
     7
370
    25
100
AcDbLine
 10
6726.9331402577
 20
5019.897820921
 30
0.0
 11
6726.6971225418
 21
5019.897820921
 31
0.0
  0
LINE
  5
246
330
1F
100
AcDbEntity
  8
0
  6
Continuous
 62
     7
370
    25
100
AcDbLine
 10
6726.9331402577
 20
5020.897820921
 30
0.0
 11
6726.2260334765
 21
5020.897820921
 31
0.0
  0
LINE
  5
247
330
1F
100
AcDbEntity
  8
0
  6
Continuous
 62
     7
370
    25
100
AcDbLine
 10
6726.6935784482
 20
4870.917820921
 30
0.0
 11
6726.9331402577
 21
4870.917820921
 31
0.0
  0
LINE
  5
248
330
1F
100
AcDbEntity
  8
0
  6
Continuous
 62
     7
370
    25
100
AcDbLine
 10
6726.2260334765
 20
4869.917820921
 30
0.0
 11
6726.9331402577
 21
4869.917820921
 31
0.0
  0
LINE
  5
249
330
1F
100
AcDbEntity
  8
0
  6
Continuous
 62
     7
370
    25
100
AcDbLine
 10
6631.7126402577
 20
4858.9075308096
 30
0.0
 11
6658.1536402577
 21
4858.9075308096
 31
0.0
  0
LINE
  5
24A
330
1F
100
AcDbEntity
  8
0
  6
Continuous
 62
     7
370
    25
100
AcDbLine
 10
6631.7126402577
 20
4850.907820921
 30
0.0
 11
6658.1536402577
 21
4850.907820921
 31
0.0
  0
LINE
  5
24B
330
1F
100
AcDbEntity
  8
0
  6
Continuous
 62
     7
370
    25
100
AcDbLine
 10
6651.5433902577
 20
4855.9081110323
 30
0.0
 11
6631.7126402577
 21
4855.9081110323
 31
0.0
  0
LINE
  5
24C
330
1F
100
AcDbEntity
  8
0
  6
Continuous
 62
     7
370
    25
100
AcDbLine
 10
6658.1536402577
 20
4855.9081110323
 30
0.0
 11
6651.5433902577
 21
4855.9081110323
 31
0.0
  0
LINE
  5
24D
330
1F
100
AcDbEntity
  8
0
  6
Continuous
 62
     7
370
    25
100
AcDbLine
 10
6657.1536402577
 20
4849.907820921
 30
0.0
 11
6632.7126402577
 21
4849.907820921
 31
0.0
  0
LWPOLYLINE
  5
24E
330
1F
100
AcDbEntity
  8
0
  6
Continuous
 62
     7
370
    25
100
AcDbPolyline
 90
        3
 70
   128
 43
0.0
 10
6643.3294374703
 20
4867.907820921
 10
6641.0773166847
 20
4868.7503285905
 10
6640.4435329227
 20
4868.907820921
  0
LINE
  5
24F
330
1F
100
AcDbEntity
  8
0
  6
Continuous
 62
     7
370
    25
100
AcDbLine
 10
6643.3294374703
 20
4859.4851711901
 30
0.0
 11
6643.3294374703
 21
4867.907820921
 31
0.0
  0
LWPOLYLINE
  5
250
330
1F
100
AcDbEntity
  8
0
  6
Continuous
 62
     7
370
    25
100
AcDbPolyline
 90
        3
 70
   128
 43
0.0
 10
6640.4435329227
 20
4858.907820921
 10
6640.7662186534
 20
4858.9514514097
 10
6643.3294374703
 20
4859.4851711901
  0
LINE
  5
251
330
1F
100
AcDbEntity
  8
0
  6
Continuous
 62
     7
370
    25
100
AcDbLine
 10
6633.0368430451
 20
4859.4851711901
 30
0.0
 11
6635.9227475927
 21
4858.907820921
 31
0.0
  0
LINE
  5
252
330
1F
100
AcDbEntity
  8
0
  6
Continuous
 62
     7
370
    25
100
AcDbLine
 10
6633.0368430451
 20
4867.907820921
 30
0.0
 11
6633.0368430451
 21
4859.4851711901
 31
0.0
  0
LWPOLYLINE
  5
253
330
1F
100
AcDbEntity
  8
0
  6
Continuous
 62
     7
370
    25
100
AcDbPolyline
 90
        3
 70
   128
 43
0.0
 10
6635.9227475927
 20
4868.907820921
 10
6634.465972226
 20
4868.4919069876
 10
6633.0368430451
 20
4867.907820921
  0
LINE
  5
254
330
1F
100
AcDbEntity
  8
0
  6
Continuous
 62
     7
370
    25
100
AcDbLine
 10
6640.4435329227
 20
4858.907820921
 30
0.0
 11
6635.9227475927
 21
4858.907820921
 31
0.0
  0
LWPOLYLINE
  5
255
330
1F
100
AcDbEntity
  8
0
  6
Continuous
 62
     7
370
    25
100
AcDbPolyline
 90
        3
 70
   128
 43
0.0
 10
6649.4227475927
 20
4868.907820921
 10
6648.4091708266
 20
4868.6384830462
 10
6646.5368430451
 20
4867.907820921
  0
LINE
  5
256
330
1F
100
AcDbEntity
  8
0
  6
Continuous
 62
     7
370
    25
100
AcDbLine
 10
6643.3294374703
 20
4867.907820921
 30
0.0
 11
6646.5368430451
 21
4867.907820921
 31
0.0
  0
LWPOLYLINE
  5
257
330
1F
100
AcDbEntity
  8
0
  6
Continuous
 62
     7
370
    25
100
AcDbPolyline
 90
        3
 70
   128
 43
0.0
 10
6646.5368430451
 20
4859.4851711901
 10
6647.3055985921
 20
4859.2919244578
 10
6649.4227475927
 20
4858.907820921
  0
LINE
  5
258
330
1F
100
AcDbEntity
  8
0
  6
Continuous
 62
     7
370
    25
100
AcDbLine
 10
6643.3294374703
 20
4859.4851711901
 30
0.0
 11
6646.5368430451
 21
4859.4851711901
 31
0.0
  0
LINE
  5
259
330
1F
100
AcDbEntity
  8
0
  6
Continuous
 62
     7
370
    25
100
AcDbLine
 10
6640.4435329227
 20
4858.907820921
 30
0.0
 11
6649.4227475927
 21
4858.907820921
 31
0.0
  0
LINE
  5
25A
330
1F
100
AcDbEntity
  8
0
  6
Continuous
 62
     7
370
    25
100
AcDbLine
 10
6646.5368430451
 20
4867.907820921
 30
0.0
 11
6646.5368430451
 21
4859.4851711901
 31
0.0
  0
LWPOLYLINE
  5
25B
330
1F
100
AcDbEntity
  8
0
  6
Continuous
 62
     7
370
    25
100
AcDbPolyline
 90
        3
 70
   128
 43
0.0
 10
6656.8294374703
 20
4867.907820921
 10
6655.4141325718
 20
4868.4870621246
 10
6653.9435329227
 20
4868.907820921
  0
LINE
  5
25C
330
1F
100
AcDbEntity
  8
0
  6
Continuous
 62
     7
370
    25
100
AcDbLine
 10
6656.8294374703
 20
4859.4851711901
 30
0.0
 11
6656.8294374703
 21
4867.907820921
 31
0.0
  0
LWPOLYLINE
  5
25D
330
1F
100
AcDbEntity
  8
0
  6
Continuous
 62
     7
370
    25
100
AcDbPolyline
 90
        3
 70
   128
 43
0.0
 10
6653.9435329227
 20
4858.907820921
 10
6655.2248866992
 20
4859.1132768724
 10
6656.8294374703
 20
4859.4851711901
  0
LINE
  5
25E
330
1F
100
AcDbEntity
  8
0
  6
Continuous
 62
     7
370
    25
100
AcDbLine
 10
6653.9435329227
 20
4858.907820921
 30
0.0
 11
6649.4227475927
 21
4858.907820921
 31
0.0
  0
LINE
  5
25F
330
1F
100
AcDbEntity
  8
0
  6
Continuous
 62
     7
370
    25
100
AcDbLine
 10
6631.4331402577
 20
4858.907820921
 30
0.0
 11
6631.4331402577
 21
4859.4851711901
 31
0.0
  0
LINE
  5
260
330
1F
100
AcDbEntity
  8
0
  6
Continuous
 62
     7
370
    25
100
AcDbLine
 10
6631.4331402577
 20
4859.4851711901
 30
0.0
 11
6633.0368430451
 21
4859.4851711901
 31
0.0
  0
LINE
  5
261
330
1F
100
AcDbEntity
  8
0
  6
Continuous
 62
     7
370
    25
100
AcDbLine
 10
6631.4331402577
 20
4858.907820921
 30
0.0
 11
6635.9227475927
 21
4858.907820921
 31
0.0
  0
LINE
  5
262
330
1F
100
AcDbEntity
  8
0
  6
Continuous
 62
     7
370
    25
100
AcDbLine
 10
6631.4331402577
 20
4867.907820921
 30
0.0
 11
6633.0368430451
 21
4867.907820921
 31
0.0
  0
LINE
  5
263
330
1F
100
AcDbEntity
  8
0
  6
Continuous
 62
     7
370
    25
100
AcDbLine
 10
6631.4331402577
 20
4867.907820921
 30
0.0
 11
6631.4331402577
 21
4868.907820921
 31
0.0
  0
LINE
  5
264
330
1F
100
AcDbEntity
  8
0
  6
Continuous
 62
     7
370
    25
100
AcDbLine
 10
6658.4331402577
 20
4868.907820921
 30
0.0
 11
6658.4331402577
 21
4867.907820921
 31
0.0
  0
LINE
  5
265
330
1F
100
AcDbEntity
  8
0
  6
Continuous
 62
     7
370
    25
100
AcDbLine
 10
6656.8294374703
 20
4867.907820921
 30
0.0
 11
6658.4331402577
 21
4867.907820921
 31
0.0
  0
LINE
  5
266
330
1F
100
AcDbEntity
  8
0
  6
Continuous
 62
     7
370
    25
100
AcDbLine
 10
6656.8294374703
 20
4859.4851711901
 30
0.0
 11
6658.4331402577
 21
4859.4851711901
 31
0.0
  0
LINE
  5
267
330
1F
100
AcDbEntity
  8
0
  6
Continuous
 62
     7
370
    25
100
AcDbLine
 10
6658.4331402577
 20
4859.4851711901
 30
0.0
 11
6658.4331402577
 21
4858.907820921
 31
0.0
  0
LINE
  5
268
330
1F
100
AcDbEntity
  8
0
  6
Continuous
 62
     7
370
    25
100
AcDbLine
 10
6653.9435329227
 20
4858.907820921
 30
0.0
 11
6658.4331402577
 21
4858.907820921
 31
0.0
  0
LINE
  5
269
330
1F
100
AcDbEntity
  8
0
  6
Continuous
 62
     7
370
    25
100
AcDbLine
 10
6631.4331402577
 20
4859.4851711901
 30
0.0
 11
6631.4331402577
 21
4867.907820921
 31
0.0
  0
LINE
  5
26A
330
1F
100
AcDbEntity
  8
0
  6
Continuous
 62
     7
370
    25
100
AcDbLine
 10
6658.4331402577
 20
4867.907820921
 30
0.0
 11
6658.4331402577
 21
4859.4851711901
 31
0.0
  0
LINE
  5
26B
330
1F
100
AcDbEntity
  8
0
  6
Continuous
 62
     7
370
    25
100
AcDbLine
 10
6669.7331401055
 20
5023.607820921
 30
0.0
 11
6658.1331402577
 21
5023.607820921
 31
0.0
  0
LINE
  5
26C
330
1F
100
AcDbEntity
  8
0
  6
Continuous
 62
     7
370
    25
100
AcDbLine
 10
6662.0831402577
 20
5020.907820921
 30
0.0
 11
6662.0831402577
 21
5020.897820921
 31
0.0
  0
LINE
  5
26D
330
1F
100
AcDbEntity
  8
0
  6
Continuous
 62
     7
370
    25
100
AcDbLine
 10
6663.3331402577
 20
5020.897820921
 30
0.0
 11
6663.3331402577
 21
5020.907820921
 31
0.0
  0
LINE
  5
26E
330
1F
100
AcDbEntity
  8
0
  6
Continuous
 62
     7
370
    25
100
AcDbLine
 10
6665.7831402577
 20
5020.897820921
 30
0.0
 11
6665.7831402577
 21
5020.907820921
 31
0.0
  0
LINE
  5
26F
330
1F
100
AcDbEntity
  8
0
  6
Continuous
 62
     7
370
    25
100
AcDbLine
 10
6664.5331402577
 20
5020.907820921
 30
0.0
 11
6664.5331402577
 21
5020.897820921
 31
0.0
  0
LINE
  5
270
330
1F
100
AcDbEntity
  8
0
  6
Continuous
 62
     7
370
    25
100
AcDbLine
 10
6661.0831402577
 20
5020.897820921
 30
0.0
 11
6661.0831402577
 21
5020.907820921
 31
0.0
  0
LINE
  5
271
330
1F
100
AcDbEntity
  8
0
  6
Continuous
 62
     7
370
    25
100
AcDbLine
 10
6666.7831402577
 20
5020.907820921
 30
0.0
 11
6666.7831402577
 21
5020.897820921
 31
0.0
  0
LWPOLYLINE
  5
272
330
1F
100
AcDbEntity
  8
0
  6
Continuous
 62
     7
370
    25
100
AcDbPolyline
 90
       24
 70
   128
 43
0.0
 10
6762.5774235696
 20
4908.8674321986
 10
6762.8183473228
 20
4909.0164356565
 10
6763.5318600175
 20
4909.457719911
 10
6764.6905417611
 20
4910.1743266555
 10
6766.249865064
 20
4911.1387170948
 10
6767.478346699
 20
4911.8984814722
 10
6768.8400075041
 20
4912.7406252671
 10
6770.3176470796
 20
4913.6545071672
 10
6771.2325895818
 20
4914.2203612235
 10
6772.1703230719
 20
4914.8003170875
 10
6773.1220329345
 20
4915.3889143482
 10
6774.1110204359
 20
4916.0005804598
 10
6775.1159231268
 20
4916.6220838953
 10
6776.1228811667
 20
4917.2448589661
 10
6777.1097746136
 20
4917.8552295425
 10
6778.061484204
 20
4918.4438265703
 10
6778.9992311281
 20
4919.0237906708
 10
6779.9141991741
 20
4919.5896606234
 10
6782.0819402476
 20
4920.9303375454
 10
6783.9819811896
 20
4922.1054506957
 10
6785.5413044925
 20
4923.069841135
 10
6786.6999862362
 20
4923.7864478796
 10
6787.4134989309
 20
4924.227732134
 10
6787.6544226841
 20
4924.3767355919
  0
LINE
  5
273
330
1F
100
AcDbEntity
  8
0
  6
Continuous
 62
     7
370
    25
100
AcDbLine
 10
6787.6544226841
 20
4921.9233723981
 30
0.0
 11
6764.255622832
 21
4908.4140690048
 31
0.0
  0
LINE
  5
274
330
1F
100
AcDbEntity
  8
0
  6
Continuous
 62
     7
370
    25
100
AcDbLine
 10
6726.9331402577
 20
4885.407820921
 30
0.0
 11
6728.9331402577
 21
4885.407820921
 31
0.0
  0
LINE
  5
275
330
1F
100
AcDbEntity
  8
0
  6
Continuous
 62
     7
370
    25
100
AcDbLine
 10
6726.9331402577
 20
5025.407820921
 30
0.0
 11
6726.9331402577
 21
4885.407820921
 31
0.0
  0
LINE
  5
276
330
1F
100
AcDbEntity
  8
0
  6
Continuous
 62
     7
370
    25
100
AcDbLine
 10
6726.9331402577
 20
5025.407820921
 30
0.0
 11
6728.9331402577
 21
5025.407820921
 31
0.0
  0
LINE
  5
277
330
1F
100
AcDbEntity
  8
0
  6
Continuous
 62
     7
370
    25
100
AcDbLine
 10
6733.9331402577
 20
4989.907820921
 30
0.0
 11
6733.9331402577
 21
4969.4542438623
 31
0.0
  0
LINE
  5
278
330
1F
100
AcDbEntity
  8
0
  6
Continuous
 62
     7
370
    25
100
AcDbLine
 10
6732.4331402577
 20
4970.712893309
 30
0.0
 11
6732.4331402577
 21
4991.407820921
 31
0.0
  0
LINE
  5
279
330
1F
100
AcDbEntity
  8
0
  6
Continuous
 62
     7
370
    25
100
AcDbLine
 10
6731.9331402577
 20
4865.407820921
 30
0.0
 11
6731.9331402577
 21
4861.907820921
 31
0.0
  0
LINE
  5
27A
330
1F
100
AcDbEntity
  8
0
  6
Continuous
 62
     7
370
    25
100
AcDbLine
 10
6731.9331402577
 20
4861.907820921
 30
0.0
 11
6730.4331402577
 21
4860.407820921
 31
0.0
  0
LINE
  5
27B
330
1F
100
AcDbEntity
  8
0
  6
Continuous
 62
     7
370
    25
100
AcDbLine
 10
6730.4331402577
 20
4860.407820921
 30
0.0
 11
6730.4331402577
 21
4865.407820921
 31
0.0
  0
LINE
  5
27C
330
1F
100
AcDbEntity
  8
0
  6
Continuous
 62
     7
370
    25
100
AcDbLine
 10
6731.9331402577
 20
4865.407820921
 30
0.0
 11
6730.4331402577
 21
4865.407820921
 31
0.0
  0
LINE
  5
27D
330
1F
100
AcDbEntity
  8
0
  6
Continuous
 62
     7
370
    25
100
AcDbLine
 10
6728.9331402577
 20
5025.407820921
 30
0.0
 11
6728.9331402577
 21
5030.407820921
 31
0.0
  0
LINE
  5
27E
330
1F
100
AcDbEntity
  8
0
  6
Continuous
 62
     7
370
    25
100
AcDbLine
 10
6728.9331402577
 20
5030.407820921
 30
0.0
 11
6730.4331402577
 21
5030.407820921
 31
0.0
  0
LINE
  5
27F
330
1F
100
AcDbEntity
  8
0
  6
Continuous
 62
     7
370
    25
100
AcDbLine
 10
6730.4331402577
 20
5025.407820921
 30
0.0
 11
6730.4331402577
 21
5030.407820921
 31
0.0
  0
LINE
  5
280
330
1F
100
AcDbEntity
  8
0
  6
Continuous
 62
     7
370
    25
100
AcDbLine
 10
6730.4331402577
 20
5025.407820921
 30
0.0
 11
6728.9331402577
 21
5025.407820921
 31
0.0
  0
LINE
  5
281
330
1F
100
AcDbEntity
  8
0
  6
Continuous
 62
     7
370
    25
100
AcDbLine
 10
6728.9331402577
 20
4865.407820921
 30
0.0
 11
6730.4331402577
 21
4865.407820921
 31
0.0
  0
LINE
  5
282
330
1F
100
AcDbEntity
  8
0
  6
Continuous
 62
     7
370
    25
100
AcDbLine
 10
6730.4331402577
 20
4860.407820921
 30
0.0
 11
6728.9331402577
 21
4860.407820921
 31
0.0
  0
LINE
  5
283
330
1F
100
AcDbEntity
  8
0
  6
Continuous
 62
     7
370
    25
100
AcDbLine
 10
6728.9331402577
 20
4860.407820921
 30
0.0
 11
6728.9331402577
 21
4865.407820921
 31
0.0
  0
LINE
  5
284
330
1F
100
AcDbEntity
  8
0
  6
Continuous
 62
     7
370
    25
100
AcDbLine
 10
6730.4331402577
 20
4865.407820921
 30
0.0
 11
6730.4331402577
 21
5025.407820921
 31
0.0
  0
LINE
  5
285
330
1F
100
AcDbEntity
  8
0
  6
Continuous
 62
     7
370
    25
100
AcDbLine
 10
6728.9331402577
 20
5025.407820921
 30
0.0
 11
6728.9331402577
 21
4865.407820921
 31
0.0
  0
LINE
  5
286
330
1F
100
AcDbEntity
  8
0
  6
Continuous
 62
     7
370
    25
100
AcDbLine
 10
6731.9331402577
 20
5028.907820921
 30
0.0
 11
6731.9331402577
 21
5025.407820921
 31
0.0
  0
LINE
  5
287
330
1F
100
AcDbEntity
  8
0
  6
Continuous
 62
     7
370
    25
100
AcDbLine
 10
6731.9331402577
 20
5025.407820921
 30
0.0
 11
6730.4331402577
 21
5025.407820921
 31
0.0
  0
LINE
  5
288
330
1F
100
AcDbEntity
  8
0
  6
Continuous
 62
     7
370
    25
100
AcDbLine
 10
6731.9331402577
 20
5028.907820921
 30
0.0
 11
6730.4331402577
 21
5030.407820921
 31
0.0
  0
LINE
  5
289
330
1F
100
AcDbEntity
  8
0
  6
Continuous
 62
     7
370
    25
100
AcDbLine
 10
6731.9331402577
 20
5025.407820921
 30
0.0
 11
6731.9331402577
 21
4865.407820921
 31
0.0
  0
LINE
  5
28A
330
1F
100
AcDbEntity
  8
0
  6
Continuous
 62
     8
370
    25
100
AcDbLine
 10
6731.9331402577
 20
5008.1355525405
 30
0.0
 11
6731.9368934189
 21
5008.1355525405
 31
0.0
  0
LINE
  5
28B
330
1F
100
AcDbEntity
  8
0
  6
Continuous
 62
     8
370
    25
100
AcDbLine
 10
6731.9368934189
 20
5005.1956308342
 30
0.0
 11
6731.9331402577
 21
5005.1956308342
 31
0.0
  0
LINE
  5
28C
330
1F
100
AcDbEntity
  8
0
  6
Continuous
 62
     8
370
    25
100
AcDbLine
 10
6731.9331402577
 20
4885.7897328455
 30
0.0
 11
6731.9368934189
 21
4885.7897328455
 31
0.0
  0
LINE
  5
28D
330
1F
100
AcDbEntity
  8
0
  6
Continuous
 62
     8
370
    25
100
AcDbLine
 10
6731.9368934189
 20
4881.9277007444
 30
0.0
 11
6731.9331402577
 21
4881.9277007444
 31
0.0
  0
LINE
  5
28E
330
1F
100
AcDbEntity
  8
0
  6
Continuous
 62
     8
370
    25
100
AcDbLine
 10
6731.9331402577
 20
4885.3932475752
 30
0.0
 11
6731.9368934189
 21
4885.3932475752
 31
0.0
  0
LINE
  5
28F
330
1F
100
AcDbEntity
  8
0
  6
Continuous
 62
     8
370
    25
100
AcDbLine
 10
6731.9331402577
 20
5008.8268103479
 30
0.0
 11
6731.9368934189
 21
5008.8268103479
 31
0.0
  0
LINE
  5
290
330
1F
100
AcDbEntity
  8
0
  6
Continuous
 62
     8
370
    25
100
AcDbLine
 10
6731.9368934189
 20
5004.9402021734
 30
0.0
 11
6731.9331402577
 21
5004.9402021734
 31
0.0
  0
LINE
  5
291
330
1F
100
AcDbEntity
  8
0
  6
Continuous
 62
     8
370
    25
100
AcDbLine
 10
6726.9331402577
 20
4871.917820921
 30
0.0
 11
6726.9331402577
 21
4885.407820921
 31
0.0
  0
LINE
  5
292
330
1F
100
AcDbEntity
  8
0
  6
Continuous
 62
     8
370
    25
100
AcDbLine
 10
6670.5331402577
 20
5022.807820921
 30
0.0
 11
6657.3331402577
 21
5022.807820921
 31
0.0
  0
CIRCLE
  5
293
330
1F
100
AcDbEntity
  8
0
  6
Continuous
 62
     7
100
AcDbCircle
 10
6438.552109655
 20
4708.5098722199
 30
0.0
 40
13.99999999999991
  0
CIRCLE
  5
294
330
1F
100
AcDbEntity
  8
0
  6
Continuous
 62
     7
100
AcDbCircle
 10
6359.552109655
 20
4708.5098722199
 30
0.0
 40
4.750000000000448
  0
LINE
  5
295
330
1F
100
AcDbEntity
  8
0
  6
Continuous
 62
     7
370
    25
100
AcDbLine
 10
6350.302109655
 20
4640.5098722199
 30
0.0
 11
6350.302109655
 21
4640.423596326
 31
0.0
  0
LINE
  5
296
330
1F
100
AcDbEntity
  8
0
  6
Continuous
 62
     7
370
    25
100
AcDbLine
 10
6351.802109655
 20
4640.423596326
 30
0.0
 11
6351.802109655
 21
4640.4903768673
 31
0.0
  0
ARC
  5
297
330
1F
100
AcDbEntity
  8
0
  6
Continuous
 62
     7
370
    25
100
AcDbCircle
 10
6351.052109655
 20
4660.9098722199
 30
0.0
 40
20.4999999999994
100
AcDbArc
 50
267.9033450422
 51
272.0966549578
  0
LINE
  5
298
330
1F
100
AcDbEntity
  8
0
  6
Continuous
 62
     7
370
    25
100
AcDbLine
 10
6352.4426359836
 20
4640.5098722199
 30
0.0
 11
6352.4426359836
 21
4640.4962183408
 31
0.0
  0
LINE
  5
299
330
1F
100
AcDbEntity
  8
0
  6
Continuous
 62
     7
370
    25
100
AcDbLine
 10
6349.5165289738
 20
4640.4924835965
 30
0.0
 11
6349.5165289738
 21
4640.5098722199
 31
0.0
  0
LINE
  5
29A
330
1F
100
AcDbEntity
  8
0
  6
Continuous
 62
     7
370
    25
100
AcDbLine
 10
6472.8632405058
 20
4640.5012724849
 30
0.0
 11
6472.8632405058
 21
4640.5098722199
 31
0.0
  0
LINE
  5
29B
330
1F
100
AcDbEntity
  8
0
  6
Continuous
 62
     7
370
    25
100
AcDbLine
 10
6475.7118960398
 20
4640.5098722199
 30
0.0
 11
6475.7118960398
 21
4640.4899622275
 31
0.0
  0
LINE
  5
29C
330
1F
100
AcDbEntity
  8
0
  6
Continuous
 62
     7
370
    25
100
AcDbLine
 10
6473.302109655
 20
4640.5098722199
 30
0.0
 11
6473.302109655
 21
4640.423596326
 31
0.0
  0
LINE
  5
29D
330
1F
100
AcDbEntity
  8
0
  6
Continuous
 62
     7
370
    25
100
AcDbLine
 10
6474.802109655
 20
4640.423596326
 30
0.0
 11
6474.802109655
 21
4640.5062956717
 31
0.0
  0
ARC
  5
29E
330
1F
100
AcDbEntity
  8
0
  6
Continuous
 62
     7
370
    25
100
AcDbCircle
 10
6474.052109655
 20
4660.9098722199
 30
0.0
 40
20.4999999999994
100
AcDbArc
 50
267.9033450422
 51
272.0966549578
  0
LINE
  5
29F
330
1F
100
AcDbEntity
  8
0
  6
Continuous
 62
     7
370
    25
100
AcDbLine
 10
6472.3923232702
 20
4640.4899622275
 30
0.0
 11
6472.3923232702
 21
4640.5098722199
 31
0.0
  0
LINE
  5
2A0
330
1F
100
AcDbEntity
  8
0
  6
Continuous
 62
     7
370
    25
100
AcDbLine
 10
6475.2409788042
 20
4640.5098722199
 30
0.0
 11
6475.2409788042
 21
4640.5012724849
 31
0.0
  0
LINE
  5
2A1
330
1F
100
AcDbEntity
  8
0
  6
Continuous
 62
     7
370
    25
100
AcDbLine
 10
6398.552109655
 20
4640.5098722199
 30
0.0
 11
6398.552109655
 21
4597.3270893507
 31
0.0
  0
LINE
  5
2A2
330
1F
100
AcDbEntity
  8
0
  6
Continuous
 62
     7
370
    25
100
AcDbLine
 10
6426.552109655
 20
4597.3270893507
 30
0.0
 11
6426.552109655
 21
4640.5098722199
 31
0.0
  0
LINE
  5
2A3
330
1F
100
AcDbEntity
  8
0
  6
Continuous
 62
     7
370
    25
100
AcDbLine
 10
6448.552109655
 20
4640.5098722199
 30
0.0
 11
6448.552109655
 21
4640.0098722199
 31
0.0
  0
LINE
  5
2A4
330
1F
100
AcDbEntity
  8
0
  6
Continuous
 62
     7
370
    25
100
AcDbLine
 10
6476.552109655
 20
4640.0098722199
 30
0.0
 11
6476.552109655
 21
4640.5098722199
 31
0.0
  0
LINE
  5
2A5
330
1F
100
AcDbEntity
  8
0
  6
Continuous
 62
     7
370
    25
100
AcDbLine
 10
6448.552109655
 20
4640.0098722199
 30
0.0
 11
6450.052109655
 21
4638.5098722199
 31
0.0
  0
LINE
  5
2A6
330
1F
100
AcDbEntity
  8
0
  6
Continuous
 62
     7
370
    25
100
AcDbLine
 10
6475.052109655
 20
4638.5098722199
 30
0.0
 11
6476.552109655
 21
4640.0098722199
 31
0.0
  0
ARC
  5
2A7
330
1F
100
AcDbEntity
  8
0
  6
Continuous
 62
     7
370
    25
100
AcDbCircle
 10
6350.3878237894
 20
4643.9008300175
 30
0.0
 40
3.411530096970159
100
AcDbArc
 50
264.3082805703
 51
268.5603014354
  0
ARC
  5
2A8
330
1F
100
AcDbEntity
  8
0
  6
Continuous
 62
     7
370
    25
100
AcDbCircle
 10
6352.2615703414
 20
4641.2907671482
 30
0.0
 40
0.8170954248279209
100
AcDbArc
 50
253.7991234717
 51
282.8550217069
  0
LWPOLYLINE
  5
2A9
330
1F
100
AcDbEntity
  8
0
  6
Continuous
 62
     7
370
    25
100
AcDbPolyline
 90
        7
 70
   128
 43
0.0
 10
6352.894704232
 20
4640.5061190587
 10
6352.812896338
 20
4640.494151281
 10
6352.7839202431
 20
4640.487567624
 10
6352.8110789297
 20
4640.4871238396
 10
6352.8908518139
 20
4640.4928147398
 10
6353.0143506935
 20
4640.5040002937
 10
6353.0362235513
 20
4640.5061190587
  0
ARC
  5
2AA
330
1F
100
AcDbEntity
  8
0
  6
Continuous
 62
     7
370
    25
100
AcDbCircle
 10
6351.695372923
 20
4643.6140230365
 30
0.0
 40
3.128611487012482
100
AcDbArc
 50
263.4042288883
 51
276.5957711118
  0
ARC
  5
2AB
330
1F
100
AcDbEntity
  8
0
  6
Continuous
 62
     7
370
    25
100
AcDbCircle
 10
6349.7820186863
 20
4641.9691725881
 30
0.0
 40
1.491247219457621
100
AcDbArc
 50
258.840997203
 51
281.1590027971
  0
ARC
  5
2AC
330
1F
100
AcDbEntity
  8
0
  6
Continuous
 62
     7
370
    25
100
AcDbCircle
 10
6349.420838208
 20
4643.5766293801
 30
0.0
 40
3.090716976401706
100
AcDbArc
 50
263.4447068021
 51
268.1284672304
  0
LINE
  5
2AD
330
1F
100
AcDbEntity
  8
0
  6
Continuous
 62
     7
370
    25
100
AcDbLine
 10
6350.0706233287
 20
4640.5061190587
 30
0.0
 11
6350.0706233287
 21
4640.5098722199
 31
0.0
  0
LINE
  5
2AE
330
1F
100
AcDbEntity
  8
0
  6
Continuous
 62
     7
370
    25
100
AcDbLine
 10
6350.302109655
 20
4640.423596326
 30
0.0
 11
6351.802109655
 21
4640.423596326
 31
0.0
  0
LWPOLYLINE
  5
2AF
330
1F
100
AcDbEntity
  8
0
  6
Continuous
 62
     7
370
    25
100
AcDbPolyline
 90
        3
 70
   128
 43
0.0
 10
6349.6801500467
 20
4640.4874973211
 10
6349.5973170993
 20
4640.4871238396
 10
6349.5905099991
 20
4640.4874064418
  0
LWPOLYLINE
  5
2B0
330
1F
100
AcDbEntity
  8
0
  6
Continuous
 62
     7
370
    25
100
AcDbPolyline
 90
        7
 70
   128
 43
0.0
 10
6349.1380571253
 20
4640.5061190587
 10
6349.2913840051
 20
4640.494151281
 10
6349.4140812222
 20
4640.487567624
 10
6349.4918523949
 20
4640.4871238396
 10
6349.5164324051
 20
4640.4928147398
 10
6349.4853925877
 20
4640.5040002937
 10
6349.4759038319
 20
4640.5061190587
  0
LWPOLYLINE
  5
2B1
330
1F
100
AcDbEntity
  8
0
  6
Continuous
 62
     7
370
    25
100
AcDbPolyline
 90
        5
 70
   128
 43
0.0
 10
6349.6575600722
 20
4640.4962183408
 10
6349.6607303934
 20
4640.494151281
 10
6349.6229697271
 20
4640.487567624
 10
6349.533598057
 20
4640.4871238396
 10
6349.4984659239
 20
4640.4886550405
  0
LWPOLYLINE
  5
2B2
330
1F
100
AcDbEntity
  8
0
  6
Continuous
 62
     7
370
    25
100
AcDbPolyline
 90
        7
 70
   128
 43
0.0
 10
6352.4618443119
 20
4640.5061190587
 10
6352.4434889166
 20
4640.494151281
 10
6352.4812495828
 20
4640.487567624
 10
6352.5706212529
 20
4640.4871238396
 10
6352.7011942337
 20
4640.4928147398
 10
6352.8586208767
 20
4640.5040002937
 10
6352.8839194725
 20
4640.5061190587
  0
ARC
  5
2B3
330
1F
100
AcDbEntity
  8
0
  6
Continuous
 62
     7
370
    25
100
AcDbCircle
 10
6350.9277527158
 20
4643.8075437781
 30
0.0
 40
3.323217640958512
100
AcDbArc
 50
263.4347149775
 51
276.5652850225
  0
LINE
  5
2B4
330
1F
100
AcDbEntity
  8
0
  6
Continuous
 62
     7
370
    25
100
AcDbLine
 10
6351.0042132285
 20
4640.423596326
 30
0.0
 11
6351.802109655
 21
4640.423596326
 31
0.0
  0
LINE
  5
2B5
330
1F
100
AcDbEntity
  8
0
  6
Continuous
 62
     7
370
    25
100
AcDbLine
 10
6350.302109655
 20
4640.423596326
 30
0.0
 11
6351.0042132285
 21
4640.423596326
 31
0.0
  0
ARC
  5
2B6
330
1F
100
AcDbEntity
  8
0
  6
Continuous
 62
     7
370
    25
100
AcDbCircle
 10
6475.4741747944
 20
4641.7797984644
 30
0.0
 40
1.298703640923451
100
AcDbArc
 50
259.8869554628
 51
280.5471746106
  0
LWPOLYLINE
  5
2B7
330
1F
100
AcDbEntity
  8
0
  6
Continuous
 62
     7
370
    25
100
AcDbPolyline
 90
        7
 70
   128
 43
0.0
 10
6475.7858509623
 20
4640.5061190587
 10
6475.723336348
 20
4640.494151281
 10
6475.7156633471
 20
4640.487567624
 10
6475.7636409869
 20
4640.4871238396
 10
6475.8614342184
 20
4640.4928147398
 10
6475.9982126238
 20
4640.5040002937
 10
6476.0215929555
 20
4640.5061190587
  0
ARC
  5
2B8
330
1F
100
AcDbEntity
  8
0
  6
Continuous
 62
     7
370
    25
100
AcDbCircle
 10
6474.4558329832
 20
4643.8057706153
 30
0.0
 40
3.320606995440208
100
AcDbArc
 50
263.5597025101
 51
276.4402974899
  0
LWPOLYLINE
  5
2B9
330
1F
100
AcDbEntity
  8
0
  6
Continuous
 62
     7
370
    25
100
AcDbPolyline
 90
        7
 70
   128
 43
0.0
 10
6472.3496263442
 20
4640.5061190587
 10
6472.5154221937
 20
4640.494151281
 10
6472.6644118803
 20
4640.487567624
 10
6472.7792027414
 20
4640.4871238396
 10
6472.8473118021
 20
4640.4928147398
 10
6472.8615596056
 20
4640.5040002937
 10
6472.8588150144
 20
4640.5061190587
  0
LWPOLYLINE
  5
2BA
330
1F
100
AcDbEntity
  8
0
  6
Continuous
 62
     7
370
    25
100
AcDbPolyline
 90
        6
 70
   128
 43
0.0
 10
6472.3857651439
 20
4640.4899622275
 10
6472.3885559629
 20
4640.487567624
 10
6472.340578323
 20
4640.4871238396
 10
6472.2427850915
 20
4640.4928147398
 10
6472.1060066861
 20
4640.5040002937
 10
6472.0826263544
 20
4640.5061190587
  0
LINE
  5
2BB
330
1F
100
AcDbEntity
  8
0
  6
Continuous
 62
     7
370
    25
100
AcDbLine
 10
6473.302109655
 20
4640.423596326
 30
0.0
 11
6474.802109655
 21
4640.423596326
 31
0.0
  0
LINE
  5
2BC
330
1F
100
AcDbEntity
  8
0
  6
Continuous
 62
     7
370
    25
100
AcDbLine
 10
6483.552109655
 20
4645.5098722199
 30
0.0
 11
6483.552109655
 21
4743.5098722199
 31
0.0
  0
LINE
  5
2BD
330
1F
100
AcDbEntity
  8
0
  6
Continuous
 62
     7
370
    25
100
AcDbLine
 10
6341.552109655
 20
4743.5098722199
 30
0.0
 11
6341.552109655
 21
4645.5098722199
 31
0.0
  0
LINE
  5
2BE
330
1F
100
AcDbEntity
  8
0
  6
Continuous
 62
     7
370
    25
100
AcDbLine
 10
6341.552109655
 20
4743.5098722199
 30
0.0
 11
6483.552109655
 21
4743.5098722199
 31
0.0
  0
CIRCLE
  5
2BF
330
1F
100
AcDbEntity
  8
0
  6
Continuous
 62
     7
370
    25
100
AcDbCircle
 10
6438.552109655
 20
4708.5098722199
 30
0.0
 40
14.0
  0
LINE
  5
2C0
330
1F
100
AcDbEntity
  8
0
  6
Continuous
 62
     7
370
    25
100
AcDbLine
 10
6483.552109655
 20
4745.5098722199
 30
0.0
 11
6483.552109655
 21
4743.5098722199
 31
0.0
  0
LINE
  5
2C1
330
1F
100
AcDbEntity
  8
0
  6
Continuous
 62
     7
370
    25
100
AcDbLine
 10
6341.552109655
 20
4743.5098722199
 30
0.0
 11
6341.552109655
 21
4745.5098722199
 31
0.0
  0
LINE
  5
2C2
330
1F
100
AcDbEntity
  8
0
  6
Continuous
 62
     7
370
    25
100
AcDbLine
 10
6483.552109655
 20
4745.5098722199
 30
0.0
 11
6341.552109655
 21
4745.5098722199
 31
0.0
  0
ARC
  5
2C3
330
1F
100
AcDbEntity
  8
0
  6
Continuous
 62
     7
370
    25
100
AcDbCircle
 10
6483.024029408
 20
4641.541361991
 30
0.0
 40
4.705344107739044
100
AcDbArc
 50
57.5014336539
 51
83.5561250771
  0
LINE
  5
2C4
330
1F
100
AcDbEntity
  8
0
  6
Continuous
 62
     7
370
    25
100
AcDbLine
 10
6485.552109655
 20
4743.5098722199
 30
0.0
 11
6485.552109655
 21
4645.5098722199
 31
0.0
  0
LINE
  5
2C5
330
1F
100
AcDbEntity
  8
0
  6
Continuous
 62
     7
370
    25
100
AcDbLine
 10
6483.552109655
 20
4743.5098722199
 30
0.0
 11
6485.552109655
 21
4743.5098722199
 31
0.0
  0
ARC
  5
2C6
330
1F
100
AcDbEntity
  8
0
  6
Continuous
 62
     7
370
    25
100
AcDbCircle
 10
6341.5854536287
 20
4642.940687486
 30
0.0
 40
3.276461187394893
100
AcDbArc
 50
90.5830992149
 51
128.3593420541
  0
LINE
  5
2C7
330
1F
100
AcDbEntity
  8
0
  6
Continuous
 62
     7
370
    25
100
AcDbLine
 10
6339.552109655
 20
4645.5098722199
 30
0.0
 11
6339.552109655
 21
4743.5098722199
 31
0.0
  0
LINE
  5
2C8
330
1F
100
AcDbEntity
  8
0
  6
Continuous
 62
     7
370
    25
100
AcDbLine
 10
6339.552109655
 20
4743.5098722199
 30
0.0
 11
6341.552109655
 21
4743.5098722199
 31
0.0
  0
LWPOLYLINE
  5
2C9
330
1F
100
AcDbEntity
  8
0
  6
Continuous
 62
     7
370
    25
100
AcDbPolyline
 90
        6
 70
   128
 43
0.0
 10
6341.552109655
 20
4646.2169790011
 10
6341.1901512297
 20
4646.0502550344
 10
6340.8772785059
 20
4645.8835312512
 10
6340.6559879717
 20
4645.7168757301
 10
6340.5561235546
 20
4645.5502201789
 10
6340.552109655
 20
4645.5098722199
  0
ARC
  5
2CA
330
1F
100
AcDbEntity
  8
0
  6
Continuous
 62
     7
370
    25
100
AcDbCircle
 10
6482.9566509891
 20
4644.3142131082
 30
0.0
 40
1.993762539934662
100
AcDbArc
 50
36.8484045658
 51
72.6228160687
  0
ARC
  5
2CB
330
1F
100
AcDbEntity
  8
0
  6
Continuous
 62
     7
370
    25
100
AcDbCircle
 10
6483.552109655
 20
4743.5098722199
 30
0.0
 40
1.0
100
AcDbArc
 50
0.0
 51
90.0
  0
ARC
  5
2CC
330
1F
100
AcDbEntity
  8
0
  6
Continuous
 62
     7
370
    25
100
AcDbCircle
 10
6483.552109655
 20
4743.5098722199
 30
0.0
 40
2.000000000000909
100
AcDbArc
 50
0.0
 51
90.0
  0
ARC
  5
2CD
330
1F
100
AcDbEntity
  8
0
  6
Continuous
 62
     7
370
    25
100
AcDbCircle
 10
6341.552109655
 20
4743.5098722199
 30
0.0
 40
2.000000000000909
100
AcDbArc
 50
90.0
 51
180.0
  0
ARC
  5
2CE
330
1F
100
AcDbEntity
  8
0
  6
Continuous
 62
     7
370
    25
100
AcDbCircle
 10
6341.552109655
 20
4743.5098722199
 30
0.0
 40
1.0
100
AcDbArc
 50
90.0
 51
180.0
  0
CIRCLE
  5
2CF
330
1F
100
AcDbEntity
  8
0
  6
Continuous
 62
     7
370
    25
100
AcDbCircle
 10
6359.552109655
 20
4708.5098722199
 30
0.0
 40
5.799999999999272
  0
CIRCLE
  5
2D0
330
1F
100
AcDbEntity
  8
0
  6
Continuous
 62
     7
370
    25
100
AcDbCircle
 10
6359.552109655
 20
4708.5098722199
 30
0.0
 40
6.599999999999454
  0
CIRCLE
  5
2D1
330
1F
100
AcDbEntity
  8
0
  6
Continuous
 62
     7
370
    25
100
AcDbCircle
 10
6359.552109655
 20
4708.5098722199
 30
0.0
 40
4.0
  0
LWPOLYLINE
  5
2D2
330
1F
100
AcDbEntity
  8
0
  6
Continuous
 62
     7
370
    25
100
AcDbPolyline
 90
       25
 70
   128
 43
0.0
 10
6398.552109655
 20
4597.3270893507
 10
6398.5973300399
 20
4596.3201313108
 10
6398.7302525636
 20
4595.333237864
 10
6398.9439100235
 20
4594.3815282736
 10
6399.2404800732
 20
4593.4437813494
 10
6399.6177961998
 20
4592.5288133035
 10
6400.9115350827
 20
4590.36107223
 10
6402.6526147184
 20
4588.4610312879
 10
6404.7741263927
 20
4586.901707985
 10
6407.1945416019
 20
4585.7430262414
 10
6409.8208451468
 20
4585.0295135467
 10
6412.552109655
 20
4584.7885897935
 10
6415.2833741632
 20
4585.0295135467
 10
6417.9096777081
 20
4585.7430262414
 10
6420.3300929173
 20
4586.901707985
 10
6422.4516045916
 20
4588.4610312879
 10
6423.6550882873
 20
4589.6895129217
 10
6424.6721606363
 20
4591.0511737225
 10
6425.4864231101
 20
4592.5288133035
 10
6425.8637299235
 20
4593.4437558097
 10
6426.1602987653
 20
4594.3814893038
 10
6426.3739597921
 20
4595.3331991696
 10
6426.5070740105
 20
4596.3221866611
 10
6426.552109655
 20
4597.3270893507
 10
6426.552109655
 20
4597.3270893507
  0
LINE
  5
2D3
330
1F
100
AcDbEntity
  8
0
  6
Continuous
 62
     7
370
    25
100
AcDbLine
 10
6482.552109655
 20
4645.5098722199
 30
0.0
 11
6482.552109655
 21
4643.5098722199
 31
0.0
  0
LINE
  5
2D4
330
1F
100
AcDbEntity
  8
0
  6
Continuous
 62
     7
370
    25
100
AcDbLine
 10
6491.552109655
 20
4645.5098722199
 30
0.0
 11
6482.552109655
 21
4645.5098722199
 31
0.0
  0
LINE
  5
2D5
330
1F
100
AcDbEntity
  8
0
  6
Continuous
 62
     7
370
    25
100
AcDbLine
 10
6491.552109655
 20
4643.5098722199
 30
0.0
 11
6491.552109655
 21
4645.5098722199
 31
0.0
  0
LINE
  5
2D6
330
1F
100
AcDbEntity
  8
0
  6
Continuous
 62
     7
370
    25
100
AcDbLine
 10
6342.552109655
 20
4643.5098722199
 30
0.0
 11
6342.552109655
 21
4645.5098722199
 31
0.0
  0
LINE
  5
2D7
330
1F
100
AcDbEntity
  8
0
  6
Continuous
 62
     7
370
    25
100
AcDbLine
 10
6342.552109655
 20
4645.5098722199
 30
0.0
 11
6333.552109655
 21
4645.5098722199
 31
0.0
  0
LINE
  5
2D8
330
1F
100
AcDbEntity
  8
0
  6
Continuous
 62
     7
370
    25
100
AcDbLine
 10
6333.552109655
 20
4645.5098722199
 30
0.0
 11
6333.552109655
 21
4643.5098722199
 31
0.0
  0
LINE
  5
2D9
330
1F
100
AcDbEntity
  8
0
  6
Continuous
 62
     7
370
    25
100
AcDbLine
 10
6482.552109655
 20
4645.5098722199
 30
0.0
 11
6342.552109655
 21
4645.5098722199
 31
0.0
  0
LINE
  5
2DA
330
1F
100
AcDbEntity
  8
0
  6
Continuous
 62
     7
370
    25
100
AcDbLine
 10
6448.552109655
 20
4640.0098722199
 30
0.0
 11
6476.552109655
 21
4640.0098722199
 31
0.0
  0
LINE
  5
2DB
330
1F
100
AcDbEntity
  8
0
  6
Continuous
 62
     7
370
    25
100
AcDbLine
 10
6475.052109655
 20
4638.5098722199
 30
0.0
 11
6450.052109655
 21
4638.5098722199
 31
0.0
  0
LINE
  5
2DC
330
1F
100
AcDbEntity
  8
0
  6
Continuous
 62
     7
370
    25
100
AcDbLine
 10
6492.552109655
 20
4643.5098722199
 30
0.0
 11
6332.552109655
 21
4643.5098722199
 31
0.0
  0
LINE
  5
2DD
330
1F
100
AcDbEntity
  8
0
  6
Continuous
 62
     7
370
    25
100
AcDbLine
 10
6492.552109655
 20
4642.0098722199
 30
0.0
 11
6492.552109655
 21
4643.5098722199
 31
0.0
  0
LINE
  5
2DE
330
1F
100
AcDbEntity
  8
0
  6
Continuous
 62
     7
370
    25
100
AcDbLine
 10
6332.552109655
 20
4642.0098722199
 30
0.0
 11
6492.552109655
 21
4642.0098722199
 31
0.0
  0
LINE
  5
2DF
330
1F
100
AcDbEntity
  8
0
  6
Continuous
 62
     7
370
    25
100
AcDbLine
 10
6332.552109655
 20
4643.5098722199
 30
0.0
 11
6332.552109655
 21
4642.0098722199
 31
0.0
  0
LINE
  5
2E0
330
1F
100
AcDbEntity
  8
0
  6
Continuous
 62
     7
370
    25
100
AcDbLine
 10
6492.552109655
 20
4643.5098722199
 30
0.0
 11
6497.552109655
 21
4643.5098722199
 31
0.0
  0
LINE
  5
2E1
330
1F
100
AcDbEntity
  8
0
  6
Continuous
 62
     7
370
    25
100
AcDbLine
 10
6497.552109655
 20
4643.5098722199
 30
0.0
 11
6497.552109655
 21
4642.0098722199
 31
0.0
  0
LINE
  5
2E2
330
1F
100
AcDbEntity
  8
0
  6
Continuous
 62
     7
370
    25
100
AcDbLine
 10
6492.552109655
 20
4642.0098722199
 30
0.0
 11
6497.552109655
 21
4642.0098722199
 31
0.0
  0
LINE
  5
2E3
330
1F
100
AcDbEntity
  8
0
  6
Continuous
 62
     7
370
    25
100
AcDbLine
 10
6492.552109655
 20
4640.5098722199
 30
0.0
 11
6332.552109655
 21
4640.5098722199
 31
0.0
  0
LINE
  5
2E4
330
1F
100
AcDbEntity
  8
0
  6
Continuous
 62
     7
370
    25
100
AcDbLine
 10
6332.552109655
 20
4640.5098722199
 30
0.0
 11
6332.552109655
 21
4642.0098722199
 31
0.0
  0
LINE
  5
2E5
330
1F
100
AcDbEntity
  8
0
  6
Continuous
 62
     7
370
    25
100
AcDbLine
 10
6492.552109655
 20
4642.0098722199
 30
0.0
 11
6492.552109655
 21
4640.5098722199
 31
0.0
  0
LINE
  5
2E6
330
1F
100
AcDbEntity
  8
0
  6
Continuous
 62
     7
370
    25
100
AcDbLine
 10
6497.552109655
 20
4642.0098722199
 30
0.0
 11
6496.052109655
 21
4640.5098722199
 31
0.0
  0
LINE
  5
2E7
330
1F
100
AcDbEntity
  8
0
  6
Continuous
 62
     7
370
    25
100
AcDbLine
 10
6496.052109655
 20
4640.5098722199
 30
0.0
 11
6492.552109655
 21
4640.5098722199
 31
0.0
  0
LINE
  5
2E8
330
1F
100
AcDbEntity
  8
0
  6
Continuous
 62
     7
370
    25
100
AcDbLine
 10
6327.552109655
 20
4642.0098722199
 30
0.0
 11
6332.552109655
 21
4642.0098722199
 31
0.0
  0
LINE
  5
2E9
330
1F
100
AcDbEntity
  8
0
  6
Continuous
 62
     7
370
    25
100
AcDbLine
 10
6327.552109655
 20
4642.0098722199
 30
0.0
 11
6327.552109655
 21
4643.5098722199
 31
0.0
  0
LINE
  5
2EA
330
1F
100
AcDbEntity
  8
0
  6
Continuous
 62
     7
370
    25
100
AcDbLine
 10
6327.552109655
 20
4643.5098722199
 30
0.0
 11
6332.552109655
 21
4643.5098722199
 31
0.0
  0
LINE
  5
2EB
330
1F
100
AcDbEntity
  8
0
  6
Continuous
 62
     7
370
    25
100
AcDbLine
 10
6332.552109655
 20
4640.5098722199
 30
0.0
 11
6329.052109655
 21
4640.5098722199
 31
0.0
  0
LINE
  5
2EC
330
1F
100
AcDbEntity
  8
0
  6
Continuous
 62
     7
370
    25
100
AcDbLine
 10
6329.052109655
 20
4640.5098722199
 30
0.0
 11
6327.552109655
 21
4642.0098722199
 31
0.0
  0
LINE
  5
2ED
330
1F
100
AcDbEntity
  8
0
  6
Continuous
 62
     8
370
    25
100
AcDbLine
 10
6352.894704232
 20
4640.5098722199
 30
0.0
 11
6352.894704232
 21
4640.5061190587
 31
0.0
  0
LINE
  5
2EE
330
1F
100
AcDbEntity
  8
0
  6
Continuous
 62
     8
370
    25
100
AcDbLine
 10
6349.0679957587
 20
4640.5061190587
 30
0.0
 11
6349.0679957587
 21
4640.5098722199
 31
0.0
  0
LINE
  5
2EF
330
1F
100
AcDbEntity
  8
0
  6
Continuous
 62
     8
370
    25
100
AcDbLine
 10
6352.4618443119
 20
4640.5098722199
 30
0.0
 11
6352.4618443119
 21
4640.5061190587
 31
0.0
  0
LINE
  5
2F0
330
1F
100
AcDbEntity
  8
0
  6
Continuous
 62
     8
370
    25
100
AcDbLine
 10
6349.4759038319
 20
4640.5061190587
 30
0.0
 11
6349.4759038319
 21
4640.5098722199
 31
0.0
  0
LINE
  5
2F1
330
1F
100
AcDbEntity
  8
0
  6
Continuous
 62
     8
370
    25
100
AcDbLine
 10
6472.8588150144
 20
4640.5061190587
 30
0.0
 11
6472.8588150144
 21
4640.5098722199
 31
0.0
  0
LINE
  5
2F2
330
1F
100
AcDbEntity
  8
0
  6
Continuous
 62
     8
370
    25
100
AcDbLine
 10
6475.7858509623
 20
4640.5098722199
 30
0.0
 11
6475.7858509623
 21
4640.5061190587
 31
0.0
  0
LINE
  5
2F3
330
1F
100
AcDbEntity
  8
0
  6
Continuous
 62
     8
370
    25
100
AcDbLine
 10
6472.0826263544
 20
4640.5061190587
 30
0.0
 11
6472.0826263544
 21
4640.5098722199
 31
0.0
  0
LINE
  5
2F4
330
1F
100
AcDbEntity
  8
0
  6
Continuous
 62
     8
370
    25
100
AcDbLine
 10
6473.275920995
 20
4640.5061190587
 30
0.0
 11
6473.275920995
 21
4640.5098722199
 31
0.0
  0
ENDSEC
  0
SECTION
  2
OBJECTS
  0
DICTIONARY
  5
C
330
0
100
AcDbDictionary
281
     1
  3
ACAD_GROUP
350
D
  3
ACAD_LAYOUT
350
1A
  3
ACAD_MLINESTYLE
350
17
  3
ACAD_PLOTSETTINGS
350
19
  3
ACAD_PLOTSTYLENAME
350
E
  3
ACAD_SCALELIST
350
47
  3
DWGPROPS
350
2F5
  0
DICTIONARY
  5
D
102
{ACAD_REACTORS
330
C
102
}
330
C
100
AcDbDictionary
281
     1
  0
DICTIONARY
  5
1A
102
{ACAD_REACTORS
330
C
102
}
330
C
100
AcDbDictionary
281
     1
  3
Layout1
350
1E
  3
Layout2
350
26
  3
Model
350
22
  0
DICTIONARY
  5
17
102
{ACAD_REACTORS
330
C
102
}
330
C
100
AcDbDictionary
281
     1
  3
Standard
350
18
  0
DICTIONARY
  5
19
102
{ACAD_REACTORS
330
C
102
}
330
C
100
AcDbDictionary
281
     1
  0
ACDBDICTIONARYWDFLT
  5
E
102
{ACAD_REACTORS
330
C
102
}
330
C
100
AcDbDictionary
281
     1
  3
Normal
350
F
100
AcDbDictionaryWithDefault
340
F
  0
DICTIONARY
  5
47
102
{ACAD_REACTORS
330
C
102
}
330
C
100
AcDbDictionary
281
     1
  3
A0
350
48
  3
A1
350
49
  3
A2
350
4A
  3
A3
350
4B
  3
A4
350
4C
  3
A5
350
4D
  3
A6
350
4E
  3
A7
350
4F
  3
A8
350
50
  3
A9
350
51
  3
B0
350
52
  3
B1
350
53
  3
B2
350
54
  3
B3
350
55
  3
B4
350
56
  3
B5
350
57
  3
B6
350
58
  3
B7
350
59
  3
B8
350
5A
  3
B9
350
5B
  3
C0
350
5C
  3
C1
350
5D
  3
C2
350
5E
  3
C3
350
5F
  3
C4
350
60
  3
C5
350
61
  3
C6
350
62
  3
C7
350
63
  3
C8
350
64
  3
C9
350
65
  3
D0
350
66
  3
D1
350
67
  3
D2
350
68
  0
XRECORD
  5
2F5
102
{ACAD_REACTORS
330
C
102
}
330
C
100
AcDbXrecord
280
     1
  1
DWGPROPS COOKIE
  2

  3

  4

  6

  7

  8
radek.stransky
  9

300
=
301
=
302
=
303
=
304
=
305
=
306
=
307
=
308
=
309
=
 40
0.0
 41
2459345.253640949
 42
2459345.253641134
  1

 90
        0
  0
LAYOUT
  5
1E
102
{ACAD_REACTORS
330
1A
102
}
330
1A
100
AcDbPlotSettings
  1

  2
none_device
  4

  6

 40
0.0
 41
0.0
 42
0.0
 43
0.0
 44
0.0
 45
0.0
 46
0.0
 47
0.0
 48
0.0
 49
0.0
140
0.0
141
0.0
142
1.0
143
1.0
 70
   688
 72
     1
 73
     0
 74
     5
  7

 75
    16
147
1.0
148
0.0
149
0.0
100
AcDbLayout
  1
Layout1
 70
     1
 71
     1
 10
0.0
 20
0.0
 11
420.0
 21
297.0
 12
0.0
 22
0.0
 32
0.0
 14
1.0000000000E+20
 24
1.0000000000E+20
 34
1.0000000000E+20
 15
-1.0000000000E+20
 25
-1.0000000000E+20
 35
-1.0000000000E+20
146
0.0
 13
0.0
 23
0.0
 33
0.0
 16
1.0
 26
0.0
 36
0.0
 17
0.0
 27
1.0
 37
0.0
 76
     0
330
1B
  0
LAYOUT
  5
26
102
{ACAD_REACTORS
330
1A
102
}
330
1A
100
AcDbPlotSettings
  1

  2
none_device
  4

  6

 40
0.0
 41
0.0
 42
0.0
 43
0.0
 44
0.0
 45
0.0
 46
0.0
 47
0.0
 48
0.0
 49
0.0
140
0.0
141
0.0
142
1.0
143
1.0
 70
   688
 72
     1
 73
     0
 74
     5
  7

 75
    16
147
1.0
148
0.0
149
0.0
100
AcDbLayout
  1
Layout2
 70
     1
 71
     2
 10
0.0
 20
0.0
 11
0.0
 21
0.0
 12
0.0
 22
0.0
 32
0.0
 14
0.0
 24
0.0
 34
0.0
 15
0.0
 25
0.0
 35
0.0
146
0.0
 13
0.0
 23
0.0
 33
0.0
 16
1.0
 26
0.0
 36
0.0
 17
0.0
 27
1.0
 37
0.0
 76
     0
330
23
  0
LAYOUT
  5
22
102
{ACAD_REACTORS
330
1A
102
}
330
1A
100
AcDbPlotSettings
  1

  2
none_device
  4
Letter_(8.50_x_11.00_Inches)
  6

 40
6.35
 41
6.35
 42
6.35000508
 43
6.35000508
 44
215.9
 45
279.4
 46
0.0
 47
0.0
 48
0.0
 49
0.0
140
0.0
141
0.0
142
1.0
143
1.0
 70
  1712
 72
     1
 73
     0
 74
     0
  7

 75
     0
147
1.0
148
0.0
149
0.0
100
AcDbLayout
  1
Model
 70
     1
 71
     0
 10
0.0
 20
0.0
 11
20000.0
 21
10000.0
 12
0.0
 22
0.0
 32
0.0
 14
0.0
 24
0.0
 34
0.0
 15
20000.0
 25
10000.0
 35
0.0
146
0.0
 13
0.0
 23
0.0
 33
0.0
 16
1.0
 26
0.0
 36
0.0
 17
0.0
 27
1.0
 37
0.0
 76
     0
330
1F
331
29
  0
MLINESTYLE
  5
18
102
{ACAD_REACTORS
330
17
102
}
330
17
100
AcDbMlineStyle
  2
Standard
 70
     0
  3

 62
   256
 51
90.0
 52
90.0
 71
     2
 49
0.5
 62
   256
  6
BYLAYER
 49
-0.5
 62
   256
  6
BYLAYER
  0
ACDBPLACEHOLDER
  5
F
102
{ACAD_REACTORS
330
E
102
}
330
E
  0
SCALE
  5
48
102
{ACAD_REACTORS
330
47
102
}
330
47
100
AcDbScale
 70
     0
300
1:1
140
1.0
141
1.0
290
     1
  0
SCALE
  5
49
102
{ACAD_REACTORS
330
47
102
}
330
47
100
AcDbScale
 70
     0
300
1:2
140
1.0
141
2.0
290
     0
  0
SCALE
  5
4A
102
{ACAD_REACTORS
330
47
102
}
330
47
100
AcDbScale
 70
     0
300
1:4
140
1.0
141
4.0
290
     0
  0
SCALE
  5
4B
102
{ACAD_REACTORS
330
47
102
}
330
47
100
AcDbScale
 70
     0
300
1:5
140
1.0
141
5.0
290
     0
  0
SCALE
  5
4C
102
{ACAD_REACTORS
330
47
102
}
330
47
100
AcDbScale
 70
     0
300
1:8
140
1.0
141
8.0
290
     0
  0
SCALE
  5
4D
102
{ACAD_REACTORS
330
47
102
}
330
47
100
AcDbScale
 70
     0
300
1:10
140
1.0
141
10.0
290
     0
  0
SCALE
  5
4E
102
{ACAD_REACTORS
330
47
102
}
330
47
100
AcDbScale
 70
     0
300
1:16
140
1.0
141
16.0
290
     0
  0
SCALE
  5
4F
102
{ACAD_REACTORS
330
47
102
}
330
47
100
AcDbScale
 70
     0
300
1:20
140
1.0
141
20.0
290
     0
  0
SCALE
  5
50
102
{ACAD_REACTORS
330
47
102
}
330
47
100
AcDbScale
 70
     0
300
1:30
140
1.0
141
30.0
290
     0
  0
SCALE
  5
51
102
{ACAD_REACTORS
330
47
102
}
330
47
100
AcDbScale
 70
     0
300
1:40
140
1.0
141
40.0
290
     0
  0
SCALE
  5
52
102
{ACAD_REACTORS
330
47
102
}
330
47
100
AcDbScale
 70
     0
300
1:50
140
1.0
141
50.0
290
     0
  0
SCALE
  5
53
102
{ACAD_REACTORS
330
47
102
}
330
47
100
AcDbScale
 70
     0
300
1:100
140
1.0
141
100.0
290
     0
  0
SCALE
  5
54
102
{ACAD_REACTORS
330
47
102
}
330
47
100
AcDbScale
 70
     0
300
2:1
140
2.0
141
1.0
290
     0
  0
SCALE
  5
55
102
{ACAD_REACTORS
330
47
102
}
330
47
100
AcDbScale
 70
     0
300
4:1
140
4.0
141
1.0
290
     0
  0
SCALE
  5
56
102
{ACAD_REACTORS
330
47
102
}
330
47
100
AcDbScale
 70
     0
300
8:1
140
8.0
141
1.0
290
     0
  0
SCALE
  5
57
102
{ACAD_REACTORS
330
47
102
}
330
47
100
AcDbScale
 70
     0
300
10:1
140
10.0
141
1.0
290
     0
  0
SCALE
  5
58
102
{ACAD_REACTORS
330
47
102
}
330
47
100
AcDbScale
 70
     0
300
100:1
140
100.0
141
1.0
290
     0
  0
SCALE
  5
59
102
{ACAD_REACTORS
330
47
102
}
330
47
100
AcDbScale
 70
     0
300
1/128" = 1'-0"
140
0.0078125
141
12.0
290
     0
  0
SCALE
  5
5A
102
{ACAD_REACTORS
330
47
102
}
330
47
100
AcDbScale
 70
     0
300
1/64" = 1'-0"
140
0.015625
141
12.0
290
     0
  0
SCALE
  5
5B
102
{ACAD_REACTORS
330
47
102
}
330
47
100
AcDbScale
 70
     0
300
1/32" = 1'-0"
140
0.03125
141
12.0
290
     0
  0
SCALE
  5
5C
102
{ACAD_REACTORS
330
47
102
}
330
47
100
AcDbScale
 70
     0
300
1/16" = 1'-0"
140
0.0625
141
12.0
290
     0
  0
SCALE
  5
5D
102
{ACAD_REACTORS
330
47
102
}
330
47
100
AcDbScale
 70
     0
300
3/32" = 1'-0"
140
0.09375
141
12.0
290
     0
  0
SCALE
  5
5E
102
{ACAD_REACTORS
330
47
102
}
330
47
100
AcDbScale
 70
     0
300
1/8" = 1'-0"
140
0.125
141
12.0
290
     0
  0
SCALE
  5
5F
102
{ACAD_REACTORS
330
47
102
}
330
47
100
AcDbScale
 70
     0
300
3/16" = 1'-0"
140
0.1875
141
12.0
290
     0
  0
SCALE
  5
60
102
{ACAD_REACTORS
330
47
102
}
330
47
100
AcDbScale
 70
     0
300
1/4" = 1'-0"
140
0.25
141
12.0
290
     0
  0
SCALE
  5
61
102
{ACAD_REACTORS
330
47
102
}
330
47
100
AcDbScale
 70
     0
300
3/8" = 1'-0"
140
0.375
141
12.0
290
     0
  0
SCALE
  5
62
102
{ACAD_REACTORS
330
47
102
}
330
47
100
AcDbScale
 70
     0
300
1/2" = 1'-0"
140
0.5
141
12.0
290
     0
  0
SCALE
  5
63
102
{ACAD_REACTORS
330
47
102
}
330
47
100
AcDbScale
 70
     0
300
3/4" = 1'-0"
140
0.75
141
12.0
290
     0
  0
SCALE
  5
64
102
{ACAD_REACTORS
330
47
102
}
330
47
100
AcDbScale
 70
     0
300
1" = 1'-0"
140
1.0
141
12.0
290
     0
  0
SCALE
  5
65
102
{ACAD_REACTORS
330
47
102
}
330
47
100
AcDbScale
 70
     0
300
1-1/2" = 1'-0"
140
1.5
141
12.0
290
     0
  0
SCALE
  5
66
102
{ACAD_REACTORS
330
47
102
}
330
47
100
AcDbScale
 70
     0
300
3" = 1'-0"
140
3.0
141
12.0
290
     0
  0
SCALE
  5
67
102
{ACAD_REACTORS
330
47
102
}
330
47
100
AcDbScale
 70
     0
300
6" = 1'-0"
140
6.0
141
12.0
290
     0
  0
SCALE
  5
68
102
{ACAD_REACTORS
330
47
102
}
330
47
100
AcDbScale
 70
     0
300
1'-0" = 1'-0"
140
12.0
141
12.0
290
     0
  0
ENDSEC
  0
EOF
