  0
SECTION
  2
HEADER
  9
$ACADVER
  1
AC1015
  9
$ACADMAINTVER
 70
     6
  9
$DWGCODEPAGE
  3
ANSI_1250
  9
$INSBASE
 10
0.0
 20
0.0
 30
0.0
  9
$EXTMIN
 10
4417.7826195387
 20
4220.8453543533
 30
0.0
  9
$EXTMAX
 10
5539.2135851986
 20
5507.6994557133
 30
0.0
  9
$LIMMIN
 10
0.0
 20
0.0
  9
$LIMMAX
 10
420.0
 20
297.0
  9
$ORTHOMODE
 70
     0
  9
$REGENMODE
 70
     1
  9
$FILLMODE
 70
     1
  9
$QTEXTMODE
 70
     0
  9
$MIRRTEXT
 70
     1
  9
$LTSCALE
 40
1.0
  9
$ATTMODE
 70
     1
  9
$TEXTSIZE
 40
3.5
  9
$TRACEWID
 40
1.0
  9
$TEXTSTYLE
  7
Standard
  9
$CLAYER
  8
0
  9
$CELTYPE
  6
ByLayer
  9
$CECOLOR
 62
   256
  9
$CELTSCALE
 40
1.0
  9
$DISPSILH
 70
     0
  9
$DIMSCALE
 40
1.0
  9
$DIMASZ
 40
3.302
  9
$DIMEXO
 40
0.0
  9
$DIMDLI
 40
3.75
  9
$DIMRND
 40
0.0
  9
$DIMDLE
 40
0.0
  9
$DIMEXE
 40
1.0
  9
$DIMTP
 40
0.0
  9
$DIMTM
 40
0.0
  9
$DIMTXT
 40
3.5
  9
$DIMCEN
 40
2.5
  9
$DIMTSZ
 40
0.0
  9
$DIMTOL
 70
     0
  9
$DIMLIM
 70
     0
  9
$DIMTIH
 70
     1
  9
$DIMTOH
 70
     1
  9
$DIMSE1
 70
     0
  9
$DIMSE2
 70
     0
  9
$DIMTAD
 70
     1
  9
$DIMZIN
 70
     0
  9
$DIMBLK
  1

  9
$DIMASO
 70
     1
  9
$DIMSHO
 70
     1
  9
$DIMPOST
  1

  9
$DIMAPOST
  1

  9
$DIMALT
 70
     0
  9
$DIMALTD
 70
     3
  9
$DIMALTF
 40
0.0393700787
  9
$DIMLFAC
 40
1.0
  9
$DIMTOFL
 70
     1
  9
$DIMTVP
 40
0.0
  9
$DIMTIX
 70
     0
  9
$DIMSOXD
 70
     0
  9
$DIMSAH
 70
     0
  9
$DIMBLK1
  1

  9
$DIMBLK2
  1

  9
$DIMSTYLE
  2
ISO-25
  9
$DIMCLRD
 70
     0
  9
$DIMCLRE
 70
     0
  9
$DIMCLRT
 70
     0
  9
$DIMTFAC
 40
1.0
  9
$DIMGAP
 40
1.524
  9
$DIMJUST
 70
     0
  9
$DIMSD1
 70
     0
  9
$DIMSD2
 70
     0
  9
$DIMTOLJ
 70
     0
  9
$DIMTZIN
 70
     0
  9
$DIMALTZ
 70
     0
  9
$DIMALTTZ
 70
     0
  9
$DIMUPT
 70
     0
  9
$DIMDEC
 70
     2
  9
$DIMTDEC
 70
     2
  9
$DIMALTU
 70
     2
  9
$DIMALTTD
 70
     3
  9
$DIMTXSTY
  7
Standard
  9
$DIMAUNIT
 70
     0
  9
$DIMADEC
 70
     2
  9
$DIMALTRND
 40
0.0
  9
$DIMAZIN
 70
     0
  9
$DIMDSEP
 70
    44
  9
$DIMATFIT
 70
     3
  9
$DIMFRAC
 70
     0
  9
$DIMLDRBLK
  1

  9
$DIMLUNIT
 70
     2
  9
$DIMLWD
 70
    -2
  9
$DIMLWE
 70
    -2
  9
$DIMTMOVE
 70
     0
  9
$LUNITS
 70
     2
  9
$LUPREC
 70
     2
  9
$SKETCHINC
 40
1.0
  9
$FILLETRAD
 40
10.0
  9
$AUNITS
 70
     0
  9
$AUPREC
 70
     2
  9
$MENU
  1
.
  9
$ELEVATION
 40
0.0
  9
$PELEVATION
 40
0.0
  9
$THICKNESS
 40
0.0
  9
$LIMCHECK
 70
     0
  9
$CHAMFERA
 40
0.0
  9
$CHAMFERB
 40
0.0
  9
$CHAMFERC
 40
0.0
  9
$CHAMFERD
 40
0.0
  9
$SKPOLY
 70
     0
  9
$TDCREATE
 40
2459100.543374294
  9
$TDUCREATE
 40
2459100.46004096
  9
$TDUPDATE
 40
2459100.543410023
  9
$TDUUPDATE
 40
2459100.46007669
  9
$TDINDWG
 40
0.0000000116
  9
$TDUSRTIMER
 40
0.0000000116
  9
$USRTIMER
 70
     1
  9
$ANGBASE
 50
0.0
  9
$ANGDIR
 70
     0
  9
$PDMODE
 70
     0
  9
$PDSIZE
 40
-1.0
  9
$PLINEWID
 40
0.0
  9
$SPLFRAME
 70
     0
  9
$SPLINETYPE
 70
     6
  9
$SPLINESEGS
 70
     8
  9
$HANDSEED
  5
518
  9
$SURFTAB1
 70
     6
  9
$SURFTAB2
 70
     6
  9
$SURFTYPE
 70
     6
  9
$SURFU
 70
     6
  9
$SURFV
 70
     6
  9
$UCSBASE
  2

  9
$UCSNAME
  2

  9
$UCSORG
 10
0.0
 20
0.0
 30
0.0
  9
$UCSXDIR
 10
1.0
 20
0.0
 30
0.0
  9
$UCSYDIR
 10
0.0
 20
1.0
 30
0.0
  9
$UCSORTHOREF
  2

  9
$UCSORTHOVIEW
 70
     0
  9
$UCSORGTOP
 10
0.0
 20
0.0
 30
0.0
  9
$UCSORGBOTTOM
 10
0.0
 20
0.0
 30
0.0
  9
$UCSORGLEFT
 10
0.0
 20
0.0
 30
0.0
  9
$UCSORGRIGHT
 10
0.0
 20
0.0
 30
0.0
  9
$UCSORGFRONT
 10
0.0
 20
0.0
 30
0.0
  9
$UCSORGBACK
 10
0.0
 20
0.0
 30
0.0
  9
$PUCSBASE
  2

  9
$PUCSNAME
  2

  9
$PUCSORG
 10
0.0
 20
0.0
 30
0.0
  9
$PUCSXDIR
 10
1.0
 20
0.0
 30
0.0
  9
$PUCSYDIR
 10
0.0
 20
1.0
 30
0.0
  9
$PUCSORTHOREF
  2

  9
$PUCSORTHOVIEW
 70
     0
  9
$PUCSORGTOP
 10
0.0
 20
0.0
 30
0.0
  9
$PUCSORGBOTTOM
 10
0.0
 20
0.0
 30
0.0
  9
$PUCSORGLEFT
 10
0.0
 20
0.0
 30
0.0
  9
$PUCSORGRIGHT
 10
0.0
 20
0.0
 30
0.0
  9
$PUCSORGFRONT
 10
0.0
 20
0.0
 30
0.0
  9
$PUCSORGBACK
 10
0.0
 20
0.0
 30
0.0
  9
$USERI1
 70
     0
  9
$USERI2
 70
     0
  9
$USERI3
 70
     0
  9
$USERI4
 70
     0
  9
$USERI5
 70
     0
  9
$USERR1
 40
0.0
  9
$USERR2
 40
0.0
  9
$USERR3
 40
0.0
  9
$USERR4
 40
0.0
  9
$USERR5
 40
0.0
  9
$WORLDVIEW
 70
     1
  9
$SHADEDGE
 70
     3
  9
$SHADEDIF
 70
    70
  9
$TILEMODE
 70
     1
  9
$MAXACTVP
 70
    64
  9
$PINSBASE
 10
0.0
 20
0.0
 30
0.0
  9
$PLIMCHECK
 70
     0
  9
$PEXTMIN
 10
1.0000000000E+20
 20
1.0000000000E+20
 30
1.0000000000E+20
  9
$PEXTMAX
 10
-1.0000000000E+20
 20
-1.0000000000E+20
 30
-1.0000000000E+20
  9
$PLIMMIN
 10
0.0
 20
0.0
  9
$PLIMMAX
 10
420.0
 20
297.0
  9
$UNITMODE
 70
     0
  9
$VISRETAIN
 70
     1
  9
$PLINEGEN
 70
     0
  9
$PSLTSCALE
 70
     1
  9
$TREEDEPTH
 70
  3020
  9
$CMLSTYLE
  2
Standard
  9
$CMLJUST
 70
     0
  9
$CMLSCALE
 40
20.0
  9
$PROXYGRAPHICS
 70
     1
  9
$MEASUREMENT
 70
     1
  9
$CELWEIGHT
370
    -1
  9
$ENDCAPS
280
     0
  9
$JOINSTYLE
280
     0
  9
$LWDISPLAY
290
     1
  9
$INSUNITS
 70
     4
  9
$HYPERLINKBASE
  1

  9
$STYLESHEET
  1

  9
$XEDIT
290
     1
  9
$CEPSNTYPE
380
     0
  9
$PSTYLEMODE
290
     1
  9
$FINGERPRINTGUID
  2
{68f74f73-109a-484c-9736-c5b5d52c3352}
  9
$VERSIONGUID
  2
{FAEB1C32-E019-11D5-929B-00C0DF256EC4}
  9
$EXTNAMES
290
     1
  9
$PSVPSCALE
 40
0.0
  9
$OLESTARTUP
290
     0
  0
ENDSEC
  0
SECTION
  2
CLASSES
  0
CLASS
  1
ACDBDICTIONARYWDFLT
  2
AcDbDictionaryWithDefault
  3
ObjectDBX Classes
 90
        0
280
     0
281
     0
  0
CLASS
  1
VISUALSTYLE
  2
AcDbVisualStyle
  3
ObjectDBX Classes
 90
     4095
280
     0
281
     0
  0
CLASS
  1
MATERIAL
  2
AcDbMaterial
  3
ObjectDBX Classes
 90
     1153
280
     0
281
     0
  0
CLASS
  1
SCALE
  2
AcDbScale
  3
ObjectDBX Classes
 90
     1153
280
     0
281
     0
  0
CLASS
  1
TABLESTYLE
  2
AcDbTableStyle
  3
ObjectDBX Classes
 90
     4095
280
     0
281
     0
  0
CLASS
  1
MLEADERSTYLE
  2
AcDbMLeaderStyle
  3
ACDB_MLEADERSTYLE_CLASS
 90
     4095
280
     0
281
     0
  0
CLASS
  1
SUN
  2
AcDbSun
  3
SCENEOE
 90
     1153
280
     0
281
     0
  0
CLASS
  1
ACDBPLACEHOLDER
  2
AcDbPlaceHolder
  3
ObjectDBX Classes
 90
        0
280
     0
281
     0
  0
CLASS
  1
LAYOUT
  2
AcDbLayout
  3
ObjectDBX Classes
 90
        0
280
     0
281
     0
  0
ENDSEC
  0
SECTION
  2
TABLES
  0
TABLE
  2
VPORT
  5
8
330
0
100
AcDbSymbolTable
 70
     1
  0
VPORT
  5
29
330
8
100
AcDbSymbolTableRecord
100
AcDbViewportTableRecord
  2
*Active
 70
     0
 10
0.0
 20
0.0
 11
1.0
 21
1.0
 12
4978.4981023687
 22
4864.2724050333
 13
0.0
 23
0.0
 14
10.0
 24
10.0
 15
10.0
 25
10.0
 16
0.0
 26
0.0
 36
1.0
 17
0.0
 27
0.0
 37
0.0
 40
1312.5911833872
 41
0.8714515223
 42
50.0
 43
0.0
 44
0.0
 50
0.0
 51
0.0
 71
     0
 72
   100
 73
     1
 74
     3
 75
     0
 76
     0
 77
     0
 78
     0
281
     0
 65
     1
110
0.0
120
0.0
130
0.0
111
1.0
121
0.0
131
0.0
112
0.0
122
1.0
132
0.0
 79
     0
146
0.0
  0
ENDTAB
  0
TABLE
  2
LTYPE
  5
5
330
0
100
AcDbSymbolTable
 70
     6
  0
LTYPE
  5
14
330
5
100
AcDbSymbolTableRecord
100
AcDbLinetypeTableRecord
  2
ByBlock
 70
     0
  3

 72
    65
 73
     0
 40
0.0
  0
LTYPE
  5
15
330
5
100
AcDbSymbolTableRecord
100
AcDbLinetypeTableRecord
  2
ByLayer
 70
     0
  3

 72
    65
 73
     0
 40
0.0
  0
LTYPE
  5
16
330
5
100
AcDbSymbolTableRecord
100
AcDbLinetypeTableRecord
  2
Continuous
 70
     0
  3
Solid line
 72
    65
 73
     0
 40
0.0
  0
LTYPE
  5
6E
330
5
100
AcDbSymbolTableRecord
100
AcDbLinetypeTableRecord
  2
HIDDEN
 70
     0
  3
Hidden __ __ __ __ __ __ __ __ __ __ __ __ __ __
 72
    65
 73
     2
 40
1.905
 49
1.27
 74
     0
 49
-0.635
 74
     0
  0
LTYPE
  5
6F
330
5
100
AcDbSymbolTableRecord
100
AcDbLinetypeTableRecord
  2
PHANTOM
 70
     0
  3
Phantom ______  __  __  ______  __  __  ______
 72
    65
 73
     6
 40
12.7
 49
6.35
 74
     0
 49
-1.27
 74
     0
 49
1.27
 74
     0
 49
-1.27
 74
     0
 49
1.27
 74
     0
 49
-1.27
 74
     0
  0
LTYPE
  5
70
330
5
100
AcDbSymbolTableRecord
100
AcDbLinetypeTableRecord
  2
CENTER
 70
     0
  3
Center ____ _ ____ _ ____ _ ____ _ ____ _ ____
 72
    65
 73
     4
 40
10.16
 49
6.35
 74
     0
 49
-1.27
 74
     0
 49
1.27
 74
     0
 49
-1.27
 74
     0
  0
LTYPE
  5
71
330
5
100
AcDbSymbolTableRecord
100
AcDbLinetypeTableRecord
  2
CENTERX2
 70
     0
  3
Center (2x) ________  __  ________  __  _____
 72
    65
 73
     4
 40
20.32
 49
12.7
 74
     0
 49
-2.54
 74
     0
 49
2.54
 74
     0
 49
-2.54
 74
     0
  0
LTYPE
  5
72
330
5
100
AcDbSymbolTableRecord
100
AcDbLinetypeTableRecord
  2
DOT2
 70
     0
  3
Dot (.5x) ........................................
 72
    65
 73
     2
 40
0.635
 49
0.0
 74
     0
 49
-0.635
 74
     0
  0
ENDTAB
  0
TABLE
  2
LAYER
  5
2
330
0
100
AcDbSymbolTable
 70
     1
  0
LAYER
  5
10
330
2
100
AcDbSymbolTableRecord
100
AcDbLayerTableRecord
  2
0
 70
     0
 62
     7
  6
Continuous
370
    -3
390
F
  0
ENDTAB
  0
TABLE
  2
STYLE
  5
3
330
0
100
AcDbSymbolTable
 70
     1
  0
STYLE
  5
11
330
3
100
AcDbSymbolTableRecord
100
AcDbTextStyleTableRecord
  2
Standard
 70
     0
 40
0.0
 41
1.0
 50
0.0
 71
     0
 42
3.5
  3
txt
  4

  0
ENDTAB
  0
TABLE
  2
VIEW
  5
6
330
0
100
AcDbSymbolTable
 70
     0
  0
ENDTAB
  0
TABLE
  2
UCS
  5
7
330
0
100
AcDbSymbolTable
 70
     0
  0
ENDTAB
  0
TABLE
  2
APPID
  5
9
330
0
100
AcDbSymbolTable
 70
     1
  0
APPID
  5
12
330
9
100
AcDbSymbolTableRecord
100
AcDbRegAppTableRecord
  2
ACAD
 70
     0
  0
ENDTAB
  0
TABLE
  2
DIMSTYLE
  5
A
330
0
100
AcDbSymbolTable
 70
     1
100
AcDbDimStyleTable
  0
DIMSTYLE
105
27
330
A
100
AcDbSymbolTableRecord
100
AcDbDimStyleTableRecord
  2
ISO-25
 70
     0
 41
2.5
 42
0.625
 43
3.75
 44
1.25
 73
     0
 74
     0
 77
     1
 78
     8
140
2.5
141
2.5
143
0.0393700787
147
0.625
171
     3
172
     1
178
     0
271
     2
272
     2
274
     3
278
    44
283
     0
284
     8
340
11
  0
ENDTAB
  0
TABLE
  2
BLOCK_RECORD
  5
1
330
0
100
AcDbSymbolTable
 70
     1
  0
BLOCK_RECORD
  5
1F
330
1
100
AcDbSymbolTableRecord
100
AcDbBlockTableRecord
  2
*Model_Space
340
22
  0
BLOCK_RECORD
  5
1B
330
1
100
AcDbSymbolTableRecord
100
AcDbBlockTableRecord
  2
*Paper_Space
340
1E
  0
BLOCK_RECORD
  5
23
330
1
100
AcDbSymbolTableRecord
100
AcDbBlockTableRecord
  2
*Paper_Space0
340
26
  0
ENDTAB
  0
ENDSEC
  0
SECTION
  2
BLOCKS
  0
BLOCK
  5
20
330
1F
100
AcDbEntity
  8
0
100
AcDbBlockBegin
  2
*Model_Space
 70
     0
 10
0.0
 20
0.0
 30
0.0
  3
*Model_Space
  1

  0
ENDBLK
  5
21
330
1F
100
AcDbEntity
  8
0
100
AcDbBlockEnd
  0
BLOCK
  5
1C
330
1B
100
AcDbEntity
 67
     1
  8
0
100
AcDbBlockBegin
  2
*Paper_Space
 70
     0
 10
0.0
 20
0.0
 30
0.0
  3
*Paper_Space
  1

  0
ENDBLK
  5
1D
330
1B
100
AcDbEntity
 67
     1
  8
0
100
AcDbBlockEnd
  0
BLOCK
  5
24
330
23
100
AcDbEntity
  8
0
100
AcDbBlockBegin
  2
*Paper_Space0
 70
     0
 10
0.0
 20
0.0
 30
0.0
  3
*Paper_Space0
  1

  0
ENDBLK
  5
25
330
23
100
AcDbEntity
  8
0
100
AcDbBlockEnd
  0
ENDSEC
  0
SECTION
  2
ENTITIES
  0
ARC
  5
73
330
1F
100
AcDbEntity
  8
0
  6
Continuous
 62
     7
100
AcDbCircle
 10
5218.0385827056
 20
5506.6494453898
 30
0.0
 40
1.050010323500828
100
AcDbArc
 50
0.0
 51
180.0
  0
ARC
  5
74
330
1F
100
AcDbEntity
  8
0
  6
Continuous
 62
     7
100
AcDbCircle
 10
5218.0385827056
 20
5506.6494453898
 30
0.0
 40
0.0499933958017209
100
AcDbArc
 50
0.0
 51
180.0
  0
ARC
  5
75
330
1F
100
AcDbEntity
  8
0
  6
Continuous
 62
     7
100
AcDbCircle
 10
5220.5885851247
 20
4921.9994548311
 30
0.0
 40
1.500000000000073
100
AcDbArc
 50
199.4712302912
 51
269.9995642646
  0
ARC
  5
76
330
1F
100
AcDbEntity
  8
0
  6
Continuous
 62
     7
100
AcDbCircle
 10
5536.2885851888
 20
4921.499441289
 30
0.0
 40
1.800000000000306
100
AcDbArc
 50
269.999999131
 51
0.0000212472
  0
ARC
  5
77
330
1F
100
AcDbEntity
  8
0
  6
Continuous
 62
     7
100
AcDbCircle
 10
5536.288585209
 20
4921.4994545927
 30
0.0
 40
1.0
100
AcDbArc
 50
287.4576031237
 51
0.0
  0
ARC
  5
78
330
1F
100
AcDbEntity
  8
0
  6
Continuous
 62
     7
100
AcDbCircle
 10
5537.238585209
 20
5506.6494545927
 30
0.0
 40
0.0500000000001819
100
AcDbArc
 50
0.0
 51
180.0
  0
ARC
  5
79
330
1F
100
AcDbEntity
  8
0
  6
Continuous
 62
     7
100
AcDbCircle
 10
5537.238585209
 20
5506.6494545927
 30
0.0
 40
0.8499999798495992
100
AcDbArc
 50
359.999379662
 51
180.0
  0
ARC
  5
7A
330
1F
100
AcDbEntity
  8
0
  6
Continuous
 62
     7
100
AcDbCircle
 10
4677.4528712747
 20
5249.7718832067
 30
0.0
 40
29.49121955102311
100
AcDbArc
 50
249.9084214843
 51
293.7210063542
  0
ARC
  5
7B
330
1F
100
AcDbEntity
  8
0
  6
Continuous
 62
     7
100
AcDbCircle
 10
4678.2576906859
 20
5206.6587132628
 30
0.0
 40
11.35801291438922
100
AcDbArc
 50
225.4964196173
 51
314.5035803827
  0
ARC
  5
7C
330
1F
100
AcDbEntity
  8
0
  6
Continuous
 62
     7
100
AcDbCircle
 10
4678.2576906859
 20
5206.6587132628
 30
0.0
 40
9.556381827483362
100
AcDbArc
 50
224.656299512
 51
315.343700488
  0
ARC
  5
7D
330
1F
100
AcDbEntity
  8
0
  6
Continuous
 62
     7
100
AcDbCircle
 10
4677.6697370747
 20
5249.4675740873
 30
0.0
 40
31.17150728730667
100
AcDbArc
 50
251.3240593482
 51
291.1435162922
  0
ARC
  5
7E
330
1F
100
AcDbEntity
  8
0
  6
Continuous
 62
     7
100
AcDbCircle
 10
4835.9826064258
 20
4921.499441289
 30
0.0
 40
1.800000000000306
100
AcDbArc
 50
269.9999787496
 51
0.0000212472
  0
ARC
  5
7F
330
1F
100
AcDbEntity
  8
0
  6
Continuous
 62
     7
100
AcDbCircle
 10
4835.9826129823
 20
4921.4994545927
 30
0.0
 40
0.9999999999992139
100
AcDbArc
 50
287.4576031238
 51
0.0
  0
ARC
  5
80
330
1F
100
AcDbEntity
  8
0
  6
Continuous
 62
     7
100
AcDbCircle
 10
4419.5826129823
 20
4921.4994545927
 30
0.0
 40
1.0
100
AcDbArc
 50
180.0
 51
252.5423968762
  0
ARC
  5
81
330
1F
100
AcDbEntity
  8
0
  6
Continuous
 62
     7
100
AcDbCircle
 10
4419.5826195388
 20
4921.499441289
 30
0.0
 40
1.800000000000306
100
AcDbArc
 50
179.9999787528
 51
270.0000212504
  0
ARC
  5
82
330
1F
100
AcDbEntity
  8
0
  6
Continuous
 62
     7
100
AcDbCircle
 10
4836.9326129823
 20
5506.6494545927
 30
0.0
 40
0.0500000000001819
100
AcDbArc
 50
0.0
 51
180.0
  0
ARC
  5
83
330
1F
100
AcDbEntity
  8
0
  6
Continuous
 62
     7
100
AcDbCircle
 10
4836.9326129823
 20
5506.6494545927
 30
0.0
 40
0.8499934435494652
100
AcDbArc
 50
359.9993796572
 51
180.0
  0
ARC
  5
84
330
1F
100
AcDbEntity
  8
0
  6
Continuous
 62
     7
100
AcDbCircle
 10
4418.6326129823
 20
5506.6494545927
 30
0.0
 40
0.0500000000001819
100
AcDbArc
 50
0.0
 51
180.0
  0
ARC
  5
85
330
1F
100
AcDbEntity
  8
0
  6
Continuous
 62
     7
100
AcDbCircle
 10
4418.6326129823
 20
5506.6494545927
 30
0.0
 40
0.8499934435503746
100
AcDbArc
 50
0.0
 51
180.0006203428
  0
ARC
  5
86
330
1F
100
AcDbEntity
  8
0
  6
Continuous
 62
     7
100
AcDbCircle
 10
4826.2826108365
 20
4233.4703543179
 30
0.0
 40
10.00000000000001
100
AcDbArc
 50
270.0000546418
 51
0.0000027216
  0
ARC
  5
87
330
1F
100
AcDbEntity
  8
0
  6
Continuous
 62
     7
100
AcDbCircle
 10
4429.2826151281
 20
4233.4703543179
 30
0.0
 40
10.00000000000092
100
AcDbArc
 50
179.9999972784
 51
269.9999453582
  0
ARC
  5
88
330
1F
100
AcDbEntity
  8
0
  6
Continuous
 62
     7
100
AcDbCircle
 10
4835.9826070952
 20
4539.1703471922
 30
0.0
 40
1.800000000000306
100
AcDbArc
 50
359.9999787496
 51
90.0000212504
  0
ARC
  5
89
330
1F
100
AcDbEntity
  8
0
  6
Continuous
 62
     7
100
AcDbCircle
 10
4835.9826084543
 20
4539.1703634523
 30
0.0
 40
1.000000000000483
100
AcDbArc
 50
359.999030114
 51
90.0001161238
  0
ARC
  5
8A
330
1F
100
AcDbEntity
  8
0
  6
Continuous
 62
     7
100
AcDbCircle
 10
4419.5826181797
 20
4539.1703627829
 30
0.0
 40
1.000000000000235
100
AcDbArc
 50
89.9998838762
 51
180.0009698859
  0
ARC
  5
8B
330
1F
100
AcDbEntity
  8
0
  6
Continuous
 62
     7
100
AcDbCircle
 10
4419.5826195388
 20
4539.1703465228
 30
0.0
 40
1.800000000000306
100
AcDbArc
 50
89.9999787496
 51
180.0000212504
  0
ARC
  5
8C
330
1F
100
AcDbEntity
  8
0
  6
Continuous
 62
     7
100
AcDbCircle
 10
4428.5826188694
 20
4232.7703543631
 30
0.0
 40
10.79999933060121
100
AcDbArc
 50
180.0000012929
 51
269.9999421965
  0
ARC
  5
8D
330
1F
100
AcDbEntity
  8
0
  6
Continuous
 62
     7
100
AcDbCircle
 10
4428.5826188694
 20
4232.7703543631
 30
0.0
 40
10.00000068960119
100
AcDbArc
 50
180.0000013963
 51
269.9999375722
  0
ARC
  5
8E
330
1F
100
AcDbEntity
  8
0
  6
Continuous
 62
     7
100
AcDbCircle
 10
4826.9826071154
 20
4232.7703550123
 30
0.0
 40
10.0
100
AcDbArc
 50
270.0000546413
 51
359.9999987195
  0
ARC
  5
8F
330
1F
100
AcDbEntity
  8
0
  6
Continuous
 62
     7
100
AcDbCircle
 10
4826.9826071154
 20
4232.7703550123
 30
0.0
 40
10.7999999797994
100
AcDbArc
 50
270.0000505938
 51
359.9999988143
  0
ELLIPSE
  5
90
330
1F
100
AcDbEntity
  8
0
  6
Continuous
 62
     7
100
AcDbEllipse
 10
4678.257691575
 20
5228.8348265879
 30
0.0
 11
-13.67255906190258
 21
0.0
 31
0.0
210
0.0
220
0.0
230
1.0
 40
0.4943820225
 41
0.5765666698939623
 42
2.565025983695831
  0
ELLIPSE
  5
91
330
1F
100
AcDbEntity
  8
0
  6
Continuous
 62
     7
100
AcDbEllipse
 10
4678.257691575
 20
5228.8348265879
 30
0.0
 11
-12.90443776629036
 21
0.0
 31
0.0
210
0.0
220
0.0
230
1.0
 40
0.4464285714
 41
0.0
 42
6.283185307179586
  0
ELLIPSE
  5
92
330
1F
100
AcDbEntity
  8
0
  6
Continuous
 62
     7
100
AcDbEllipse
 10
4678.257691575
 20
5228.8348265879
 30
0.0
 11
-13.67255906190258
 21
0.0
 31
0.0
210
0.0
220
0.0
230
1.0
 40
0.4943820225
 41
3.141592653589793
 42
6.283185307179586
  0
ELLIPSE
  5
93
330
1F
100
AcDbEntity
  8
0
  6
Continuous
 62
     7
100
AcDbEllipse
 10
4678.257691575
 20
5228.8348265879
 30
0.0
 11
-12.13631647067814
 21
0.0
 31
0.0
210
0.0
220
0.0
230
1.0
 40
0.3860759494
 41
0.0
 42
6.283185307179586
  0
ELLIPSE
  5
94
330
1F
100
AcDbEntity
  8
0
  6
Continuous
 62
     7
100
AcDbEllipse
 10
4678.257691575
 20
5228.8348265879
 30
0.0
 11
-10.29282536120809
 21
0.0
 31
0.0
210
0.0
220
0.0
230
1.0
 40
0.3358208955
 41
0.0
 42
6.283185307179586
  0
LINE
  5
95
330
1F
100
AcDbEntity
  8
0
  6
Continuous
 62
     7
100
AcDbLine
 10
5539.0885851781
 20
5249.7206326773
 30
0.0
 11
5538.0885851888
 21
5249.7206326773
 31
0.0
  0
LINE
  5
96
330
1F
100
AcDbEntity
  8
0
  6
Continuous
 62
     7
100
AcDbLine
 10
5538.0885851888
 20
5196.9052959433
 30
0.0
 11
5539.0885851781
 21
5196.9052959433
 31
0.0
  0
LINE
  5
97
330
1F
100
AcDbEntity
  8
0
  6
Continuous
 62
     7
100
AcDbLine
 10
5539.0885851781
 20
5249.7206326773
 30
0.0
 11
5538.0885851888
 21
5249.7206326773
 31
0.0
  0
LINE
  5
98
330
1F
100
AcDbEntity
  8
0
  6
Continuous
 62
     7
100
AcDbLine
 10
5539.2135851986
 20
5253.507945334
 30
0.0
 11
5539.0885851781
 21
5253.507945334
 31
0.0
  0
LINE
  5
99
330
1F
100
AcDbEntity
  8
0
  6
Continuous
 62
     7
100
AcDbLine
 10
5538.0885851888
 20
5195.3357901623
 30
0.0
 11
5539.2135851986
 21
5195.3357901623
 31
0.0
  0
LINE
  5
9A
330
1F
100
AcDbEntity
  8
0
  6
Continuous
 62
     7
100
AcDbLine
 10
5538.0885851888
 20
5195.2089347145
 30
0.0
 11
5539.2135851986
 21
5195.2089347145
 31
0.0
  0
LINE
  5
9B
330
1F
100
AcDbEntity
  8
0
  6
Continuous
 62
     7
100
AcDbLine
 10
5539.2135851986
 20
5256.1693746796
 30
0.0
 11
5538.0885851888
 21
5256.1693746796
 31
0.0
  0
LINE
  5
9C
330
1F
100
AcDbEntity
  8
0
  6
Continuous
 62
     7
100
AcDbLine
 10
5539.0885851781
 20
5246.2685737958
 30
0.0
 11
5539.2135851986
 21
5246.2685737958
 31
0.0
  0
LINE
  5
9D
330
1F
100
AcDbEntity
  8
0
  6
Continuous
 62
     7
100
AcDbLine
 10
5539.0885851781
 20
5222.0753590776
 30
0.0
 11
5539.2135851986
 21
5222.0753590776
 31
0.0
  0
LINE
  5
9E
330
1F
100
AcDbEntity
  8
0
  6
Continuous
 62
     7
100
AcDbLine
 10
5539.2135851986
 20
5233.5203658989
 30
0.0
 11
5539.0885851781
 21
5233.5203658989
 31
0.0
  0
LINE
  5
9F
330
1F
100
AcDbEntity
  8
0
  6
Continuous
 62
     7
100
AcDbLine
 10
5539.0885851781
 20
5224.1492863944
 30
0.0
 11
5539.2135851986
 21
5224.1492863944
 31
0.0
  0
LINE
  5
A0
330
1F
100
AcDbEntity
  8
0
  6
Continuous
 62
     7
100
AcDbLine
 10
5509.5885856978
 20
5507.4994672289
 30
0.0
 11
5225.8885889283
 21
5507.4994672289
 31
0.0
  0
LINE
  5
A1
330
1F
100
AcDbEntity
  8
0
  6
Continuous
 62
     7
100
AcDbLine
 10
5539.0885851781
 20
5204.8096178299
 30
0.0
 11
5538.0885851888
 21
5204.8096178299
 31
0.0
  0
LINE
  5
A2
330
1F
100
AcDbEntity
  8
0
  6
Continuous
 62
     7
100
AcDbLine
 10
5539.0885851781
 20
5203.7464777207
 30
0.0
 11
5538.0885851888
 21
5203.7464777207
 31
0.0
  0
LINE
  5
A3
330
1F
100
AcDbEntity
  8
0
  6
Continuous
 62
     7
100
AcDbLine
 10
5539.0885851781
 20
5207.473137529
 30
0.0
 11
5538.0885851888
 21
5207.473137529
 31
0.0
  0
LINE
  5
A4
330
1F
100
AcDbEntity
  8
0
  6
Continuous
 62
     7
100
AcDbLine
 10
5539.0885851781
 20
5216.9074778179
 30
0.0
 11
5538.0885851888
 21
5216.9074778179
 31
0.0
  0
LINE
  5
A5
330
1F
100
AcDbEntity
  8
0
  6
Continuous
 62
     7
100
AcDbLine
 10
5539.0885851781
 20
5202.4537777727
 30
0.0
 11
5538.0885851888
 21
5202.4537777727
 31
0.0
  0
LINE
  5
A6
330
1F
100
AcDbEntity
  8
0
  6
Continuous
 62
     7
100
AcDbLine
 10
5539.0885851781
 20
5199.7707575759
 30
0.0
 11
5538.0885851888
 21
5199.7707575759
 31
0.0
  0
LINE
  5
A7
330
1F
100
AcDbEntity
  8
0
  6
Continuous
 62
     7
100
AcDbLine
 10
5539.0885851781
 20
5199.1987774348
 30
0.0
 11
5538.0885851888
 21
5199.1987774348
 31
0.0
  0
LINE
  5
A8
330
1F
100
AcDbEntity
  8
0
  6
Continuous
 62
     7
100
AcDbLine
 10
5539.0885851781
 20
5228.1285576722
 30
0.0
 11
5538.0885851888
 21
5228.1285576722
 31
0.0
  0
LINE
  5
A9
330
1F
100
AcDbEntity
  8
0
  6
Continuous
 62
     7
100
AcDbLine
 10
5539.0885851781
 20
5197.6382374963
 30
0.0
 11
5538.0885851888
 21
5197.6382374963
 31
0.0
  0
LINE
  5
AA
330
1F
100
AcDbEntity
  8
0
  6
Continuous
 62
     7
100
AcDbLine
 10
5539.0885851781
 20
5242.5934184542
 30
0.0
 11
5538.0885851888
 21
5242.5934184542
 31
0.0
  0
LINE
  5
AB
330
1F
100
AcDbEntity
  8
0
  6
Continuous
 62
     7
100
AcDbLine
 10
5539.0885851781
 20
5239.9365581771
 30
0.0
 11
5538.0885851888
 21
5239.9365581771
 31
0.0
  0
LINE
  5
AC
330
1F
100
AcDbEntity
  8
0
  6
Continuous
 62
     7
100
AcDbLine
 10
5539.0885851781
 20
5244.1077582737
 30
0.0
 11
5538.0885851888
 21
5244.1077582737
 31
0.0
  0
LINE
  5
AD
330
1F
100
AcDbEntity
  8
0
  6
Continuous
 62
     7
100
AcDbLine
 10
5539.0885851781
 20
5236.0835369876
 30
0.0
 11
5538.0885851888
 21
5236.0835369876
 31
0.0
  0
LINE
  5
AE
330
1F
100
AcDbEntity
  8
0
  6
Continuous
 62
     7
100
AcDbLine
 10
5539.0885851781
 20
5245.2328182956
 30
0.0
 11
5538.0885851888
 21
5245.2328182956
 31
0.0
  0
LINE
  5
AF
330
1F
100
AcDbEntity
  8
0
  6
Continuous
 62
     7
100
AcDbLine
 10
5539.0885851781
 20
5197.0581576427
 30
0.0
 11
5538.0885851888
 21
5197.0581576427
 31
0.0
  0
LINE
  5
B0
330
1F
100
AcDbEntity
  8
0
  6
Continuous
 62
     7
100
AcDbLine
 10
5539.0885851781
 20
5245.9043372622
 30
0.0
 11
5538.0885851888
 21
5245.9043372622
 31
0.0
  0
LINE
  5
B1
330
1F
100
AcDbEntity
  8
0
  6
Continuous
 62
     7
100
AcDbLine
 10
5539.0885851781
 20
5231.0295585742
 30
0.0
 11
5538.0885851888
 21
5231.0295585742
 31
0.0
  0
LINE
  5
B2
330
1F
100
AcDbEntity
  8
0
  6
Continuous
 62
     7
100
AcDbLine
 10
5539.0885851781
 20
5232.7246774187
 30
0.0
 11
5538.0885851888
 21
5232.7246774187
 31
0.0
  0
LINE
  5
B3
330
1F
100
AcDbEntity
  8
0
  6
Continuous
 62
     7
100
AcDbLine
 10
5539.0885851781
 20
5245.9357787123
 30
0.0
 11
5538.0885851888
 21
5245.9357787123
 31
0.0
  0
LINE
  5
B4
330
1F
100
AcDbEntity
  8
0
  6
Continuous
 62
     7
100
AcDbLine
 10
5539.0885851781
 20
5248.0091970613
 30
0.0
 11
5538.0885851888
 21
5248.0091970613
 31
0.0
  0
LINE
  5
B5
330
1F
100
AcDbEntity
  8
0
  6
Continuous
 62
     7
100
AcDbLine
 10
5539.0885851781
 20
5249.7061189463
 30
0.0
 11
5538.0885851888
 21
5249.7061189463
 31
0.0
  0
LINE
  5
B6
330
1F
100
AcDbEntity
  8
0
  6
Continuous
 62
     7
100
AcDbLine
 10
5539.0885851781
 20
5249.124116843
 30
0.0
 11
5538.0885851888
 21
5249.124116843
 31
0.0
  0
LINE
  5
B7
330
1F
100
AcDbEntity
  8
0
  6
Continuous
 62
     7
100
AcDbLine
 10
5539.0885851781
 20
5196.9580181142
 30
0.0
 11
5538.0885851888
 21
5196.9580181142
 31
0.0
  0
LINE
  5
B8
330
1F
100
AcDbEntity
  8
0
  6
Continuous
 62
     7
100
AcDbLine
 10
5539.0885851781
 20
5196.9183586737
 30
0.0
 11
5538.0885851888
 21
5196.9183586737
 31
0.0
  0
LINE
  5
B9
330
1F
100
AcDbEntity
  8
0
  6
Continuous
 62
     7
100
AcDbLine
 10
5539.0885851781
 20
5252.3463588407
 30
0.0
 11
5538.0885851888
 21
5252.3463588407
 31
0.0
  0
LINE
  5
BA
330
1F
100
AcDbEntity
  8
0
  6
Continuous
 62
     7
100
AcDbLine
 10
5539.0885851781
 20
5251.6213167658
 30
0.0
 11
5538.0885851888
 21
5251.6213167658
 31
0.0
  0
LINE
  5
BB
330
1F
100
AcDbEntity
  8
0
  6
Continuous
 62
     7
100
AcDbLine
 10
5539.0885851781
 20
5252.9446777156
 30
0.0
 11
5538.0885851888
 21
5252.9446777156
 31
0.0
  0
LINE
  5
BC
330
1F
100
AcDbEntity
  8
0
  6
Continuous
 62
     7
100
AcDbLine
 10
5539.0885851781
 20
5250.7229369333
 30
0.0
 11
5538.0885851888
 21
5250.7229369333
 31
0.0
  0
LINE
  5
BD
330
1F
100
AcDbEntity
  8
0
  6
Continuous
 62
     7
100
AcDbLine
 10
5539.0885851781
 20
5253.6403160741
 30
0.0
 11
5538.0885851888
 21
5253.6403160741
 31
0.0
  0
LINE
  5
BE
330
1F
100
AcDbEntity
  8
0
  6
Continuous
 62
     7
100
AcDbLine
 10
5539.0885851781
 20
5249.7154768756
 30
0.0
 11
5538.0885851888
 21
5249.7154768756
 31
0.0
  0
LINE
  5
BF
330
1F
100
AcDbEntity
  8
0
  6
Continuous
 62
     7
100
AcDbLine
 10
5539.0885851781
 20
5250.1952383866
 30
0.0
 11
5538.0885851888
 21
5250.1952383866
 31
0.0
  0
LINE
  5
C0
330
1F
100
AcDbEntity
  8
0
  6
Continuous
 62
     7
100
AcDbLine
 10
5539.0885851781
 20
5253.988437002
 30
0.0
 11
5538.0885851888
 21
5253.988437002
 31
0.0
  0
LINE
  5
C1
330
1F
100
AcDbEntity
  8
0
  6
Continuous
 62
     7
100
AcDbLine
 10
5539.0885851781
 20
5254.054076617
 30
0.0
 11
5538.0885851888
 21
5254.054076617
 31
0.0
  0
LINE
  5
C2
330
1F
100
AcDbEntity
  8
0
  6
Continuous
 62
     7
100
AcDbLine
 10
5539.0885851781
 20
5253.988437002
 30
0.0
 11
5538.0885851888
 21
5253.988437002
 31
0.0
  0
LINE
  5
C3
330
1F
100
AcDbEntity
  8
0
  6
Continuous
 62
     7
100
AcDbLine
 10
5539.0885851781
 20
5298.3455393663
 30
0.0
 11
5538.0885851888
 21
5298.3455393663
 31
0.0
  0
LINE
  5
C4
330
1F
100
AcDbEntity
  8
0
  6
Continuous
 62
     7
100
AcDbLine
 10
5539.0885851781
 20
5298.3455393663
 30
0.0
 11
5539.0885851781
 21
5301.4804382076
 31
0.0
  0
LINE
  5
C5
330
1F
100
AcDbEntity
  8
0
  6
Continuous
 62
     7
100
AcDbLine
 10
5539.0885851781
 20
5329.9534727087
 30
0.0
 11
5538.0885851888
 21
5329.9534727087
 31
0.0
  0
LINE
  5
C6
330
1F
100
AcDbEntity
  8
0
  6
Continuous
 62
     7
100
AcDbLine
 10
5539.0885851781
 20
5327.202137207
 30
0.0
 11
5539.0885851781
 21
5329.9534727087
 31
0.0
  0
LINE
  5
C7
330
1F
100
AcDbEntity
  8
0
  6
Continuous
 62
     7
100
AcDbLine
 10
5539.0885851781
 20
5327.202137207
 30
0.0
 11
5538.0885851888
 21
5327.202137207
 31
0.0
  0
LINE
  5
C8
330
1F
100
AcDbEntity
  8
0
  6
Continuous
 62
     7
100
AcDbLine
 10
5539.0885851781
 20
5330.1189128509
 30
0.0
 11
5538.0885851888
 21
5330.1189128509
 31
0.0
  0
LINE
  5
C9
330
1F
100
AcDbEntity
  8
0
  6
Continuous
 62
     7
100
AcDbLine
 10
5539.0885851781
 20
5329.9534727087
 30
0.0
 11
5539.0885851781
 21
5330.1189128509
 31
0.0
  0
LINE
  5
CA
330
1F
100
AcDbEntity
  8
0
  6
Continuous
 62
     7
100
AcDbLine
 10
5539.0885851781
 20
5319.1375095596
 30
0.0
 11
5538.0885851888
 21
5319.1375095596
 31
0.0
  0
LINE
  5
CB
330
1F
100
AcDbEntity
  8
0
  6
Continuous
 62
     7
100
AcDbLine
 10
5539.0885851781
 20
5318.2971511235
 30
0.0
 11
5538.0885851888
 21
5318.2971511235
 31
0.0
  0
LINE
  5
CC
330
1F
100
AcDbEntity
  8
0
  6
Continuous
 62
     7
100
AcDbLine
 10
5539.0885851781
 20
5320.8620507469
 30
0.0
 11
5538.0885851888
 21
5320.8620507469
 31
0.0
  0
LINE
  5
CD
330
1F
100
AcDbEntity
  8
0
  6
Continuous
 62
     7
100
AcDbLine
 10
5539.0885851781
 20
5317.5059441676
 30
0.0
 11
5538.0885851888
 21
5317.5059441676
 31
0.0
  0
LINE
  5
CE
330
1F
100
AcDbEntity
  8
0
  6
Continuous
 62
     7
100
AcDbLine
 10
5539.0885851781
 20
5322.4936235895
 30
0.0
 11
5538.0885851888
 21
5322.4936235895
 31
0.0
  0
LINE
  5
CF
330
1F
100
AcDbEntity
  8
0
  6
Continuous
 62
     7
100
AcDbLine
 10
5539.0885851781
 20
5307.5300190797
 30
0.0
 11
5538.0885851888
 21
5307.5300190797
 31
0.0
  0
LINE
  5
D0
330
1F
100
AcDbEntity
  8
0
  6
Continuous
 62
     7
100
AcDbLine
 10
5539.0885851781
 20
5307.5300190797
 30
0.0
 11
5539.0885851781
 21
5317.5059441676
 31
0.0
  0
LINE
  5
D1
330
1F
100
AcDbEntity
  8
0
  6
Continuous
 62
     7
100
AcDbLine
 10
5539.0885851781
 20
5322.4936235895
 30
0.0
 11
5539.0885851781
 21
5327.202137207
 31
0.0
  0
LINE
  5
D2
330
1F
100
AcDbEntity
  8
0
  6
Continuous
 62
     7
100
AcDbLine
 10
5539.0885851781
 20
5305.2442778101
 30
0.0
 11
5538.0885851888
 21
5305.2442778101
 31
0.0
  0
LINE
  5
D3
330
1F
100
AcDbEntity
  8
0
  6
Continuous
 62
     7
100
AcDbLine
 10
5539.0885851781
 20
5303.3800754895
 30
0.0
 11
5538.0885851888
 21
5303.3800754895
 31
0.0
  0
LINE
  5
D4
330
1F
100
AcDbEntity
  8
0
  6
Continuous
 62
     7
100
AcDbLine
 10
5539.0885851781
 20
5302.1207187524
 30
0.0
 11
5538.0885851888
 21
5302.1207187524
 31
0.0
  0
LINE
  5
D5
330
1F
100
AcDbEntity
  8
0
  6
Continuous
 62
     7
100
AcDbLine
 10
5539.0885851781
 20
5301.6554523459
 30
0.0
 11
5538.0885851888
 21
5301.6554523459
 31
0.0
  0
LINE
  5
D6
330
1F
100
AcDbEntity
  8
0
  6
Continuous
 62
     7
100
AcDbLine
 10
5539.0885851781
 20
5334.4915244928
 30
0.0
 11
5538.0885851888
 21
5334.4915244928
 31
0.0
  0
LINE
  5
D7
330
1F
100
AcDbEntity
  8
0
  6
Continuous
 62
     7
100
AcDbLine
 10
5539.0885851781
 20
5330.1189128509
 30
0.0
 11
5539.0885851781
 21
5334.4915244928
 31
0.0
  0
LINE
  5
D8
330
1F
100
AcDbEntity
  8
0
  6
Continuous
 62
     7
100
AcDbLine
 10
5539.0885851781
 20
5342.2072340002
 30
0.0
 11
5538.0885851888
 21
5342.2072340002
 31
0.0
  0
LINE
  5
D9
330
1F
100
AcDbEntity
  8
0
  6
Continuous
 62
     7
100
AcDbLine
 10
5539.0885851781
 20
5334.4915244928
 30
0.0
 11
5539.0885851781
 21
5342.2072340002
 31
0.0
  0
LINE
  5
DA
330
1F
100
AcDbEntity
  8
0
  6
Continuous
 62
     7
100
AcDbLine
 10
5539.0885851781
 20
5345.147069191
 30
0.0
 11
5538.0885851888
 21
5345.147069191
 31
0.0
  0
LINE
  5
DB
330
1F
100
AcDbEntity
  8
0
  6
Continuous
 62
     7
100
AcDbLine
 10
5539.0885851781
 20
5346.0055548897
 30
0.0
 11
5538.0885851888
 21
5346.0055548897
 31
0.0
  0
LINE
  5
DC
330
1F
100
AcDbEntity
  8
0
  6
Continuous
 62
     7
100
AcDbLine
 10
5539.0885851781
 20
5280.875961875
 30
0.0
 11
5538.0885851888
 21
5280.875961875
 31
0.0
  0
LINE
  5
DD
330
1F
100
AcDbEntity
  8
0
  6
Continuous
 62
     7
100
AcDbLine
 10
5539.0885851781
 20
5280.875961875
 30
0.0
 11
5539.0885851781
 21
5282.4037332287
 31
0.0
  0
LINE
  5
DE
330
1F
100
AcDbEntity
  8
0
  6
Continuous
 62
     7
100
AcDbLine
 10
5539.0885851781
 20
5282.4037332287
 30
0.0
 11
5538.0885851888
 21
5282.4037332287
 31
0.0
  0
LINE
  5
DF
330
1F
100
AcDbEntity
  8
0
  6
Continuous
 62
     7
100
AcDbLine
 10
5539.0885851781
 20
5290.4150221696
 30
0.0
 11
5538.0885851888
 21
5290.4150221696
 31
0.0
  0
LINE
  5
E0
330
1F
100
AcDbEntity
  8
0
  6
Continuous
 62
     7
100
AcDbLine
 10
5539.0885851781
 20
5290.4150221696
 30
0.0
 11
5539.0885851781
 21
5291.8759618154
 31
0.0
  0
LINE
  5
E1
330
1F
100
AcDbEntity
  8
0
  6
Continuous
 62
     7
100
AcDbLine
 10
5539.0885851781
 20
5291.8759618154
 30
0.0
 11
5538.0885851888
 21
5291.8759618154
 31
0.0
  0
LINE
  5
E2
330
1F
100
AcDbEntity
  8
0
  6
Continuous
 62
     7
100
AcDbLine
 10
5539.0885851781
 20
5283.3633754602
 30
0.0
 11
5538.0885851888
 21
5283.3633754602
 31
0.0
  0
LINE
  5
E3
330
1F
100
AcDbEntity
  8
0
  6
Continuous
 62
     7
100
AcDbLine
 10
5539.0885851781
 20
5289.5079065313
 30
0.0
 11
5538.0885851888
 21
5289.5079065313
 31
0.0
  0
LINE
  5
E4
330
1F
100
AcDbEntity
  8
0
  6
Continuous
 62
     7
100
AcDbLine
 10
5539.0885851781
 20
5283.3633754602
 30
0.0
 11
5539.0885851781
 21
5289.5079065313
 31
0.0
  0
LINE
  5
E5
330
1F
100
AcDbEntity
  8
0
  6
Continuous
 62
     7
100
AcDbLine
 10
5539.0885851781
 20
5292.1815175762
 30
0.0
 11
5538.0885851888
 21
5292.1815175762
 31
0.0
  0
LINE
  5
E6
330
1F
100
AcDbEntity
  8
0
  6
Continuous
 62
     7
100
AcDbLine
 10
5539.0885851781
 20
5292.050968503
 30
0.0
 11
5539.0885851781
 21
5292.1815175762
 31
0.0
  0
LINE
  5
E7
330
1F
100
AcDbEntity
  8
0
  6
Continuous
 62
     7
100
AcDbLine
 10
5539.0885851781
 20
5280.5704061141
 30
0.0
 11
5538.0885851888
 21
5280.5704061141
 31
0.0
  0
LINE
  5
E8
330
1F
100
AcDbEntity
  8
0
  6
Continuous
 62
     7
100
AcDbLine
 10
5539.0885851781
 20
5280.5704061141
 30
0.0
 11
5539.0885851781
 21
5280.7009477368
 31
0.0
  0
LINE
  5
E9
330
1F
100
AcDbEntity
  8
0
  6
Continuous
 62
     7
100
AcDbLine
 10
5539.0885851781
 20
5271.1676243892
 30
0.0
 11
5538.0885851888
 21
5271.1676243892
 31
0.0
  0
LINE
  5
EA
330
1F
100
AcDbEntity
  8
0
  6
Continuous
 62
     7
100
AcDbLine
 10
5539.0885851781
 20
5269.7066884687
 30
0.0
 11
5538.0885851888
 21
5269.7066884687
 31
0.0
  0
LINE
  5
EB
330
1F
100
AcDbEntity
  8
0
  6
Continuous
 62
     7
100
AcDbLine
 10
5539.0885851781
 20
5269.7066884687
 30
0.0
 11
5539.0885851781
 21
5271.1676243892
 31
0.0
  0
LINE
  5
EC
330
1F
100
AcDbEntity
  8
0
  6
Continuous
 62
     7
100
AcDbLine
 10
5539.0885851781
 20
5261.6954032531
 30
0.0
 11
5538.0885851888
 21
5261.6954032531
 31
0.0
  0
LINE
  5
ED
330
1F
100
AcDbEntity
  8
0
  6
Continuous
 62
     7
100
AcDbLine
 10
5539.0885851781
 20
5260.1676244488
 30
0.0
 11
5538.0885851888
 21
5260.1676244488
 31
0.0
  0
LINE
  5
EE
330
1F
100
AcDbEntity
  8
0
  6
Continuous
 62
     7
100
AcDbLine
 10
5539.0885851781
 20
5260.1676244488
 30
0.0
 11
5539.0885851781
 21
5261.6954032531
 31
0.0
  0
LINE
  5
EF
330
1F
100
AcDbEntity
  8
0
  6
Continuous
 62
     7
100
AcDbLine
 10
5539.0885851781
 20
5262.655038034
 30
0.0
 11
5538.0885851888
 21
5262.655038034
 31
0.0
  0
LINE
  5
F0
330
1F
100
AcDbEntity
  8
0
  6
Continuous
 62
     7
100
AcDbLine
 10
5539.0885851781
 20
5268.7995691052
 30
0.0
 11
5538.0885851888
 21
5268.7995691052
 31
0.0
  0
LINE
  5
F1
330
1F
100
AcDbEntity
  8
0
  6
Continuous
 62
     7
100
AcDbLine
 10
5539.0885851781
 20
5262.655038034
 30
0.0
 11
5539.0885851781
 21
5268.7995691052
 31
0.0
  0
LINE
  5
F2
330
1F
100
AcDbEntity
  8
0
  6
Continuous
 62
     7
100
AcDbLine
 10
5539.0885851781
 20
5262.6502659371
 30
0.0
 11
5539.0885851781
 21
5262.655038034
 31
0.0
  0
LINE
  5
F3
330
1F
100
AcDbEntity
  8
0
  6
Continuous
 62
     7
100
AcDbLine
 10
5539.0885851781
 20
5271.47318015
 30
0.0
 11
5538.0885851888
 21
5271.47318015
 31
0.0
  0
LINE
  5
F4
330
1F
100
AcDbEntity
  8
0
  6
Continuous
 62
     7
100
AcDbLine
 10
5539.0885851781
 20
5271.3426348021
 30
0.0
 11
5539.0885851781
 21
5271.47318015
 31
0.0
  0
LINE
  5
F5
330
1F
100
AcDbEntity
  8
0
  6
Continuous
 62
     7
100
AcDbLine
 10
5539.0885851781
 20
5260.1222690394
 30
0.0
 11
5538.0885851888
 21
5260.1222690394
 31
0.0
  0
LINE
  5
F6
330
1F
100
AcDbEntity
  8
0
  6
Continuous
 62
     7
100
AcDbLine
 10
5539.0885851781
 20
5260.1222690394
 30
0.0
 11
5539.0885851781
 21
5260.1676244488
 31
0.0
  0
LINE
  5
F7
330
1F
100
AcDbEntity
  8
0
  6
Continuous
 62
     7
100
AcDbLine
 10
5539.0885851781
 20
5259.8620686879
 30
0.0
 11
5538.0885851888
 21
5259.8620686879
 31
0.0
  0
LINE
  5
F8
330
1F
100
AcDbEntity
  8
0
  6
Continuous
 62
     7
100
AcDbLine
 10
5539.0885851781
 20
5259.8620686879
 30
0.0
 11
5539.0885851781
 21
5260.1222690394
 31
0.0
  0
LINE
  5
F9
330
1F
100
AcDbEntity
  8
0
  6
Continuous
 62
     7
100
AcDbLine
 10
5218.0885761014
 20
5506.6494453898
 30
0.0
 11
5219.0885930291
 21
5506.6494453898
 31
0.0
  0
LINE
  5
FA
330
1F
100
AcDbEntity
  8
0
  6
Continuous
 62
     7
100
AcDbLine
 10
5218.0885761014
 20
4923.6994493952
 30
0.0
 11
5218.0885761014
 21
5506.6494453898
 31
0.0
  0
LINE
  5
FB
330
1F
100
AcDbEntity
  8
0
  6
Continuous
 62
     7
100
AcDbLine
 10
5219.0885930291
 20
4923.6994493952
 30
0.0
 11
5218.0885761014
 21
4923.6994493952
 31
0.0
  0
LINE
  5
FC
330
1F
100
AcDbEntity
  8
0
  6
Continuous
 62
     7
100
AcDbLine
 10
5219.0885930291
 20
4923.6994493952
 30
0.0
 11
5219.0885930291
 21
5506.6494453898
 31
0.0
  0
LINE
  5
FD
330
1F
100
AcDbEntity
  8
0
  6
Continuous
 62
     7
100
AcDbLine
 10
5217.9885893098
 20
5506.6494453898
 30
0.0
 11
5216.9885723821
 21
5506.6494453898
 31
0.0
  0
LINE
  5
FE
330
1F
100
AcDbEntity
  8
0
  6
Continuous
 62
     7
100
AcDbLine
 10
5217.9885893098
 20
5494.6994591704
 30
0.0
 11
5216.9885723821
 21
5494.6994591704
 31
0.0
  0
LINE
  5
FF
330
1F
100
AcDbEntity
  8
0
  6
Continuous
 62
     7
100
AcDbLine
 10
5216.9885723821
 20
5506.6494453898
 30
0.0
 11
5216.9885723821
 21
5494.6994591704
 31
0.0
  0
LINE
  5
100
330
1F
100
AcDbEntity
  8
0
  6
Continuous
 62
     7
100
AcDbLine
 10
5217.9885893098
 20
5506.6494453898
 30
0.0
 11
5217.9885893098
 21
5494.6994591704
 31
0.0
  0
LINE
  5
101
330
1F
100
AcDbEntity
  8
0
  6
Continuous
 62
     7
100
AcDbLine
 10
5536.588585234
 20
4920.4994548311
 30
0.0
 11
5536.588585234
 21
4921.4994419565
 31
0.0
  0
LINE
  5
102
330
1F
100
AcDbEntity
  8
0
  6
Continuous
 62
     7
100
AcDbLine
 10
5526.588584759
 20
4920.4994548311
 30
0.0
 11
5526.588584759
 21
4921.4994419565
 31
0.0
  0
LINE
  5
103
330
1F
100
AcDbEntity
  8
0
  6
Continuous
 62
     7
100
AcDbLine
 10
5526.588584759
 20
4920.4994548311
 30
0.0
 11
5536.588585234
 21
4920.4994548311
 31
0.0
  0
LINE
  5
104
330
1F
100
AcDbEntity
  8
0
  6
Continuous
 62
     7
100
AcDbLine
 10
5220.5885737172
 20
4920.4994548311
 30
0.0
 11
5220.5885737172
 21
4921.4994419565
 31
0.0
  0
LINE
  5
105
330
1F
100
AcDbEntity
  8
0
  6
Continuous
 62
     7
100
AcDbLine
 10
5220.5885737172
 20
4920.4994548311
 30
0.0
 11
5230.5956869355
 21
4920.4994548311
 31
0.0
  0
LINE
  5
106
330
1F
100
AcDbEntity
  8
0
  6
Continuous
 62
     7
100
AcDbLine
 10
5519.5885854742
 20
4920.4994548311
 30
0.0
 11
5526.588584759
 21
4920.4994548311
 31
0.0
  0
LINE
  5
107
330
1F
100
AcDbEntity
  8
0
  6
Continuous
 62
     7
100
AcDbLine
 10
5519.5885854742
 20
4921.4994419565
 30
0.0
 11
5230.5956869355
 21
4921.4994419565
 31
0.0
  0
LINE
  5
108
330
1F
100
AcDbEntity
  8
0
  6
Continuous
 62
     7
100
AcDbLine
 10
5220.8885936967
 20
4921.4994419565
 30
0.0
 11
5230.5956869355
 21
4921.4994419565
 31
0.0
  0
LINE
  5
109
330
1F
100
AcDbEntity
  8
0
  6
Continuous
 62
     7
100
AcDbLine
 10
5220.8885936967
 20
4921.4994419565
 30
0.0
 11
5220.8885936967
 21
5506.6494453898
 31
0.0
  0
LINE
  5
10A
330
1F
100
AcDbEntity
  8
0
  6
Continuous
 62
     7
100
AcDbLine
 10
5225.8885889283
 20
5506.6494453898
 30
0.0
 11
5220.8885936967
 21
5506.6494453898
 31
0.0
  0
LINE
  5
10B
330
1F
100
AcDbEntity
  8
0
  6
Continuous
 62
     7
100
AcDbLine
 10
5509.5885856978
 20
5506.6494453898
 30
0.0
 11
5225.8885889283
 21
5506.6494453898
 31
0.0
  0
LINE
  5
10C
330
1F
100
AcDbEntity
  8
0
  6
Continuous
 62
     7
100
AcDbLine
 10
5509.5885856978
 20
5506.6494453898
 30
0.0
 11
5527.2885854325
 21
5506.6494453898
 31
0.0
  0
LINE
  5
10D
330
1F
100
AcDbEntity
  8
0
  6
Continuous
 62
     7
100
AcDbLine
 10
5527.2885854325
 20
4921.4994419565
 30
0.0
 11
5527.2885854325
 21
5506.6494453898
 31
0.0
  0
LINE
  5
10E
330
1F
100
AcDbEntity
  8
0
  6
Continuous
 62
     7
100
AcDbLine
 10
5519.5885854742
 20
4921.4994419565
 30
0.0
 11
5527.2885854325
 21
4921.4994419565
 31
0.0
  0
LINE
  5
10F
330
1F
100
AcDbEntity
  8
0
  6
Continuous
 62
     7
100
AcDbLine
 10
5219.0885930291
 20
4923.6994493952
 30
0.0
 11
5219.0885930291
 21
4921.4994419565
 31
0.0
  0
LINE
  5
110
330
1F
100
AcDbEntity
  8
0
  6
Continuous
 62
     7
100
AcDbLine
 10
5220.8885936967
 20
5506.6494453898
 30
0.0
 11
5219.0885930291
 21
5506.6494453898
 31
0.0
  0
LINE
  5
111
330
1F
100
AcDbEntity
  8
0
  6
Continuous
 62
     7
100
AcDbLine
 10
5219.0885930291
 20
4921.4994419565
 30
0.0
 11
5220.8885936967
 21
4921.4994419565
 31
0.0
  0
LINE
  5
112
330
1F
100
AcDbEntity
  8
0
  6
Continuous
 62
     7
100
AcDbLine
 10
5538.0885851888
 20
4921.4994419565
 30
0.0
 11
5538.0885851888
 21
5506.6494453898
 31
0.0
  0
LINE
  5
113
330
1F
100
AcDbEntity
  8
0
  6
Continuous
 62
     7
100
AcDbLine
 10
5538.0885851888
 20
5506.6494453898
 30
0.0
 11
5527.2885854325
 21
5506.6494453898
 31
0.0
  0
LINE
  5
114
330
1F
100
AcDbEntity
  8
0
  6
Continuous
 62
     7
100
AcDbLine
 10
5527.2885854325
 20
4921.4994419565
 30
0.0
 11
5538.0885851888
 21
4921.4994419565
 31
0.0
  0
LINE
  5
115
330
1F
100
AcDbEntity
  8
0
  6
Continuous
 62
     7
100
AcDbLine
 10
5519.5885854742
 20
4919.699441289
 30
0.0
 11
5519.5885854742
 21
4921.4994419565
 31
0.0
  0
LINE
  5
116
330
1F
100
AcDbEntity
  8
0
  6
Continuous
 62
     7
100
AcDbLine
 10
5230.5956869355
 20
4919.699441289
 30
0.0
 11
5519.5885854742
 21
4919.699441289
 31
0.0
  0
LINE
  5
117
330
1F
100
AcDbEntity
  8
0
  6
Continuous
 62
     7
100
AcDbLine
 10
5230.5956869355
 20
4921.4994419565
 30
0.0
 11
5230.5956869355
 21
4919.699441289
 31
0.0
  0
LINE
  5
118
330
1F
100
AcDbEntity
  8
0
  6
Continuous
 62
     7
100
AcDbLine
 10
5225.8885889283
 20
5507.4994672289
 30
0.0
 11
5225.8885889283
 21
5506.6494453898
 31
0.0
  0
LINE
  5
119
330
1F
100
AcDbEntity
  8
0
  6
Continuous
 62
     7
100
AcDbLine
 10
5509.5885856978
 20
5506.6494453898
 30
0.0
 11
5509.5885856978
 21
5507.4994672289
 31
0.0
  0
LINE
  5
11A
330
1F
100
AcDbEntity
  8
0
  6
Continuous
 62
     7
100
AcDbLine
 10
5536.2885851615
 20
4920.4994548311
 30
0.0
 11
5536.2885851615
 21
4919.699441289
 31
0.0
  0
LINE
  5
11B
330
1F
100
AcDbEntity
  8
0
  6
Continuous
 62
     7
100
AcDbLine
 10
5528.0885850049
 20
4919.699441289
 30
0.0
 11
5536.2885851615
 21
4919.699441289
 31
0.0
  0
LINE
  5
11C
330
1F
100
AcDbEntity
  8
0
  6
Continuous
 62
     7
100
AcDbLine
 10
5528.0885850049
 20
4920.4994548311
 30
0.0
 11
5528.0885850049
 21
4919.699441289
 31
0.0
  0
LINE
  5
11D
330
1F
100
AcDbEntity
  8
0
  6
Continuous
 62
     7
100
AcDbLine
 10
5523.0885851166
 20
4919.699441289
 30
0.0
 11
5523.0885851166
 21
4920.4994548311
 31
0.0
  0
LINE
  5
11E
330
1F
100
AcDbEntity
  8
0
  6
Continuous
 62
     7
100
AcDbLine
 10
5528.0885850049
 20
4919.699441289
 30
0.0
 11
5523.0885851166
 21
4919.699441289
 31
0.0
  0
LINE
  5
11F
330
1F
100
AcDbEntity
  8
0
  6
Continuous
 62
     7
100
AcDbLine
 10
4836.7826193004
 20
5507.6994408121
 30
0.0
 11
4418.7826066642
 21
5507.6994408121
 31
0.0
  0
LINE
  5
120
330
1F
100
AcDbEntity
  8
0
  6
Continuous
 62
     7
100
AcDbLine
 10
4809.2826157241
 20
5507.4994672289
 30
0.0
 11
4446.2826102405
 21
5507.4994672289
 31
0.0
  0
LINE
  5
121
330
1F
100
AcDbEntity
  8
0
  6
Continuous
 62
     7
100
AcDbLine
 10
4594.4688729375
 20
5249.1242621293
 30
0.0
 11
4594.468917641
 21
5245.9359239986
 31
0.0
  0
LINE
  5
122
330
1F
100
AcDbEntity
  8
0
  6
Continuous
 62
     7
100
AcDbLine
 10
4594.468917641
 20
5245.9359239986
 30
0.0
 11
4594.9670448332
 21
5245.9359314492
 31
0.0
  0
LINE
  5
123
330
1F
100
AcDbEntity
  8
0
  6
Continuous
 62
     7
100
AcDbLine
 10
4594.9670001297
 20
5249.1242695799
 30
0.0
 11
4594.9670448332
 21
5245.9359314492
 31
0.0
  0
LINE
  5
124
330
1F
100
AcDbEntity
  8
0
  6
Continuous
 62
     7
100
AcDbLine
 10
4594.4688729375
 20
5249.1242621293
 30
0.0
 11
4594.9670001297
 21
5249.1242695799
 31
0.0
  0
LINE
  5
125
330
1F
100
AcDbEntity
  8
0
  6
Continuous
 62
     7
100
AcDbLine
 10
4593.4788733154
 20
5249.1242509535
 30
0.0
 11
4593.4789180189
 21
5245.9359090974
 31
0.0
  0
LINE
  5
126
330
1F
100
AcDbEntity
  8
0
  6
Continuous
 62
     7
100
AcDbLine
 10
4593.4789180189
 20
5245.9359090974
 30
0.0
 11
4593.9770452111
 21
5245.935916548
 31
0.0
  0
LINE
  5
127
330
1F
100
AcDbEntity
  8
0
  6
Continuous
 62
     7
100
AcDbLine
 10
4593.9770005076
 20
5249.1242546787
 30
0.0
 11
4593.9770452111
 21
5245.935916548
 31
0.0
  0
LINE
  5
128
330
1F
100
AcDbEntity
  8
0
  6
Continuous
 62
     7
100
AcDbLine
 10
4593.4788733154
 20
5249.1242509535
 30
0.0
 11
4593.9770005076
 21
5249.1242546787
 31
0.0
  0
LINE
  5
129
330
1F
100
AcDbEntity
  8
0
  6
Continuous
 62
     7
100
AcDbLine
 10
4592.4888736933
 20
5249.1242360523
 30
0.0
 11
4592.4889183968
 21
5245.9358979216
 31
0.0
  0
LINE
  5
12A
330
1F
100
AcDbEntity
  8
0
  6
Continuous
 62
     7
100
AcDbLine
 10
4592.4889183968
 20
5245.9358979216
 30
0.0
 11
4592.987045589
 21
5245.9359016469
 31
0.0
  0
LINE
  5
12B
330
1F
100
AcDbEntity
  8
0
  6
Continuous
 62
     7
100
AcDbLine
 10
4592.9870008855
 20
5249.1242435029
 30
0.0
 11
4592.987045589
 21
5245.9359016469
 31
0.0
  0
LINE
  5
12C
330
1F
100
AcDbEntity
  8
0
  6
Continuous
 62
     7
100
AcDbLine
 10
4592.4888736933
 20
5249.1242360523
 30
0.0
 11
4592.9870008855
 21
5249.1242435029
 31
0.0
  0
LINE
  5
12D
330
1F
100
AcDbEntity
  8
0
  6
Continuous
 62
     7
100
AcDbLine
 10
4591.4988740712
 20
5249.1242211511
 30
0.0
 11
4591.4989187746
 21
5245.9358830204
 31
0.0
  0
LINE
  5
12E
330
1F
100
AcDbEntity
  8
0
  6
Continuous
 62
     7
100
AcDbLine
 10
4591.4989187746
 20
5245.9358830204
 30
0.0
 11
4591.9970459669
 21
5245.935890471
 31
0.0
  0
LINE
  5
12F
330
1F
100
AcDbEntity
  8
0
  6
Continuous
 62
     7
100
AcDbLine
 10
4591.9970012634
 20
5249.1242286017
 30
0.0
 11
4591.9970459669
 21
5245.935890471
 31
0.0
  0
LINE
  5
130
330
1F
100
AcDbEntity
  8
0
  6
Continuous
 62
     7
100
AcDbLine
 10
4591.4988740712
 20
5249.1242211511
 30
0.0
 11
4591.9970012634
 21
5249.1242286017
 31
0.0
  0
LINE
  5
131
330
1F
100
AcDbEntity
  8
0
  6
Continuous
 62
     7
100
AcDbLine
 10
4590.5088744491
 20
5249.12420625
 30
0.0
 11
4590.5089191525
 21
5245.9358681193
 31
0.0
  0
LINE
  5
132
330
1F
100
AcDbEntity
  8
0
  6
Continuous
 62
     7
100
AcDbLine
 10
4590.5089191525
 20
5245.9358681193
 30
0.0
 11
4591.0070463448
 21
5245.9358755698
 31
0.0
  0
LINE
  5
133
330
1F
100
AcDbEntity
  8
0
  6
Continuous
 62
     7
100
AcDbLine
 10
4591.0070016413
 20
5249.1242137005
 30
0.0
 11
4591.0070463448
 21
5245.9358755698
 31
0.0
  0
LINE
  5
134
330
1F
100
AcDbEntity
  8
0
  6
Continuous
 62
     7
100
AcDbLine
 10
4590.5088744491
 20
5249.12420625
 30
0.0
 11
4591.0070016413
 21
5249.1242137005
 31
0.0
  0
LINE
  5
135
330
1F
100
AcDbEntity
  8
0
  6
Continuous
 62
     7
100
AcDbLine
 10
4589.5188748269
 20
5249.1241950741
 30
0.0
 11
4589.5189195304
 21
5245.9358532181
 31
0.0
  0
LINE
  5
136
330
1F
100
AcDbEntity
  8
0
  6
Continuous
 62
     7
100
AcDbLine
 10
4589.5189195304
 20
5245.9358532181
 30
0.0
 11
4590.0170467227
 21
5245.9358606687
 31
0.0
  0
LINE
  5
137
330
1F
100
AcDbEntity
  8
0
  6
Continuous
 62
     7
100
AcDbLine
 10
4590.0170020192
 20
5249.1242025247
 30
0.0
 11
4590.0170467227
 21
5245.9358606687
 31
0.0
  0
LINE
  5
138
330
1F
100
AcDbEntity
  8
0
  6
Continuous
 62
     7
100
AcDbLine
 10
4589.5188748269
 20
5249.1241950741
 30
0.0
 11
4590.0170020192
 21
5249.1242025247
 31
0.0
  0
LINE
  5
139
330
1F
100
AcDbEntity
  8
0
  6
Continuous
 62
     7
100
AcDbLine
 10
4588.5288752048
 20
5249.1241801729
 30
0.0
 11
4588.5289199083
 21
5245.9358420422
 31
0.0
  0
LINE
  5
13A
330
1F
100
AcDbEntity
  8
0
  6
Continuous
 62
     7
100
AcDbLine
 10
4588.5289199083
 20
5245.9358420422
 30
0.0
 11
4589.0270471006
 21
5245.9358494928
 31
0.0
  0
LINE
  5
13B
330
1F
100
AcDbEntity
  8
0
  6
Continuous
 62
     7
100
AcDbLine
 10
4589.0270023971
 20
5249.1241876235
 30
0.0
 11
4589.0270471006
 21
5245.9358494928
 31
0.0
  0
LINE
  5
13C
330
1F
100
AcDbEntity
  8
0
  6
Continuous
 62
     7
100
AcDbLine
 10
4588.5288752048
 20
5249.1241801729
 30
0.0
 11
4589.0270023971
 21
5249.1241876235
 31
0.0
  0
LINE
  5
13D
330
1F
100
AcDbEntity
  8
0
  6
Continuous
 62
     7
100
AcDbLine
 10
4587.5388755827
 20
5249.1241652718
 30
0.0
 11
4587.5389202862
 21
5245.9358271411
 31
0.0
  0
LINE
  5
13E
330
1F
100
AcDbEntity
  8
0
  6
Continuous
 62
     7
100
AcDbLine
 10
4587.5389202862
 20
5245.9358271411
 30
0.0
 11
4588.0370474785
 21
5245.9358345916
 31
0.0
  0
LINE
  5
13F
330
1F
100
AcDbEntity
  8
0
  6
Continuous
 62
     7
100
AcDbLine
 10
4588.037002775
 20
5249.1241727224
 30
0.0
 11
4588.0370474785
 21
5245.9358345916
 31
0.0
  0
LINE
  5
140
330
1F
100
AcDbEntity
  8
0
  6
Continuous
 62
     7
100
AcDbLine
 10
4587.5388755827
 20
5249.1241652718
 30
0.0
 11
4588.037002775
 21
5249.1241727224
 31
0.0
  0
LINE
  5
141
330
1F
100
AcDbEntity
  8
0
  6
Continuous
 62
     7
100
AcDbLine
 10
4586.5488759606
 20
5249.1241540959
 30
0.0
 11
4586.5489206641
 21
5245.9358122399
 31
0.0
  0
LINE
  5
142
330
1F
100
AcDbEntity
  8
0
  6
Continuous
 62
     7
100
AcDbLine
 10
4586.5489206641
 20
5245.9358122399
 30
0.0
 11
4587.0470441311
 21
5245.9358196905
 31
0.0
  0
LINE
  5
143
330
1F
100
AcDbEntity
  8
0
  6
Continuous
 62
     7
100
AcDbLine
 10
4587.0469994276
 20
5249.1241578212
 30
0.0
 11
4587.0470441311
 21
5245.9358196905
 31
0.0
  0
LINE
  5
144
330
1F
100
AcDbEntity
  8
0
  6
Continuous
 62
     7
100
AcDbLine
 10
4586.5488759606
 20
5249.1241540959
 30
0.0
 11
4587.0469994276
 21
5249.1241578212
 31
0.0
  0
LINE
  5
145
330
1F
100
AcDbEntity
  8
0
  6
Continuous
 62
     7
100
AcDbLine
 10
4585.5588763385
 20
5249.1241391947
 30
0.0
 11
4585.558921042
 21
5245.9357973387
 31
0.0
  0
LINE
  5
146
330
1F
100
AcDbEntity
  8
0
  6
Continuous
 62
     7
100
AcDbLine
 10
4585.558921042
 20
5245.9357973387
 30
0.0
 11
4586.057044509
 21
5245.9358047893
 31
0.0
  0
LINE
  5
147
330
1F
100
AcDbEntity
  8
0
  6
Continuous
 62
     7
100
AcDbLine
 10
4586.0569998055
 20
5249.1241466453
 30
0.0
 11
4586.057044509
 21
5245.9358047893
 31
0.0
  0
LINE
  5
148
330
1F
100
AcDbEntity
  8
0
  6
Continuous
 62
     7
100
AcDbLine
 10
4585.5588763385
 20
5249.1241391947
 30
0.0
 11
4586.0569998055
 21
5249.1241466453
 31
0.0
  0
LINE
  5
149
330
1F
100
AcDbEntity
  8
0
  6
Continuous
 62
     7
100
AcDbLine
 10
4584.5688729911
 20
5249.1241242936
 30
0.0
 11
4584.5689176946
 21
5245.9357861629
 31
0.0
  0
LINE
  5
14A
330
1F
100
AcDbEntity
  8
0
  6
Continuous
 62
     7
100
AcDbLine
 10
4584.5689176946
 20
5245.9357861629
 30
0.0
 11
4585.0670448869
 21
5245.9357936134
 31
0.0
  0
LINE
  5
14B
330
1F
100
AcDbEntity
  8
0
  6
Continuous
 62
     7
100
AcDbLine
 10
4585.0670001834
 20
5249.1241317442
 30
0.0
 11
4585.0670448869
 21
5245.9357936134
 31
0.0
  0
LINE
  5
14C
330
1F
100
AcDbEntity
  8
0
  6
Continuous
 62
     7
100
AcDbLine
 10
4584.5688729911
 20
5249.1241242936
 30
0.0
 11
4585.0670001834
 21
5249.1241317442
 31
0.0
  0
LINE
  5
14D
330
1F
100
AcDbEntity
  8
0
  6
Continuous
 62
     7
100
AcDbLine
 10
4587.5388346045
 20
5252.4427171996
 30
0.0
 11
4591.8221137851
 21
5252.4427768042
 31
0.0
  0
LINE
  5
14E
330
1F
100
AcDbEntity
  8
0
  6
Continuous
 62
     7
100
AcDbLine
 10
4584.4640135198
 20
5245.3276176205
 30
0.0
 11
4584.4640135198
 21
5245.3277368298
 31
0.0
  0
LINE
  5
14F
330
1F
100
AcDbEntity
  8
0
  6
Continuous
 62
     7
100
AcDbLine
 10
4689.3167010873
 20
5222.7722244536
 30
0.0
 11
4689.7199346663
 21
5225.1499106393
 31
0.0
  0
LINE
  5
150
330
1F
100
AcDbEntity
  8
0
  6
Continuous
 62
     7
100
AcDbLine
 10
4667.3219985693
 20
5222.0753590776
 30
0.0
 11
4666.7954484837
 21
5225.1499106393
 31
0.0
  0
LINE
  5
151
330
1F
100
AcDbEntity
  8
0
  6
Continuous
 62
     7
100
AcDbLine
 10
4670.2962479918
 20
5198.5581029406
 30
0.0
 11
4664.5851325131
 21
5228.8348265879
 31
0.0
  0
LINE
  5
152
330
1F
100
AcDbEntity
  8
0
  6
Continuous
 62
     7
100
AcDbLine
 10
4685.0554868012
 20
5199.9419877505
 30
0.0
 11
4688.9134644895
 21
5220.3945374316
 31
0.0
  0
LINE
  5
153
330
1F
100
AcDbEntity
  8
0
  6
Continuous
 62
     7
100
AcDbLine
 10
4671.4598945706
 20
5199.9419877505
 30
0.0
 11
4667.6881461769
 21
5219.9374079904
 31
0.0
  0
LINE
  5
154
330
1F
100
AcDbEntity
  8
0
  6
Continuous
 62
     7
100
AcDbLine
 10
4686.21913338
 20
5198.5581029406
 30
0.0
 11
4691.9302506369
 21
5228.8348265879
 31
0.0
  0
LINE
  5
155
330
1F
100
AcDbEntity
  8
0
  6
Continuous
 62
     7
100
AcDbLine
 10
4638.6061002865
 20
5303.1448830118
 30
0.0
 11
4633.0209881432
 21
5303.1448830118
 31
0.0
  0
LINE
  5
156
330
1F
100
AcDbEntity
  8
0
  6
Continuous
 62
     7
100
AcDbLine
 10
4633.0209881432
 20
5303.1448830118
 30
0.0
 11
4633.0209881432
 21
5298.3455393663
 31
0.0
  0
LINE
  5
157
330
1F
100
AcDbEntity
  8
0
  6
Continuous
 62
     7
100
AcDbLine
 10
4633.0209881432
 20
5298.3455393663
 30
0.0
 11
4632.7414977729
 21
5298.3455393663
 31
0.0
  0
LINE
  5
158
330
1F
100
AcDbEntity
  8
0
  6
Continuous
 62
     7
100
AcDbLine
 10
4632.7414977729
 20
5298.3455393663
 30
0.0
 11
4625.5738972119
 21
5309.0480301728
 31
0.0
  0
LINE
  5
159
330
1F
100
AcDbEntity
  8
0
  6
Continuous
 62
     7
100
AcDbLine
 10
4625.5738972119
 20
5309.0480301728
 30
0.0
 11
4632.8348810217
 21
5319.4736574044
 31
0.0
  0
LINE
  5
15A
330
1F
100
AcDbEntity
  8
0
  6
Continuous
 62
     7
100
AcDbLine
 10
4632.8348810217
 20
5319.4736574044
 30
0.0
 11
4633.0209881432
 21
5319.3338323584
 31
0.0
  0
LINE
  5
15B
330
1F
100
AcDbEntity
  8
0
  6
Continuous
 62
     7
100
AcDbLine
 10
4633.0209881432
 20
5319.3338323584
 30
0.0
 11
4633.0209881432
 21
5314.7288296571
 31
0.0
  0
LINE
  5
15C
330
1F
100
AcDbEntity
  8
0
  6
Continuous
 62
     7
100
AcDbLine
 10
4633.0209881432
 20
5314.7288296571
 30
0.0
 11
4641.8640482604
 21
5314.7288296571
 31
0.0
  0
LINE
  5
15D
330
1F
100
AcDbEntity
  8
0
  6
Continuous
 62
     7
100
AcDbLine
 10
4641.8640482604
 20
5314.7288296571
 30
0.0
 11
4635.5342598996
 21
5324.5725888958
 31
0.0
  0
LINE
  5
15E
330
1F
100
AcDbEntity
  8
0
  6
Continuous
 62
     7
100
AcDbLine
 10
4635.5342598996
 20
5324.5725888958
 30
0.0
 11
4645.2616582989
 21
5330.9464339366
 31
0.0
  0
LINE
  5
15F
330
1F
100
AcDbEntity
  8
0
  6
Continuous
 62
     7
100
AcDbLine
 10
4645.2616582989
 20
5330.9464339366
 30
0.0
 11
4650.4745575964
 21
5322.9229036918
 31
0.0
  0
LINE
  5
160
330
1F
100
AcDbEntity
  8
0
  6
Continuous
 62
     7
100
AcDbLine
 10
4649.0316483556
 20
5314.2479170313
 30
0.0
 11
4642.9344126388
 21
5305.290717279
 31
0.0
  0
LINE
  5
161
330
1F
100
AcDbEntity
  8
0
  6
Continuous
 62
     7
100
AcDbLine
 10
4643.961131516
 20
5313.570517694
 30
0.0
 11
4631.7202136285
 21
5313.570517694
 31
0.0
  0
LINE
  5
162
330
1F
100
AcDbEntity
  8
0
  6
Continuous
 62
     7
100
AcDbLine
 10
4631.7202136285
 20
5313.570517694
 30
0.0
 11
4631.7202136285
 21
5315.6494010439
 31
0.0
  0
LINE
  5
163
330
1F
100
AcDbEntity
  8
0
  6
Continuous
 62
     7
100
AcDbLine
 10
4631.7202136285
 20
5315.6494010439
 30
0.0
 11
4627.0658847658
 21
5309.0452287545
 31
0.0
  0
LINE
  5
164
330
1F
100
AcDbEntity
  8
0
  6
Continuous
 62
     7
100
AcDbLine
 10
4627.0658847658
 20
5309.0452287545
 30
0.0
 11
4631.7202136285
 21
5302.0276684513
 31
0.0
  0
LINE
  5
165
330
1F
100
AcDbEntity
  8
0
  6
Continuous
 62
     7
100
AcDbLine
 10
4631.7202136285
 20
5302.0276684513
 30
0.0
 11
4631.7202136285
 21
5304.4246617904
 31
0.0
  0
LINE
  5
166
330
1F
100
AcDbEntity
  8
0
  6
Continuous
 62
     7
100
AcDbLine
 10
4631.7202136285
 20
5304.4246617904
 30
0.0
 11
4638.4225459202
 21
5304.4246617904
 31
0.0
  0
LINE
  5
167
330
1F
100
AcDbEntity
  8
0
  6
Continuous
 62
     7
100
AcDbLine
 10
4642.0061820551
 20
5305.8984536877
 30
0.0
 11
4647.2656893908
 21
5313.7358758798
 31
0.0
  0
LINE
  5
168
330
1F
100
AcDbEntity
  8
0
  6
Continuous
 62
     7
100
AcDbLine
 10
4649.3831946879
 20
5322.1290666809
 30
0.0
 11
4644.9617463528
 21
5329.064111804
 31
0.0
  0
LINE
  5
169
330
1F
100
AcDbEntity
  8
0
  6
Continuous
 62
     7
100
AcDbLine
 10
4644.9617463528
 20
5329.064111804
 30
0.0
 11
4637.282021287
 21
5324.0837637534
 31
0.0
  0
LINE
  5
16A
330
1F
100
AcDbEntity
  8
0
  6
Continuous
 62
     7
100
AcDbLine
 10
4637.282021287
 20
5324.0837637534
 30
0.0
 11
4643.2862048402
 21
5314.7288296571
 31
0.0
  0
LINE
  5
16B
330
1F
100
AcDbEntity
  8
0
  6
Continuous
 62
     7
100
AcDbLine
 10
4643.2862048402
 20
5314.7288296571
 30
0.0
 11
4645.1478544056
 21
5314.7288296571
 31
0.0
  0
LINE
  5
16C
330
1F
100
AcDbEntity
  8
0
  6
Continuous
 62
     7
100
AcDbLine
 10
4604.4693327873
 20
5322.4936235895
 30
0.0
 11
4607.494728583
 21
5327.202137207
 31
0.0
  0
LINE
  5
16D
330
1F
100
AcDbEntity
  8
0
  6
Continuous
 62
     7
100
AcDbLine
 10
4607.494728583
 20
5327.202137207
 30
0.0
 11
4603.5850755303
 21
5329.9534727087
 31
0.0
  0
LINE
  5
16E
330
1F
100
AcDbEntity
  8
0
  6
Continuous
 62
     7
100
AcDbLine
 10
4603.5850755303
 20
5329.9534727087
 30
0.0
 11
4603.5850755303
 21
5330.1189128509
 31
0.0
  0
LINE
  5
16F
330
1F
100
AcDbEntity
  8
0
  6
Continuous
 62
     7
100
AcDbLine
 10
4603.5850755303
 20
5330.1189128509
 30
0.0
 11
4616.4774512305
 21
5329.9534727087
 31
0.0
  0
LINE
  5
170
330
1F
100
AcDbEntity
  8
0
  6
Continuous
 62
     7
100
AcDbLine
 10
4616.4774512305
 20
5329.9534727087
 30
0.0
 11
4621.2713606089
 21
5318.2608295431
 31
0.0
  0
LINE
  5
171
330
1F
100
AcDbEntity
  8
0
  6
Continuous
 62
     7
100
AcDbLine
 10
4621.2713606089
 20
5318.2608295431
 30
0.0
 11
4621.2248335957
 21
5318.1213323226
 31
0.0
  0
LINE
  5
172
330
1F
100
AcDbEntity
  8
0
  6
Continuous
 62
     7
100
AcDbLine
 10
4621.2248335957
 20
5318.1213323226
 30
0.0
 11
4617.5478146776
 21
5321.0532624474
 31
0.0
  0
LINE
  5
173
330
1F
100
AcDbEntity
  8
0
  6
Continuous
 62
     7
100
AcDbLine
 10
4617.5478146776
 20
5321.0532624474
 30
0.0
 11
4612.614325191
 21
5313.2393915405
 31
0.0
  0
LINE
  5
174
330
1F
100
AcDbEntity
  8
0
  6
Continuous
 62
     7
100
AcDbLine
 10
4612.614325191
 20
5313.2393915405
 30
0.0
 11
4623.97098652
 21
5313.2393915405
 31
0.0
  0
LINE
  5
175
330
1F
100
AcDbEntity
  8
0
  6
Continuous
 62
     7
100
AcDbLine
 10
4623.97098652
 20
5313.2393915405
 30
0.0
 11
4623.97098652
 21
5301.6554523459
 31
0.0
  0
LINE
  5
176
330
1F
100
AcDbEntity
  8
0
  6
Continuous
 62
     7
100
AcDbLine
 10
4623.97098652
 20
5301.6554523459
 30
0.0
 11
4614.5227485701
 21
5301.6554523459
 31
0.0
  0
LINE
  5
177
330
1F
100
AcDbEntity
  8
0
  6
Continuous
 62
     7
100
AcDbLine
 10
4608.2394048005
 20
5307.5300190797
 30
0.0
 11
4603.8644015222
 21
5317.5059441676
 31
0.0
  0
LINE
  5
178
330
1F
100
AcDbEntity
  8
0
  6
Continuous
 62
     7
100
AcDbLine
 10
4610.3336885004
 20
5311.9905848255
 30
0.0
 11
4617.3617075562
 21
5323.207419013
 31
0.0
  0
LINE
  5
179
330
1F
100
AcDbEntity
  8
0
  6
Continuous
 62
     7
100
AcDbLine
 10
4617.3617075562
 20
5323.207419013
 30
0.0
 11
4618.4324006914
 21
5322.041112577
 31
0.0
  0
LINE
  5
17A
330
1F
100
AcDbEntity
  8
0
  6
Continuous
 62
     7
100
AcDbLine
 10
4618.4324006914
 20
5322.041112577
 30
0.0
 11
4618.5254547178
 21
5322.1341703286
 31
0.0
  0
LINE
  5
17B
330
1F
100
AcDbEntity
  8
0
  6
Continuous
 62
     7
100
AcDbLine
 10
4618.5254547178
 20
5322.1341703286
 30
0.0
 11
4615.7792191385
 21
5328.7148732891
 31
0.0
  0
LINE
  5
17C
330
1F
100
AcDbEntity
  8
0
  6
Continuous
 62
     7
100
AcDbLine
 10
4615.7792191385
 20
5328.7148732891
 30
0.0
 11
4607.4015926003
 21
5328.7148732891
 31
0.0
  0
LINE
  5
17D
330
1F
100
AcDbEntity
  8
0
  6
Continuous
 62
     7
100
AcDbLine
 10
4607.4015926003
 20
5328.7148732891
 30
0.0
 11
4609.170187208
 21
5327.3133892765
 31
0.0
  0
LINE
  5
17E
330
1F
100
AcDbEntity
  8
0
  6
Continuous
 62
     7
100
AcDbLine
 10
4609.170187208
 20
5327.3133892765
 30
0.0
 11
4605.5398601472
 21
5321.7179808965
 31
0.0
  0
LINE
  5
17F
330
1F
100
AcDbEntity
  8
0
  6
Continuous
 62
     7
100
AcDbLine
 10
4605.027900952
 20
5317.947994565
 30
0.0
 11
4608.7978910088
 21
5309.1047663441
 31
0.0
  0
LINE
  5
180
330
1F
100
AcDbEntity
  8
0
  6
Continuous
 62
     7
100
AcDbLine
 10
4614.6158016651
 20
5302.8138462653
 30
0.0
 11
4622.7607954658
 21
5302.8138462653
 31
0.0
  0
LINE
  5
181
330
1F
100
AcDbEntity
  8
0
  6
Continuous
 62
     7
100
AcDbLine
 10
4622.7607954658
 20
5302.8138462653
 30
0.0
 11
4622.7607954658
 21
5311.9154010167
 31
0.0
  0
LINE
  5
182
330
1F
100
AcDbEntity
  8
0
  6
Continuous
 62
     7
100
AcDbLine
 10
4622.7607954658
 20
5311.9154010167
 30
0.0
 11
4611.7300688653
 21
5311.9154010167
 31
0.0
  0
LINE
  5
183
330
1F
100
AcDbEntity
  8
0
  6
Continuous
 62
     7
100
AcDbLine
 10
4611.7300688653
 20
5311.9154010167
 30
0.0
 11
4610.7526756256
 21
5310.3899765959
 31
0.0
  0
LINE
  5
184
330
1F
100
AcDbEntity
  8
0
  6
Continuous
 62
     7
100
AcDbLine
 10
4638.4326749846
 20
5343.6424840441
 30
0.0
 11
4641.737231928
 21
5338.9983732453
 31
0.0
  0
LINE
  5
185
330
1F
100
AcDbEntity
  8
0
  6
Continuous
 62
     7
100
AcDbLine
 10
4641.737231928
 20
5338.9983732453
 30
0.0
 11
4645.5538309544
 21
5341.6980017176
 31
0.0
  0
LINE
  5
186
330
1F
100
AcDbEntity
  8
0
  6
Continuous
 62
     7
100
AcDbLine
 10
4645.6003579675
 20
5341.5116477957
 30
0.0
 11
4640.8064485892
 21
5329.6224359622
 31
0.0
  0
LINE
  5
187
330
1F
100
AcDbEntity
  8
0
  6
Continuous
 62
     7
100
AcDbLine
 10
4640.8064485892
 20
5329.6224359622
 30
0.0
 11
4628.2863696703
 21
5329.7881219735
 31
0.0
  0
LINE
  5
188
330
1F
100
AcDbEntity
  8
0
  6
Continuous
 62
     7
100
AcDbLine
 10
4628.2863696703
 20
5329.7881219735
 30
0.0
 11
4632.2890761673
 21
5332.042652761
 31
0.0
  0
LINE
  5
189
330
1F
100
AcDbEntity
  8
0
  6
Continuous
 62
     7
100
AcDbLine
 10
4632.2890761673
 20
5332.042652761
 30
0.0
 11
4626.7532080543
 21
5339.7041816464
 31
0.0
  0
LINE
  5
18A
330
1F
100
AcDbEntity
  8
0
  6
Continuous
 62
     7
100
AcDbLine
 10
4626.7532080543
 20
5339.7041816464
 30
0.0
 11
4622.5176206223
 21
5329.1389677873
 31
0.0
  0
LINE
  5
18B
330
1F
100
AcDbEntity
  8
0
  6
Continuous
 62
     7
100
AcDbLine
 10
4622.5176206223
 20
5329.1389677873
 30
0.0
 11
4612.1385171442
 21
5334.4915244928
 31
0.0
  0
LINE
  5
18C
330
1F
100
AcDbEntity
  8
0
  6
Continuous
 62
     7
100
AcDbLine
 10
4612.1385171442
 20
5334.4915244928
 30
0.0
 11
4615.3034930482
 21
5342.2072340002
 31
0.0
  0
LINE
  5
18D
330
1F
100
AcDbEntity
  8
0
  6
Continuous
 62
     7
100
AcDbLine
 10
4623.2158522486
 20
5346.0055548897
 30
0.0
 11
4633.9180087104
 21
5346.0055548897
 31
0.0
  0
LINE
  5
18E
330
1F
100
AcDbEntity
  8
0
  6
Continuous
 62
     7
100
AcDbLine
 10
4616.3378711223
 20
5341.6718948832
 30
0.0
 11
4613.4520554348
 21
5334.8767567625
 31
0.0
  0
LINE
  5
18F
330
1F
100
AcDbEntity
  8
0
  6
Continuous
 62
     7
100
AcDbLine
 10
4613.4520554348
 20
5334.8767567625
 30
0.0
 11
4621.8764562524
 21
5330.7809937945
 31
0.0
  0
LINE
  5
190
330
1F
100
AcDbEntity
  8
0
  6
Continuous
 62
     7
100
AcDbLine
 10
4621.8764562524
 20
5330.7809937945
 30
0.0
 11
4625.8326358526
 21
5340.6945873251
 31
0.0
  0
LINE
  5
191
330
1F
100
AcDbEntity
  8
0
  6
Continuous
 62
     7
100
AcDbLine
 10
4625.8326358526
 20
5340.6945873251
 30
0.0
 11
4624.7619424845
 21
5342.2769863358
 31
0.0
  0
LINE
  5
192
330
1F
100
AcDbEntity
  8
0
  6
Continuous
 62
     7
100
AcDbLine
 10
4626.5668537832
 20
5342.1502519598
 30
0.0
 11
4634.0913520559
 21
5331.6911045661
 31
0.0
  0
LINE
  5
193
330
1F
100
AcDbEntity
  8
0
  6
Continuous
 62
     7
100
AcDbLine
 10
4634.0913520559
 20
5331.6911045661
 30
0.0
 11
4632.8348810217
 21
5330.9464339366
 31
0.0
  0
LINE
  5
194
330
1F
100
AcDbEntity
  8
0
  6
Continuous
 62
     7
100
AcDbLine
 10
4632.8348810217
 20
5330.9464339366
 30
0.0
 11
4632.8348810217
 21
5330.8999050608
 31
0.0
  0
LINE
  5
195
330
1F
100
AcDbEntity
  8
0
  6
Continuous
 62
     7
100
AcDbLine
 10
4632.8348810217
 20
5330.8999050608
 30
0.0
 11
4640.0954527213
 21
5330.7809937945
 31
0.0
  0
LINE
  5
196
330
1F
100
AcDbEntity
  8
0
  6
Continuous
 62
     7
100
AcDbLine
 10
4640.0954527213
 20
5330.7809937945
 30
0.0
 11
4643.073992747
 21
5338.4993408075
 31
0.0
  0
LINE
  5
197
330
1F
100
AcDbEntity
  8
0
  6
Continuous
 62
     7
100
AcDbLine
 10
4643.073992747
 20
5338.4993408075
 30
0.0
 11
4641.0263189479
 21
5337.6150015941
 31
0.0
  0
LINE
  5
198
330
1F
100
AcDbEntity
  8
0
  6
Continuous
 62
     7
100
AcDbLine
 10
4641.0263189479
 20
5337.6150015941
 30
0.0
 11
4637.488880138
 21
5342.9003615132
 31
0.0
  0
LINE
  5
199
330
1F
100
AcDbEntity
  8
0
  6
Continuous
 62
     7
100
AcDbLine
 10
4634.0913520559
 20
5344.8006320944
 30
0.0
 11
4624.4311492789
 21
5344.8006320944
 31
0.0
  0
LINE
  5
19A
330
1F
100
AcDbEntity
  8
0
  6
Continuous
 62
     7
100
AcDbLine
 10
4645.5538309544
 20
5341.6980017176
 30
0.0
 11
4645.6003579675
 21
5341.5116477957
 31
0.0
  0
LINE
  5
19B
330
1F
100
AcDbEntity
  8
0
  6
Continuous
 62
     7
100
AcDbLine
 10
4558.3785324722
 20
5290.3481830111
 30
0.0
 11
4557.5812234908
 21
5290.3481830111
 31
0.0
  0
LINE
  5
19C
330
1F
100
AcDbEntity
  8
0
  6
Continuous
 62
     7
100
AcDbLine
 10
4557.5812234908
 20
5290.3481830111
 30
0.0
 11
4557.5812234908
 21
5287.2926254025
 31
0.0
  0
LINE
  5
19D
330
1F
100
AcDbEntity
  8
0
  6
Continuous
 62
     7
100
AcDbLine
 10
4557.5812234908
 20
5287.2926254025
 30
0.0
 11
4558.3116933136
 21
5287.2926254025
 31
0.0
  0
LINE
  5
19E
330
1F
100
AcDbEntity
  8
0
  6
Continuous
 62
     7
100
AcDbLine
 10
4559.6675946742
 20
5285.7648465982
 30
0.0
 11
4557.5645118385
 21
5285.7648465982
 31
0.0
  0
LINE
  5
19F
330
1F
100
AcDbEntity
  8
0
  6
Continuous
 62
     7
100
AcDbLine
 10
4557.5645118385
 20
5285.7648465982
 30
0.0
 11
4557.5645118385
 21
5283.3633754602
 31
0.0
  0
LINE
  5
1A0
330
1F
100
AcDbEntity
  8
0
  6
Continuous
 62
     7
100
AcDbLine
 10
4558.4740191131
 20
5282.4037332287
 30
0.0
 11
4559.1090022951
 21
5282.4037332287
 31
0.0
  0
LINE
  5
1A1
330
1F
100
AcDbEntity
  8
0
  6
Continuous
 62
     7
100
AcDbLine
 10
4559.1090022951
 20
5282.4037332287
 30
0.0
 11
4559.1090022951
 21
5280.875961875
 31
0.0
  0
LINE
  5
1A2
330
1F
100
AcDbEntity
  8
0
  6
Continuous
 62
     7
100
AcDbLine
 10
4559.1090022951
 20
5280.875961875
 30
0.0
 11
4552.3867830067
 21
5280.875961875
 31
0.0
  0
LINE
  5
1A3
330
1F
100
AcDbEntity
  8
0
  6
Continuous
 62
     7
100
AcDbLine
 10
4552.3867830067
 20
5280.875961875
 30
0.0
 11
4552.3867830067
 21
5282.4037332287
 31
0.0
  0
LINE
  5
1A4
330
1F
100
AcDbEntity
  8
0
  6
Continuous
 62
     7
100
AcDbLine
 10
4552.3867830067
 20
5282.4037332287
 30
0.0
 11
4552.9668554097
 21
5282.4037332287
 31
0.0
  0
LINE
  5
1A5
330
1F
100
AcDbEntity
  8
0
  6
Continuous
 62
     7
100
AcDbLine
 10
4553.9145543604
 20
5283.3633754602
 30
0.0
 11
4553.9145543604
 21
5289.5079065313
 31
0.0
  0
LINE
  5
1A6
330
1F
100
AcDbEntity
  8
0
  6
Continuous
 62
     7
100
AcDbLine
 10
4552.9668554097
 20
5290.4150221696
 30
0.0
 11
4552.3867830067
 21
5290.4150221696
 31
0.0
  0
LINE
  5
1A7
330
1F
100
AcDbEntity
  8
0
  6
Continuous
 62
     7
100
AcDbLine
 10
4552.3867830067
 20
5290.4150221696
 30
0.0
 11
4552.3867830067
 21
5291.8759618154
 31
0.0
  0
LINE
  5
1A8
330
1F
100
AcDbEntity
  8
0
  6
Continuous
 62
     7
100
AcDbLine
 10
4552.3867830067
 20
5291.8759618154
 30
0.0
 11
4559.6675946742
 21
5291.8759618154
 31
0.0
  0
LINE
  5
1A9
330
1F
100
AcDbEntity
  8
0
  6
Continuous
 62
     7
100
AcDbLine
 10
4590.1228896707
 20
5284.4161052456
 30
0.0
 11
4590.1228896707
 21
5289.410028254
 31
0.0
  0
LINE
  5
1AA
330
1F
100
AcDbEntity
  8
0
  6
Continuous
 62
     7
100
AcDbLine
 10
4589.1823507278
 20
5290.3481830111
 30
0.0
 11
4588.5951145916
 21
5290.3481830111
 31
0.0
  0
LINE
  5
1AB
330
1F
100
AcDbEntity
  8
0
  6
Continuous
 62
     7
100
AcDbLine
 10
4588.5951145916
 20
5290.3481830111
 30
0.0
 11
4588.5951145916
 21
5291.8759618154
 31
0.0
  0
LINE
  5
1AC
330
1F
100
AcDbEntity
  8
0
  6
Continuous
 62
     7
100
AcDbLine
 10
4588.5951145916
 20
5291.8759618154
 30
0.0
 11
4593.789558801
 21
5291.8759618154
 31
0.0
  0
LINE
  5
1AD
330
1F
100
AcDbEntity
  8
0
  6
Continuous
 62
     7
100
AcDbLine
 10
4593.789558801
 20
5291.8759618154
 30
0.0
 11
4593.789558801
 21
5290.3481830111
 31
0.0
  0
LINE
  5
1AE
330
1F
100
AcDbEntity
  8
0
  6
Continuous
 62
     7
100
AcDbLine
 10
4592.2617799967
 20
5289.4577715745
 30
0.0
 11
4592.2617799967
 21
5284.1439727893
 31
0.0
  0
LINE
  5
1AF
330
1F
100
AcDbEntity
  8
0
  6
Continuous
 62
     7
100
AcDbLine
 10
4582.4840030997
 20
5284.0055186501
 30
0.0
 11
4582.4840030997
 21
5289.410028254
 31
0.0
  0
LINE
  5
1B0
330
1F
100
AcDbEntity
  8
0
  6
Continuous
 62
     7
100
AcDbLine
 10
4581.5339162379
 20
5290.3481830111
 30
0.0
 11
4580.9562242954
 21
5290.3481830111
 31
0.0
  0
LINE
  5
1B1
330
1F
100
AcDbEntity
  8
0
  6
Continuous
 62
     7
100
AcDbLine
 10
4580.9562242954
 20
5290.3481830111
 30
0.0
 11
4580.9562242954
 21
5291.8759618154
 31
0.0
  0
LINE
  5
1B2
330
1F
100
AcDbEntity
  8
0
  6
Continuous
 62
     7
100
AcDbLine
 10
4580.9562242954
 20
5291.8759618154
 30
0.0
 11
4587.6784473091
 21
5291.8759618154
 31
0.0
  0
LINE
  5
1B3
330
1F
100
AcDbEntity
  8
0
  6
Continuous
 62
     7
100
AcDbLine
 10
4587.6784473091
 20
5291.8759618154
 30
0.0
 11
4587.6784473091
 21
5290.3481830111
 31
0.0
  0
LINE
  5
1B4
330
1F
100
AcDbEntity
  8
0
  6
Continuous
 62
     7
100
AcDbLine
 10
4587.6784473091
 20
5290.3481830111
 30
0.0
 11
4587.0697236984
 21
5290.3481830111
 31
0.0
  0
LINE
  5
1B5
330
1F
100
AcDbEntity
  8
0
  6
Continuous
 62
     7
100
AcDbLine
 10
4586.1506685048
 20
5289.410028254
 30
0.0
 11
4586.1506685048
 21
5284.552175199
 31
0.0
  0
LINE
  5
1B6
330
1F
100
AcDbEntity
  8
0
  6
Continuous
 62
     7
100
AcDbLine
 10
4593.789558801
 20
5290.3481830111
 30
0.0
 11
4593.2428985267
 21
5290.3481830111
 31
0.0
  0
LINE
  5
1B7
330
1F
100
AcDbEntity
  8
0
  6
Continuous
 62
     7
100
AcDbLine
 10
4595.31733388
 20
5280.875961875
 30
0.0
 11
4595.31733388
 21
5282.4037332287
 31
0.0
  0
LINE
  5
1B8
330
1F
100
AcDbEntity
  8
0
  6
Continuous
 62
     7
100
AcDbLine
 10
4595.31733388
 20
5282.4037332287
 30
0.0
 11
4601.4642528623
 21
5290.3481830111
 31
0.0
  0
LINE
  5
1B9
330
1F
100
AcDbEntity
  8
0
  6
Continuous
 62
     7
100
AcDbLine
 10
4601.4642528623
 20
5290.3481830111
 30
0.0
 11
4600.0295746504
 21
5290.3481830111
 31
0.0
  0
LINE
  5
1BA
330
1F
100
AcDbEntity
  8
0
  6
Continuous
 62
     7
100
AcDbLine
 10
4597.6090020864
 20
5287.7509553185
 30
0.0
 11
4595.6228896408
 21
5287.7509553185
 31
0.0
  0
LINE
  5
1BB
330
1F
100
AcDbEntity
  8
0
  6
Continuous
 62
     7
100
AcDbLine
 10
4595.6228896408
 20
5287.7509553185
 30
0.0
 11
4595.6228896408
 21
5291.8759618154
 31
0.0
  0
LINE
  5
1BC
330
1F
100
AcDbEntity
  8
0
  6
Continuous
 62
     7
100
AcDbLine
 10
4599.6929853588
 20
5282.4037332287
 30
0.0
 11
4601.158698964
 21
5282.4037332287
 31
0.0
  0
LINE
  5
1BD
330
1F
100
AcDbEntity
  8
0
  6
Continuous
 62
     7
100
AcDbLine
 10
4605.7062241613
 20
5285.3065166822
 30
0.0
 11
4605.7062241613
 21
5280.875961875
 31
0.0
  0
LINE
  5
1BE
330
1F
100
AcDbEntity
  8
0
  6
Continuous
 62
     7
100
AcDbLine
 10
4603.7201135784
 20
5285.3065166822
 30
0.0
 11
4605.7062241613
 21
5285.3065166822
 31
0.0
  0
LINE
  5
1BF
330
1F
100
AcDbEntity
  8
0
  6
Continuous
 62
     7
100
AcDbLine
 10
4605.7062241613
 20
5280.875961875
 30
0.0
 11
4595.31733388
 21
5280.875961875
 31
0.0
  0
LINE
  5
1C0
330
1F
100
AcDbEntity
  8
0
  6
Continuous
 62
     7
100
AcDbLine
 10
4605.7062241613
 20
5291.8759618154
 30
0.0
 11
4605.7062241613
 21
5290.3481830111
 31
0.0
  0
LINE
  5
1C1
330
1F
100
AcDbEntity
  8
0
  6
Continuous
 62
     7
100
AcDbLine
 10
4595.6228896408
 20
5291.8759618154
 30
0.0
 11
4605.7062241613
 21
5291.8759618154
 31
0.0
  0
LINE
  5
1C2
330
1F
100
AcDbEntity
  8
0
  6
Continuous
 62
     7
100
AcDbLine
 10
4605.7062241613
 20
5290.3481830111
 30
0.0
 11
4599.6929853588
 21
5282.4037332287
 31
0.0
  0
LINE
  5
1C3
330
1F
100
AcDbEntity
  8
0
  6
Continuous
 62
     7
100
AcDbLine
 10
4619.2389930963
 20
5291.8759618154
 30
0.0
 11
4619.2389930963
 21
5287.7509553185
 31
0.0
  0
LINE
  5
1C4
330
1F
100
AcDbEntity
  8
0
  6
Continuous
 62
     7
100
AcDbLine
 10
4619.2389930963
 20
5287.7509553185
 30
0.0
 11
4617.4701125725
 21
5287.7509553185
 31
0.0
  0
LINE
  5
1C5
330
1F
100
AcDbEntity
  8
0
  6
Continuous
 62
     7
100
AcDbLine
 10
4614.5339151277
 20
5290.3481830111
 30
0.0
 11
4612.7340020045
 21
5290.3481830111
 31
0.0
  0
LINE
  5
1C6
330
1F
100
AcDbEntity
  8
0
  6
Continuous
 62
     7
100
AcDbLine
 10
4612.7340020045
 20
5290.3481830111
 30
0.0
 11
4612.7340020045
 21
5287.4453995576
 31
0.0
  0
LINE
  5
1C7
330
1F
100
AcDbEntity
  8
0
  6
Continuous
 62
     7
100
AcDbLine
 10
4612.7340020045
 20
5287.4453995576
 30
0.0
 11
4613.1732379451
 21
5287.4453995576
 31
0.0
  0
LINE
  5
1C8
330
1F
100
AcDbEntity
  8
0
  6
Continuous
 62
     7
100
AcDbLine
 10
4614.5673356383
 20
5289.0209216824
 30
0.0
 11
4614.5673356383
 21
5289.1259599676
 31
0.0
  0
LINE
  5
1C9
330
1F
100
AcDbEntity
  8
0
  6
Continuous
 62
     7
100
AcDbLine
 10
4614.5673356383
 20
5289.1259599676
 30
0.0
 11
4615.9423356309
 21
5289.1259599676
 31
0.0
  0
LINE
  5
1CA
330
1F
100
AcDbEntity
  8
0
  6
Continuous
 62
     7
100
AcDbLine
 10
4615.9423356309
 20
5289.1259599676
 30
0.0
 11
4615.9423356309
 21
5284.0842936387
 31
0.0
  0
LINE
  5
1CB
330
1F
100
AcDbEntity
  8
0
  6
Continuous
 62
     7
100
AcDbLine
 10
4615.9423356309
 20
5284.0842936387
 30
0.0
 11
4614.5673356383
 21
5284.0842936387
 31
0.0
  0
LINE
  5
1CC
330
1F
100
AcDbEntity
  8
0
  6
Continuous
 62
     7
100
AcDbLine
 10
4613.1899477347
 20
5285.9176282039
 30
0.0
 11
4612.7340020045
 21
5285.9176282039
 31
0.0
  0
LINE
  5
1CD
330
1F
100
AcDbEntity
  8
0
  6
Continuous
 62
     7
100
AcDbLine
 10
4612.7340020045
 20
5285.9176282039
 30
0.0
 11
4612.7340020045
 21
5282.4037332287
 31
0.0
  0
LINE
  5
1CE
330
1F
100
AcDbEntity
  8
0
  6
Continuous
 62
     7
100
AcDbLine
 10
4612.7340020045
 20
5282.4037332287
 30
0.0
 11
4614.7439842477
 21
5282.4037332287
 31
0.0
  0
LINE
  5
1CF
330
1F
100
AcDbEntity
  8
0
  6
Continuous
 62
     7
100
AcDbLine
 10
4617.4701125725
 20
5285.4592908373
 30
0.0
 11
4619.3034462064
 21
5285.4592908373
 31
0.0
  0
LINE
  5
1D0
330
1F
100
AcDbEntity
  8
0
  6
Continuous
 62
     7
100
AcDbLine
 10
4619.3034462064
 20
5285.4592908373
 30
0.0
 11
4619.3034462064
 21
5280.875961875
 31
0.0
  0
LINE
  5
1D1
330
1F
100
AcDbEntity
  8
0
  6
Continuous
 62
     7
100
AcDbLine
 10
4607.5395568638
 20
5280.875961875
 30
0.0
 11
4607.5395568638
 21
5282.4037332287
 31
0.0
  0
LINE
  5
1D2
330
1F
100
AcDbEntity
  8
0
  6
Continuous
 62
     7
100
AcDbLine
 10
4607.5395568638
 20
5282.4037332287
 30
0.0
 11
4608.1244106769
 21
5282.4037332287
 31
0.0
  0
LINE
  5
1D3
330
1F
100
AcDbEntity
  8
0
  6
Continuous
 62
     7
100
AcDbLine
 10
4609.0673356681
 20
5283.3204005113
 30
0.0
 11
4609.0673356681
 21
5289.4553873887
 31
0.0
  0
LINE
  5
1D4
330
1F
100
AcDbEntity
  8
0
  6
Continuous
 62
     7
100
AcDbLine
 10
4608.1076990246
 20
5290.3481830111
 30
0.0
 11
4607.5395568638
 21
5290.3481830111
 31
0.0
  0
LINE
  5
1D5
330
1F
100
AcDbEntity
  8
0
  6
Continuous
 62
     7
100
AcDbLine
 10
4607.5395568638
 20
5290.3481830111
 30
0.0
 11
4607.5395568638
 21
5291.8759618154
 31
0.0
  0
LINE
  5
1D6
330
1F
100
AcDbEntity
  8
0
  6
Continuous
 62
     7
100
AcDbLine
 10
4607.5395568638
 20
5291.8759618154
 30
0.0
 11
4619.2389930963
 21
5291.8759618154
 31
0.0
  0
LINE
  5
1D7
330
1F
100
AcDbEntity
  8
0
  6
Continuous
 62
     7
100
AcDbLine
 10
4619.3034462064
 20
5280.875961875
 30
0.0
 11
4607.5395568638
 21
5280.875961875
 31
0.0
  0
LINE
  5
1D8
330
1F
100
AcDbEntity
  8
0
  6
Continuous
 62
     7
100
AcDbLine
 10
4634.1563108741
 20
5290.3481830111
 30
0.0
 11
4633.3590018927
 21
5290.3481830111
 31
0.0
  0
LINE
  5
1D9
330
1F
100
AcDbEntity
  8
0
  6
Continuous
 62
     7
100
AcDbLine
 10
4633.3590018927
 20
5290.3481830111
 30
0.0
 11
4633.3590018927
 21
5287.2926254025
 31
0.0
  0
LINE
  5
1DA
330
1F
100
AcDbEntity
  8
0
  6
Continuous
 62
     7
100
AcDbLine
 10
4633.3590018927
 20
5287.2926254025
 30
0.0
 11
4634.0894707843
 21
5287.2926254025
 31
0.0
  0
LINE
  5
1DB
330
1F
100
AcDbEntity
  8
0
  6
Continuous
 62
     7
100
AcDbLine
 10
4635.4453735418
 20
5285.7648465982
 30
0.0
 11
4633.3422916374
 21
5285.7648465982
 31
0.0
  0
LINE
  5
1DC
330
1F
100
AcDbEntity
  8
0
  6
Continuous
 62
     7
100
AcDbLine
 10
4633.3422916374
 20
5285.7648465982
 30
0.0
 11
4633.3422916374
 21
5283.3633754602
 31
0.0
  0
LINE
  5
1DD
330
1F
100
AcDbEntity
  8
0
  6
Continuous
 62
     7
100
AcDbLine
 10
4634.2517970494
 20
5282.4037332287
 30
0.0
 11
4634.8867797657
 21
5282.4037332287
 31
0.0
  0
LINE
  5
1DE
330
1F
100
AcDbEntity
  8
0
  6
Continuous
 62
     7
100
AcDbLine
 10
4634.8867797657
 20
5282.4037332287
 30
0.0
 11
4634.8867797657
 21
5280.875961875
 31
0.0
  0
LINE
  5
1DF
330
1F
100
AcDbEntity
  8
0
  6
Continuous
 62
     7
100
AcDbLine
 10
4634.8867797657
 20
5280.875961875
 30
0.0
 11
4628.1645574215
 21
5280.875961875
 31
0.0
  0
LINE
  5
1E0
330
1F
100
AcDbEntity
  8
0
  6
Continuous
 62
     7
100
AcDbLine
 10
4628.1645574215
 20
5280.875961875
 30
0.0
 11
4628.1645574215
 21
5282.4037332287
 31
0.0
  0
LINE
  5
1E1
330
1F
100
AcDbEntity
  8
0
  6
Continuous
 62
     7
100
AcDbLine
 10
4628.1645574215
 20
5282.4037332287
 30
0.0
 11
4628.7446355579
 21
5282.4037332287
 31
0.0
  0
LINE
  5
1E2
330
1F
100
AcDbEntity
  8
0
  6
Continuous
 62
     7
100
AcDbLine
 10
4629.6923352071
 20
5283.3633754602
 30
0.0
 11
4629.6923352071
 21
5289.5079065313
 31
0.0
  0
LINE
  5
1E3
330
1F
100
AcDbEntity
  8
0
  6
Continuous
 62
     7
100
AcDbLine
 10
4628.7446355579
 20
5290.4150221696
 30
0.0
 11
4628.1645574215
 21
5290.4150221696
 31
0.0
  0
LINE
  5
1E4
330
1F
100
AcDbEntity
  8
0
  6
Continuous
 62
     7
100
AcDbLine
 10
4628.1645574215
 20
5290.4150221696
 30
0.0
 11
4628.1645574215
 21
5291.8759618154
 31
0.0
  0
LINE
  5
1E5
330
1F
100
AcDbEntity
  8
0
  6
Continuous
 62
     7
100
AcDbLine
 10
4628.1645574215
 20
5291.8759618154
 30
0.0
 11
4635.4453735418
 21
5291.8759618154
 31
0.0
  0
LINE
  5
1E6
330
1F
100
AcDbEntity
  8
0
  6
Continuous
 62
     7
100
AcDbLine
 10
4648.4840027421
 20
5291.8759618154
 30
0.0
 11
4648.4840027421
 21
5290.3481830111
 31
0.0
  0
LINE
  5
1E7
330
1F
100
AcDbEntity
  8
0
  6
Continuous
 62
     7
100
AcDbLine
 10
4648.4840027421
 20
5290.3481830111
 30
0.0
 11
4647.8490195601
 21
5290.3481830111
 31
0.0
  0
LINE
  5
1E8
330
1F
100
AcDbEntity
  8
0
  6
Continuous
 62
     7
100
AcDbLine
 10
4646.9562239378
 20
5289.4864190569
 30
0.0
 11
4646.9562239378
 21
5282.4371565333
 31
0.0
  0
LINE
  5
1E9
330
1F
100
AcDbEntity
  8
0
  6
Continuous
 62
     7
100
AcDbLine
 10
4646.9562239378
 20
5282.4371565333
 30
0.0
 11
4647.7034035503
 21
5282.4371565333
 31
0.0
  0
LINE
  5
1EA
330
1F
100
AcDbEntity
  8
0
  6
Continuous
 62
     7
100
AcDbLine
 10
4650.6228912055
 20
5285.4592908373
 30
0.0
 11
4652.3034460276
 21
5285.4592908373
 31
0.0
  0
LINE
  5
1EB
330
1F
100
AcDbEntity
  8
0
  6
Continuous
 62
     7
100
AcDbLine
 10
4652.3034460276
 20
5285.4592908373
 30
0.0
 11
4652.3034460276
 21
5280.875961875
 31
0.0
  0
LINE
  5
1EC
330
1F
100
AcDbEntity
  8
0
  6
Continuous
 62
     7
100
AcDbLine
 10
4652.3034460276
 20
5280.875961875
 30
0.0
 11
4641.7617797285
 21
5280.875961875
 31
0.0
  0
LINE
  5
1ED
330
1F
100
AcDbEntity
  8
0
  6
Continuous
 62
     7
100
AcDbLine
 10
4641.7617797285
 20
5280.875961875
 30
0.0
 11
4641.7617797285
 21
5282.4037332287
 31
0.0
  0
LINE
  5
1EE
330
1F
100
AcDbEntity
  8
0
  6
Continuous
 62
     7
100
AcDbLine
 10
4641.7617797285
 20
5282.4037332287
 30
0.0
 11
4642.3418577193
 21
5282.4037332287
 31
0.0
  0
LINE
  5
1EF
330
1F
100
AcDbEntity
  8
0
  6
Continuous
 62
     7
100
AcDbLine
 10
4643.2895576014
 20
5283.358599638
 30
0.0
 11
4643.2895576014
 21
5289.4052524319
 31
0.0
  0
LINE
  5
1F0
330
1F
100
AcDbEntity
  8
0
  6
Continuous
 62
     7
100
AcDbLine
 10
4642.3418577193
 20
5290.3481830111
 30
0.0
 11
4641.7617797285
 21
5290.3481830111
 31
0.0
  0
LINE
  5
1F1
330
1F
100
AcDbEntity
  8
0
  6
Continuous
 62
     7
100
AcDbLine
 10
4641.7617797285
 20
5290.3481830111
 30
0.0
 11
4641.7617797285
 21
5291.8759618154
 31
0.0
  0
LINE
  5
1F2
330
1F
100
AcDbEntity
  8
0
  6
Continuous
 62
     7
100
AcDbLine
 10
4641.7617797285
 20
5291.8759618154
 30
0.0
 11
4648.4840027421
 21
5291.8759618154
 31
0.0
  0
LINE
  5
1F3
330
1F
100
AcDbEntity
  8
0
  6
Continuous
 62
     7
100
AcDbLine
 10
4660.3648624747
 20
5286.070402359
 30
0.0
 11
4659.3574843734
 21
5289.3551249256
 31
0.0
  0
LINE
  5
1F4
330
1F
100
AcDbEntity
  8
0
  6
Continuous
 62
     7
100
AcDbLine
 10
4659.3574843734
 20
5289.3551249256
 30
0.0
 11
4658.4145575195
 21
5286.070402359
 31
0.0
  0
LINE
  5
1F5
330
1F
100
AcDbEntity
  8
0
  6
Continuous
 62
     7
100
AcDbLine
 10
4658.4145575195
 20
5286.070402359
 30
0.0
 11
4660.3648624747
 21
5286.070402359
 31
0.0
  0
LINE
  5
1F6
330
1F
100
AcDbEntity
  8
0
  6
Continuous
 62
     7
100
AcDbLine
 10
4659.9447205096
 20
5280.875961875
 30
0.0
 11
4659.9447205096
 21
5282.4037332287
 31
0.0
  0
LINE
  5
1F7
330
1F
100
AcDbEntity
  8
0
  6
Continuous
 62
     7
100
AcDbLine
 10
4659.9447205096
 20
5282.4037332287
 30
0.0
 11
4660.4460253745
 21
5282.4037332287
 31
0.0
  0
LINE
  5
1F8
330
1F
100
AcDbEntity
  8
0
  6
Continuous
 62
     7
100
AcDbLine
 10
4661.2839139431
 20
5283.270273005
 30
0.0
 11
4660.8876473635
 21
5284.5426235547
 31
0.0
  0
LINE
  5
1F9
330
1F
100
AcDbEntity
  8
0
  6
Continuous
 62
     7
100
AcDbLine
 10
4660.8876473635
 20
5284.5426235547
 30
0.0
 11
4657.9060945093
 21
5284.5426235547
 31
0.0
  0
LINE
  5
1FA
330
1F
100
AcDbEntity
  8
0
  6
Continuous
 62
     7
100
AcDbLine
 10
4657.9060945093
 20
5284.5426235547
 30
0.0
 11
4657.5599572986
 21
5283.4087271443
 31
0.0
  0
LINE
  5
1FB
330
1F
100
AcDbEntity
  8
0
  6
Continuous
 62
     7
100
AcDbLine
 10
4658.1806167393
 20
5282.4037332287
 30
0.0
 11
4658.7296611994
 21
5282.4037332287
 31
0.0
  0
LINE
  5
1FC
330
1F
100
AcDbEntity
  8
0
  6
Continuous
 62
     7
100
AcDbLine
 10
4658.7296611994
 20
5282.4037332287
 30
0.0
 11
4658.7296611994
 21
5280.875961875
 31
0.0
  0
LINE
  5
1FD
330
1F
100
AcDbEntity
  8
0
  6
Continuous
 62
     7
100
AcDbLine
 10
4658.7296611994
 20
5280.875961875
 30
0.0
 11
4653.8312248319
 21
5280.875961875
 31
0.0
  0
LINE
  5
1FE
330
1F
100
AcDbEntity
  8
0
  6
Continuous
 62
     7
100
AcDbLine
 10
4653.8312248319
 20
5280.875961875
 30
0.0
 11
4653.8312248319
 21
5282.4037332287
 31
0.0
  0
LINE
  5
1FF
330
1F
100
AcDbEntity
  8
0
  6
Continuous
 62
     7
100
AcDbLine
 10
4653.8312248319
 20
5282.4037332287
 30
0.0
 11
4654.2394272416
 21
5282.4037332287
 31
0.0
  0
LINE
  5
200
330
1F
100
AcDbEntity
  8
0
  6
Continuous
 62
     7
100
AcDbLine
 10
4655.4353907137
 20
5283.6235720863
 30
0.0
 11
4658.3023610889
 21
5291.8759618154
 31
0.0
  0
LINE
  5
201
330
1F
100
AcDbEntity
  8
0
  6
Continuous
 62
     7
100
AcDbLine
 10
4658.3023610889
 20
5291.8759618154
 30
0.0
 11
4662.3056157856
 21
5291.8759618154
 31
0.0
  0
LINE
  5
202
330
1F
100
AcDbEntity
  8
0
  6
Continuous
 62
     7
100
AcDbLine
 10
4662.3056157856
 20
5291.8759618154
 30
0.0
 11
4664.9004518419
 21
5283.6593795767
 31
0.0
  0
LINE
  5
203
330
1F
100
AcDbEntity
  8
0
  6
Continuous
 62
     7
100
AcDbLine
 10
4666.6645556121
 20
5282.4037332287
 30
0.0
 11
4666.6645556121
 21
5280.875961875
 31
0.0
  0
LINE
  5
204
330
1F
100
AcDbEntity
  8
0
  6
Continuous
 62
     7
100
AcDbLine
 10
4666.6645556121
 20
5280.875961875
 30
0.0
 11
4659.9447205096
 21
5280.875961875
 31
0.0
  0
LINE
  5
205
330
1F
100
AcDbEntity
  8
0
  6
Continuous
 62
     7
100
AcDbLine
 10
4666.0844794839
 20
5282.4037332287
 30
0.0
 11
4666.6645556121
 21
5282.4037332287
 31
0.0
  0
LINE
  5
206
330
1F
100
AcDbEntity
  8
0
  6
Continuous
 62
     7
100
AcDbLine
 10
4667.8867786556
 20
5285.0009609213
 30
0.0
 11
4669.5673353403
 21
5285.0009609213
 31
0.0
  0
LINE
  5
207
330
1F
100
AcDbEntity
  8
0
  6
Continuous
 62
     7
100
AcDbLine
 10
4675.654575172
 20
5291.3722727647
 30
0.0
 11
4675.9481951027
 21
5291.8759618154
 31
0.0
  0
LINE
  5
208
330
1F
100
AcDbEntity
  8
0
  6
Continuous
 62
     7
100
AcDbLine
 10
4675.9481951027
 20
5291.8759618154
 30
0.0
 11
4677.5117813974
 21
5291.8759618154
 31
0.0
  0
LINE
  5
209
330
1F
100
AcDbEntity
  8
0
  6
Continuous
 62
     7
100
AcDbLine
 10
4677.5117813974
 20
5291.8759618154
 30
0.0
 11
4677.5117813974
 21
5288.209292685
 31
0.0
  0
LINE
  5
20A
330
1F
100
AcDbEntity
  8
0
  6
Continuous
 62
     7
100
AcDbLine
 10
4677.5117813974
 20
5288.209292685
 30
0.0
 11
4675.6784468322
 21
5288.209292685
 31
0.0
  0
LINE
  5
20B
330
1F
100
AcDbEntity
  8
0
  6
Continuous
 62
     7
100
AcDbLine
 10
4669.9254065185
 20
5281.4632017365
 30
0.0
 11
4669.4909445374
 21
5280.8306027403
 31
0.0
  0
LINE
  5
20C
330
1F
100
AcDbEntity
  8
0
  6
Continuous
 62
     7
100
AcDbLine
 10
4669.4909445374
 20
5280.8306027403
 30
0.0
 11
4667.8867786556
 21
5280.8306027403
 31
0.0
  0
LINE
  5
20D
330
1F
100
AcDbEntity
  8
0
  6
Continuous
 62
     7
100
AcDbLine
 10
4667.8867786556
 20
5280.8306027403
 30
0.0
 11
4667.8867786556
 21
5285.0009609213
 31
0.0
  0
LINE
  5
20E
330
1F
100
AcDbEntity
  8
0
  6
Continuous
 62
     7
100
AcDbLine
 10
4681.9423362046
 20
5287.7796028009
 30
0.0
 11
4681.9423362046
 21
5287.7294752946
 31
0.0
  0
LINE
  5
20F
330
1F
100
AcDbEntity
  8
0
  6
Continuous
 62
     7
100
AcDbLine
 10
4681.9423362046
 20
5287.7294752946
 30
0.0
 11
4680.2617795198
 21
5287.7294752946
 31
0.0
  0
LINE
  5
210
330
1F
100
AcDbEntity
  8
0
  6
Continuous
 62
     7
100
AcDbLine
 10
4680.2617795198
 20
5287.7294752946
 30
0.0
 11
4680.2617795198
 21
5291.8759618154
 31
0.0
  0
LINE
  5
211
330
1F
100
AcDbEntity
  8
0
  6
Continuous
 62
     7
100
AcDbLine
 10
4691.8728872567
 20
5287.7294752946
 30
0.0
 11
4690.1923342972
 21
5287.7294752946
 31
0.0
  0
LINE
  5
212
330
1F
100
AcDbEntity
  8
0
  6
Continuous
 62
     7
100
AcDbLine
 10
4690.1923342972
 20
5287.7294752946
 30
0.0
 11
4690.1923342972
 21
5287.7796028009
 31
0.0
  0
LINE
  5
213
330
1F
100
AcDbEntity
  8
0
  6
Continuous
 62
     7
100
AcDbLine
 10
4688.3780992954
 20
5290.1954014053
 30
0.0
 11
4687.9006698161
 21
5290.1954014053
 31
0.0
  0
LINE
  5
214
330
1F
100
AcDbEntity
  8
0
  6
Continuous
 62
     7
100
AcDbLine
 10
4687.9006698161
 20
5290.1954014053
 30
0.0
 11
4687.9006698161
 21
5283.358599638
 31
0.0
  0
LINE
  5
215
330
1F
100
AcDbEntity
  8
0
  6
Continuous
 62
     7
100
AcDbLine
 10
4688.8173333733
 20
5282.4037332287
 30
0.0
 11
4689.7340006559
 21
5282.4037332287
 31
0.0
  0
LINE
  5
216
330
1F
100
AcDbEntity
  8
0
  6
Continuous
 62
     7
100
AcDbLine
 10
4689.7340006559
 20
5282.4037332287
 30
0.0
 11
4689.7340006559
 21
5280.875961875
 31
0.0
  0
LINE
  5
217
330
1F
100
AcDbEntity
  8
0
  6
Continuous
 62
     7
100
AcDbLine
 10
4689.7340006559
 20
5280.875961875
 30
0.0
 11
4682.4006698459
 21
5280.875961875
 31
0.0
  0
LINE
  5
218
330
1F
100
AcDbEntity
  8
0
  6
Continuous
 62
     7
100
AcDbLine
 10
4682.4006698459
 20
5280.875961875
 30
0.0
 11
4682.4006698459
 21
5282.4037332287
 31
0.0
  0
LINE
  5
219
330
1F
100
AcDbEntity
  8
0
  6
Continuous
 62
     7
100
AcDbLine
 10
4682.4006698459
 20
5282.4037332287
 30
0.0
 11
4683.2934654682
 21
5282.4037332287
 31
0.0
  0
LINE
  5
21A
330
1F
100
AcDbEntity
  8
0
  6
Continuous
 62
     7
100
AcDbLine
 10
4684.2340006857
 20
5283.358599638
 30
0.0
 11
4684.2340006857
 21
5290.1954014053
 31
0.0
  0
LINE
  5
21B
330
1F
100
AcDbEntity
  8
0
  6
Continuous
 62
     7
100
AcDbLine
 10
4684.2340006857
 20
5290.1954014053
 30
0.0
 11
4683.7350874572
 21
5290.1954014053
 31
0.0
  0
LINE
  5
21C
330
1F
100
AcDbEntity
  8
0
  6
Continuous
 62
     7
100
AcDbLine
 10
4691.8728872567
 20
5291.8759618154
 30
0.0
 11
4691.8728872567
 21
5287.7294752946
 31
0.0
  0
LINE
  5
21D
330
1F
100
AcDbEntity
  8
0
  6
Continuous
 62
     7
100
AcDbLine
 10
4680.2617795198
 20
5291.8759618154
 30
0.0
 11
4691.8728872567
 21
5291.8759618154
 31
0.0
  0
LINE
  5
21E
330
1F
100
AcDbEntity
  8
0
  6
Continuous
 62
     7
100
AcDbLine
 10
4693.2598277359
 20
5290.3481830111
 30
0.0
 11
4692.942336145
 21
5290.3481830111
 31
0.0
  0
LINE
  5
21F
330
1F
100
AcDbEntity
  8
0
  6
Continuous
 62
     7
100
AcDbLine
 10
4692.942336145
 20
5290.3481830111
 30
0.0
 11
4692.942336145
 21
5291.8759618154
 31
0.0
  0
LINE
  5
220
330
1F
100
AcDbEntity
  8
0
  6
Continuous
 62
     7
100
AcDbLine
 10
4692.942336145
 20
5291.8759618154
 30
0.0
 11
4699.3589996725
 21
5291.8759618154
 31
0.0
  0
LINE
  5
221
330
1F
100
AcDbEntity
  8
0
  6
Continuous
 62
     7
100
AcDbLine
 10
4699.3589996725
 20
5291.8759618154
 30
0.0
 11
4699.3589996725
 21
5290.3481830111
 31
0.0
  0
LINE
  5
222
330
1F
100
AcDbEntity
  8
0
  6
Continuous
 62
     7
100
AcDbLine
 10
4699.3589996725
 20
5290.3481830111
 30
0.0
 11
4698.9913805752
 21
5290.3481830111
 31
0.0
  0
LINE
  5
223
330
1F
100
AcDbEntity
  8
0
  6
Continuous
 62
     7
100
AcDbLine
 10
4698.4256281882
 20
5289.5007390728
 30
0.0
 11
4699.7242345839
 21
5287.3714003911
 31
0.0
  0
LINE
  5
224
330
1F
100
AcDbEntity
  8
0
  6
Continuous
 62
     7
100
AcDbLine
 10
4699.7242345839
 20
5287.3714003911
 30
0.0
 11
4701.0705917507
 21
5289.524610733
 31
0.0
  0
LINE
  5
225
330
1F
100
AcDbEntity
  8
0
  6
Continuous
 62
     7
100
AcDbLine
 10
4700.5454152255
 20
5290.3481830111
 30
0.0
 11
4700.1228927999
 21
5290.3481830111
 31
0.0
  0
LINE
  5
226
330
1F
100
AcDbEntity
  8
0
  6
Continuous
 62
     7
100
AcDbLine
 10
4700.1228927999
 20
5290.3481830111
 30
0.0
 11
4700.1228927999
 21
5291.8759618154
 31
0.0
  0
LINE
  5
227
330
1F
100
AcDbEntity
  8
0
  6
Continuous
 62
     7
100
AcDbLine
 10
4703.3789678841
 20
5289.2357666245
 30
0.0
 11
4700.8867784768
 21
5285.275485014
 31
0.0
  0
LINE
  5
228
330
1F
100
AcDbEntity
  8
0
  6
Continuous
 62
     7
100
AcDbLine
 10
4700.8867784768
 20
5285.275485014
 30
0.0
 11
4700.8867784768
 21
5283.3562080016
 31
0.0
  0
LINE
  5
229
330
1F
100
AcDbEntity
  8
0
  6
Continuous
 62
     7
100
AcDbLine
 10
4701.8106057673
 20
5282.4037332287
 30
0.0
 11
4702.4145572811
 21
5282.4037332287
 31
0.0
  0
LINE
  5
22A
330
1F
100
AcDbEntity
  8
0
  6
Continuous
 62
     7
100
AcDbLine
 10
4702.4145572811
 20
5282.4037332287
 30
0.0
 11
4702.4145572811
 21
5280.875961875
 31
0.0
  0
LINE
  5
22B
330
1F
100
AcDbEntity
  8
0
  6
Continuous
 62
     7
100
AcDbLine
 10
4702.4145572811
 20
5280.875961875
 30
0.0
 11
4695.6923379927
 21
5280.875961875
 31
0.0
  0
LINE
  5
22C
330
1F
100
AcDbEntity
  8
0
  6
Continuous
 62
     7
100
AcDbLine
 10
4695.6923379927
 20
5280.875961875
 30
0.0
 11
4695.6923379927
 21
5282.4037332287
 31
0.0
  0
LINE
  5
22D
330
1F
100
AcDbEntity
  8
0
  6
Continuous
 62
     7
100
AcDbLine
 10
4695.6923379927
 20
5282.4037332287
 30
0.0
 11
4696.3201537161
 21
5282.4037332287
 31
0.0
  0
LINE
  5
22E
330
1F
100
AcDbEntity
  8
0
  6
Continuous
 62
     7
100
AcDbLine
 10
4697.2201093464
 20
5283.3562080016
 30
0.0
 11
4697.2201093464
 21
5285.275485014
 31
0.0
  0
LINE
  5
22F
330
1F
100
AcDbEntity
  8
0
  6
Continuous
 62
     7
100
AcDbLine
 10
4697.2201093464
 20
5285.275485014
 30
0.0
 11
4694.789990726
 21
5289.3073816052
 31
0.0
  0
LINE
  5
230
330
1F
100
AcDbEntity
  8
0
  6
Continuous
 62
     7
100
AcDbLine
 10
4705.1645591288
 20
5290.3481830111
 30
0.0
 11
4704.8112600475
 21
5290.3481830111
 31
0.0
  0
LINE
  5
231
330
1F
100
AcDbEntity
  8
0
  6
Continuous
 62
     7
100
AcDbLine
 10
4705.1645591288
 20
5291.8759618154
 30
0.0
 11
4705.1645591288
 21
5290.3481830111
 31
0.0
  0
LINE
  5
232
330
1F
100
AcDbEntity
  8
0
  6
Continuous
 62
     7
100
AcDbLine
 10
4700.1228927999
 20
5291.8759618154
 30
0.0
 11
4705.1645591288
 21
5291.8759618154
 31
0.0
  0
LINE
  5
233
330
1F
100
AcDbEntity
  8
0
  6
Continuous
 62
     7
100
AcDbLine
 10
4560.8229785591
 20
5269.6398493102
 30
0.0
 11
4560.0256695776
 21
5269.6398493102
 31
0.0
  0
LINE
  5
234
330
1F
100
AcDbEntity
  8
0
  6
Continuous
 62
     7
100
AcDbLine
 10
4560.0256695776
 20
5269.6398493102
 30
0.0
 11
4560.0256695776
 21
5266.5842917016
 31
0.0
  0
LINE
  5
235
330
1F
100
AcDbEntity
  8
0
  6
Continuous
 62
     7
100
AcDbLine
 10
4560.0256695776
 20
5266.5842917016
 30
0.0
 11
4560.7561394005
 21
5266.5842917016
 31
0.0
  0
LINE
  5
236
330
1F
100
AcDbEntity
  8
0
  6
Continuous
 62
     7
100
AcDbLine
 10
4562.112040761
 20
5265.0565128973
 30
0.0
 11
4560.0089579254
 21
5265.0565128973
 31
0.0
  0
LINE
  5
237
330
1F
100
AcDbEntity
  8
0
  6
Continuous
 62
     7
100
AcDbLine
 10
4560.0089579254
 20
5265.0565128973
 30
0.0
 11
4560.0089579254
 21
5262.655038034
 31
0.0
  0
LINE
  5
238
330
1F
100
AcDbEntity
  8
0
  6
Continuous
 62
     7
100
AcDbLine
 10
4560.9184652
 20
5261.6954032531
 30
0.0
 11
4561.5534483819
 21
5261.6954032531
 31
0.0
  0
LINE
  5
239
330
1F
100
AcDbEntity
  8
0
  6
Continuous
 62
     7
100
AcDbLine
 10
4561.5534483819
 20
5261.6954032531
 30
0.0
 11
4561.5534483819
 21
5260.1676244488
 31
0.0
  0
LINE
  5
23A
330
1F
100
AcDbEntity
  8
0
  6
Continuous
 62
     7
100
AcDbLine
 10
4561.5534483819
 20
5260.1676244488
 30
0.0
 11
4554.831221643
 21
5260.1676244488
 31
0.0
  0
LINE
  5
23B
330
1F
100
AcDbEntity
  8
0
  6
Continuous
 62
     7
100
AcDbLine
 10
4554.831221643
 20
5260.1676244488
 30
0.0
 11
4554.831221643
 21
5261.6954032531
 31
0.0
  0
LINE
  5
23C
330
1F
100
AcDbEntity
  8
0
  6
Continuous
 62
     7
100
AcDbLine
 10
4554.831221643
 20
5261.6954032531
 30
0.0
 11
4555.4113014965
 21
5261.6954032531
 31
0.0
  0
LINE
  5
23D
330
1F
100
AcDbEntity
  8
0
  6
Continuous
 62
     7
100
AcDbLine
 10
4556.3590004473
 20
5262.655038034
 30
0.0
 11
4556.3590004473
 21
5268.7995691052
 31
0.0
  0
LINE
  5
23E
330
1F
100
AcDbEntity
  8
0
  6
Continuous
 62
     7
100
AcDbLine
 10
4555.4113014965
 20
5269.7066884687
 30
0.0
 11
4554.831221643
 21
5269.7066884687
 31
0.0
  0
LINE
  5
23F
330
1F
100
AcDbEntity
  8
0
  6
Continuous
 62
     7
100
AcDbLine
 10
4554.831221643
 20
5269.7066884687
 30
0.0
 11
4554.831221643
 21
5271.1676243892
 31
0.0
  0
LINE
  5
240
330
1F
100
AcDbEntity
  8
0
  6
Continuous
 62
     7
100
AcDbLine
 10
4554.831221643
 20
5271.1676243892
 30
0.0
 11
4562.112040761
 21
5271.1676243892
 31
0.0
  0
LINE
  5
241
330
1F
100
AcDbEntity
  8
0
  6
Continuous
 62
     7
100
AcDbLine
 10
4575.1506685644
 20
5271.1676243892
 30
0.0
 11
4575.1506685644
 21
5269.6398493102
 31
0.0
  0
LINE
  5
242
330
1F
100
AcDbEntity
  8
0
  6
Continuous
 62
     7
100
AcDbLine
 10
4575.1506685644
 20
5269.6398493102
 30
0.0
 11
4574.5156853824
 21
5269.6398493102
 31
0.0
  0
LINE
  5
243
330
1F
100
AcDbEntity
  8
0
  6
Continuous
 62
     7
100
AcDbLine
 10
4573.6228897601
 20
5268.778085356
 30
0.0
 11
4573.6228897601
 21
5261.7288228324
 31
0.0
  0
LINE
  5
244
330
1F
100
AcDbEntity
  8
0
  6
Continuous
 62
     7
100
AcDbLine
 10
4573.6228897601
 20
5261.7288228324
 30
0.0
 11
4574.3700712352
 21
5261.7288228324
 31
0.0
  0
LINE
  5
245
330
1F
100
AcDbEntity
  8
0
  6
Continuous
 62
     7
100
AcDbLine
 10
4577.2895588904
 20
5264.7509571364
 30
0.0
 11
4578.9701118498
 21
5264.7509571364
 31
0.0
  0
LINE
  5
246
330
1F
100
AcDbEntity
  8
0
  6
Continuous
 62
     7
100
AcDbLine
 10
4578.9701118498
 20
5264.7509571364
 30
0.0
 11
4578.9701118498
 21
5260.1676244488
 31
0.0
  0
LINE
  5
247
330
1F
100
AcDbEntity
  8
0
  6
Continuous
 62
     7
100
AcDbLine
 10
4568.4284455507
 20
5260.1676244488
 30
0.0
 11
4568.4284455507
 21
5261.6954032531
 31
0.0
  0
LINE
  5
248
330
1F
100
AcDbEntity
  8
0
  6
Continuous
 62
     7
100
AcDbLine
 10
4568.4284455507
 20
5261.6954032531
 30
0.0
 11
4569.0085254043
 21
5261.6954032531
 31
0.0
  0
LINE
  5
249
330
1F
100
AcDbEntity
  8
0
  6
Continuous
 62
     7
100
AcDbLine
 10
4569.956224355
 20
5262.6502659371
 30
0.0
 11
4569.956224355
 21
5268.6969224563
 31
0.0
  0
LINE
  5
24A
330
1F
100
AcDbEntity
  8
0
  6
Continuous
 62
     7
100
AcDbLine
 10
4569.0085254043
 20
5269.6398493102
 30
0.0
 11
4568.4284455507
 21
5269.6398493102
 31
0.0
  0
LINE
  5
24B
330
1F
100
AcDbEntity
  8
0
  6
Continuous
 62
     7
100
AcDbLine
 10
4568.4284455507
 20
5269.6398493102
 30
0.0
 11
4568.4284455507
 21
5271.1676243892
 31
0.0
  0
LINE
  5
24C
330
1F
100
AcDbEntity
  8
0
  6
Continuous
 62
     7
100
AcDbLine
 10
4568.4284455507
 20
5271.1676243892
 30
0.0
 11
4575.1506685644
 21
5271.1676243892
 31
0.0
  0
LINE
  5
24D
330
1F
100
AcDbEntity
  8
0
  6
Continuous
 62
     7
100
AcDbLine
 10
4578.9701118498
 20
5260.1676244488
 30
0.0
 11
4568.4284455507
 21
5260.1676244488
 31
0.0
  0
LINE
  5
24E
330
1F
100
AcDbEntity
  8
0
  6
Continuous
 62
     7
100
AcDbLine
 10
4587.031528297
 20
5265.3620686581
 30
0.0
 11
4586.0241501956
 21
5268.6467912247
 31
0.0
  0
LINE
  5
24F
330
1F
100
AcDbEntity
  8
0
  6
Continuous
 62
     7
100
AcDbLine
 10
4586.0241501956
 20
5268.6467912247
 30
0.0
 11
4585.0812233417
 21
5265.3620686581
 31
0.0
  0
LINE
  5
250
330
1F
100
AcDbEntity
  8
0
  6
Continuous
 62
     7
100
AcDbLine
 10
4585.0812233417
 20
5265.3620686581
 30
0.0
 11
4587.031528297
 21
5265.3620686581
 31
0.0
  0
LINE
  5
251
330
1F
100
AcDbEntity
  8
0
  6
Continuous
 62
     7
100
AcDbLine
 10
4586.6113900571
 20
5260.1676244488
 30
0.0
 11
4586.6113900571
 21
5261.6954032531
 31
0.0
  0
LINE
  5
252
330
1F
100
AcDbEntity
  8
0
  6
Continuous
 62
     7
100
AcDbLine
 10
4586.6113900571
 20
5261.6954032531
 30
0.0
 11
4587.1126911967
 21
5261.6954032531
 31
0.0
  0
LINE
  5
253
330
1F
100
AcDbEntity
  8
0
  6
Continuous
 62
     7
100
AcDbLine
 10
4587.9505834907
 20
5262.5619393041
 30
0.0
 11
4587.5543131857
 21
5263.8342935791
 31
0.0
  0
LINE
  5
254
330
1F
100
AcDbEntity
  8
0
  6
Continuous
 62
     7
100
AcDbLine
 10
4587.5543131857
 20
5263.8342935791
 30
0.0
 11
4584.5727621942
 21
5263.8342935791
 31
0.0
  0
LINE
  5
255
330
1F
100
AcDbEntity
  8
0
  6
Continuous
 62
     7
100
AcDbLine
 10
4584.5727621942
 20
5263.8342935791
 30
0.0
 11
4584.2266231208
 21
5262.7003934434
 31
0.0
  0
LINE
  5
256
330
1F
100
AcDbEntity
  8
0
  6
Continuous
 62
     7
100
AcDbLine
 10
4584.8472825616
 20
5261.6954032531
 30
0.0
 11
4585.3963270216
 21
5261.6954032531
 31
0.0
  0
LINE
  5
257
330
1F
100
AcDbEntity
  8
0
  6
Continuous
 62
     7
100
AcDbLine
 10
4585.3963270216
 20
5261.6954032531
 30
0.0
 11
4585.3963270216
 21
5260.1676244488
 31
0.0
  0
LINE
  5
258
330
1F
100
AcDbEntity
  8
0
  6
Continuous
 62
     7
100
AcDbLine
 10
4585.3963270216
 20
5260.1676244488
 30
0.0
 11
4580.4978906541
 21
5260.1676244488
 31
0.0
  0
LINE
  5
259
330
1F
100
AcDbEntity
  8
0
  6
Continuous
 62
     7
100
AcDbLine
 10
4580.4978906541
 20
5260.1676244488
 30
0.0
 11
4580.4978906541
 21
5261.6954032531
 31
0.0
  0
LINE
  5
25A
330
1F
100
AcDbEntity
  8
0
  6
Continuous
 62
     7
100
AcDbLine
 10
4580.4978906541
 20
5261.6954032531
 30
0.0
 11
4580.9060930639
 21
5261.6954032531
 31
0.0
  0
LINE
  5
25B
330
1F
100
AcDbEntity
  8
0
  6
Continuous
 62
     7
100
AcDbLine
 10
4582.102056536
 20
5262.9152383855
 30
0.0
 11
4584.9690287738
 21
5271.1676243892
 31
0.0
  0
LINE
  5
25C
330
1F
100
AcDbEntity
  8
0
  6
Continuous
 62
     7
100
AcDbLine
 10
4584.9690287738
 20
5271.1676243892
 30
0.0
 11
4588.9722816079
 21
5271.1676243892
 31
0.0
  0
LINE
  5
25D
330
1F
100
AcDbEntity
  8
0
  6
Continuous
 62
     7
100
AcDbLine
 10
4588.9722816079
 20
5271.1676243892
 30
0.0
 11
4591.5671176641
 21
5262.9510458758
 31
0.0
  0
LINE
  5
25E
330
1F
100
AcDbEntity
  8
0
  6
Continuous
 62
     7
100
AcDbLine
 10
4592.7511453062
 20
5261.6954032531
 30
0.0
 11
4593.3312251597
 21
5261.6954032531
 31
0.0
  0
LINE
  5
25F
330
1F
100
AcDbEntity
  8
0
  6
Continuous
 62
     7
100
AcDbLine
 10
4593.3312251597
 20
5261.6954032531
 30
0.0
 11
4593.3312251597
 21
5260.1676244488
 31
0.0
  0
LINE
  5
260
330
1F
100
AcDbEntity
  8
0
  6
Continuous
 62
     7
100
AcDbLine
 10
4593.3312251597
 20
5260.1676244488
 30
0.0
 11
4586.6113900571
 21
5260.1676244488
 31
0.0
  0
LINE
  5
261
330
1F
100
AcDbEntity
  8
0
  6
Continuous
 62
     7
100
AcDbLine
 10
4594.5534444778
 20
5264.2926272204
 30
0.0
 11
4596.2340011626
 21
5264.2926272204
 31
0.0
  0
LINE
  5
262
330
1F
100
AcDbEntity
  8
0
  6
Continuous
 62
     7
100
AcDbLine
 10
4602.3212409943
 20
5270.6639353385
 30
0.0
 11
4602.614860925
 21
5271.1676243892
 31
0.0
  0
LINE
  5
263
330
1F
100
AcDbEntity
  8
0
  6
Continuous
 62
     7
100
AcDbLine
 10
4602.614860925
 20
5271.1676243892
 30
0.0
 11
4604.1784472197
 21
5271.1676243892
 31
0.0
  0
LINE
  5
264
330
1F
100
AcDbEntity
  8
0
  6
Continuous
 62
     7
100
AcDbLine
 10
4604.1784472197
 20
5271.1676243892
 30
0.0
 11
4604.1784472197
 21
5267.5009589842
 31
0.0
  0
LINE
  5
265
330
1F
100
AcDbEntity
  8
0
  6
Continuous
 62
     7
100
AcDbLine
 10
4604.1784472197
 20
5267.5009589842
 30
0.0
 11
4602.3451126545
 21
5267.5009589842
 31
0.0
  0
LINE
  5
266
330
1F
100
AcDbEntity
  8
0
  6
Continuous
 62
     7
100
AcDbLine
 10
4596.5920742034
 20
5260.7548643103
 30
0.0
 11
4596.157614085
 21
5260.1222690394
 31
0.0
  0
LINE
  5
267
330
1F
100
AcDbEntity
  8
0
  6
Continuous
 62
     7
100
AcDbLine
 10
4596.157614085
 20
5260.1222690394
 30
0.0
 11
4594.5534444778
 21
5260.1222690394
 31
0.0
  0
LINE
  5
268
330
1F
100
AcDbEntity
  8
0
  6
Continuous
 62
     7
100
AcDbLine
 10
4594.5534444778
 20
5260.1222690394
 30
0.0
 11
4594.5534444778
 21
5264.2926272204
 31
0.0
  0
LINE
  5
269
330
1F
100
AcDbEntity
  8
0
  6
Continuous
 62
     7
100
AcDbLine
 10
4608.6090020268
 20
5267.0712728253
 30
0.0
 11
4608.6090020268
 21
5267.0211415937
 31
0.0
  0
LINE
  5
26A
330
1F
100
AcDbEntity
  8
0
  6
Continuous
 62
     7
100
AcDbLine
 10
4608.6090020268
 20
5267.0211415937
 30
0.0
 11
4606.9284472047
 21
5267.0211415937
 31
0.0
  0
LINE
  5
26B
330
1F
100
AcDbEntity
  8
0
  6
Continuous
 62
     7
100
AcDbLine
 10
4606.9284472047
 20
5267.0211415937
 30
0.0
 11
4606.9284472047
 21
5271.1676243892
 31
0.0
  0
LINE
  5
26C
330
1F
100
AcDbEntity
  8
0
  6
Continuous
 62
     7
100
AcDbLine
 10
4618.5395577355
 20
5271.1676243892
 30
0.0
 11
4618.5395577355
 21
5267.0211415937
 31
0.0
  0
LINE
  5
26D
330
1F
100
AcDbEntity
  8
0
  6
Continuous
 62
     7
100
AcDbLine
 10
4616.8590019821
 20
5267.0211415937
 30
0.0
 11
4616.8590019821
 21
5267.0712728253
 31
0.0
  0
LINE
  5
26E
330
1F
100
AcDbEntity
  8
0
  6
Continuous
 62
     7
100
AcDbLine
 10
4615.044766049
 20
5269.4870714297
 30
0.0
 11
4614.5673356383
 21
5269.4870714297
 31
0.0
  0
LINE
  5
26F
330
1F
100
AcDbEntity
  8
0
  6
Continuous
 62
     7
100
AcDbLine
 10
4614.5673356383
 20
5269.4870714297
 30
0.0
 11
4614.5673356383
 21
5262.6502659371
 31
0.0
  0
LINE
  5
270
330
1F
100
AcDbEntity
  8
0
  6
Continuous
 62
     7
100
AcDbLine
 10
4615.4840019896
 20
5261.6954032531
 30
0.0
 11
4616.4006683408
 21
5261.6954032531
 31
0.0
  0
LINE
  5
271
330
1F
100
AcDbEntity
  8
0
  6
Continuous
 62
     7
100
AcDbLine
 10
4616.4006683408
 20
5261.6954032531
 30
0.0
 11
4616.4006683408
 21
5260.1676244488
 31
0.0
  0
LINE
  5
272
330
1F
100
AcDbEntity
  8
0
  6
Continuous
 62
     7
100
AcDbLine
 10
4616.4006683408
 20
5260.1676244488
 30
0.0
 11
4609.0673356681
 21
5260.1676244488
 31
0.0
  0
LINE
  5
273
330
1F
100
AcDbEntity
  8
0
  6
Continuous
 62
     7
100
AcDbLine
 10
4609.0673356681
 20
5260.1676244488
 30
0.0
 11
4609.0673356681
 21
5261.6954032531
 31
0.0
  0
LINE
  5
274
330
1F
100
AcDbEntity
  8
0
  6
Continuous
 62
     7
100
AcDbLine
 10
4609.0673356681
 20
5261.6954032531
 30
0.0
 11
4609.9601294278
 21
5261.6954032531
 31
0.0
  0
LINE
  5
275
330
1F
100
AcDbEntity
  8
0
  6
Continuous
 62
     7
100
AcDbLine
 10
4610.9006683706
 20
5262.6502659371
 30
0.0
 11
4610.9006683706
 21
5269.4870714297
 31
0.0
  0
LINE
  5
276
330
1F
100
AcDbEntity
  8
0
  6
Continuous
 62
     7
100
AcDbLine
 10
4610.9006683706
 20
5269.4870714297
 30
0.0
 11
4610.4017532795
 21
5269.4870714297
 31
0.0
  0
LINE
  5
277
330
1F
100
AcDbEntity
  8
0
  6
Continuous
 62
     7
100
AcDbLine
 10
4618.5395577355
 20
5267.0211415937
 30
0.0
 11
4616.8590019821
 21
5267.0211415937
 31
0.0
  0
LINE
  5
278
330
1F
100
AcDbEntity
  8
0
  6
Continuous
 62
     7
100
AcDbLine
 10
4606.9284472047
 20
5271.1676243892
 30
0.0
 11
4618.5395577355
 21
5271.1676243892
 31
0.0
  0
LINE
  5
279
330
1F
100
AcDbEntity
  8
0
  6
Continuous
 62
     7
100
AcDbLine
 10
4625.4145574655
 20
5268.6969224563
 30
0.0
 11
4625.4145574655
 21
5262.647878026
 31
0.0
  0
LINE
  5
27A
330
1F
100
AcDbEntity
  8
0
  6
Continuous
 62
     7
100
AcDbLine
 10
4626.3789671372
 20
5261.6954032531
 30
0.0
 11
4626.942335222
 21
5261.6954032531
 31
0.0
  0
LINE
  5
27B
330
1F
100
AcDbEntity
  8
0
  6
Continuous
 62
     7
100
AcDbLine
 10
4626.942335222
 20
5260.1676244488
 30
0.0
 11
4620.2201130233
 21
5260.1676244488
 31
0.0
  0
LINE
  5
27C
330
1F
100
AcDbEntity
  8
0
  6
Continuous
 62
     7
100
AcDbLine
 10
4620.2201130233
 20
5260.1676244488
 30
0.0
 11
4620.2201130233
 21
5261.6954032531
 31
0.0
  0
LINE
  5
27D
330
1F
100
AcDbEntity
  8
0
  6
Continuous
 62
     7
100
AcDbLine
 10
4620.2201130233
 20
5261.6954032531
 30
0.0
 11
4620.7906426295
 21
5261.6954032531
 31
0.0
  0
LINE
  5
27E
330
1F
100
AcDbEntity
  8
0
  6
Continuous
 62
     7
100
AcDbLine
 10
4621.7478908963
 20
5262.647878026
 30
0.0
 11
4621.7478908963
 21
5268.6969224563
 31
0.0
  0
LINE
  5
27F
330
1F
100
AcDbEntity
  8
0
  6
Continuous
 62
     7
100
AcDbLine
 10
4620.7906426295
 20
5269.6398493102
 30
0.0
 11
4620.2201130233
 21
5269.6398493102
 31
0.0
  0
LINE
  5
280
330
1F
100
AcDbEntity
  8
0
  6
Continuous
 62
     7
100
AcDbLine
 10
4620.2201130233
 20
5269.6398493102
 30
0.0
 11
4620.2201130233
 21
5271.1676243892
 31
0.0
  0
LINE
  5
281
330
1F
100
AcDbEntity
  8
0
  6
Continuous
 62
     7
100
AcDbLine
 10
4626.942335222
 20
5269.6398493102
 30
0.0
 11
4626.3789671372
 21
5269.6398493102
 31
0.0
  0
LINE
  5
282
330
1F
100
AcDbEntity
  8
0
  6
Continuous
 62
     7
100
AcDbLine
 10
4626.942335222
 20
5261.6954032531
 30
0.0
 11
4626.942335222
 21
5260.1676244488
 31
0.0
  0
LINE
  5
283
330
1F
100
AcDbEntity
  8
0
  6
Continuous
 62
     7
100
AcDbLine
 10
4620.2201130233
 20
5271.1676243892
 30
0.0
 11
4626.942335222
 21
5271.1676243892
 31
0.0
  0
LINE
  5
284
330
1F
100
AcDbEntity
  8
0
  6
Continuous
 62
     7
100
AcDbLine
 10
4626.942335222
 20
5271.1676243892
 30
0.0
 11
4626.942335222
 21
5269.6398493102
 31
0.0
  0
LINE
  5
285
330
1F
100
AcDbEntity
  8
0
  6
Continuous
 62
     7
100
AcDbLine
 10
4637.9948527916
 20
5270.7021307399
 30
0.0
 11
4638.2073088913
 21
5271.3132422617
 31
0.0
  0
LINE
  5
286
330
1F
100
AcDbEntity
  8
0
  6
Continuous
 62
     7
100
AcDbLine
 10
4638.2073088913
 20
5271.3132422617
 30
0.0
 11
4640.081223975
 21
5271.3132422617
 31
0.0
  0
LINE
  5
287
330
1F
100
AcDbEntity
  8
0
  6
Continuous
 62
     7
100
AcDbLine
 10
4640.081223975
 20
5271.3132422617
 30
0.0
 11
4640.081223975
 21
5266.8898474624
 31
0.0
  0
LINE
  5
288
330
1F
100
AcDbEntity
  8
0
  6
Continuous
 62
     7
100
AcDbLine
 10
4640.081223975
 20
5266.8898474624
 30
0.0
 11
4638.0951133921
 21
5266.8898474624
 31
0.0
  0
LINE
  5
289
330
1F
100
AcDbEntity
  8
0
  6
Continuous
 62
     7
100
AcDbLine
 10
4638.2478903412
 20
5264.4454013755
 30
0.0
 11
4640.081223975
 21
5264.4454013755
 31
0.0
  0
LINE
  5
28A
330
1F
100
AcDbEntity
  8
0
  6
Continuous
 62
     7
100
AcDbLine
 10
4669.3835257917
 20
5271.1676243892
 30
0.0
 11
4673.3867786258
 21
5263.7435790351
 31
0.0
  0
LINE
  5
28B
330
1F
100
AcDbEntity
  8
0
  6
Continuous
 62
     7
100
AcDbLine
 10
4673.3867786258
 20
5263.7435790351
 30
0.0
 11
4673.3867786258
 21
5268.6969224563
 31
0.0
  0
LINE
  5
28C
330
1F
100
AcDbEntity
  8
0
  6
Continuous
 62
     7
100
AcDbLine
 10
4672.4820471733
 20
5269.6398493102
 30
0.0
 11
4671.8590035468
 21
5269.6398493102
 31
0.0
  0
LINE
  5
28D
330
1F
100
AcDbEntity
  8
0
  6
Continuous
 62
     7
100
AcDbLine
 10
4671.8590035468
 20
5269.6398493102
 30
0.0
 11
4671.8590035468
 21
5271.1676243892
 31
0.0
  0
LINE
  5
28E
330
1F
100
AcDbEntity
  8
0
  6
Continuous
 62
     7
100
AcDbLine
 10
4676.9006698757
 20
5271.1676243892
 30
0.0
 11
4676.9006698757
 21
5269.6398493102
 31
0.0
  0
LINE
  5
28F
330
1F
100
AcDbEntity
  8
0
  6
Continuous
 62
     7
100
AcDbLine
 10
4676.9006698757
 20
5269.6398493102
 30
0.0
 11
4676.4375604122
 21
5269.6398493102
 31
0.0
  0
LINE
  5
290
330
1F
100
AcDbEntity
  8
0
  6
Continuous
 62
     7
100
AcDbLine
 10
4675.3728910714
 20
5268.6969224563
 30
0.0
 11
4675.3728910714
 21
5260.1676244488
 31
0.0
  0
LINE
  5
291
330
1F
100
AcDbEntity
  8
0
  6
Continuous
 62
     7
100
AcDbLine
 10
4675.3728910714
 20
5260.1676244488
 30
0.0
 11
4671.6322227745
 21
5260.1676244488
 31
0.0
  0
LINE
  5
292
330
1F
100
AcDbEntity
  8
0
  6
Continuous
 62
     7
100
AcDbLine
 10
4671.6322227745
 20
5260.1676244488
 30
0.0
 11
4667.2756671338
 21
5268.0667150965
 31
0.0
  0
LINE
  5
293
330
1F
100
AcDbEntity
  8
0
  6
Continuous
 62
     7
100
AcDbLine
 10
4667.2756671338
 20
5268.0667150965
 30
0.0
 11
4667.2756671338
 21
5262.647878026
 31
0.0
  0
LINE
  5
294
330
1F
100
AcDbEntity
  8
0
  6
Continuous
 62
     7
100
AcDbLine
 10
4668.2687252193
 20
5261.6954032531
 30
0.0
 11
4668.8034459382
 21
5261.6954032531
 31
0.0
  0
LINE
  5
295
330
1F
100
AcDbEntity
  8
0
  6
Continuous
 62
     7
100
AcDbLine
 10
4668.8034459382
 20
5261.6954032531
 30
0.0
 11
4668.8034459382
 21
5260.1676244488
 31
0.0
  0
LINE
  5
296
330
1F
100
AcDbEntity
  8
0
  6
Continuous
 62
     7
100
AcDbLine
 10
4668.8034459382
 20
5260.1676244488
 30
0.0
 11
4663.7617796092
 21
5260.1676244488
 31
0.0
  0
LINE
  5
297
330
1F
100
AcDbEntity
  8
0
  6
Continuous
 62
     7
100
AcDbLine
 10
4663.7617796092
 20
5260.1676244488
 30
0.0
 11
4663.7617796092
 21
5261.6954032531
 31
0.0
  0
LINE
  5
298
330
1F
100
AcDbEntity
  8
0
  6
Continuous
 62
     7
100
AcDbLine
 10
4663.7617796092
 20
5261.6954032531
 30
0.0
 11
4664.3251478105
 21
5261.6954032531
 31
0.0
  0
LINE
  5
299
330
1F
100
AcDbEntity
  8
0
  6
Continuous
 62
     7
100
AcDbLine
 10
4665.2895584135
 20
5262.647878026
 30
0.0
 11
4665.2895584135
 21
5268.6969224563
 31
0.0
  0
LINE
  5
29A
330
1F
100
AcDbEntity
  8
0
  6
Continuous
 62
     7
100
AcDbLine
 10
4664.3251478105
 20
5269.6398493102
 30
0.0
 11
4663.7617796092
 21
5269.6398493102
 31
0.0
  0
LINE
  5
29B
330
1F
100
AcDbEntity
  8
0
  6
Continuous
 62
     7
100
AcDbLine
 10
4663.7617796092
 20
5269.6398493102
 30
0.0
 11
4663.7617796092
 21
5271.1676243892
 31
0.0
  0
LINE
  5
29C
330
1F
100
AcDbEntity
  8
0
  6
Continuous
 62
     7
100
AcDbLine
 10
4663.7617796092
 20
5271.1676243892
 30
0.0
 11
4669.3835257917
 21
5271.1676243892
 31
0.0
  0
LINE
  5
29D
330
1F
100
AcDbEntity
  8
0
  6
Continuous
 62
     7
100
AcDbLine
 10
4671.8590035468
 20
5271.1676243892
 30
0.0
 11
4676.9006698757
 21
5271.1676243892
 31
0.0
  0
LINE
  5
29E
330
1F
100
AcDbEntity
  8
0
  6
Continuous
 62
     7
100
AcDbLine
 10
4685.1506679683
 20
5271.1676243892
 30
0.0
 11
4685.1506679683
 21
5269.6398493102
 31
0.0
  0
LINE
  5
29F
330
1F
100
AcDbEntity
  8
0
  6
Continuous
 62
     7
100
AcDbLine
 10
4685.1506679683
 20
5269.6398493102
 30
0.0
 11
4684.5156847864
 21
5269.6398493102
 31
0.0
  0
LINE
  5
2A0
330
1F
100
AcDbEntity
  8
0
  6
Continuous
 62
     7
100
AcDbLine
 10
4683.622889164
 20
5268.778085356
 30
0.0
 11
4683.622889164
 21
5261.7288228324
 31
0.0
  0
LINE
  5
2A1
330
1F
100
AcDbEntity
  8
0
  6
Continuous
 62
     7
100
AcDbLine
 10
4683.622889164
 20
5261.7288228324
 30
0.0
 11
4684.3700706392
 21
5261.7288228324
 31
0.0
  0
LINE
  5
2A2
330
1F
100
AcDbEntity
  8
0
  6
Continuous
 62
     7
100
AcDbLine
 10
4678.4284449547
 20
5260.1676244488
 30
0.0
 11
4678.4284449547
 21
5261.6954032531
 31
0.0
  0
LINE
  5
2A3
330
1F
100
AcDbEntity
  8
0
  6
Continuous
 62
     7
100
AcDbLine
 10
4678.4284449547
 20
5261.6954032531
 30
0.0
 11
4679.0085248082
 21
5261.6954032531
 31
0.0
  0
LINE
  5
2A4
330
1F
100
AcDbEntity
  8
0
  6
Continuous
 62
     7
100
AcDbLine
 10
4679.956223759
 20
5262.6502659371
 30
0.0
 11
4679.956223759
 21
5268.6969224563
 31
0.0
  0
LINE
  5
2A5
330
1F
100
AcDbEntity
  8
0
  6
Continuous
 62
     7
100
AcDbLine
 10
4679.0085248082
 20
5269.6398493102
 30
0.0
 11
4678.4284449547
 21
5269.6398493102
 31
0.0
  0
LINE
  5
2A6
330
1F
100
AcDbEntity
  8
0
  6
Continuous
 62
     7
100
AcDbLine
 10
4678.4284449547
 20
5269.6398493102
 30
0.0
 11
4678.4284449547
 21
5271.1676243892
 31
0.0
  0
LINE
  5
2A7
330
1F
100
AcDbEntity
  8
0
  6
Continuous
 62
     7
100
AcDbLine
 10
4678.4284449547
 20
5271.1676243892
 30
0.0
 11
4685.1506679683
 21
5271.1676243892
 31
0.0
  0
LINE
  5
2A8
330
1F
100
AcDbEntity
  8
0
  6
Continuous
 62
     7
100
AcDbLine
 10
4688.9701112538
 20
5264.7509571364
 30
0.0
 11
4688.9701112538
 21
5260.1676244488
 31
0.0
  0
LINE
  5
2A9
330
1F
100
AcDbEntity
  8
0
  6
Continuous
 62
     7
100
AcDbLine
 10
4688.9701112538
 20
5260.1676244488
 30
0.0
 11
4678.4284449547
 21
5260.1676244488
 31
0.0
  0
LINE
  5
2AA
330
1F
100
AcDbEntity
  8
0
  6
Continuous
 62
     7
100
AcDbLine
 10
4687.2895582943
 20
5264.7509571364
 30
0.0
 11
4688.9701112538
 21
5264.7509571364
 31
0.0
  0
LINE
  5
2AB
330
1F
100
AcDbEntity
  8
0
  6
Continuous
 62
     7
100
AcDbLine
 10
4690.8153816491
 20
5269.6398493102
 30
0.0
 11
4690.4978900581
 21
5269.6398493102
 31
0.0
  0
LINE
  5
2AC
330
1F
100
AcDbEntity
  8
0
  6
Continuous
 62
     7
100
AcDbLine
 10
4690.4978900581
 20
5269.6398493102
 30
0.0
 11
4690.4978900581
 21
5271.1676243892
 31
0.0
  0
LINE
  5
2AD
330
1F
100
AcDbEntity
  8
0
  6
Continuous
 62
     7
100
AcDbLine
 10
4690.4978900581
 20
5271.1676243892
 30
0.0
 11
4696.9145610362
 21
5271.1676243892
 31
0.0
  0
LINE
  5
2AE
330
1F
100
AcDbEntity
  8
0
  6
Continuous
 62
     7
100
AcDbLine
 10
4696.9145610362
 20
5271.1676243892
 30
0.0
 11
4696.9145610362
 21
5269.6398493102
 31
0.0
  0
LINE
  5
2AF
330
1F
100
AcDbEntity
  8
0
  6
Continuous
 62
     7
100
AcDbLine
 10
4696.9145610362
 20
5269.6398493102
 30
0.0
 11
4696.5469344883
 21
5269.6398493102
 31
0.0
  0
LINE
  5
2B0
330
1F
100
AcDbEntity
  8
0
  6
Continuous
 62
     7
100
AcDbLine
 10
4695.9811821013
 20
5268.7924090972
 30
0.0
 11
4697.279788497
 21
5266.6630666902
 31
0.0
  0
LINE
  5
2B1
330
1F
100
AcDbEntity
  8
0
  6
Continuous
 62
     7
100
AcDbLine
 10
4697.279788497
 20
5266.6630666902
 30
0.0
 11
4698.6261456638
 21
5268.8162807574
 31
0.0
  0
LINE
  5
2B2
330
1F
100
AcDbEntity
  8
0
  6
Continuous
 62
     7
100
AcDbLine
 10
4698.1009691387
 20
5269.6398493102
 30
0.0
 11
4697.678446713
 21
5269.6398493102
 31
0.0
  0
LINE
  5
2B3
330
1F
100
AcDbEntity
  8
0
  6
Continuous
 62
     7
100
AcDbLine
 10
4697.678446713
 20
5269.6398493102
 30
0.0
 11
4697.678446713
 21
5271.1676243892
 31
0.0
  0
LINE
  5
2B4
330
1F
100
AcDbEntity
  8
0
  6
Continuous
 62
     7
100
AcDbLine
 10
4697.678446713
 20
5271.1676243892
 30
0.0
 11
4702.7201130419
 21
5271.1676243892
 31
0.0
  0
LINE
  5
2B5
330
1F
100
AcDbEntity
  8
0
  6
Continuous
 62
     7
100
AcDbLine
 10
4702.7201130419
 20
5271.1676243892
 30
0.0
 11
4702.7201130419
 21
5269.6398493102
 31
0.0
  0
LINE
  5
2B6
330
1F
100
AcDbEntity
  8
0
  6
Continuous
 62
     7
100
AcDbLine
 10
4700.9345217972
 20
5268.5274329236
 30
0.0
 11
4698.4423323899
 21
5264.5671475878
 31
0.0
  0
LINE
  5
2B7
330
1F
100
AcDbEntity
  8
0
  6
Continuous
 62
     7
100
AcDbLine
 10
4698.4423323899
 20
5264.5671475878
 30
0.0
 11
4698.4423323899
 21
5262.647878026
 31
0.0
  0
LINE
  5
2B8
330
1F
100
AcDbEntity
  8
0
  6
Continuous
 62
     7
100
AcDbLine
 10
4699.3661596804
 20
5261.6954032531
 30
0.0
 11
4699.9701111942
 21
5261.6954032531
 31
0.0
  0
LINE
  5
2B9
330
1F
100
AcDbEntity
  8
0
  6
Continuous
 62
     7
100
AcDbLine
 10
4699.9701111942
 20
5261.6954032531
 30
0.0
 11
4699.9701111942
 21
5260.1676244488
 31
0.0
  0
LINE
  5
2BA
330
1F
100
AcDbEntity
  8
0
  6
Continuous
 62
     7
100
AcDbLine
 10
4699.9701111942
 20
5260.1676244488
 30
0.0
 11
4693.2478919058
 21
5260.1676244488
 31
0.0
  0
LINE
  5
2BB
330
1F
100
AcDbEntity
  8
0
  6
Continuous
 62
     7
100
AcDbLine
 10
4693.2478919058
 20
5260.1676244488
 30
0.0
 11
4693.2478919058
 21
5261.6954032531
 31
0.0
  0
LINE
  5
2BC
330
1F
100
AcDbEntity
  8
0
  6
Continuous
 62
     7
100
AcDbLine
 10
4693.2478919058
 20
5261.6954032531
 30
0.0
 11
4693.8757150798
 21
5261.6954032531
 31
0.0
  0
LINE
  5
2BD
330
1F
100
AcDbEntity
  8
0
  6
Continuous
 62
     7
100
AcDbLine
 10
4694.7756707101
 20
5262.647878026
 30
0.0
 11
4694.7756707101
 21
5264.5671475878
 31
0.0
  0
LINE
  5
2BE
330
1F
100
AcDbEntity
  8
0
  6
Continuous
 62
     7
100
AcDbLine
 10
4694.7756707101
 20
5264.5671475878
 30
0.0
 11
4692.3455446392
 21
5268.5990479043
 31
0.0
  0
LINE
  5
2BF
330
1F
100
AcDbEntity
  8
0
  6
Continuous
 62
     7
100
AcDbLine
 10
4702.7201130419
 20
5269.6398493102
 30
0.0
 11
4702.3668139606
 21
5269.6398493102
 31
0.0
  0
LINE
  5
2C0
330
1F
100
AcDbEntity
  8
0
  6
Continuous
 62
     7
100
AcDbLine
 10
4418.7826066642
 20
5507.4861157885
 30
0.0
 11
4418.7826066642
 21
5507.6994408121
 31
0.0
  0
LINE
  5
2C1
330
1F
100
AcDbEntity
  8
0
  6
Continuous
 62
     7
100
AcDbLine
 10
4836.7826193004
 20
5507.6994408121
 30
0.0
 11
4836.7826193004
 21
5507.4861157885
 31
0.0
  0
LINE
  5
2C2
330
1F
100
AcDbEntity
  8
0
  6
Continuous
 62
     7
100
AcDbLine
 10
4826.2826203733
 20
4920.4994548311
 30
0.0
 11
4826.2826203733
 21
4921.4994419565
 31
0.0
  0
LINE
  5
2C3
330
1F
100
AcDbEntity
  8
0
  6
Continuous
 62
     7
100
AcDbLine
 10
4429.2826055913
 20
4920.4994548311
 30
0.0
 11
4429.2826055913
 21
4921.4994419565
 31
0.0
  0
LINE
  5
2C4
330
1F
100
AcDbEntity
  8
0
  6
Continuous
 62
     7
100
AcDbLine
 10
4429.2826055913
 20
4920.4994548311
 30
0.0
 11
4436.2826197772
 21
4920.4994548311
 31
0.0
  0
LINE
  5
2C5
330
1F
100
AcDbEntity
  8
0
  6
Continuous
 62
     7
100
AcDbLine
 10
4819.2826061874
 20
4920.4994548311
 30
0.0
 11
4826.2826203733
 21
4920.4994548311
 31
0.0
  0
LINE
  5
2C6
330
1F
100
AcDbEntity
  8
0
  6
Continuous
 62
     7
100
AcDbLine
 10
4836.2826108365
 20
4920.4994548311
 30
0.0
 11
4836.2826108365
 21
4921.4994419565
 31
0.0
  0
LINE
  5
2C7
330
1F
100
AcDbEntity
  8
0
  6
Continuous
 62
     7
100
AcDbLine
 10
4826.2826203733
 20
4920.4994548311
 30
0.0
 11
4836.2826108365
 21
4920.4994548311
 31
0.0
  0
LINE
  5
2C8
330
1F
100
AcDbEntity
  8
0
  6
Continuous
 62
     7
100
AcDbLine
 10
4419.2826151281
 20
4920.4994548311
 30
0.0
 11
4419.2826151281
 21
4921.4994419565
 31
0.0
  0
LINE
  5
2C9
330
1F
100
AcDbEntity
  8
0
  6
Continuous
 62
     7
100
AcDbLine
 10
4419.2826151281
 20
4920.4994548311
 30
0.0
 11
4429.2826055913
 21
4920.4994548311
 31
0.0
  0
LINE
  5
2CA
330
1F
100
AcDbEntity
  8
0
  6
Continuous
 62
     7
100
AcDbLine
 10
4837.7826064258
 20
4921.4994419565
 30
0.0
 11
4837.7826064258
 21
5506.6494453898
 31
0.0
  0
LINE
  5
2CB
330
1F
100
AcDbEntity
  8
0
  6
Continuous
 62
     7
100
AcDbLine
 10
4826.9826173215
 20
4921.4994419565
 30
0.0
 11
4826.9826173215
 21
5506.6494453898
 31
0.0
  0
LINE
  5
2CC
330
1F
100
AcDbEntity
  8
0
  6
Continuous
 62
     7
100
AcDbLine
 10
4826.9826173215
 20
4921.4994419565
 30
0.0
 11
4837.7826064258
 21
4921.4994419565
 31
0.0
  0
LINE
  5
2CD
330
1F
100
AcDbEntity
  8
0
  6
Continuous
 62
     7
100
AcDbLine
 10
4837.7826064258
 20
5506.6494453898
 30
0.0
 11
4826.9826173215
 21
5506.6494453898
 31
0.0
  0
LINE
  5
2CE
330
1F
100
AcDbEntity
  8
0
  6
Continuous
 62
     7
100
AcDbLine
 10
4428.5826086431
 20
5506.6494453898
 30
0.0
 11
4446.2826102405
 21
5506.6494453898
 31
0.0
  0
LINE
  5
2CF
330
1F
100
AcDbEntity
  8
0
  6
Continuous
 62
     7
100
AcDbLine
 10
4809.2826157241
 20
5506.6494453898
 30
0.0
 11
4446.2826102405
 21
5506.6494453898
 31
0.0
  0
LINE
  5
2D0
330
1F
100
AcDbEntity
  8
0
  6
Continuous
 62
     7
100
AcDbLine
 10
4809.2826157241
 20
5506.6494453898
 30
0.0
 11
4826.9826173215
 21
5506.6494453898
 31
0.0
  0
LINE
  5
2D1
330
1F
100
AcDbEntity
  8
0
  6
Continuous
 62
     7
100
AcDbLine
 10
4819.2826061874
 20
4921.4994419565
 30
0.0
 11
4826.9826173215
 21
4921.4994419565
 31
0.0
  0
LINE
  5
2D2
330
1F
100
AcDbEntity
  8
0
  6
Continuous
 62
     7
100
AcDbLine
 10
4819.2826061874
 20
4921.4994419565
 30
0.0
 11
4436.2826197772
 21
4921.4994419565
 31
0.0
  0
LINE
  5
2D3
330
1F
100
AcDbEntity
  8
0
  6
Continuous
 62
     7
100
AcDbLine
 10
4428.5826086431
 20
4921.4994419565
 30
0.0
 11
4436.2826197772
 21
4921.4994419565
 31
0.0
  0
LINE
  5
2D4
330
1F
100
AcDbEntity
  8
0
  6
Continuous
 62
     7
100
AcDbLine
 10
4428.5826086431
 20
4921.4994419565
 30
0.0
 11
4428.5826086431
 21
5506.6494453898
 31
0.0
  0
LINE
  5
2D5
330
1F
100
AcDbEntity
  8
0
  6
Continuous
 62
     7
100
AcDbLine
 10
4436.2826197772
 20
4919.699441289
 30
0.0
 11
4819.2826061874
 21
4919.699441289
 31
0.0
  0
LINE
  5
2D6
330
1F
100
AcDbEntity
  8
0
  6
Continuous
 62
     7
100
AcDbLine
 10
4436.2826197772
 20
4921.4994419565
 30
0.0
 11
4436.2826197772
 21
4919.699441289
 31
0.0
  0
LINE
  5
2D7
330
1F
100
AcDbEntity
  8
0
  6
Continuous
 62
     7
100
AcDbLine
 10
4819.2826061874
 20
4919.699441289
 30
0.0
 11
4819.2826061874
 21
4921.4994419565
 31
0.0
  0
LINE
  5
2D8
330
1F
100
AcDbEntity
  8
0
  6
Continuous
 62
     7
100
AcDbLine
 10
4809.2826157241
 20
5506.6494453898
 30
0.0
 11
4809.2826157241
 21
5507.4994672289
 31
0.0
  0
LINE
  5
2D9
330
1F
100
AcDbEntity
  8
0
  6
Continuous
 62
     7
100
AcDbLine
 10
4446.2826102405
 20
5507.4994672289
 30
0.0
 11
4446.2826102405
 21
5506.6494453898
 31
0.0
  0
LINE
  5
2DA
330
1F
100
AcDbEntity
  8
0
  6
Continuous
 62
     7
100
AcDbLine
 10
4417.7826195388
 20
4921.4994419565
 30
0.0
 11
4417.7826195388
 21
5506.6494453898
 31
0.0
  0
LINE
  5
2DB
330
1F
100
AcDbEntity
  8
0
  6
Continuous
 62
     7
100
AcDbLine
 10
4428.5826086431
 20
5506.6494453898
 30
0.0
 11
4417.7826195388
 21
5506.6494453898
 31
0.0
  0
LINE
  5
2DC
330
1F
100
AcDbEntity
  8
0
  6
Continuous
 62
     7
100
AcDbLine
 10
4417.7826195388
 20
4921.4994419565
 30
0.0
 11
4428.5826086431
 21
4921.4994419565
 31
0.0
  0
LINE
  5
2DD
330
1F
100
AcDbEntity
  8
0
  6
Continuous
 62
     7
100
AcDbLine
 10
4835.9826057582
 20
4920.4994548311
 30
0.0
 11
4835.9826057582
 21
4919.699441289
 31
0.0
  0
LINE
  5
2DE
330
1F
100
AcDbEntity
  8
0
  6
Continuous
 62
     7
100
AcDbLine
 10
4827.7826159625
 20
4919.699441289
 30
0.0
 11
4835.9826057582
 21
4919.699441289
 31
0.0
  0
LINE
  5
2DF
330
1F
100
AcDbEntity
  8
0
  6
Continuous
 62
     7
100
AcDbLine
 10
4827.7826159625
 20
4920.4994548311
 30
0.0
 11
4827.7826159625
 21
4919.699441289
 31
0.0
  0
LINE
  5
2E0
330
1F
100
AcDbEntity
  8
0
  6
Continuous
 62
     7
100
AcDbLine
 10
4822.7826058298
 20
4919.699441289
 30
0.0
 11
4822.7826058298
 21
4920.4994548311
 31
0.0
  0
LINE
  5
2E1
330
1F
100
AcDbEntity
  8
0
  6
Continuous
 62
     7
100
AcDbLine
 10
4827.7826159625
 20
4919.699441289
 30
0.0
 11
4822.7826058298
 21
4919.699441289
 31
0.0
  0
LINE
  5
2E2
330
1F
100
AcDbEntity
  8
0
  6
Continuous
 62
     7
100
AcDbLine
 10
4427.7826100021
 20
4919.699441289
 30
0.0
 11
4427.7826100021
 21
4920.4994548311
 31
0.0
  0
LINE
  5
2E3
330
1F
100
AcDbEntity
  8
0
  6
Continuous
 62
     7
100
AcDbLine
 10
4432.7826201349
 20
4920.4994548311
 30
0.0
 11
4432.7826201349
 21
4919.699441289
 31
0.0
  0
LINE
  5
2E4
330
1F
100
AcDbEntity
  8
0
  6
Continuous
 62
     7
100
AcDbLine
 10
4432.7826201349
 20
4919.699441289
 30
0.0
 11
4427.7826100021
 21
4919.699441289
 31
0.0
  0
LINE
  5
2E5
330
1F
100
AcDbEntity
  8
0
  6
Continuous
 62
     7
100
AcDbLine
 10
4419.5826202064
 20
4919.699441289
 30
0.0
 11
4419.5826202064
 21
4920.4994548311
 31
0.0
  0
LINE
  5
2E6
330
1F
100
AcDbEntity
  8
0
  6
Continuous
 62
     7
100
AcDbLine
 10
4427.7826100021
 20
4919.699441289
 30
0.0
 11
4419.5826202064
 21
4919.699441289
 31
0.0
  0
LINE
  5
2E7
330
1F
100
AcDbEntity
  8
0
  6
Continuous
 62
     7
100
AcDbLine
 10
4580.7923785775
 20
4220.9703543738
 30
0.0
 11
4580.7923785775
 21
4220.8453543533
 31
0.0
  0
LINE
  5
2E8
330
1F
100
AcDbEntity
  8
0
  6
Continuous
 62
     7
100
AcDbLine
 10
4625.8216667353
 20
4220.9703543738
 30
0.0
 11
4625.8216667353
 21
4220.8453543533
 31
0.0
  0
LINE
  5
2E9
330
1F
100
AcDbEntity
  8
0
  6
Continuous
 62
     7
100
AcDbLine
 10
4618.9639837845
 20
4220.9703543738
 30
0.0
 11
4618.9639837845
 21
4220.8453543533
 31
0.0
  0
LINE
  5
2EA
330
1F
100
AcDbEntity
  8
0
  6
Continuous
 62
     7
100
AcDbLine
 10
4638.9633556261
 20
4220.8453543533
 30
0.0
 11
4638.9633556261
 21
4220.9703543738
 31
0.0
  0
LINE
  5
2EB
330
1F
100
AcDbEntity
  8
0
  6
Continuous
 62
     7
100
AcDbLine
 10
4635.6251285776
 20
4220.8453543533
 30
0.0
 11
4635.6251285776
 21
4220.9703543738
 31
0.0
  0
LINE
  5
2EC
330
1F
100
AcDbEntity
  8
0
  6
Continuous
 62
     7
100
AcDbLine
 10
4634.3233561508
 20
4220.8453543533
 30
0.0
 11
4634.3233561508
 21
4220.9703543738
 31
0.0
  0
LINE
  5
2ED
330
1F
100
AcDbEntity
  8
0
  6
Continuous
 62
     7
100
AcDbLine
 10
4666.121374759
 20
4220.9703543738
 30
0.0
 11
4666.121374759
 21
4220.8453543533
 31
0.0
  0
LINE
  5
2EE
330
1F
100
AcDbEntity
  8
0
  6
Continuous
 62
     7
100
AcDbLine
 10
4690.3940066128
 20
4220.8453543533
 30
0.0
 11
4690.3940066128
 21
4220.9703543738
 31
0.0
  0
LINE
  5
2EF
330
1F
100
AcDbEntity
  8
0
  6
Continuous
 62
     7
100
AcDbLine
 10
4593.8219390243
 20
4220.9703543738
 30
0.0
 11
4594.0284542172
 21
4220.9703543738
 31
0.0
  0
LINE
  5
2F0
330
1F
100
AcDbEntity
  8
0
  6
Continuous
 62
     7
100
AcDbLine
 10
4650.4745575964
 20
4220.9703543738
 30
0.0
 11
4650.4745575964
 21
4221.9703543631
 31
0.0
  0
LINE
  5
2F1
330
1F
100
AcDbEntity
  8
0
  6
Continuous
 62
     7
100
AcDbLine
 10
4645.6003579675
 20
4220.9703543738
 30
0.0
 11
4650.4745575964
 21
4220.9703543738
 31
0.0
  0
LINE
  5
2F2
330
1F
100
AcDbEntity
  8
0
  6
Continuous
 62
     7
100
AcDbLine
 10
4651.1027104586
 20
4220.9703543738
 30
0.0
 11
4651.1027104586
 21
4221.9703543631
 31
0.0
  0
LINE
  5
2F3
330
1F
100
AcDbEntity
  8
0
  6
Continuous
 62
     7
100
AcDbLine
 10
4651.2657589643
 20
4220.9703543738
 30
0.0
 11
4651.2657589643
 21
4221.9703543631
 31
0.0
  0
LINE
  5
2F4
330
1F
100
AcDbEntity
  8
0
  6
Continuous
 62
     7
100
AcDbLine
 10
4603.5850755303
 20
4220.9703543738
 30
0.0
 11
4612.1385171442
 21
4220.9703543738
 31
0.0
  0
LINE
  5
2F5
330
1F
100
AcDbEntity
  8
0
  6
Continuous
 62
     7
100
AcDbLine
 10
4603.5850755303
 20
4220.9703543738
 30
0.0
 11
4603.5850755303
 21
4221.9703543631
 31
0.0
  0
LINE
  5
2F6
330
1F
100
AcDbEntity
  8
0
  6
Continuous
 62
     7
100
AcDbLine
 10
4623.2158522486
 20
4220.9703543738
 30
0.0
 11
4623.2158522486
 21
4221.9703543631
 31
0.0
  0
LINE
  5
2F7
330
1F
100
AcDbEntity
  8
0
  6
Continuous
 62
     7
100
AcDbLine
 10
4618.3521113723
 20
4220.9703543738
 30
0.0
 11
4618.3521113723
 21
4221.9703543631
 31
0.0
  0
LINE
  5
2F8
330
1F
100
AcDbEntity
  8
0
  6
Continuous
 62
     7
100
AcDbLine
 10
4636.4547497957
 20
4220.9703543738
 30
0.0
 11
4636.4547497957
 21
4221.9703543631
 31
0.0
  0
LINE
  5
2F9
330
1F
100
AcDbEntity
  8
0
  6
Continuous
 62
     7
100
AcDbLine
 10
4633.9180087104
 20
4220.9703543738
 30
0.0
 11
4633.9180087104
 21
4221.9703543631
 31
0.0
  0
LINE
  5
2FA
330
1F
100
AcDbEntity
  8
0
  6
Continuous
 62
     7
100
AcDbLine
 10
4623.2158522486
 20
4220.9703543738
 30
0.0
 11
4633.9180087104
 21
4220.9703543738
 31
0.0
  0
LINE
  5
2FB
330
1F
100
AcDbEntity
  8
0
  6
Continuous
 62
     7
100
AcDbLine
 10
4638.4326749846
 20
4220.9703543738
 30
0.0
 11
4638.4326749846
 21
4221.9703543631
 31
0.0
  0
LINE
  5
2FC
330
1F
100
AcDbEntity
  8
0
  6
Continuous
 62
     7
100
AcDbLine
 10
4615.3034930482
 20
4220.9703543738
 30
0.0
 11
4615.3034930482
 21
4221.9703543631
 31
0.0
  0
LINE
  5
2FD
330
1F
100
AcDbEntity
  8
0
  6
Continuous
 62
     7
100
AcDbLine
 10
4641.737231928
 20
4220.9703543738
 30
0.0
 11
4641.737231928
 21
4221.9703543631
 31
0.0
  0
LINE
  5
2FE
330
1F
100
AcDbEntity
  8
0
  6
Continuous
 62
     7
100
AcDbLine
 10
4638.4326749846
 20
4220.9703543738
 30
0.0
 11
4641.737231928
 21
4220.9703543738
 31
0.0
  0
LINE
  5
2FF
330
1F
100
AcDbEntity
  8
0
  6
Continuous
 62
     7
100
AcDbLine
 10
4612.1385171442
 20
4220.9703543738
 30
0.0
 11
4612.1385171442
 21
4221.9703543631
 31
0.0
  0
LINE
  5
300
330
1F
100
AcDbEntity
  8
0
  6
Continuous
 62
     7
100
AcDbLine
 10
4612.1385171442
 20
4220.9703543738
 30
0.0
 11
4615.3034930482
 21
4220.9703543738
 31
0.0
  0
LINE
  5
301
330
1F
100
AcDbEntity
  8
0
  6
Continuous
 62
     7
100
AcDbLine
 10
4645.6003579675
 20
4220.9703543738
 30
0.0
 11
4645.6003579675
 21
4221.9703543631
 31
0.0
  0
LINE
  5
302
330
1F
100
AcDbEntity
  8
0
  6
Continuous
 62
     7
100
AcDbLine
 10
4645.5538309544
 20
4220.9703543738
 30
0.0
 11
4645.5538309544
 21
4221.9703543631
 31
0.0
  0
LINE
  5
303
330
1F
100
AcDbEntity
  8
0
  6
Continuous
 62
     7
100
AcDbLine
 10
4645.5538309544
 20
4220.9703543738
 30
0.0
 11
4645.6003579675
 21
4220.9703543738
 31
0.0
  0
LINE
  5
304
330
1F
100
AcDbEntity
  8
0
  6
Continuous
 62
     7
100
AcDbLine
 10
4641.737231928
 20
4220.9703543738
 30
0.0
 11
4645.5538309544
 21
4220.9703543738
 31
0.0
  0
LINE
  5
305
330
1F
100
AcDbEntity
  8
0
  6
Continuous
 62
     7
100
AcDbLine
 10
4559.6675946742
 20
4220.9703543738
 30
0.0
 11
4559.6675946742
 21
4221.9703543631
 31
0.0
  0
LINE
  5
306
330
1F
100
AcDbEntity
  8
0
  6
Continuous
 62
     7
100
AcDbLine
 10
4552.3867830067
 20
4220.9703543738
 30
0.0
 11
4559.6675946742
 21
4220.9703543738
 31
0.0
  0
LINE
  5
307
330
1F
100
AcDbEntity
  8
0
  6
Continuous
 62
     7
100
AcDbLine
 10
4552.3867830067
 20
4220.9703543738
 30
0.0
 11
4552.3867830067
 21
4221.9703543631
 31
0.0
  0
LINE
  5
308
330
1F
100
AcDbEntity
  8
0
  6
Continuous
 62
     7
100
AcDbLine
 10
4564.150668624
 20
4220.9703543738
 30
0.0
 11
4564.150668624
 21
4221.9703543631
 31
0.0
  0
LINE
  5
309
330
1F
100
AcDbEntity
  8
0
  6
Continuous
 62
     7
100
AcDbLine
 10
4579.1228897303
 20
4220.9703543738
 30
0.0
 11
4579.1228897303
 21
4221.9703543631
 31
0.0
  0
LINE
  5
30A
330
1F
100
AcDbEntity
  8
0
  6
Continuous
 62
     7
100
AcDbLine
 10
4572.7181583076
 20
4220.9703543738
 30
0.0
 11
4572.7181583076
 21
4221.9703543631
 31
0.0
  0
LINE
  5
30B
330
1F
100
AcDbEntity
  8
0
  6
Continuous
 62
     7
100
AcDbLine
 10
4566.28955895
 20
4220.9703543738
 30
0.0
 11
4566.28955895
 21
4221.9703543631
 31
0.0
  0
LINE
  5
30C
330
1F
100
AcDbEntity
  8
0
  6
Continuous
 62
     7
100
AcDbLine
 10
4587.6784473091
 20
4220.9703543738
 30
0.0
 11
4587.6784473091
 21
4221.9703543631
 31
0.0
  0
LINE
  5
30D
330
1F
100
AcDbEntity
  8
0
  6
Continuous
 62
     7
100
AcDbLine
 10
4580.9562242954
 20
4220.9703543738
 30
0.0
 11
4580.9562242954
 21
4221.9703543631
 31
0.0
  0
LINE
  5
30E
330
1F
100
AcDbEntity
  8
0
  6
Continuous
 62
     7
100
AcDbLine
 10
4580.9562242954
 20
4220.9703543738
 30
0.0
 11
4587.6784473091
 21
4220.9703543738
 31
0.0
  0
LINE
  5
30F
330
1F
100
AcDbEntity
  8
0
  6
Continuous
 62
     7
100
AcDbLine
 10
4588.5951145916
 20
4220.9703543738
 30
0.0
 11
4588.5951145916
 21
4221.9703543631
 31
0.0
  0
LINE
  5
310
330
1F
100
AcDbEntity
  8
0
  6
Continuous
 62
     7
100
AcDbLine
 10
4593.789558801
 20
4220.9703543738
 30
0.0
 11
4593.789558801
 21
4221.9703543631
 31
0.0
  0
LINE
  5
311
330
1F
100
AcDbEntity
  8
0
  6
Continuous
 62
     7
100
AcDbLine
 10
4588.5951145916
 20
4220.9703543738
 30
0.0
 11
4593.789558801
 21
4220.9703543738
 31
0.0
  0
LINE
  5
312
330
1F
100
AcDbEntity
  8
0
  6
Continuous
 62
     7
100
AcDbLine
 10
4587.9505834907
 20
4220.9703543738
 30
0.0
 11
4587.9505834907
 21
4221.9703543631
 31
0.0
  0
LINE
  5
313
330
1F
100
AcDbEntity
  8
0
  6
Continuous
 62
     7
100
AcDbLine
 10
4587.9505834907
 20
4220.9703543738
 30
0.0
 11
4588.5289199083
 21
4220.9703543738
 31
0.0
  0
LINE
  5
314
330
1F
100
AcDbEntity
  8
0
  6
Continuous
 62
     7
100
AcDbLine
 10
4595.6228896408
 20
4220.9703543738
 30
0.0
 11
4603.4100651174
 21
4220.9703543738
 31
0.0
  0
LINE
  5
315
330
1F
100
AcDbEntity
  8
0
  6
Continuous
 62
     7
100
AcDbLine
 10
4595.6228896408
 20
4220.9703543738
 30
0.0
 11
4595.6228896408
 21
4221.9703543631
 31
0.0
  0
LINE
  5
316
330
1F
100
AcDbEntity
  8
0
  6
Continuous
 62
     7
100
AcDbLine
 10
4595.31733388
 20
4220.9703543738
 30
0.0
 11
4595.31733388
 21
4221.9703543631
 31
0.0
  0
LINE
  5
317
330
1F
100
AcDbEntity
  8
0
  6
Continuous
 62
     7
100
AcDbLine
 10
4595.31733388
 20
4220.9703543738
 30
0.0
 11
4595.6228896408
 21
4220.9703543738
 31
0.0
  0
LINE
  5
318
330
1F
100
AcDbEntity
  8
0
  6
Continuous
 62
     7
100
AcDbLine
 10
4652.3034460276
 20
4220.9703543738
 30
0.0
 11
4652.3034460276
 21
4221.9703543631
 31
0.0
  0
LINE
  5
319
330
1F
100
AcDbEntity
  8
0
  6
Continuous
 62
     7
100
AcDbLine
 10
4651.3433660745
 20
4220.9703543738
 30
0.0
 11
4652.3034460276
 21
4220.9703543738
 31
0.0
  0
LINE
  5
31A
330
1F
100
AcDbEntity
  8
0
  6
Continuous
 62
     7
100
AcDbLine
 10
4664.9004518419
 20
4220.9703543738
 30
0.0
 11
4664.9004518419
 21
4221.9703543631
 31
0.0
  0
LINE
  5
31B
330
1F
100
AcDbEntity
  8
0
  6
Continuous
 62
     7
100
AcDbLine
 10
4662.3056157856
 20
4220.9703543738
 30
0.0
 11
4664.9004518419
 21
4220.9703543738
 31
0.0
  0
LINE
  5
31C
330
1F
100
AcDbEntity
  8
0
  6
Continuous
 62
     7
100
AcDbLine
 10
4662.3056157856
 20
4220.9703543738
 30
0.0
 11
4662.3056157856
 21
4221.9703543631
 31
0.0
  0
LINE
  5
31D
330
1F
100
AcDbEntity
  8
0
  6
Continuous
 62
     7
100
AcDbLine
 10
4658.3023610889
 20
4220.9703543738
 30
0.0
 11
4662.3056157856
 21
4220.9703543738
 31
0.0
  0
LINE
  5
31E
330
1F
100
AcDbEntity
  8
0
  6
Continuous
 62
     7
100
AcDbLine
 10
4658.3023610889
 20
4220.9703543738
 30
0.0
 11
4658.3023610889
 21
4221.9703543631
 31
0.0
  0
LINE
  5
31F
330
1F
100
AcDbEntity
  8
0
  6
Continuous
 62
     7
100
AcDbLine
 10
4655.4353907137
 20
4220.9703543738
 30
0.0
 11
4655.4353907137
 21
4221.9703543631
 31
0.0
  0
LINE
  5
320
330
1F
100
AcDbEntity
  8
0
  6
Continuous
 62
     7
100
AcDbLine
 10
4655.4353907137
 20
4220.9703543738
 30
0.0
 11
4658.3023610889
 21
4220.9703543738
 31
0.0
  0
LINE
  5
321
330
1F
100
AcDbEntity
  8
0
  6
Continuous
 62
     7
100
AcDbLine
 10
4666.0844794839
 20
4220.9703543738
 30
0.0
 11
4666.0844794839
 21
4221.9703543631
 31
0.0
  0
LINE
  5
322
330
1F
100
AcDbEntity
  8
0
  6
Continuous
 62
     7
100
AcDbLine
 10
4654.2394272416
 20
4220.9703543738
 30
0.0
 11
4654.2394272416
 21
4221.9703543631
 31
0.0
  0
LINE
  5
323
330
1F
100
AcDbEntity
  8
0
  6
Continuous
 62
     7
100
AcDbLine
 10
4653.8312248319
 20
4220.9703543738
 30
0.0
 11
4653.8312248319
 21
4221.9703543631
 31
0.0
  0
LINE
  5
324
330
1F
100
AcDbEntity
  8
0
  6
Continuous
 62
     7
100
AcDbLine
 10
4653.8312248319
 20
4220.9703543738
 30
0.0
 11
4654.2394272416
 21
4220.9703543738
 31
0.0
  0
LINE
  5
325
330
1F
100
AcDbEntity
  8
0
  6
Continuous
 62
     7
100
AcDbLine
 10
4666.6645556121
 20
4220.9703543738
 30
0.0
 11
4666.6645556121
 21
4221.9703543631
 31
0.0
  0
LINE
  5
326
330
1F
100
AcDbEntity
  8
0
  6
Continuous
 62
     7
100
AcDbLine
 10
4666.0844794839
 20
4220.9703543738
 30
0.0
 11
4666.6645556121
 21
4220.9703543738
 31
0.0
  0
LINE
  5
327
330
1F
100
AcDbEntity
  8
0
  6
Continuous
 62
     7
100
AcDbLine
 10
4672.0356493621
 20
4220.9703543738
 30
0.0
 11
4672.0356493621
 21
4221.9703543631
 31
0.0
  0
LINE
  5
328
330
1F
100
AcDbEntity
  8
0
  6
Continuous
 62
     7
100
AcDbLine
 10
4667.5812228947
 20
4220.9703543738
 30
0.0
 11
4667.5812228947
 21
4221.9703543631
 31
0.0
  0
LINE
  5
329
330
1F
100
AcDbEntity
  8
0
  6
Continuous
 62
     7
100
AcDbLine
 10
4675.654575172
 20
4220.9703543738
 30
0.0
 11
4675.654575172
 21
4221.9703543631
 31
0.0
  0
LINE
  5
32A
330
1F
100
AcDbEntity
  8
0
  6
Continuous
 62
     7
100
AcDbLine
 10
4675.9481951027
 20
4220.9703543738
 30
0.0
 11
4675.9481951027
 21
4221.9703543631
 31
0.0
  0
LINE
  5
32B
330
1F
100
AcDbEntity
  8
0
  6
Continuous
 62
     7
100
AcDbLine
 10
4675.654575172
 20
4220.9703543738
 30
0.0
 11
4675.9481951027
 21
4220.9703543738
 31
0.0
  0
LINE
  5
32C
330
1F
100
AcDbEntity
  8
0
  6
Continuous
 62
     7
100
AcDbLine
 10
4677.5117813974
 20
4220.9703543738
 30
0.0
 11
4677.5117813974
 21
4221.9703543631
 31
0.0
  0
LINE
  5
32D
330
1F
100
AcDbEntity
  8
0
  6
Continuous
 62
     7
100
AcDbLine
 10
4675.9481951027
 20
4220.9703543738
 30
0.0
 11
4677.5117813974
 21
4220.9703543738
 31
0.0
  0
LINE
  5
32E
330
1F
100
AcDbEntity
  8
0
  6
Continuous
 62
     7
100
AcDbLine
 10
4678.1228891938
 20
4220.9703543738
 30
0.0
 11
4678.1228891938
 21
4221.9703543631
 31
0.0
  0
LINE
  5
32F
330
1F
100
AcDbEntity
  8
0
  6
Continuous
 62
     7
100
AcDbLine
 10
4691.8728872567
 20
4220.9703543738
 30
0.0
 11
4691.8728872567
 21
4221.9703543631
 31
0.0
  0
LINE
  5
330
330
1F
100
AcDbEntity
  8
0
  6
Continuous
 62
     7
100
AcDbLine
 10
4680.2617795198
 20
4220.9703543738
 30
0.0
 11
4691.8728872567
 21
4220.9703543738
 31
0.0
  0
LINE
  5
331
330
1F
100
AcDbEntity
  8
0
  6
Continuous
 62
     7
100
AcDbLine
 10
4680.2617795198
 20
4220.9703543738
 30
0.0
 11
4680.2617795198
 21
4221.9703543631
 31
0.0
  0
LINE
  5
332
330
1F
100
AcDbEntity
  8
0
  6
Continuous
 62
     7
100
AcDbLine
 10
4700.1228927999
 20
4220.9703543738
 30
0.0
 11
4705.1645591288
 21
4220.9703543738
 31
0.0
  0
LINE
  5
333
330
1F
100
AcDbEntity
  8
0
  6
Continuous
 62
     7
100
AcDbLine
 10
4700.1228927999
 20
4220.9703543738
 30
0.0
 11
4700.1228927999
 21
4221.9703543631
 31
0.0
  0
LINE
  5
334
330
1F
100
AcDbEntity
  8
0
  6
Continuous
 62
     7
100
AcDbLine
 10
4705.1645591288
 20
4220.9703543738
 30
0.0
 11
4705.1645591288
 21
4221.9703543631
 31
0.0
  0
LINE
  5
335
330
1F
100
AcDbEntity
  8
0
  6
Continuous
 62
     7
100
AcDbLine
 10
4692.942336145
 20
4220.9703543738
 30
0.0
 11
4692.942336145
 21
4221.9703543631
 31
0.0
  0
LINE
  5
336
330
1F
100
AcDbEntity
  8
0
  6
Continuous
 62
     7
100
AcDbLine
 10
4692.942336145
 20
4220.9703543738
 30
0.0
 11
4699.3589996725
 21
4220.9703543738
 31
0.0
  0
LINE
  5
337
330
1F
100
AcDbEntity
  8
0
  6
Continuous
 62
     7
100
AcDbLine
 10
4699.3589996725
 20
4220.9703543738
 30
0.0
 11
4699.3589996725
 21
4221.9703543631
 31
0.0
  0
LINE
  5
338
330
1F
100
AcDbEntity
  8
0
  6
Continuous
 62
     7
100
AcDbLine
 10
4699.7242345839
 20
4220.9703543738
 30
0.0
 11
4699.7242345839
 21
4221.9703543631
 31
0.0
  0
LINE
  5
339
330
1F
100
AcDbEntity
  8
0
  6
Continuous
 62
     7
100
AcDbLine
 10
4699.7242345839
 20
4220.9703543738
 30
0.0
 11
4700.1228927999
 21
4220.9703543738
 31
0.0
  0
LINE
  5
33A
330
1F
100
AcDbEntity
  8
0
  6
Continuous
 62
     7
100
AcDbLine
 10
4699.3589996725
 20
4220.9703543738
 30
0.0
 11
4699.7242345839
 21
4220.9703543738
 31
0.0
  0
LINE
  5
33B
330
1F
100
AcDbEntity
  8
0
  6
Continuous
 62
     7
100
AcDbLine
 10
4580.9060930639
 20
4220.9703543738
 30
0.0
 11
4580.9060930639
 21
4221.9703543631
 31
0.0
  0
LINE
  5
33C
330
1F
100
AcDbEntity
  8
0
  6
Continuous
 62
     7
100
AcDbLine
 10
4580.4978906541
 20
4220.9703543738
 30
0.0
 11
4580.4978906541
 21
4221.9703543631
 31
0.0
  0
LINE
  5
33D
330
1F
100
AcDbEntity
  8
0
  6
Continuous
 62
     7
100
AcDbLine
 10
4580.4978906541
 20
4220.9703543738
 30
0.0
 11
4580.9060930639
 21
4220.9703543738
 31
0.0
  0
LINE
  5
33E
330
1F
100
AcDbEntity
  8
0
  6
Continuous
 62
     7
100
AcDbLine
 10
4594.2478924423
 20
4220.9703543738
 30
0.0
 11
4594.2478924423
 21
4221.9703543631
 31
0.0
  0
LINE
  5
33F
330
1F
100
AcDbEntity
  8
0
  6
Continuous
 62
     7
100
AcDbLine
 10
4666.6645556121
 20
4220.9703543738
 30
0.0
 11
4667.4062124818
 21
4220.9703543738
 31
0.0
  0
LINE
  5
340
330
1F
100
AcDbEntity
  8
0
  6
Continuous
 62
     7
100
AcDbLine
 10
4678.4284449547
 20
4220.9703543738
 30
0.0
 11
4680.2617795198
 21
4220.9703543738
 31
0.0
  0
LINE
  5
341
330
1F
100
AcDbEntity
  8
0
  6
Continuous
 62
     7
100
AcDbLine
 10
4678.4284449547
 20
4220.9703543738
 30
0.0
 11
4678.4284449547
 21
4221.9703543631
 31
0.0
  0
LINE
  5
342
330
1F
100
AcDbEntity
  8
0
  6
Continuous
 62
     7
100
AcDbLine
 10
4691.8728872567
 20
4220.9703543738
 30
0.0
 11
4692.942336145
 21
4220.9703543738
 31
0.0
  0
LINE
  5
343
330
1F
100
AcDbEntity
  8
0
  6
Continuous
 62
     7
100
AcDbLine
 10
4836.7826193004
 20
4543.0703671698
 30
0.0
 11
4418.7826066642
 21
4543.0703671698
 31
0.0
  0
LINE
  5
344
330
1F
100
AcDbEntity
  8
0
  6
Continuous
 62
     7
100
AcDbLine
 10
4836.7826193004
 20
4540.9703465228
 30
0.0
 11
4418.7826066642
 21
4540.9703465228
 31
0.0
  0
LINE
  5
345
330
1F
100
AcDbEntity
  8
0
  6
Continuous
 62
     7
100
AcDbLine
 10
4836.7826193004
 20
4543.0703671698
 30
0.0
 11
4836.7826193004
 21
4540.9703465228
 31
0.0
  0
LINE
  5
346
330
1F
100
AcDbEntity
  8
0
  6
Continuous
 62
     7
100
AcDbLine
 10
4418.7826066642
 20
4540.9703465228
 30
0.0
 11
4418.7826066642
 21
4543.0703671698
 31
0.0
  0
LINE
  5
347
330
1F
100
AcDbEntity
  8
0
  6
Continuous
 62
     7
100
AcDbLine
 10
4434.2826157241
 20
4540.9703465228
 30
0.0
 11
4434.2826157241
 21
4539.9703593974
 31
0.0
  0
LINE
  5
348
330
1F
100
AcDbEntity
  8
0
  6
Continuous
 62
     7
100
AcDbLine
 10
4821.2826102405
 20
4540.9703465228
 30
0.0
 11
4821.2826102405
 21
4539.9703593974
 31
0.0
  0
LINE
  5
349
330
1F
100
AcDbEntity
  8
0
  6
Continuous
 62
     7
100
AcDbLine
 10
4434.2826157241
 20
4539.9703593974
 30
0.0
 11
4821.2826102405
 21
4539.9703593974
 31
0.0
  0
LINE
  5
34A
330
1F
100
AcDbEntity
  8
0
  6
Continuous
 62
     7
100
AcDbLine
 10
4434.2826157241
 20
4539.9703593974
 30
0.0
 11
4434.2826157241
 21
4539.4703658347
 31
0.0
  0
LINE
  5
34B
330
1F
100
AcDbEntity
  8
0
  6
Continuous
 62
     7
100
AcDbLine
 10
4434.2826157241
 20
4539.4703658347
 30
0.0
 11
4821.2826102405
 21
4539.4703658347
 31
0.0
  0
LINE
  5
34C
330
1F
100
AcDbEntity
  8
0
  6
Continuous
 62
     7
100
AcDbLine
 10
4821.2826102405
 20
4539.4703658347
 30
0.0
 11
4821.2826102405
 21
4539.9703593974
 31
0.0
  0
LINE
  5
34D
330
1F
100
AcDbEntity
  8
0
  6
Continuous
 62
     7
100
AcDbLine
 10
4429.2826055913
 20
4223.4703543179
 30
0.0
 11
4446.2826102405
 21
4223.4703543179
 31
0.0
  0
LINE
  5
34E
330
1F
100
AcDbEntity
  8
0
  6
Continuous
 62
     7
100
AcDbLine
 10
4809.2826157241
 20
4223.4703543179
 30
0.0
 11
4826.2826203733
 21
4223.4703543179
 31
0.0
  0
LINE
  5
34F
330
1F
100
AcDbEntity
  8
0
  6
Continuous
 62
     7
100
AcDbLine
 10
4419.2826151281
 20
4539.4703658347
 30
0.0
 11
4419.2826151281
 21
4534.1703506236
 31
0.0
  0
LINE
  5
350
330
1F
100
AcDbEntity
  8
0
  6
Continuous
 62
     7
100
AcDbLine
 10
4419.2826151281
 20
4250.4703538541
 30
0.0
 11
4419.2826151281
 21
4233.4703547929
 31
0.0
  0
LINE
  5
351
330
1F
100
AcDbEntity
  8
0
  6
Continuous
 62
     7
100
AcDbLine
 10
4434.2826157241
 20
4539.4703658347
 30
0.0
 11
4419.2826151281
 21
4539.4703658347
 31
0.0
  0
LINE
  5
352
330
1F
100
AcDbEntity
  8
0
  6
Continuous
 62
     7
100
AcDbLine
 10
4836.2826108365
 20
4539.4703658347
 30
0.0
 11
4821.2826102405
 21
4539.4703658347
 31
0.0
  0
LINE
  5
353
330
1F
100
AcDbEntity
  8
0
  6
Continuous
 62
     7
100
AcDbLine
 10
4836.2826108365
 20
4233.4703547929
 30
0.0
 11
4836.2826108365
 21
4250.4703538541
 31
0.0
  0
LINE
  5
354
330
1F
100
AcDbEntity
  8
0
  6
Continuous
 62
     7
100
AcDbLine
 10
4836.2826108365
 20
4534.1703506236
 30
0.0
 11
4836.2826108365
 21
4539.4703658347
 31
0.0
  0
LINE
  5
355
330
1F
100
AcDbEntity
  8
0
  6
Continuous
 62
     7
100
AcDbLine
 10
4419.4826185136
 20
4250.4703538541
 30
0.0
 11
4419.4826185136
 21
4534.1703506236
 31
0.0
  0
LINE
  5
356
330
1F
100
AcDbEntity
  8
0
  6
Continuous
 62
     7
100
AcDbLine
 10
4417.7826195388
 20
4250.4703538541
 30
0.0
 11
4419.4826185136
 21
4250.4703538541
 31
0.0
  0
LINE
  5
357
330
1F
100
AcDbEntity
  8
0
  6
Continuous
 62
     7
100
AcDbLine
 10
4417.7826195388
 20
4250.4703538541
 30
0.0
 11
4417.7826195388
 21
4534.1703506236
 31
0.0
  0
LINE
  5
358
330
1F
100
AcDbEntity
  8
0
  6
Continuous
 62
     7
100
AcDbLine
 10
4419.4826185136
 20
4534.1703506236
 30
0.0
 11
4417.7826195388
 21
4534.1703506236
 31
0.0
  0
LINE
  5
359
330
1F
100
AcDbEntity
  8
0
  6
Continuous
 62
     7
100
AcDbLine
 10
4837.7826070952
 20
4534.170351293
 30
0.0
 11
4837.7826070952
 21
4250.4703545235
 31
0.0
  0
LINE
  5
35A
330
1F
100
AcDbEntity
  8
0
  6
Continuous
 62
     7
100
AcDbLine
 10
4836.0826081204
 20
4250.4703545235
 30
0.0
 11
4837.7826070952
 21
4250.4703545235
 31
0.0
  0
LINE
  5
35B
330
1F
100
AcDbEntity
  8
0
  6
Continuous
 62
     7
100
AcDbLine
 10
4836.0826081204
 20
4534.170351293
 30
0.0
 11
4836.0826081204
 21
4250.4703545235
 31
0.0
  0
LINE
  5
35C
330
1F
100
AcDbEntity
  8
0
  6
Continuous
 62
     7
100
AcDbLine
 10
4837.7826070952
 20
4534.170351293
 30
0.0
 11
4836.0826081204
 21
4534.170351293
 31
0.0
  0
LINE
  5
35D
330
1F
100
AcDbEntity
  8
0
  6
Continuous
 62
     7
100
AcDbLine
 10
4809.2826150547
 20
4223.6703549968
 30
0.0
 11
4446.2826095711
 21
4223.6703549968
 31
0.0
  0
LINE
  5
35E
330
1F
100
AcDbEntity
  8
0
  6
Continuous
 62
     7
100
AcDbLine
 10
4809.2826150547
 20
4221.9703550325
 30
0.0
 11
4446.2826095711
 21
4221.9703550325
 31
0.0
  0
LINE
  5
35F
330
1F
100
AcDbEntity
  8
0
  6
Continuous
 62
     7
100
AcDbLine
 10
4809.2826150547
 20
4221.9703550325
 30
0.0
 11
4809.2826150547
 21
4223.6703549968
 31
0.0
  0
LINE
  5
360
330
1F
100
AcDbEntity
  8
0
  6
Continuous
 62
     7
100
AcDbLine
 10
4446.2826095711
 20
4223.6703549968
 30
0.0
 11
4446.2826095711
 21
4221.9703550325
 31
0.0
  0
LINE
  5
361
330
1F
100
AcDbEntity
  8
0
  6
Continuous
 62
     7
100
AcDbLine
 10
4836.9826084542
 20
4539.1703465246
 30
0.0
 11
4836.9826084542
 21
4534.170351293
 31
0.0
  0
LINE
  5
362
330
1F
100
AcDbEntity
  8
0
  6
Continuous
 62
     7
100
AcDbLine
 10
4836.9826084542
 20
4539.1703465246
 30
0.0
 11
4837.7826070952
 21
4539.1703465246
 31
0.0
  0
LINE
  5
363
330
1F
100
AcDbEntity
  8
0
  6
Continuous
 62
     7
100
AcDbLine
 10
4837.7826070952
 20
4539.1703465246
 30
0.0
 11
4837.7826070952
 21
4534.170351293
 31
0.0
  0
LINE
  5
364
330
1F
100
AcDbEntity
  8
0
  6
Continuous
 62
     7
100
AcDbLine
 10
4835.9826064276
 20
4540.1703634523
 30
0.0
 11
4835.9826064276
 21
4540.9703471922
 31
0.0
  0
LINE
  5
365
330
1F
100
AcDbEntity
  8
0
  6
Continuous
 62
     7
100
AcDbLine
 10
4418.5826181798
 20
4539.1703458552
 30
0.0
 11
4417.7826195388
 21
4539.1703458552
 31
0.0
  0
LINE
  5
366
330
1F
100
AcDbEntity
  8
0
  6
Continuous
 62
     7
100
AcDbLine
 10
4418.5826181798
 20
4539.1703458552
 30
0.0
 11
4418.5826181798
 21
4534.1703506236
 31
0.0
  0
LINE
  5
367
330
1F
100
AcDbEntity
  8
0
  6
Continuous
 62
     7
100
AcDbLine
 10
4417.7826195388
 20
4534.1703506236
 30
0.0
 11
4417.7826195388
 21
4539.1703458552
 31
0.0
  0
LINE
  5
368
330
1F
100
AcDbEntity
  8
0
  6
Continuous
 62
     7
100
AcDbLine
 10
4835.9826064276
 20
4540.1703634523
 30
0.0
 11
4827.7826166319
 21
4540.1703634523
 31
0.0
  0
LINE
  5
369
330
1F
100
AcDbEntity
  8
0
  6
Continuous
 62
     7
100
AcDbLine
 10
4827.7826166319
 20
4540.9703471922
 30
0.0
 11
4827.7826166319
 21
4540.1703634523
 31
0.0
  0
LINE
  5
36A
330
1F
100
AcDbEntity
  8
0
  6
Continuous
 62
     7
100
AcDbLine
 10
4835.9826064276
 20
4540.9703471922
 30
0.0
 11
4827.7826166319
 21
4540.9703471922
 31
0.0
  0
LINE
  5
36B
330
1F
100
AcDbEntity
  8
0
  6
Continuous
 62
     7
100
AcDbLine
 10
4822.7826064992
 20
4540.1703634523
 30
0.0
 11
4822.7826064992
 21
4540.9703471922
 31
0.0
  0
LINE
  5
36C
330
1F
100
AcDbEntity
  8
0
  6
Continuous
 62
     7
100
AcDbLine
 10
4827.7826166319
 20
4540.1703634523
 30
0.0
 11
4822.7826064992
 21
4540.1703634523
 31
0.0
  0
LINE
  5
36D
330
1F
100
AcDbEntity
  8
0
  6
Continuous
 62
     7
100
AcDbLine
 10
4419.5826202064
 20
4540.1703627829
 30
0.0
 11
4419.5826202064
 21
4540.9703465228
 31
0.0
  0
LINE
  5
36E
330
1F
100
AcDbEntity
  8
0
  6
Continuous
 62
     7
100
AcDbLine
 10
4427.7826100021
 20
4540.9703465228
 30
0.0
 11
4419.5826202064
 21
4540.9703465228
 31
0.0
  0
LINE
  5
36F
330
1F
100
AcDbEntity
  8
0
  6
Continuous
 62
     7
100
AcDbLine
 10
4427.7826100021
 20
4540.1703627829
 30
0.0
 11
4427.7826100021
 21
4540.9703465228
 31
0.0
  0
LINE
  5
370
330
1F
100
AcDbEntity
  8
0
  6
Continuous
 62
     7
100
AcDbLine
 10
4427.7826100021
 20
4540.1703627829
 30
0.0
 11
4419.5826202064
 21
4540.1703627829
 31
0.0
  0
LINE
  5
371
330
1F
100
AcDbEntity
  8
0
  6
Continuous
 62
     7
100
AcDbLine
 10
4432.7826201349
 20
4540.9703465228
 30
0.0
 11
4432.7826201349
 21
4540.1703627829
 31
0.0
  0
LINE
  5
372
330
1F
100
AcDbEntity
  8
0
  6
Continuous
 62
     7
100
AcDbLine
 10
4432.7826201349
 20
4540.1703627829
 30
0.0
 11
4427.7826100021
 21
4540.1703627829
 31
0.0
  0
LINE
  5
373
330
1F
100
AcDbEntity
  8
0
  6
Continuous
 62
     7
100
AcDbLine
 10
4417.7826195388
 20
4232.7703541194
 30
0.0
 11
4418.5826181798
 21
4232.7703541194
 31
0.0
  0
LINE
  5
374
330
1F
100
AcDbEntity
  8
0
  6
Continuous
 62
     7
100
AcDbLine
 10
4418.5826181798
 20
4232.7703541194
 30
0.0
 11
4418.5826181798
 21
4250.4703538541
 31
0.0
  0
LINE
  5
375
330
1F
100
AcDbEntity
  8
0
  6
Continuous
 62
     7
100
AcDbLine
 10
4417.7826195388
 20
4250.4703538541
 30
0.0
 11
4417.7826195388
 21
4232.7703541194
 31
0.0
  0
LINE
  5
376
330
1F
100
AcDbEntity
  8
0
  6
Continuous
 62
     7
100
AcDbLine
 10
4428.5826079737
 20
4221.9703550325
 30
0.0
 11
4428.5826079737
 21
4222.7703536735
 31
0.0
  0
LINE
  5
377
330
1F
100
AcDbEntity
  8
0
  6
Continuous
 62
     7
100
AcDbLine
 10
4826.9826166521
 20
4221.9703550325
 30
0.0
 11
4826.9826166521
 21
4222.7703550123
 31
0.0
  0
LINE
  5
378
330
1F
100
AcDbEntity
  8
0
  6
Continuous
 62
     7
100
AcDbLine
 10
4837.7826070952
 20
4232.7703547888
 30
0.0
 11
4836.9826071154
 21
4232.7703547888
 31
0.0
  0
LINE
  5
379
330
1F
100
AcDbEntity
  8
0
  6
Continuous
 62
     7
100
AcDbLine
 10
4836.9826071154
 20
4250.4703545235
 30
0.0
 11
4836.9826071154
 21
4232.7703547888
 31
0.0
  0
LINE
  5
37A
330
1F
100
AcDbEntity
  8
0
  6
Continuous
 62
     7
100
AcDbLine
 10
4837.7826070952
 20
4232.7703547888
 30
0.0
 11
4837.7826070952
 21
4250.4703545235
 31
0.0
  0
LINE
  5
37B
330
1F
100
AcDbEntity
  8
0
  6
Continuous
 62
     7
100
AcDbLine
 10
4826.9826166521
 20
4222.7703550123
 30
0.0
 11
4809.2826150547
 21
4222.7703550123
 31
0.0
  0
LINE
  5
37C
330
1F
100
AcDbEntity
  8
0
  6
Continuous
 62
     7
100
AcDbLine
 10
4809.2826150547
 20
4221.9703550325
 30
0.0
 11
4826.9826166521
 21
4221.9703550325
 31
0.0
  0
LINE
  5
37D
330
1F
100
AcDbEntity
  8
0
  6
Continuous
 62
     7
100
AcDbLine
 10
4428.5826079737
 20
4221.9703550325
 30
0.0
 11
4446.2826095711
 21
4221.9703550325
 31
0.0
  0
LINE
  5
37E
330
1F
100
AcDbEntity
  8
0
  6
Continuous
 62
     7
100
AcDbLine
 10
4446.2826095711
 20
4222.7703536735
 30
0.0
 11
4428.5826079737
 21
4222.7703536735
 31
0.0
  0
LINE
  5
37F
330
1F
100
AcDbEntity
  8
0
  6
Continuous
 62
     7
100
AcDbLine
 10
4419.2826151281
 20
4240.4703540777
 30
0.0
 11
4418.5826181798
 21
4240.4703540777
 31
0.0
  0
LINE
  5
380
330
1F
100
AcDbEntity
  8
0
  6
Continuous
 62
     7
100
AcDbLine
 10
4836.9826077848
 20
4240.4703540777
 30
0.0
 11
4836.2826108365
 21
4240.4703540777
 31
0.0
  0
LINE
  5
381
330
1F
100
AcDbEntity
  8
0
  6
Continuous
 62
     7
100
AcDbLine
 10
4819.2826061874
 20
4223.4703543179
 30
0.0
 11
4819.2826061874
 21
4222.7703543429
 31
0.0
  0
LINE
  5
382
330
1F
100
AcDbEntity
  8
0
  6
Continuous
 62
     7
100
AcDbLine
 10
4436.2826197772
 20
4222.7703543429
 30
0.0
 11
4436.2826197772
 21
4223.4703543179
 31
0.0
  0
LWPOLYLINE
  5
383
330
1F
100
AcDbEntity
  8
0
  6
Continuous
 62
     7
100
AcDbPolyline
 90
        3
 70
   128
 43
0.0
 10
5539.0853881836
 20
5203.7464777207
 10
5539.0885851781
 20
5204.3403859486
 10
5539.0885851781
 20
5204.8096178299
  0
LWPOLYLINE
  5
384
330
1F
100
AcDbEntity
  8
0
  6
Continuous
 62
     7
100
AcDbPolyline
 90
        3
 70
   128
 43
0.0
 10
5539.0853881836
 20
5204.8096178299
 10
5539.0885851781
 20
5206.3011990959
 10
5539.0885851781
 20
5207.473137529
  0
LWPOLYLINE
  5
385
330
1F
100
AcDbEntity
  8
0
  6
Continuous
 62
     7
100
AcDbPolyline
 90
        3
 70
   128
 43
0.0
 10
5539.0853881836
 20
5207.473137529
 10
5539.0885851781
 20
5212.8270526688
 10
5539.0885851781
 20
5216.9074778179
  0
LWPOLYLINE
  5
386
330
1F
100
AcDbEntity
  8
0
  6
Continuous
 62
     7
100
AcDbPolyline
 90
        3
 70
   128
 43
0.0
 10
5539.0853881836
 20
5202.4537777727
 10
5539.0885851781
 20
5203.1728286406
 10
5539.0885851781
 20
5203.7464777207
  0
LWPOLYLINE
  5
387
330
1F
100
AcDbEntity
  8
0
  6
Continuous
 62
     7
100
AcDbPolyline
 90
        3
 70
   128
 43
0.0
 10
5539.0853881836
 20
5199.7707575759
 10
5539.0885851781
 20
5201.1862820457
 10
5539.0885851781
 20
5202.4537777727
  0
LWPOLYLINE
  5
388
330
1F
100
AcDbEntity
  8
0
  6
Continuous
 62
     7
100
AcDbPolyline
 90
        3
 70
   128
 43
0.0
 10
5539.0853881836
 20
5199.1987774348
 10
5539.0885851781
 20
5199.5184440777
 10
5539.0885851781
 20
5199.7707575759
  0
LWPOLYLINE
  5
389
330
1F
100
AcDbEntity
  8
0
  6
Continuous
 62
     7
100
AcDbPolyline
 90
        3
 70
   128
 43
0.0
 10
5539.0853881836
 20
5216.9074778179
 10
5539.0885851781
 20
5223.2350875248
 10
5539.0885851781
 20
5228.1285576722
  0
LWPOLYLINE
  5
38A
330
1F
100
AcDbEntity
  8
0
  6
Continuous
 62
     7
100
AcDbPolyline
 90
        3
 70
   128
 43
0.0
 10
5539.0853881836
 20
5197.6382374963
 10
5539.0885851781
 20
5198.3603606138
 10
5539.0885851781
 20
5199.1987774348
  0
LWPOLYLINE
  5
38B
330
1F
100
AcDbEntity
  8
0
  6
Continuous
 62
     7
100
AcDbPolyline
 90
        3
 70
   128
 43
0.0
 10
5539.0853881836
 20
5239.9365581771
 10
5539.0885851781
 20
5241.4208920024
 10
5539.0885851781
 20
5242.5934184542
  0
LWPOLYLINE
  5
38C
330
1F
100
AcDbEntity
  8
0
  6
Continuous
 62
     7
100
AcDbPolyline
 90
        3
 70
   128
 43
0.0
 10
5539.0853881836
 20
5242.5934184542
 10
5539.0885851781
 20
5243.4527799264
 10
5539.0885851781
 20
5244.1077582737
  0
LWPOLYLINE
  5
38D
330
1F
100
AcDbEntity
  8
0
  6
Continuous
 62
     7
100
AcDbPolyline
 90
        3
 70
   128
 43
0.0
 10
5539.0853881836
 20
5236.0835369876
 10
5539.0885851781
 20
5238.1851284621
 10
5539.0885851781
 20
5239.9365581771
  0
LWPOLYLINE
  5
38E
330
1F
100
AcDbEntity
  8
0
  6
Continuous
 62
     7
100
AcDbPolyline
 90
        3
 70
   128
 43
0.0
 10
5539.0853881836
 20
5244.1077582737
 10
5539.0885851781
 20
5244.7946789715
 10
5539.0885851781
 20
5245.2328182956
  0
LWPOLYLINE
  5
38F
330
1F
100
AcDbEntity
  8
0
  6
Continuous
 62
     7
100
AcDbPolyline
 90
        3
 70
   128
 43
0.0
 10
5539.0853881836
 20
5197.0581576427
 10
5539.0885851781
 20
5197.3132339271
 10
5539.0885851781
 20
5197.6382374963
  0
LWPOLYLINE
  5
390
330
1F
100
AcDbEntity
  8
0
  6
Continuous
 62
     7
100
AcDbPolyline
 90
        3
 70
   128
 43
0.0
 10
5539.0853881836
 20
5245.2328182956
 10
5539.0885851781
 20
5245.7520786809
 10
5539.0885851781
 20
5245.9043372622
  0
LWPOLYLINE
  5
391
330
1F
100
AcDbEntity
  8
0
  6
Continuous
 62
     7
100
AcDbPolyline
 90
        3
 70
   128
 43
0.0
 10
5539.0853881836
 20
5228.1285576722
 10
5539.0885851781
 20
5229.7173568343
 10
5539.0885851781
 20
5231.0295585742
  0
LWPOLYLINE
  5
392
330
1F
100
AcDbEntity
  8
0
  6
Continuous
 62
     7
100
AcDbPolyline
 90
        3
 70
   128
 43
0.0
 10
5539.0853881836
 20
5232.7246774187
 10
5539.0885851781
 20
5234.6502849218
 10
5539.0885851781
 20
5236.0835369876
  0
LWPOLYLINE
  5
393
330
1F
100
AcDbEntity
  8
0
  6
Continuous
 62
     7
100
AcDbPolyline
 90
        3
 70
   128
 43
0.0
 10
5539.0853881836
 20
5231.0295585742
 10
5539.0885851781
 20
5231.9777548698
 10
5539.0885851781
 20
5232.7246774187
  0
LWPOLYLINE
  5
394
330
1F
100
AcDbEntity
  8
0
  6
Continuous
 62
     7
100
AcDbPolyline
 90
        3
 70
   128
 43
0.0
 10
5539.0853881836
 20
5246.0313845625
 10
5539.0885851781
 20
5247.1384949639
 10
5539.0885851781
 20
5248.0091970613
  0
LWPOLYLINE
  5
395
330
1F
100
AcDbEntity
  8
0
  6
Continuous
 62
     7
100
AcDbPolyline
 90
        3
 70
   128
 43
0.0
 10
5539.0853881836
 20
5249.124116843
 10
5539.0885851781
 20
5249.4507799264
 10
5539.0885851781
 20
5249.7061189463
  0
LWPOLYLINE
  5
396
330
1F
100
AcDbEntity
  8
0
  6
Continuous
 62
     7
100
AcDbPolyline
 90
        3
 70
   128
 43
0.0
 10
5539.0853881836
 20
5248.0091970613
 10
5539.0885851781
 20
5248.63359571
 10
5539.0885851781
 20
5249.124116843
  0
LWPOLYLINE
  5
397
330
1F
100
AcDbEntity
  8
0
  6
Continuous
 62
     7
100
AcDbPolyline
 90
        3
 70
   128
 43
0.0
 10
5539.0853881836
 20
5251.6213167658
 10
5539.0885851781
 20
5251.9991280356
 10
5539.0885851781
 20
5252.3463588407
  0
LWPOLYLINE
  5
398
330
1F
100
AcDbEntity
  8
0
  6
Continuous
 62
     7
100
AcDbPolyline
 90
        3
 70
   128
 43
0.0
 10
5539.0853881836
 20
5252.3463588407
 10
5539.0885851781
 20
5252.7087692636
 10
5539.0885851781
 20
5252.9446777156
  0
LWPOLYLINE
  5
399
330
1F
100
AcDbEntity
  8
0
  6
Continuous
 62
     7
100
AcDbPolyline
 90
        3
 70
   128
 43
0.0
 10
5539.0853881836
 20
5250.7229369333
 10
5539.0885851781
 20
5251.2189106804
 10
5539.0885851781
 20
5251.6213167658
  0
LWPOLYLINE
  5
39A
330
1F
100
AcDbEntity
  8
0
  6
Continuous
 62
     7
100
AcDbPolyline
 90
        3
 70
   128
 43
0.0
 10
5539.0853881836
 20
5252.9446777156
 10
5539.0885851781
 20
5253.3277780163
 10
5539.0885851781
 20
5253.6403160741
  0
LWPOLYLINE
  5
39B
330
1F
100
AcDbEntity
  8
0
  6
Continuous
 62
     7
100
AcDbPolyline
 90
        3
 70
   128
 43
0.0
 10
5539.0853881836
 20
5250.1952383866
 10
5539.0885851781
 20
5250.4887135107
 10
5539.0885851781
 20
5250.7229369333
  0
LWPOLYLINE
  5
39C
330
1F
100
AcDbEntity
  8
0
  6
Continuous
 62
     7
100
AcDbPolyline
 90
        3
 70
   128
 43
0.0
 10
5539.0853881836
 20
5253.6403160741
 10
5539.0885851781
 20
5253.8475981096
 10
5539.0885851781
 20
5253.988437002
  0
LWPOLYLINE
  5
39D
330
1F
100
AcDbEntity
  8
0
  6
Continuous
 62
     7
100
AcDbPolyline
 90
        3
 70
   128
 43
0.0
 10
5539.0853881836
 20
5249.7964274337
 10
5539.0885851781
 20
5250.0156039552
 10
5539.0885851781
 20
5250.1952383866
  0
LWPOLYLINE
  5
39E
330
1F
100
AcDbEntity
  8
0
  6
Continuous
 62
     7
100
AcDbPolyline
 90
        3
 70
   128
 43
0.0
 10
5539.0853881836
 20
5195.3822482577
 10
5539.0885851781
 20
5195.7858206735
 10
5539.0885851781
 20
5196.6896407505
  0
LWPOLYLINE
  5
39F
330
1F
100
AcDbEntity
  8
0
  6
Continuous
 62
     7
100
AcDbPolyline
 90
        3
 70
   128
 43
0.0
 10
5539.0853881836
 20
5254.2661648443
 10
5539.0885851781
 20
5255.8699333294
 10
5539.0885851781
 20
5256.1690543046
  0
LWPOLYLINE
  5
3A0
330
1F
100
AcDbEntity
  8
0
  6
Continuous
 62
     7
100
AcDbPolyline
 90
        3
 70
   128
 43
0.0
 10
5539.0853881836
 20
5318.2971511235
 10
5539.0885851781
 20
5318.7671566524
 10
5539.0885851781
 20
5319.1375095596
  0
LWPOLYLINE
  5
3A1
330
1F
100
AcDbEntity
  8
0
  6
Continuous
 62
     7
100
AcDbPolyline
 90
        3
 70
   128
 43
0.0
 10
5539.0853881836
 20
5319.1375095596
 10
5539.0885851781
 20
5320.1086169633
 10
5539.0885851781
 20
5320.8620507469
  0
LWPOLYLINE
  5
3A2
330
1F
100
AcDbEntity
  8
0
  6
Continuous
 62
     7
100
AcDbPolyline
 90
        3
 70
   128
 43
0.0
 10
5539.0853881836
 20
5317.5059441676
 10
5539.0885851781
 20
5317.939150605
 10
5539.0885851781
 20
5318.2971511235
  0
LWPOLYLINE
  5
3A3
330
1F
100
AcDbEntity
  8
0
  6
Continuous
 62
     7
100
AcDbPolyline
 90
        3
 70
   128
 43
0.0
 10
5539.0853881836
 20
5320.8620507469
 10
5539.0885851781
 20
5321.8069991809
 10
5539.0885851781
 20
5322.4936235895
  0
LWPOLYLINE
  5
3A4
330
1F
100
AcDbEntity
  8
0
  6
Continuous
 62
     7
100
AcDbPolyline
 90
        3
 70
   128
 43
0.0
 10
5539.0853881836
 20
5305.2442778101
 10
5539.0885851781
 20
5306.511149932
 10
5539.0885851781
 20
5307.5300190797
  0
LWPOLYLINE
  5
3A5
330
1F
100
AcDbEntity
  8
0
  6
Continuous
 62
     7
100
AcDbPolyline
 90
        3
 70
   128
 43
0.0
 10
5539.0853881836
 20
5303.3800754895
 10
5539.0885851781
 20
5304.3825629108
 10
5539.0885851781
 20
5305.2442778101
  0
LWPOLYLINE
  5
3A6
330
1F
100
AcDbEntity
  8
0
  6
Continuous
 62
     7
100
AcDbPolyline
 90
        3
 70
   128
 43
0.0
 10
5539.0853881836
 20
5302.1207187524
 10
5539.0885851781
 20
5302.7534746416
 10
5539.0885851781
 20
5303.3800754895
  0
LWPOLYLINE
  5
3A7
330
1F
100
AcDbEntity
  8
0
  6
Continuous
 62
     7
100
AcDbPolyline
 90
        3
 70
   128
 43
0.0
 10
5539.0853881836
 20
5301.6554523459
 10
5539.0885851781
 20
5301.7889318787
 10
5539.0885851781
 20
5302.1207187524
  0
LWPOLYLINE
  5
3A8
330
1F
100
AcDbEntity
  8
0
  6
Continuous
 62
     7
100
AcDbPolyline
 90
        3
 70
   128
 43
0.0
 10
5539.0853881836
 20
5342.2072340002
 10
5539.0885851781
 20
5344.1842314377
 10
5539.0885851781
 20
5345.147069191
  0
LWPOLYLINE
  5
3A9
330
1F
100
AcDbEntity
  8
0
  6
Continuous
 62
     7
100
AcDbPolyline
 90
        3
 70
   128
 43
0.0
 10
5539.0853881836
 20
5345.147069191
 10
5539.0885851781
 20
5345.8501741253
 10
5539.0885851781
 20
5346.0055548897
  0
LWPOLYLINE
  5
3AA
330
1F
100
AcDbEntity
  8
0
  6
Continuous
 62
     7
100
AcDbPolyline
 90
        3
 70
   128
 43
0.0
 10
5539.0853881836
 20
5282.4037332287
 10
5539.0885851781
 20
5282.6528292759
 10
5539.0885851781
 20
5283.3633754602
  0
LWPOLYLINE
  5
3AB
330
1F
100
AcDbEntity
  8
0
  6
Continuous
 62
     7
100
AcDbPolyline
 90
       10
 70
   128
 43
0.0
 10
5539.0853881836
 20
5289.5079065313
 10
5539.0885851781
 20
5290.4197966294
 10
5539.0885851781
 20
5290.4274993403
 10
5539.0885851781
 20
5290.428314941
 10
5539.0885851781
 20
5290.428330971
 10
5539.0885851781
 20
5290.4283322686
 10
5539.0885851781
 20
5290.42832915
 10
5539.0885851781
 20
5290.4283182031
 10
5539.0885851781
 20
5290.4281331852
 10
5539.0885851781
 20
5290.4150221696
  0
LWPOLYLINE
  5
3AC
330
1F
100
AcDbEntity
  8
0
  6
Continuous
 62
     7
100
AcDbPolyline
 90
        3
 70
   128
 43
0.0
 10
5539.0853881836
 20
5261.6954032531
 10
5539.0885851781
 20
5261.9444934055
 10
5539.0885851781
 20
5262.655038034
  0
LWPOLYLINE
  5
3AD
330
1F
100
AcDbEntity
  8
0
  6
Continuous
 62
     7
100
AcDbPolyline
 90
       10
 70
   128
 43
0.0
 10
5539.0853881836
 20
5268.7995691052
 10
5539.0885851781
 20
5269.7114598394
 10
5539.0885851781
 20
5269.7191631775
 10
5539.0885851781
 20
5269.7199790824
 10
5539.0885851781
 20
5269.7199951518
 10
5539.0885851781
 20
5269.7199964693
 10
5539.0885851781
 20
5269.7199933706
 10
5539.0885851781
 20
5269.7199824503
 10
5539.0885851781
 20
5269.7197975766
 10
5539.0885851781
 20
5269.7066884687
  0
LWPOLYLINE
  5
3AE
330
1F
100
AcDbEntity
  8
0
  6
Continuous
 62
     7
100
AcDbPolyline
 90
        3
 70
   128
 43
0.0
 10
4587.7113342285
 20
5253.988437002
 10
4587.9876876048
 20
5254.0517854016
 10
4588.2100536852
 20
5254.054076617
  0
LWPOLYLINE
  5
3AF
330
1F
100
AcDbEntity
  8
0
  6
Continuous
 62
     7
100
AcDbPolyline
 90
        3
 70
   128
 43
0.0
 10
4588.207244873
 20
5254.054076617
 10
4589.9993679618
 20
5254.0530264655
 10
4591.4052351742
 20
5254.045016711
  0
LWPOLYLINE
  5
3B0
330
1F
100
AcDbEntity
  8
0
  6
Continuous
 62
     7
100
AcDbPolyline
 90
        3
 70
   128
 43
0.0
 10
4591.4039611816
 20
5254.045016711
 10
4592.0015017958
 20
5253.8048252371
 10
4592.4021936386
 20
5253.4873184016
  0
LWPOLYLINE
  5
3B1
330
1F
100
AcDbEntity
  8
0
  6
Continuous
 62
     7
100
AcDbPolyline
 90
        3
 70
   128
 43
0.0
 10
4592.399597168
 20
5253.4873184016
 10
4593.1206674166
 20
5252.9784561095
 10
4593.6194732218
 20
5252.499237304
  0
LWPOLYLINE
  5
3B2
330
1F
100
AcDbEntity
  8
0
  6
Continuous
 62
     7
100
AcDbPolyline
 90
        3
 70
   128
 43
0.0
 10
4593.6164855957
 20
5252.499237304
 10
4593.7312306974
 20
5252.1386616593
 10
4593.6620123117
 20
5251.8458362868
  0
LWPOLYLINE
  5
3B3
330
1F
100
AcDbEntity
  8
0
  6
Continuous
 62
     7
100
AcDbPolyline
 90
        3
 70
   128
 43
0.0
 10
4593.6584472656
 20
5251.8458362868
 10
4593.3544866177
 20
5251.4311573423
 10
4593.0471941262
 20
5251.1662166765
  0
LWPOLYLINE
  5
3B4
330
1F
100
AcDbEntity
  8
0
  6
Continuous
 62
     7
100
AcDbPolyline
 90
        3
 70
   128
 43
0.0
 10
4593.0442810059
 20
5251.1662166765
 10
4592.6949840896
 20
5250.8441283026
 10
4592.4051924973
 20
5250.6061192801
  0
LWPOLYLINE
  5
3B5
330
1F
100
AcDbEntity
  8
0
  6
Continuous
 62
     7
100
AcDbPolyline
 90
        3
 70
   128
 43
0.0
 10
4592.4034118652
 20
5250.6061192801
 10
4592.145083227
 20
5250.3810343326
 10
4592.0189730256
 20
5250.142257308
  0
LWPOLYLINE
  5
3B6
330
1F
100
AcDbEntity
  8
0
  6
Continuous
 62
     7
100
AcDbPolyline
 90
        3
 70
   128
 43
0.0
 10
4592.0181274414
 20
5250.142257308
 10
4592.0268308552
 20
5249.8844193338
 10
4592.1510345667
 20
5249.7221972993
  0
LWPOLYLINE
  5
3B7
330
1F
100
AcDbEntity
  8
0
  6
Continuous
 62
     7
100
AcDbPolyline
 90
        3
 70
   128
 43
0.0
 10
4592.1478271484
 20
5249.7221972993
 10
4592.5446708116
 20
5249.7099237862
 10
4592.8539931207
 20
5249.718356525
  0
LWPOLYLINE
  5
3B8
330
1F
100
AcDbEntity
  8
0
  6
Continuous
 62
     7
100
AcDbPolyline
 90
        3
 70
   128
 43
0.0
 10
4592.8535461426
 20
5249.718356525
 10
4594.2751750818
 20
5249.7197474409
 10
4595.3917540043
 20
5249.7077394476
  0
LWPOLYLINE
  5
3B9
330
1F
100
AcDbEntity
  8
0
  6
Continuous
 62
     7
100
AcDbPolyline
 90
        3
 70
   128
 43
0.0
 10
4595.3903198242
 20
5249.7077394476
 10
4595.4094099906
 20
5249.3256486439
 10
4595.4079552918
 20
5249.0251172533
  0
LWPOLYLINE
  5
3BA
330
1F
100
AcDbEntity
  8
0
  6
Continuous
 62
     7
100
AcDbPolyline
 90
        3
 70
   128
 43
0.0
 10
4595.4055786133
 20
5249.0251172533
 10
4595.3850659585
 20
5247.5882917614
 10
4595.3884533971
 20
5246.4592192521
  0
LWPOLYLINE
  5
3BB
330
1F
100
AcDbEntity
  8
0
  6
Continuous
 62
     7
100
AcDbPolyline
 90
        3
 70
   128
 43
0.0
 10
4595.386505127
 20
5246.4592192521
 10
4595.4002337856
 20
5246.1804555562
 10
4595.4711958199
 20
5245.9730986705
  0
LWPOLYLINE
  5
3BC
330
1F
100
AcDbEntity
  8
0
  6
Continuous
 62
     7
100
AcDbPolyline
 90
        3
 70
   128
 43
0.0
 10
4595.4704284668
 20
5245.9730986705
 10
4596.3403271736
 20
5245.8209922238
 10
4597.0012545019
 20
5245.6117771765
  0
LWPOLYLINE
  5
3BD
330
1F
100
AcDbEntity
  8
0
  6
Continuous
 62
     7
100
AcDbPolyline
 90
        3
 70
   128
 43
0.0
 10
4597.0001220703
 20
5245.6117771765
 10
4597.5466360272
 20
5245.3273652312
 10
4597.9021544933
 20
5245.0002577355
  0
LWPOLYLINE
  5
3BE
330
1F
100
AcDbEntity
  8
0
  6
Continuous
 62
     7
100
AcDbPolyline
 90
        3
 70
   128
 43
0.0
 10
4597.900390625
 20
5245.0002577355
 10
4598.5761429731
 20
5243.5502837615
 10
4598.7036935418
 20
5242.3005584827
  0
LWPOLYLINE
  5
3BF
330
1F
100
AcDbEntity
  8
0
  6
Continuous
 62
     7
100
AcDbPolyline
 90
        3
 70
   128
 43
0.0
 10
4598.7014770508
 20
5242.3005584827
 10
4598.4680875078
 20
5239.4526440654
 10
4597.8299136638
 20
5237.2999169132
  0
LWPOLYLINE
  5
3C0
330
1F
100
AcDbEntity
  8
0
  6
Continuous
 62
     7
100
AcDbPolyline
 90
        3
 70
   128
 43
0.0
 10
4597.827911377
 20
5237.2999169132
 10
4597.4628969556
 20
5236.6162789913
 10
4597.1730350881
 20
5236.0799383571
  0
LWPOLYLINE
  5
3C1
330
1F
100
AcDbEntity
  8
0
  6
Continuous
 62
     7
100
AcDbPolyline
 90
        3
 70
   128
 43
0.0
 10
4597.1717834473
 20
5236.0799383571
 10
4596.5351593504
 20
5234.4232199399
 10
4596.2471737891
 20
5233.0584578415
  0
LWPOLYLINE
  5
3C2
330
1F
100
AcDbEntity
  8
0
  6
Continuous
 62
     7
100
AcDbPolyline
 90
        3
 70
   128
 43
0.0
 10
4596.2448120117
 20
5233.0584578415
 10
4596.2484964978
 20
5231.3415220444
 10
4596.53829405
 20
5230.0239574363
  0
LWPOLYLINE
  5
3C3
330
1F
100
AcDbEntity
  8
0
  6
Continuous
 62
     7
100
AcDbPolyline
 90
        3
 70
   128
 43
0.0
 10
4596.5347290039
 20
5230.0239574363
 10
4597.045442916
 20
5228.7291247908
 10
4597.4930133104
 20
5227.7323777055
  0
LWPOLYLINE
  5
3C4
330
1F
100
AcDbEntity
  8
0
  6
Continuous
 62
     7
100
AcDbPolyline
 90
        3
 70
   128
 43
0.0
 10
4597.4922180176
 20
5227.7323777055
 10
4599.4984099693
 20
5222.7550413538
 10
4600.9734346896
 20
5218.8052177628
  0
LWPOLYLINE
  5
3C5
330
1F
100
AcDbEntity
  8
0
  6
Continuous
 62
     7
100
AcDbPolyline
 90
        3
 70
   128
 43
0.0
 10
4602.2834777832
 20
5200.079697763
 10
4601.9778565306
 20
5199.800935728
 10
4601.7317734092
 20
5199.5859580314
  0
LWPOLYLINE
  5
3C6
330
1F
100
AcDbEntity
  8
0
  6
Continuous
 62
     7
100
AcDbPolyline
 90
        3
 70
   128
 43
0.0
 10
4601.7303466797
 20
5199.5859580314
 10
4601.4942936694
 20
5199.3725989625
 10
4601.2979149251
 20
5199.2165377563
  0
LWPOLYLINE
  5
3C7
330
1F
100
AcDbEntity
  8
0
  6
Continuous
 62
     7
100
AcDbPolyline
 90
        3
 70
   128
 43
0.0
 10
4601.2954711914
 20
5199.2165377563
 10
4600.1264538539
 20
5198.4050516879
 10
4599.1124137669
 20
5197.9300171336
  0
LWPOLYLINE
  5
3C8
330
1F
100
AcDbEntity
  8
0
  6
Continuous
 62
     7
100
AcDbPolyline
 90
        3
 70
   128
 43
0.0
 10
4599.1096496582
 20
5197.9300171336
 10
4597.3062566782
 20
5197.3890944341
 10
4595.8485341995
 20
5197.1251774779
  0
LWPOLYLINE
  5
3C9
330
1F
100
AcDbEntity
  8
0
  6
Continuous
 62
     7
100
AcDbPolyline
 90
        3
 70
   128
 43
0.0
 10
4595.8480834961
 20
5197.1251774779
 10
4595.2836464561
 20
5197.0615181262
 10
4594.8377735346
 20
5197.0351781895
  0
LWPOLYLINE
  5
3CA
330
1F
100
AcDbEntity
  8
0
  6
Continuous
 62
     7
100
AcDbPolyline
 90
        3
 70
   128
 43
0.0
 10
4594.8371887207
 20
5197.0351781895
 10
4593.2091903008
 20
5196.9048671232
 10
4591.9254943161
 20
5196.9061173698
  0
LWPOLYLINE
  5
3CB
330
1F
100
AcDbEntity
  8
0
  6
Continuous
 62
     7
100
AcDbPolyline
 90
        3
 70
   128
 43
0.0
 10
4591.9227600098
 20
5196.9061173698
 10
4588.4863814885
 20
5196.9053467695
 10
4585.7842526763
 20
5196.9183586737
  0
LWPOLYLINE
  5
3CC
330
1F
100
AcDbEntity
  8
0
  6
Continuous
 62
     7
100
AcDbPolyline
 90
        3
 70
   128
 43
0.0
 10
4585.7810974121
 20
5196.9183586737
 10
4585.4969831215
 20
5196.9484883423
 10
4585.2702333956
 20
5196.9580181142
  0
LWPOLYLINE
  5
3CD
330
1F
100
AcDbEntity
  8
0
  6
Continuous
 62
     7
100
AcDbPolyline
 90
        3
 70
   128
 43
0.0
 10
4585.2699279785
 20
5196.9580181142
 10
4584.6348284527
 20
5197.0088777522
 10
4584.1364152162
 20
5197.0581576427
  0
LWPOLYLINE
  5
3CE
330
1F
100
AcDbEntity
  8
0
  6
Continuous
 62
     7
100
AcDbPolyline
 90
        3
 70
   128
 43
0.0
 10
4584.1331481934
 20
5197.0581576427
 10
4582.4688290524
 20
5197.3132339271
 10
4581.1838134556
 20
5197.6382374963
  0
LWPOLYLINE
  5
3CF
330
1F
100
AcDbEntity
  8
0
  6
Continuous
 62
     7
100
AcDbPolyline
 90
        3
 70
   128
 43
0.0
 10
4581.1805725098
 20
5197.6382374963
 10
4579.4309224138
 20
5198.3603606138
 10
4578.1999527841
 20
5199.1987774348
  0
LWPOLYLINE
  5
3D0
330
1F
100
AcDbEntity
  8
0
  6
Continuous
 62
     7
100
AcDbPolyline
 90
        3
 70
   128
 43
0.0
 10
4578.197479248
 20
5199.1987774348
 10
4577.8181209098
 20
5199.5184440777
 10
4577.5190740257
 20
5199.7707575759
  0
LWPOLYLINE
  5
3D1
330
1F
100
AcDbEntity
  8
0
  6
Continuous
 62
     7
100
AcDbPolyline
 90
        3
 70
   128
 43
0.0
 10
4577.5184631348
 20
5199.7707575759
 10
4576.4598913878
 20
5201.1862820457
 10
4575.8918746739
 20
5202.4537777727
  0
LWPOLYLINE
  5
3D2
330
1F
100
AcDbEntity
  8
0
  6
Continuous
 62
     7
100
AcDbPolyline
 90
        3
 70
   128
 43
0.0
 10
4575.8895874023
 20
5202.4537777727
 10
4575.6668836555
 20
5203.1728286406
 10
4575.5207128256
 20
5203.7464777207
  0
LWPOLYLINE
  5
3D3
330
1F
100
AcDbEntity
  8
0
  6
Continuous
 62
     7
100
AcDbPolyline
 90
        3
 70
   128
 43
0.0
 10
4575.5195617676
 20
5203.7464777207
 10
4575.4580421337
 20
5204.3403859486
 10
4575.4599347144
 20
5204.8096178299
  0
LWPOLYLINE
  5
3D4
330
1F
100
AcDbEntity
  8
0
  6
Continuous
 62
     7
100
AcDbPolyline
 90
        3
 70
   128
 43
0.0
 10
4575.4585266113
 20
5204.8096178299
 10
4575.4585149766
 20
5206.3011990959
 10
4575.4651538461
 20
5207.473137529
  0
LWPOLYLINE
  5
3D5
330
1F
100
AcDbEntity
  8
0
  6
Continuous
 62
     7
100
AcDbPolyline
 90
        3
 70
   128
 43
0.0
 10
4575.4623413086
 20
5207.473137529
 10
4576.5549215982
 20
5212.8270526688
 10
4577.8889730006
 20
5216.9074778179
  0
LWPOLYLINE
  5
3D6
330
1F
100
AcDbEntity
  8
0
  6
Continuous
 62
     7
100
AcDbPolyline
 90
        3
 70
   128
 43
0.0
 10
4577.8884887695
 20
5216.9074778179
 10
4580.171336401
 20
5223.2350875248
 10
4582.1682325929
 20
5228.1285576722
  0
LWPOLYLINE
  5
3D7
330
1F
100
AcDbEntity
  8
0
  6
Continuous
 62
     7
100
AcDbPolyline
 90
        3
 70
   128
 43
0.0
 10
4582.1647644043
 20
5228.1285576722
 10
4582.8763654061
 20
5229.7173568343
 10
4583.2583754688
 20
5231.0295585742
  0
LWPOLYLINE
  5
3D8
330
1F
100
AcDbEntity
  8
0
  6
Continuous
 62
     7
100
AcDbPolyline
 90
        3
 70
   128
 43
0.0
 10
4583.2557678223
 20
5231.0295585742
 10
4583.3352365512
 20
5231.9777548698
 10
4583.306975606
 20
5232.7246774187
  0
LWPOLYLINE
  5
3D9
330
1F
100
AcDbEntity
  8
0
  6
Continuous
 62
     7
100
AcDbPolyline
 90
        3
 70
   128
 43
0.0
 10
4583.3053588867
 20
5232.7246774187
 10
4582.9183940056
 20
5234.6502849218
 10
4582.34541485
 20
5236.0835369876
  0
LWPOLYLINE
  5
3DA
330
1F
100
AcDbEntity
  8
0
  6
Continuous
 62
     7
100
AcDbPolyline
 90
        3
 70
   128
 43
0.0
 10
4582.3440551758
 20
5236.0835369876
 10
4581.4187730973
 20
5238.1851284621
 10
4580.9841341703
 20
5239.9365581771
  0
LWPOLYLINE
  5
3DB
330
1F
100
AcDbEntity
  8
0
  6
Continuous
 62
     7
100
AcDbPolyline
 90
        3
 70
   128
 43
0.0
 10
4580.982208252
 20
5239.9365581771
 10
4580.825434657
 20
5241.4208920024
 10
4580.7955525248
 20
5242.5934184542
  0
LWPOLYLINE
  5
3DC
330
1F
100
AcDbEntity
  8
0
  6
Continuous
 62
     7
100
AcDbPolyline
 90
        3
 70
   128
 43
0.0
 10
4580.7952880859
 20
5242.5934184542
 10
4580.8916184538
 20
5243.4527799264
 10
4581.0722745388
 20
5244.1077582737
  0
LWPOLYLINE
  5
3DD
330
1F
100
AcDbEntity
  8
0
  6
Continuous
 62
     7
100
AcDbPolyline
 90
        3
 70
   128
 43
0.0
 10
4581.0699462891
 20
5244.1077582737
 10
4581.4171374913
 20
5244.7946789715
 10
4581.8330123454
 20
5245.2328182956
  0
LWPOLYLINE
  5
3DE
330
1F
100
AcDbEntity
  8
0
  6
Continuous
 62
     7
100
AcDbPolyline
 90
        3
 70
   128
 43
0.0
 10
4581.8328857422
 20
5245.2328182956
 10
4582.9300776469
 20
5245.7520786809
 10
4583.8718152969
 20
5245.9043372622
  0
LWPOLYLINE
  5
3DF
330
1F
100
AcDbEntity
  8
0
  6
Continuous
 62
     7
100
AcDbPolyline
 90
        3
 70
   128
 43
0.0
 10
4583.869934082
 20
5245.9043372622
 10
4583.9628511988
 20
5245.9175526445
 10
4584.0327925413
 20
5245.9357787123
  0
LWPOLYLINE
  5
3E0
330
1F
100
AcDbEntity
  8
0
  6
Continuous
 62
     7
100
AcDbPolyline
 90
        3
 70
   128
 43
0.0
 10
4584.0301513672
 20
5245.9357787123
 10
4584.084345132
 20
5247.0964054225
 10
4584.0770750671
 20
5248.0091970613
  0
LWPOLYLINE
  5
3E1
330
1F
100
AcDbEntity
  8
0
  6
Continuous
 62
     7
100
AcDbPolyline
 90
        3
 70
   128
 43
0.0
 10
4584.0759277344
 20
5248.0091970613
 10
4584.0840149315
 20
5248.63359571
 10
4584.0737148552
 20
5249.124116843
  0
LWPOLYLINE
  5
3E2
330
1F
100
AcDbEntity
  8
0
  6
Continuous
 62
     7
100
AcDbPolyline
 90
        3
 70
   128
 43
0.0
 10
4584.0721130371
 20
5249.124116843
 10
4584.053397771
 20
5249.4507799264
 10
4584.0838550954
 20
5249.7061189463
  0
LWPOLYLINE
  5
3E3
330
1F
100
AcDbEntity
  8
0
  6
Continuous
 62
     7
100
AcDbPolyline
 90
        3
 70
   128
 43
0.0
 10
4584.0835571289
 20
5249.7061189463
 10
4585.4694237777
 20
5249.7191877637
 10
4586.558133307
 20
5249.7193176499
  0
LWPOLYLINE
  5
3E4
330
1F
100
AcDbEntity
  8
0
  6
Continuous
 62
     7
100
AcDbPolyline
 90
        3
 70
   128
 43
0.0
 10
4586.555480957
 20
5249.7193176499
 10
4586.9834908265
 20
5249.7084022073
 10
4587.3177349
 20
5249.7154768756
  0
LWPOLYLINE
  5
3E5
330
1F
100
AcDbEntity
  8
0
  6
Continuous
 62
     7
100
AcDbPolyline
 90
        3
 70
   128
 43
0.0
 10
4587.3146057129
 20
5249.7154768756
 10
4587.5395410082
 20
5249.9408024889
 10
4587.4956957429
 20
5250.1952383866
  0
LWPOLYLINE
  5
3E6
330
1F
100
AcDbEntity
  8
0
  6
Continuous
 62
     7
100
AcDbPolyline
 90
        3
 70
   128
 43
0.0
 10
4587.4938964844
 20
5250.1952383866
 10
4587.1736705488
 20
5250.4887135107
 10
4586.9240126937
 20
5250.7229369333
  0
LWPOLYLINE
  5
3E7
330
1F
100
AcDbEntity
  8
0
  6
Continuous
 62
     7
100
AcDbPolyline
 90
        3
 70
   128
 43
0.0
 10
4586.9216918945
 20
5250.7229369333
 10
4586.3852013598
 20
5251.2189106804
 10
4585.973914656
 20
5251.6213167658
  0
LWPOLYLINE
  5
3E8
330
1F
100
AcDbEntity
  8
0
  6
Continuous
 62
     7
100
AcDbPolyline
 90
        3
 70
   128
 43
0.0
 10
4585.9718322754
 20
5251.6213167658
 10
4585.7291608826
 20
5251.9991280356
 10
4585.7437550455
 20
5252.3463588407
  0
LWPOLYLINE
  5
3E9
330
1F
100
AcDbEntity
  8
0
  6
Continuous
 62
     7
100
AcDbPolyline
 90
        3
 70
   128
 43
0.0
 10
4585.7429504395
 20
5252.3463588407
 10
4586.0250161488
 20
5252.7087692636
 10
4586.2976125806
 20
5252.9446777156
  0
LWPOLYLINE
  5
3EA
330
1F
100
AcDbEntity
  8
0
  6
Continuous
 62
     7
100
AcDbPolyline
 90
        3
 70
   128
 43
0.0
 10
4586.296081543
 20
5252.9446777156
 10
4586.8400752848
 20
5253.3277780163
 10
4587.2579141884
 20
5253.6403160741
  0
LWPOLYLINE
  5
3EB
330
1F
100
AcDbEntity
  8
0
  6
Continuous
 62
     7
100
AcDbPolyline
 90
        3
 70
   128
 43
0.0
 10
4587.2573852539
 20
5253.6403160741
 10
4587.5028344976
 20
5253.8475981096
 10
4587.7119339436
 20
5253.988437002
  0
LWPOLYLINE
  5
3EC
330
1F
100
AcDbEntity
  8
0
  6
Continuous
 62
     7
100
AcDbPolyline
 90
        3
 70
   128
 43
0.0
 10
4588.3293151855
 20
5253.452457135
 10
4587.7006784352
 20
5253.137811004
 10
4587.2235930889
 20
5252.8568987003
  0
LWPOLYLINE
  5
3ED
330
1F
100
AcDbEntity
  8
0
  6
Continuous
 62
     7
100
AcDbPolyline
 90
        3
 70
   128
 43
0.0
 10
4587.2230529785
 20
5252.8568987003
 10
4586.9282066386
 20
5252.6922116046
 10
4586.8128947347
 20
5252.4606581977
  0
LWPOLYLINE
  5
3EE
330
1F
100
AcDbEntity
  8
0
  6
Continuous
 62
     7
100
AcDbPolyline
 90
        3
 70
   128
 43
0.0
 10
4586.8110656738
 20
5252.4606581977
 10
4587.2191965476
 20
5252.4400112588
 10
4587.5388346045
 20
5252.4427171996
  0
LWPOLYLINE
  5
3EF
330
1F
100
AcDbEntity
  8
0
  6
Continuous
 62
     7
100
AcDbPolyline
 90
        3
 70
   128
 43
0.0
 10
4591.8197631836
 20
5252.4427768042
 10
4592.2281322968
 20
5252.4402070829
 10
4592.5464927583
 20
5252.4607178023
  0
LWPOLYLINE
  5
3F0
330
1F
100
AcDbEntity
  8
0
  6
Continuous
 62
     7
100
AcDbPolyline
 90
        3
 70
   128
 43
0.0
 10
4592.5445556641
 20
5252.4607178023
 10
4592.4416013327
 20
5252.7270354914
 10
4592.263773027
 20
5252.8728578439
  0
LWPOLYLINE
  5
3F1
330
1F
100
AcDbEntity
  8
0
  6
Continuous
 62
     7
100
AcDbPolyline
 90
        3
 70
   128
 43
0.0
 10
4592.2622680664
 20
5252.8728578439
 10
4591.6861912062
 20
5253.2514910123
 10
4591.1817326575
 20
5253.4514960101
  0
LWPOLYLINE
  5
3F2
330
1F
100
AcDbEntity
  8
0
  6
Continuous
 62
     7
100
AcDbPolyline
 90
        3
 70
   128
 43
0.0
 10
4591.178894043
 20
5253.4514960101
 10
4590.4431368517
 20
5253.5029533112
 10
4589.8617356449
 20
5253.4831162741
  0
LWPOLYLINE
  5
3F3
330
1F
100
AcDbEntity
  8
0
  6
Continuous
 62
     7
100
AcDbPolyline
 90
        3
 70
   128
 43
0.0
 10
4589.8590087891
 20
5253.4831162741
 10
4589.0034786688
 20
5253.5097759619
 10
4588.3312560051
 20
5253.452457135
  0
LWPOLYLINE
  5
3F4
330
1F
100
AcDbEntity
  8
0
  6
Continuous
 62
     7
100
AcDbPolyline
 90
        3
 70
   128
 43
0.0
 10
4587.8639221191
 20
5250.310916101
 10
4587.8499971702
 20
5249.9797833969
 10
4587.8657139271
 20
5249.7197386077
  0
LWPOLYLINE
  5
3F5
330
1F
100
AcDbEntity
  8
0
  6
Continuous
 62
     7
100
AcDbPolyline
 90
        3
 70
   128
 43
0.0
 10
4587.8639221191
 20
5249.7197386077
 10
4589.9328203522
 20
5249.7145566954
 10
4591.5569736987
 20
5249.7192580452
  0
LWPOLYLINE
  5
3F6
330
1F
100
AcDbEntity
  8
0
  6
Continuous
 62
     7
100
AcDbPolyline
 90
        3
 70
   128
 43
0.0
 10
4591.5565490723
 20
5249.7192580452
 10
4591.5840707041
 20
5250.0515058337
 10
4591.5530137151
 20
5250.3115792027
  0
LWPOLYLINE
  5
3F7
330
1F
100
AcDbEntity
  8
0
  6
Continuous
 62
     7
100
AcDbPolyline
 90
        3
 70
   128
 43
0.0
 10
4591.552734375
 20
5250.3115792027
 10
4589.4888301191
 20
5250.3136579952
 10
4587.8669730752
 20
5250.310916101
  0
LWPOLYLINE
  5
3F8
330
1F
100
AcDbEntity
  8
0
  6
Continuous
 62
     7
100
AcDbPolyline
 90
        3
 70
   128
 43
0.0
 10
4584.4612121582
 20
5245.3276176205
 10
4583.3802362198
 20
5245.1651511759
 10
4582.5675948887
 20
5244.8806777796
  0
LWPOLYLINE
  5
3F9
330
1F
100
AcDbEntity
  8
0
  6
Continuous
 62
     7
100
AcDbPolyline
 90
        3
 70
   128
 43
0.0
 10
4582.5653076172
 20
5244.8806777796
 10
4582.3299294346
 20
5244.6979270009
 10
4582.1900739699
 20
5244.5084374597
  0
LWPOLYLINE
  5
3FA
330
1F
100
AcDbEntity
  8
0
  6
Continuous
 62
     7
100
AcDbPolyline
 90
        3
 70
   128
 43
0.0
 10
4582.1876525879
 20
5244.5084374597
 10
4581.9599550292
 20
5244.1796232342
 10
4581.8046330839
 20
5243.9051974764
  0
LWPOLYLINE
  5
3FB
330
1F
100
AcDbEntity
  8
0
  6
Continuous
 62
     7
100
AcDbPolyline
 90
        3
 70
   128
 43
0.0
 10
4581.8023681641
 20
5243.9051974764
 10
4581.6354123103
 20
5243.3444332565
 10
4581.5403349131
 20
5242.8941369256
  0
LWPOLYLINE
  5
3FC
330
1F
100
AcDbEntity
  8
0
  6
Continuous
 62
     7
100
AcDbPolyline
 90
        3
 70
   128
 43
0.0
 10
4581.5391540527
 20
5242.8941369256
 10
4581.4853383026
 20
5242.4268519595
 10
4581.4803353875
 20
5242.057198306
  0
LWPOLYLINE
  5
3FD
330
1F
100
AcDbEntity
  8
0
  6
Continuous
 62
     7
100
AcDbPolyline
 90
        3
 70
   128
 43
0.0
 10
4581.4781188965
 20
5242.057198306
 10
4581.5188910317
 20
5241.5980738042
 10
4581.5412923127
 20
5241.2367571345
  0
LWPOLYLINE
  5
3FE
330
1F
100
AcDbEntity
  8
0
  6
Continuous
 62
     7
100
AcDbPolyline
 90
        3
 70
   128
 43
0.0
 10
4581.5391540527
 20
5241.2367571345
 10
4581.6207220339
 20
5240.4512846307
 10
4581.7116349368
 20
5239.8376777967
  0
LWPOLYLINE
  5
3FF
330
1F
100
AcDbEntity
  8
0
  6
Continuous
 62
     7
100
AcDbPolyline
 90
        3
 70
   128
 43
0.0
 10
4581.7108154297
 20
5239.8376777967
 10
4582.0974825051
 20
5238.2404035175
 10
4582.6120525031
 20
5237.056197246
  0
LWPOLYLINE
  5
400
330
1F
100
AcDbEntity
  8
0
  6
Continuous
 62
     7
100
AcDbPolyline
 90
        3
 70
   128
 43
0.0
 10
4582.6110839844
 20
5237.056197246
 10
4583.0648562925
 20
5236.2802485948
 10
4583.3892933457
 20
5235.6533386012
  0
LWPOLYLINE
  5
401
330
1F
100
AcDbEntity
  8
0
  6
Continuous
 62
     7
100
AcDbPolyline
 90
        3
 70
   128
 43
0.0
 10
4583.3892822266
 20
5235.6533386012
 10
4583.8290838713
 20
5234.2230640586
 10
4584.026012513
 20
5233.0639768591
  0
LWPOLYLINE
  5
402
330
1F
100
AcDbEntity
  8
0
  6
Continuous
 62
     7
100
AcDbPolyline
 90
        3
 70
   128
 43
0.0
 10
4584.0225219727
 20
5233.0639768591
 10
4584.0143898068
 20
5232.1406872432
 10
4584.0404740899
 20
5231.415656974
  0
LWPOLYLINE
  5
403
330
1F
100
AcDbEntity
  8
0
  6
Continuous
 62
     7
100
AcDbPolyline
 90
        3
 70
   128
 43
0.0
 10
4584.0377807617
 20
5231.415656974
 10
4583.7668110644
 20
5229.9502478376
 10
4583.354674223
 20
5228.8537776297
  0
LWPOLYLINE
  5
404
330
1F
100
AcDbEntity
  8
0
  6
Continuous
 62
     7
100
AcDbPolyline
 90
        3
 70
   128
 43
0.0
 10
4583.3511352539
 20
5228.8537776297
 10
4582.7853374358
 20
5227.5979137854
 10
4582.346312645
 20
5226.6074378243
  0
LWPOLYLINE
  5
405
330
1F
100
AcDbEntity
  8
0
  6
Continuous
 62
     7
100
AcDbPolyline
 90
        3
 70
   128
 43
0.0
 10
4582.3440551758
 20
5226.6074378243
 10
4581.7053327691
 20
5225.0900895978
 10
4581.2201126843
 20
5223.8902781358
  0
LWPOLYLINE
  5
406
330
1F
100
AcDbEntity
  8
0
  6
Continuous
 62
     7
100
AcDbPolyline
 90
        3
 70
   128
 43
0.0
 10
4581.2187194824
 20
5223.8902781358
 10
4580.0651710245
 20
5220.8931796384
 10
4579.2113132208
 20
5218.518357837
  0
LWPOLYLINE
  5
407
330
1F
100
AcDbEntity
  8
0
  6
Continuous
 62
     7
100
AcDbPolyline
 90
        3
 70
   128
 43
0.0
 10
4579.2083740234
 20
5218.518357837
 10
4578.465990412
 20
5216.4128459655
 10
4577.9247953921
 20
5214.7434577458
  0
LWPOLYLINE
  5
408
330
1F
100
AcDbEntity
  8
0
  6
Continuous
 62
     7
100
AcDbPolyline
 90
        3
 70
   128
 43
0.0
 10
4577.9228210449
 20
5214.7434577458
 10
4576.9662229026
 20
5211.376996129
 10
4576.4349325924
 20
5208.6785976974
  0
LWPOLYLINE
  5
409
330
1F
100
AcDbEntity
  8
0
  6
Continuous
 62
     7
100
AcDbPolyline
 90
        3
 70
   128
 43
0.0
 10
4576.4312744141
 20
5208.6785976974
 10
4576.3641270242
 20
5208.1995419391
 10
4576.2712545126
 20
5207.8305577127
  0
LWPOLYLINE
  5
40A
330
1F
100
AcDbEntity
  8
0
  6
Continuous
 62
     7
100
AcDbPolyline
 90
        3
 70
   128
 43
0.0
 10
4576.2710571289
 20
5207.8305577127
 10
4576.1784611739
 20
5207.0344160191
 10
4576.1825143724
 20
5206.4046576818
  0
LWPOLYLINE
  5
40B
330
1F
100
AcDbEntity
  8
0
  6
Continuous
 62
     7
100
AcDbPolyline
 90
        3
 70
   128
 43
0.0
 10
4576.1795043945
 20
5206.4046576818
 10
4576.1764703128
 20
5205.9726923259
 10
4576.1712341934
 20
5205.6332981413
  0
LWPOLYLINE
  5
40C
330
1F
100
AcDbEntity
  8
0
  6
Continuous
 62
     7
100
AcDbPolyline
 90
        3
 70
   128
 43
0.0
 10
4576.1680603027
 20
5205.6332981413
 10
4576.3784897124
 20
5203.4148600096
 10
4576.966594848
 20
5201.7658181688
  0
LWPOLYLINE
  5
40D
330
1F
100
AcDbEntity
  8
0
  6
Continuous
 62
     7
100
AcDbPolyline
 90
        3
 70
   128
 43
0.0
 10
4576.9653320312
 20
5201.7658181688
 10
4577.2824707772
 20
5201.1540293567
 10
4577.5973125725
 20
5200.7140774479
  0
LWPOLYLINE
  5
40E
330
1F
100
AcDbEntity
  8
0
  6
Continuous
 62
     7
100
AcDbPolyline
 90
        3
 70
   128
 43
0.0
 10
4577.5947570801
 20
5200.7140774479
 10
4577.7781810286
 20
5200.5310173115
 10
4577.911473754
 20
5200.378977341
  0
LWPOLYLINE
  5
40F
330
1F
100
AcDbEntity
  8
0
  6
Continuous
 62
     7
100
AcDbPolyline
 90
        3
 70
   128
 43
0.0
 10
4577.9113769531
 20
5200.378977341
 10
4578.5781337291
 20
5199.7183964549
 10
4579.1892334252
 20
5199.3055181777
  0
LWPOLYLINE
  5
410
330
1F
100
AcDbEntity
  8
0
  6
Continuous
 62
     7
100
AcDbPolyline
 90
        3
 70
   128
 43
0.0
 10
4579.1854858398
 20
5199.3055181777
 10
4579.8950568854
 20
5198.9250049855
 10
4580.470055285
 20
5198.6674774637
  0
LWPOLYLINE
  5
411
330
1F
100
AcDbEntity
  8
0
  6
Continuous
 62
     7
100
AcDbPolyline
 90
        3
 70
   128
 43
0.0
 10
4580.4672241211
 20
5198.6674774637
 10
4583.1807577457
 20
5197.9281003818
 10
4585.3758938044
 20
5197.6925969323
  0
LWPOLYLINE
  5
412
330
1F
100
AcDbEntity
  8
0
  6
Continuous
 62
     7
100
AcDbPolyline
 90
        3
 70
   128
 43
0.0
 10
4585.3729248047
 20
5197.6925969323
 10
4586.2974683828
 20
5197.6445549117
 10
4587.0215147167
 20
5197.6058982512
  0
LWPOLYLINE
  5
413
330
1F
100
AcDbEntity
  8
0
  6
Continuous
 62
     7
100
AcDbPolyline
 90
        3
 70
   128
 43
0.0
 10
4587.0208740234
 20
5197.6058982512
 10
4589.8833935421
 20
5197.6036388182
 10
4592.1320132344
 20
5197.6030186018
  0
LWPOLYLINE
  5
414
330
1F
100
AcDbEntity
  8
0
  6
Continuous
 62
     7
100
AcDbPolyline
 90
        3
 70
   128
 43
0.0
 10
4592.1287536621
 20
5197.6030186018
 10
4592.8263050678
 20
5197.6308890091
 10
4593.3720357149
 20
5197.646516954
  0
LWPOLYLINE
  5
415
330
1F
100
AcDbEntity
  8
0
  6
Continuous
 62
     7
100
AcDbPolyline
 90
        3
 70
   128
 43
0.0
 10
4593.3685302734
 20
5197.646516954
 10
4593.9766476534
 20
5197.6869657907
 10
4594.4496355384
 20
5197.7414373508
  0
LWPOLYLINE
  5
416
330
1F
100
AcDbEntity
  8
0
  6
Continuous
 62
     7
100
AcDbPolyline
 90
        3
 70
   128
 43
0.0
 10
4594.4480895996
 20
5197.7414373508
 10
4597.3033159398
 20
5198.1287791358
 10
4599.4361135542
 20
5198.8839578083
  0
LWPOLYLINE
  5
417
330
1F
100
AcDbEntity
  8
0
  6
Continuous
 62
     7
100
AcDbPolyline
 90
        3
 70
   128
 43
0.0
 10
4599.4338989258
 20
5198.8839578083
 10
4600.0617428793
 20
5199.2430771973
 10
4600.5476749866
 20
5199.5348377353
  0
LWPOLYLINE
  5
418
330
1F
100
AcDbEntity
  8
0
  6
Continuous
 62
     7
100
AcDbPolyline
 90
        3
 70
   128
 43
0.0
 10
4600.5439758301
 20
5199.5348377353
 10
4601.1723689286
 20
5200.0266132102
 10
4601.5977933436
 20
5200.483977442
  0
LWPOLYLINE
  5
419
330
1F
100
AcDbEntity
  8
0
  6
Continuous
 62
     7
100
AcDbPolyline
 90
        3
 70
   128
 43
0.0
 10
4601.5968322754
 20
5200.483977442
 10
4602.4386148981
 20
5201.650883005
 10
4602.9314733475
 20
5202.6677379584
  0
LWPOLYLINE
  5
41A
330
1F
100
AcDbEntity
  8
0
  6
Continuous
 62
     7
100
AcDbPolyline
 90
        3
 70
   128
 43
0.0
 10
4602.9281616211
 20
5202.6677379584
 10
4603.3157314637
 20
5204.1226774545
 10
4603.4523341238
 20
5205.2971177002
  0
LWPOLYLINE
  5
41B
330
1F
100
AcDbEntity
  8
0
  6
Continuous
 62
     7
100
AcDbPolyline
 90
        3
 70
   128
 43
0.0
 10
4603.4507751465
 20
5205.2971177002
 10
4603.4566196176
 20
5206.0544739284
 10
4603.4407540589
 20
5206.6493375426
  0
LWPOLYLINE
  5
41C
330
1F
100
AcDbEntity
  8
0
  6
Continuous
 62
     7
100
AcDbPolyline
 90
        3
 70
   128
 43
0.0
 10
4603.4393310547
 20
5206.6493375426
 10
4603.3852542905
 20
5207.2957269224
 10
4603.3116932391
 20
5207.8001379235
  0
LWPOLYLINE
  5
41D
330
1F
100
AcDbEntity
  8
0
  6
Continuous
 62
     7
100
AcDbPolyline
 90
        3
 70
   128
 43
0.0
 10
4603.3096313477
 20
5207.8001379235
 10
4603.0543817483
 20
5209.4491687554
 10
4602.786574456
 20
5210.7328778332
  0
LWPOLYLINE
  5
41E
330
1F
100
AcDbEntity
  8
0
  6
Continuous
 62
     7
100
AcDbPolyline
 90
        3
 70
   128
 43
0.0
 10
4602.783203125
 20
5210.7328778332
 10
4602.1736897293
 20
5213.0818580499
 10
4601.6113534003
 20
5214.9044977526
  0
LWPOLYLINE
  5
41F
330
1F
100
AcDbEntity
  8
0
  6
Continuous
 62
     7
100
AcDbPolyline
 90
        3
 70
   128
 43
0.0
 10
4601.6082763672
 20
5214.9044977526
 10
4600.6426090916
 20
5217.7003314039
 10
4599.8477748959
 20
5219.8850979296
  0
LWPOLYLINE
  5
420
330
1F
100
AcDbEntity
  8
0
  6
Continuous
 62
     7
100
AcDbPolyline
 90
        3
 70
   128
 43
0.0
 10
4599.8458862305
 20
5219.8850979296
 10
4599.203338517
 20
5221.5794257842
 10
4598.6925344347
 20
5222.9089779979
  0
LWPOLYLINE
  5
421
330
1F
100
AcDbEntity
  8
0
  6
Continuous
 62
     7
100
AcDbPolyline
 90
        3
 70
   128
 43
0.0
 10
4598.690032959
 20
5222.9089779979
 10
4597.3696749137
 20
5226.2272615211
 10
4596.255693528
 20
5228.8034973865
  0
LWPOLYLINE
  5
422
330
1F
100
AcDbEntity
  8
0
  6
Continuous
 62
     7
100
AcDbPolyline
 90
        3
 70
   128
 43
0.0
 10
4596.2524414062
 20
5228.8034973865
 10
4595.7970542036
 20
5229.9810600357
 10
4595.5502129524
 20
5230.9427984258
  0
LWPOLYLINE
  5
423
330
1F
100
AcDbEntity
  8
0
  6
Continuous
 62
     7
100
AcDbPolyline
 90
        3
 70
   128
 43
0.0
 10
4595.5467224121
 20
5230.9427984258
 10
4595.5254221428
 20
5231.6954442273
 10
4595.531612578
 20
5232.2870973697
  0
LWPOLYLINE
  5
424
330
1F
100
AcDbEntity
  8
0
  6
Continuous
 62
     7
100
AcDbPolyline
 90
        3
 70
   128
 43
0.0
 10
4595.531463623
 20
5232.2870973697
 10
4595.5383243753
 20
5232.6195870109
 10
4595.5647937386
 20
5232.8795377364
  0
LWPOLYLINE
  5
425
330
1F
100
AcDbEntity
  8
0
  6
Continuous
 62
     7
100
AcDbPolyline
 90
        3
 70
   128
 43
0.0
 10
4595.5619812012
 20
5232.8795377364
 10
4595.6354431419
 20
5233.7875766831
 10
4595.751512739
 20
5234.4937171986
  0
LWPOLYLINE
  5
426
330
1F
100
AcDbEntity
  8
0
  6
Continuous
 62
     7
100
AcDbPolyline
 90
        3
 70
   128
 43
0.0
 10
4595.7489013672
 20
5234.4937171986
 10
4596.1408523716
 20
5235.6888205578
 10
4596.6019536733
 20
5236.5622181645
  0
LWPOLYLINE
  5
427
330
1F
100
AcDbEntity
  8
0
  6
Continuous
 62
     7
100
AcDbPolyline
 90
        3
 70
   128
 43
0.0
 10
4596.5995788574
 20
5236.5622181645
 10
4597.3395808555
 20
5238.2354000466
 10
4597.725093308
 20
5239.619398137
  0
LWPOLYLINE
  5
428
330
1F
100
AcDbEntity
  8
0
  6
Continuous
 62
     7
100
AcDbPolyline
 90
        3
 70
   128
 43
0.0
 10
4597.7249145508
 20
5239.619398137
 10
4597.9408412093
 20
5241.0831973409
 10
4598.0311538457
 20
5242.2422372004
  0
LWPOLYLINE
  5
429
330
1F
100
AcDbEntity
  8
0
  6
Continuous
 62
     7
100
AcDbPolyline
 90
        3
 70
   128
 43
0.0
 10
4598.030090332
 20
5242.2422372004
 10
4597.9627689255
 20
5242.8542939814
 10
4597.8708341151
 20
5243.3293774923
  0
LWPOLYLINE
  5
42A
330
1F
100
AcDbEntity
  8
0
  6
Continuous
 62
     7
100
AcDbPolyline
 90
        3
 70
   128
 43
0.0
 10
4597.8698730469
 20
5243.3293774923
 10
4597.5801586874
 20
5244.1307870585
 10
4597.1978734612
 20
5244.6809984943
  0
LWPOLYLINE
  5
42B
330
1F
100
AcDbEntity
  8
0
  6
Continuous
 62
     7
100
AcDbPolyline
 90
        3
 70
   128
 43
0.0
 10
4597.1946716309
 20
5244.6809984943
 10
4596.7873615474
 20
5244.9627819412
 10
4596.4298135965
 20
5245.1216984739
  0
LWPOLYLINE
  5
42C
330
1F
100
AcDbEntity
  8
0
  6
Continuous
 62
     7
100
AcDbPolyline
 90
        3
 70
   128
 43
0.0
 10
4596.4279174805
 20
5245.1216984739
 10
4595.7062320119
 20
5245.2860335311
 10
4595.12343252
 20
5245.3020584037
  0
LWPOLYLINE
  5
42D
330
1F
100
AcDbEntity
  8
0
  6
Continuous
 62
     7
100
AcDbPolyline
 90
        3
 70
   128
 43
0.0
 10
4595.1232910156
 20
5245.3020584037
 10
4593.7365880789
 20
5245.3121739103
 10
4592.6469340353
 20
5245.303017666
  0
LWPOLYLINE
  5
42E
330
1F
100
AcDbEntity
  8
0
  6
Continuous
 62
     7
100
AcDbPolyline
 90
        3
 70
   128
 43
0.0
 10
4592.643737793
 20
5245.303017666
 10
4591.0856701783
 20
5245.3061655034
 10
4589.8589752047
 20
5245.3121986439
  0
LWPOLYLINE
  5
42F
330
1F
100
AcDbEntity
  8
0
  6
Continuous
 62
     7
100
AcDbPolyline
 90
        3
 70
   128
 43
0.0
 10
4589.8551940918
 20
5245.3121986439
 10
4588.965610161
 20
5245.3078027075
 10
4588.2643535166
 20
5245.3387171229
  0
LWPOLYLINE
  5
430
330
1F
100
AcDbEntity
  8
0
  6
Continuous
 62
     7
100
AcDbPolyline
 90
        3
 70
   128
 43
0.0
 10
4588.2606506348
 20
5245.3387171229
 10
4587.8003767976
 20
5245.3422815398
 10
4587.4358154266
 20
5245.3436382314
  0
LWPOLYLINE
  5
431
330
1F
100
AcDbEntity
  8
0
  6
Continuous
 62
     7
100
AcDbPolyline
 90
        3
 70
   128
 43
0.0
 10
4587.4328613281
 20
5245.3436382314
 10
4586.799696049
 20
5245.3649757249
 10
4586.2996540397
 20
5245.3580979457
  0
LWPOLYLINE
  5
432
330
1F
100
AcDbEntity
  8
0
  6
Continuous
 62
     7
100
AcDbPolyline
 90
        3
 70
   128
 43
0.0
 10
4586.296081543
 20
5245.3580979457
 10
4585.2712396483
 20
5245.3641838124
 10
4584.4640135198
 20
5245.3276176205
  0
LWPOLYLINE
  5
433
330
1F
100
AcDbEntity
  8
0
  6
Continuous
 62
     7
100
AcDbPolyline
 90
        3
 70
   128
 43
0.0
 10
4604.0191650391
 20
5207.9798976159
 10
4604.0309844299
 20
5206.5028258306
 10
4604.0303147762
 20
5205.342237485
  0
LWPOLYLINE
  5
434
330
1F
100
AcDbEntity
  8
0
  6
Continuous
 62
     7
100
AcDbPolyline
 90
        3
 70
   128
 43
0.0
 10
4604.0115356445
 20
5203.7201380556
 10
4603.2675427297
 20
5201.5728944181
 10
4602.2864747225
 20
5200.079697763
  0
LWPOLYLINE
  5
435
330
1F
100
AcDbEntity
  8
0
  6
Continuous
 62
     7
100
AcDbPolyline
 90
        3
 70
   128
 43
0.0
 10
4600.9712219238
 20
5218.8052177628
 10
4602.9793196288
 20
5212.8252084367
 10
4604.0199938595
 20
5207.9798976159
  0
LWPOLYLINE
  5
436
330
1F
100
AcDbEntity
  8
0
  6
Continuous
 62
     7
100
AcDbPolyline
 90
        3
 70
   128
 43
0.0
 10
4604.0267944336
 20
5205.342237485
 10
4604.0330245751
 20
5204.4337328672
 10
4604.0147747277
 20
5203.7201380556
  0
LWPOLYLINE
  5
437
330
1F
100
AcDbEntity
  8
0
  6
Continuous
 62
     7
100
AcDbPolyline
 90
        3
 70
   128
 43
0.0
 10
4632.8010559082
 20
5246.5049769929
 10
4629.598855729
 20
5246.3163260064
 10
4627.1352510682
 20
5246.8619417598
  0
LWPOLYLINE
  5
438
330
1F
100
AcDbEntity
  8
0
  6
Continuous
 62
     7
100
AcDbPolyline
 90
       17
 70
   128
 43
0.0
 10
4627.1324157715
 20
5246.8619417598
 10
4621.1378372792
 20
5198.7400762286
 10
4622.0206834471
 20
5196.9122975656
 10
4622.890332359
 20
5196.4102146845
 10
4623.8714995361
 20
5196.6359371591
 10
4626.365601421
 20
5198.4023679458
 10
4627.0937509498
 20
5198.5615723791
 10
4627.6101645569
 20
5198.0152489275
 10
4628.7132586638
 20
5197.0454860163
 10
4631.5194020607
 20
5198.1487688162
 10
4632.935086104
 20
5197.7322494957
 10
4633.4554746301
 20
5197.1691688874
 10
4634.1106825765
 20
5196.9042455738
 10
4636.5157242797
 20
5201.712343147
 10
4637.4321034855
 20
5207.0679421888
 10
4637.5668136189
 20
5217.9321209474
 10
4632.8045701972
 20
5246.5049769929
  0
LWPOLYLINE
  5
439
330
1F
100
AcDbEntity
  8
0
  6
Continuous
 62
     7
100
AcDbPolyline
 90
       21
 70
   128
 43
0.0
 10
4628.776550293
 20
5195.5380119583
 10
4626.9038991308
 20
5196.8649229763
 10
4625.8037447583
 20
5196.7454748384
 10
4625.0741825939
 20
5195.8595000653
 10
4624.0662021016
 20
5195.3535565044
 10
4622.9224270572
 20
5195.4604639468
 10
4621.0488332218
 20
5196.7396318662
 10
4619.0321623387
 20
5205.5959041242
 10
4620.244618928
 20
5223.912062762
 10
4624.2812934196
 20
5241.8197182583
 10
4625.8247569458
 20
5246.1358085261
 10
4626.027808912
 20
5247.2492629601
 10
4625.2875409883
 20
5248.1205648519
 10
4625.0645762059
 20
5248.6440732706
 10
4625.1258188747
 20
5249.210320164
 10
4625.9230410715
 20
5250.0252634065
 10
4626.3123626235
 20
5251.0709988291
 10
4626.1060836658
 20
5252.200632664
 10
4626.0432790882
 20
5254.4451725383
 10
4627.8335293509
 20
5255.812532711
 10
4630.1018916435
 20
5256.1690543046
  0
LWPOLYLINE
  5
43A
330
1F
100
AcDbEntity
  8
0
  6
Continuous
 62
     7
100
AcDbPolyline
 90
       21
 70
   128
 43
0.0
 10
4630.1002502441
 20
5256.1690543046
 10
4633.4828022556
 20
5255.586232171
 10
4634.3090420918
 20
5254.1446604247
 10
4634.1804049594
 20
5252.4245221099
 10
4634.4020923074
 20
5250.5345763562
 10
4635.2677804648
 20
5250.1637014391
 10
4635.5831982706
 20
5249.3782868626
 10
4634.9113184379
 20
5248.2871978902
 10
4634.688086442
 20
5243.1973736388
 10
4636.7785836029
 20
5233.0646583217
 10
4638.2722752146
 20
5205.6377824814
 10
4636.2738356151
 20
5196.6666533732
 10
4634.5470190655
 20
5195.2462795387
 10
4633.6983667695
 20
5195.3102971271
 10
4633.0312750989
 20
5195.8496957506
 10
4632.4750225584
 20
5196.5088387341
 10
4632.1487621845
 20
5196.7910520839
 10
4631.7333657223
 20
5196.8342343139
 10
4630.4074655128
 20
5195.7340711426
 10
4629.6202568108
 20
5195.3962334472
 10
4628.7788242932
 20
5195.5380119583
  0
LWPOLYLINE
  5
43B
330
1F
100
AcDbEntity
  8
0
  6
Continuous
 62
     7
100
AcDbPolyline
 90
        7
 70
   128
 43
0.0
 10
4631.477355957
 20
5252.9373277178
 10
4632.6191322475
 20
5253.8589329912
 10
4632.6630785106
 20
5254.1310024374
 10
4632.5398140976
 20
5254.3789667362
 10
4632.0985341044
 20
5254.714069337
 10
4631.0478953184
 20
5255.0892417403
 10
4628.8533545463
 20
5255.1003877273
  0
LWPOLYLINE
  5
43C
330
1F
100
AcDbEntity
  8
0
  6
Continuous
 62
     7
100
AcDbPolyline
 90
        6
 70
   128
 43
0.0
 10
4628.8528442383
 20
5255.1003877273
 10
4628.2067624156
 20
5254.7366941662
 10
4627.8760604914
 20
5254.0955080045
 10
4628.3348265617
 20
5253.1007892057
 10
4629.3071339312
 20
5252.5863478442
 10
4631.4778248212
 20
5252.9373277178
  0
LWPOLYLINE
  5
43D
330
1F
100
AcDbEntity
  8
0
  6
Continuous
 62
     7
100
AcDbPolyline
 90
        3
 70
   128
 43
0.0
 10
4650.4745483398
 20
5322.9229036918
 10
4650.8975627882
 20
5322.1703401736
 10
4651.1027104586
 20
5321.5239677777
  0
LWPOLYLINE
  5
43E
330
1F
100
AcDbEntity
  8
0
  6
Continuous
 62
     7
100
AcDbPolyline
 90
        3
 70
   128
 43
0.0
 10
4651.1001586914
 20
5321.5239677777
 10
4651.2313254429
 20
5320.7445856315
 10
4651.2657589643
 20
5320.1250318637
  0
LWPOLYLINE
  5
43F
330
1F
100
AcDbEntity
  8
0
  6
Continuous
 62
     7
100
AcDbPolyline
 90
        3
 70
   128
 43
0.0
 10
4650.6576538086
 20
5317.1618093004
 10
4649.8389699491
 20
5315.478612612
 10
4649.0316483556
 20
5314.2479170313
  0
LWPOLYLINE
  5
440
330
1F
100
AcDbEntity
  8
0
  6
Continuous
 62
     7
100
AcDbPolyline
 90
        3
 70
   128
 43
0.0
 10
4642.9328918457
 20
5305.290717279
 10
4641.9924749535
 20
5304.2272988679
 10
4641.049540545
 20
5303.6333803287
  0
LWPOLYLINE
  5
441
330
1F
100
AcDbEntity
  8
0
  6
Continuous
 62
     7
100
AcDbPolyline
 90
        3
 70
   128
 43
0.0
 10
4641.0484313965
 20
5303.6333803287
 10
4639.7054100012
 20
5303.2326374016
 10
4638.6061002865
 20
5303.1448830118
  0
LWPOLYLINE
  5
442
330
1F
100
AcDbEntity
  8
0
  6
Continuous
 62
     7
100
AcDbPolyline
 90
        3
 70
   128
 43
0.0
 10
4638.4201049805
 20
5304.4246617904
 10
4639.6109215104
 20
5304.5286193124
 10
4640.5167467325
 20
5304.768468832
  0
LWPOLYLINE
  5
443
330
1F
100
AcDbEntity
  8
0
  6
Continuous
 62
     7
100
AcDbPolyline
 90
        3
 70
   128
 43
0.0
 10
4640.5143737793
 20
5304.768468832
 10
4641.4482955597
 20
5305.2791085101
 10
4642.0061820551
 20
5305.8984536877
  0
LWPOLYLINE
  5
444
330
1F
100
AcDbEntity
  8
0
  6
Continuous
 62
     7
100
AcDbPolyline
 90
        3
 70
   128
 43
0.0
 10
4647.2625732422
 20
5313.7358758798
 10
4646.3286858545
 20
5313.6449348558
 10
4645.5901469468
 20
5313.6039484491
  0
LWPOLYLINE
  5
445
330
1F
100
AcDbEntity
  8
0
  6
Continuous
 62
     7
100
AcDbPolyline
 90
        3
 70
   128
 43
0.0
 10
4645.5879211426
 20
5313.6039484491
 10
4644.6780576422
 20
5313.5768968278
 10
4643.961131516
 20
5313.570517694
  0
LWPOLYLINE
  5
446
330
1F
100
AcDbEntity
  8
0
  6
Continuous
 62
     7
100
AcDbPolyline
 90
        3
 70
   128
 43
0.0
 10
4645.1454162598
 20
5314.7288296571
 10
4646.2674983483
 20
5314.855044073
 10
4647.102557066
 20
5315.1475671878
  0
LWPOLYLINE
  5
447
330
1F
100
AcDbEntity
  8
0
  6
Continuous
 62
     7
100
AcDbPolyline
 90
        3
 70
   128
 43
0.0
 10
4647.102355957
 20
5315.1475671878
 10
4648.0162064627
 20
5315.7014093634
 10
4648.6384365141
 20
5316.2647891989
  0
LWPOLYLINE
  5
448
330
1F
100
AcDbEntity
  8
0
  6
Continuous
 62
     7
100
AcDbPolyline
 90
        3
 70
   128
 43
0.0
 10
4648.6358642578
 20
5316.2647891989
 10
4649.281914342
 20
5317.1067507439
 10
4649.6626026361
 20
5317.8472776165
  0
LWPOLYLINE
  5
449
330
1F
100
AcDbEntity
  8
0
  6
Continuous
 62
     7
100
AcDbPolyline
 90
        3
 70
   128
 43
0.0
 10
4649.6620178223
 20
5317.8472776165
 10
4649.9617323926
 20
5318.8463102696
 10
4650.034816879
 20
5319.6623210063
  0
LWPOLYLINE
  5
44A
330
1F
100
AcDbEntity
  8
0
  6
Continuous
 62
     7
100
AcDbPolyline
 90
        3
 70
   128
 43
0.0
 10
4650.032043457
 20
5319.6623210063
 10
4649.9753396814
 20
5320.3989198084
 10
4649.8487088262
 20
5320.9656436196
  0
LWPOLYLINE
  5
44B
330
1F
100
AcDbEntity
  8
0
  6
Continuous
 62
     7
100
AcDbPolyline
 90
        3
 70
   128
 43
0.0
 10
4649.845123291
 20
5320.9656436196
 10
4649.619872277
 20
5321.6302295809
 10
4649.3831946879
 20
5322.1290666809
  0
LWPOLYLINE
  5
44C
330
1F
100
AcDbEntity
  8
0
  6
Continuous
 62
     7
100
AcDbPolyline
 90
        3
 70
   128
 43
0.0
 10
4651.2641906738
 20
5320.1250318637
 10
4651.0658174894
 20
5318.4360243904
 10
4650.6606637865
 20
5317.1618093004
  0
LWPOLYLINE
  5
44D
330
1F
100
AcDbEntity
  8
0
  6
Continuous
 62
     7
100
AcDbPolyline
 90
        3
 70
   128
 43
0.0
 10
4614.5210266113
 20
5301.6554523459
 10
4613.2680403371
 20
5301.7889318787
 10
4612.3351640432
 20
5302.1207187524
  0
LWPOLYLINE
  5
44E
330
1F
100
AcDbEntity
  8
0
  6
Continuous
 62
     7
100
AcDbPolyline
 90
        3
 70
   128
 43
0.0
 10
4612.3313903809
 20
5302.1207187524
 10
4611.3412873872
 20
5302.7534746416
 10
4610.6596215992
 20
5303.3800754895
  0
LWPOLYLINE
  5
44F
330
1F
100
AcDbEntity
  8
0
  6
Continuous
 62
     7
100
AcDbPolyline
 90
        3
 70
   128
 43
0.0
 10
4610.6567382812
 20
5303.3800754895
 10
4609.8577581255
 20
5304.3825629108
 10
4609.3330736636
 20
5305.2442778101
  0
LWPOLYLINE
  5
450
330
1F
100
AcDbEntity
  8
0
  6
Continuous
 62
     7
100
AcDbPolyline
 90
        3
 70
   128
 43
0.0
 10
4609.3330383301
 20
5305.2442778101
 10
4608.6929754452
 20
5306.511149932
 10
4608.2394048005
 20
5307.5300190797
  0
LWPOLYLINE
  5
451
330
1F
100
AcDbEntity
  8
0
  6
Continuous
 62
     7
100
AcDbPolyline
 90
        3
 70
   128
 43
0.0
 10
4603.8627624512
 20
5317.5059441676
 10
4603.6991647244
 20
5317.939150605
 10
4603.6316025435
 20
5318.2971511235
  0
LWPOLYLINE
  5
452
330
1F
100
AcDbEntity
  8
0
  6
Continuous
 62
     7
100
AcDbPolyline
 90
        3
 70
   128
 43
0.0
 10
4603.630065918
 20
5318.2971511235
 10
4603.5941018793
 20
5318.7671566524
 10
4603.5850755303
 20
5319.1375095596
  0
LWPOLYLINE
  5
453
330
1F
100
AcDbEntity
  8
0
  6
Continuous
 62
     7
100
AcDbPolyline
 90
        3
 70
   128
 43
0.0
 10
4603.5842895508
 20
5319.1375095596
 10
4603.6426453461
 20
5320.1086169633
 10
4603.7711835831
 20
5320.8620507469
  0
LWPOLYLINE
  5
454
330
1F
100
AcDbEntity
  8
0
  6
Continuous
 62
     7
100
AcDbPolyline
 90
        3
 70
   128
 43
0.0
 10
4603.7673950195
 20
5320.8620507469
 10
4604.0907648906
 20
5321.8069991809
 10
4604.4693327873
 20
5322.4936235895
  0
LWPOLYLINE
  5
455
330
1F
100
AcDbEntity
  8
0
  6
Continuous
 62
     7
100
AcDbPolyline
 90
        3
 70
   128
 43
0.0
 10
4605.5374145508
 20
5321.7179808965
 10
4604.9590904172
 20
5320.328020407
 10
4604.7951839297
 20
5319.1581849208
  0
LWPOLYLINE
  5
456
330
1F
100
AcDbEntity
  8
0
  6
Continuous
 62
     7
100
AcDbPolyline
 90
        3
 70
   128
 43
0.0
 10
4604.793548584
 20
5319.1581849208
 10
4604.8103483948
 20
5318.831469052
 10
4604.8417109429
 20
5318.5763914337
  0
LWPOLYLINE
  5
457
330
1F
100
AcDbEntity
  8
0
  6
Continuous
 62
     7
100
AcDbPolyline
 90
        3
 70
   128
 43
0.0
 10
4604.8393249512
 20
5318.5763914337
 10
4604.9266288949
 20
5318.2186467675
 10
4605.027900952
 20
5317.947994565
  0
LWPOLYLINE
  5
458
330
1F
100
AcDbEntity
  8
0
  6
Continuous
 62
     7
100
AcDbPolyline
 90
        7
 70
   128
 43
0.0
 10
4608.7951660156
 20
5309.1047663441
 10
4608.7983994877
 20
5309.1003571397
 10
4608.799164581
 20
5309.0988817221
 10
4608.8006270454
 20
5309.0981641693
 10
4608.8085887087
 20
5309.1039391778
 10
4608.8378612231
 20
5309.1486345047
 10
4608.9376359611
 20
5309.3374032726
  0
LWPOLYLINE
  5
459
330
1F
100
AcDbEntity
  8
0
  6
Continuous
 62
     7
100
AcDbPolyline
 90
        3
 70
   128
 43
0.0
 10
4608.9363098145
 20
5309.3374032726
 10
4609.1347245223
 20
5309.7405923265
 10
4609.2865466504
 20
5310.0588504424
  0
LWPOLYLINE
  5
45A
330
1F
100
AcDbEntity
  8
0
  6
Continuous
 62
     7
100
AcDbPolyline
 90
        3
 70
   128
 43
0.0
 10
4609.2834472656
 20
5310.0588504424
 10
4609.5537023764
 20
5310.5965235244
 10
4609.7753662049
 20
5311.0129419913
  0
LWPOLYLINE
  5
45B
330
1F
100
AcDbEntity
  8
0
  6
Continuous
 62
     7
100
AcDbPolyline
 90
        3
 70
   128
 43
0.0
 10
4609.7717285156
 20
5311.0129419913
 10
4610.0830460238
 20
5311.5632758121
 10
4610.3336885004
 20
5311.9905848255
  0
LWPOLYLINE
  5
45C
330
1F
100
AcDbEntity
  8
0
  6
Continuous
 62
     7
100
AcDbPolyline
 90
        3
 70
   128
 43
0.0
 10
4610.7521057129
 20
5310.3899765959
 10
4610.4343886234
 20
5309.6603895215
 10
4610.217329058
 20
5309.0738836875
  0
LWPOLYLINE
  5
45D
330
1F
100
AcDbEntity
  8
0
  6
Continuous
 62
     7
100
AcDbPolyline
 90
        3
 70
   128
 43
0.0
 10
4610.2142333984
 20
5309.0738836875
 10
4610.0458555826
 20
5308.3186062774
 10
4610.0079994082
 20
5307.7110234847
  0
LWPOLYLINE
  5
45E
330
1F
100
AcDbEntity
  8
0
  6
Continuous
 62
     7
100
AcDbPolyline
 90
        3
 70
   128
 43
0.0
 10
4610.0044250488
 20
5307.7110234847
 10
4610.1329712706
 20
5306.5597619754
 10
4610.426988396
 20
5305.6993294706
  0
LWPOLYLINE
  5
45F
330
1F
100
AcDbEntity
  8
0
  6
Continuous
 62
     7
100
AcDbPolyline
 90
        3
 70
   128
 43
0.0
 10
4610.424041748
 20
5305.6993294706
 10
4610.9583660457
 20
5304.7850720419
 10
4611.4974337994
 20
5304.1531626334
  0
LWPOLYLINE
  5
460
330
1F
100
AcDbEntity
  8
0
  6
Continuous
 62
     7
100
AcDbPolyline
 90
        3
 70
   128
 43
0.0
 10
4611.4959716797
 20
5304.1531626334
 10
4612.2719809108
 20
5303.5265935432
 10
4612.9635646372
 20
5303.1602014055
  0
LWPOLYLINE
  5
461
330
1F
100
AcDbEntity
  8
0
  6
Continuous
 62
     7
100
AcDbPolyline
 90
        3
 70
   128
 43
0.0
 10
4612.9608154297
 20
5303.1602014055
 10
4613.8724118542
 20
5302.8822872866
 10
4614.6158016651
 20
5302.8138462653
  0
LWPOLYLINE
  5
462
330
1F
100
AcDbEntity
  8
0
  6
Continuous
 62
     7
100
AcDbPolyline
 90
        3
 70
   128
 43
0.0
 10
4615.3030395508
 20
5342.2072340002
 10
4616.7052451987
 20
5344.1842314377
 10
4618.3521113723
 20
5345.147069191
  0
LWPOLYLINE
  5
463
330
1F
100
AcDbEntity
  8
0
  6
Continuous
 62
     7
100
AcDbPolyline
 90
        3
 70
   128
 43
0.0
 10
4618.350982666
 20
5345.147069191
 10
4621.0384826617
 20
5345.8501741253
 10
4623.2158522486
 20
5346.0055548897
  0
LWPOLYLINE
  5
464
330
1F
100
AcDbEntity
  8
0
  6
Continuous
 62
     7
100
AcDbPolyline
 90
        3
 70
   128
 43
0.0
 10
4633.9149475098
 20
5346.0055548897
 10
4635.38174855
 20
5345.8008250672
 10
4636.4547497957
 20
5345.3564901104
  0
LWPOLYLINE
  5
465
330
1F
100
AcDbEntity
  8
0
  6
Continuous
 62
     7
100
AcDbPolyline
 90
        3
 70
   128
 43
0.0
 10
4636.4517211914
 20
5345.3564901104
 10
4637.6558904195
 20
5344.5016403823
 10
4638.4326749846
 20
5343.6424840441
  0
LWPOLYLINE
  5
466
330
1F
100
AcDbEntity
  8
0
  6
Continuous
 62
     7
100
AcDbPolyline
 90
        3
 70
   128
 43
0.0
 10
4624.7596740723
 20
5342.2769863358
 10
4623.9020924619
 20
5343.2751662784
 10
4623.0166516631
 20
5343.8129533281
  0
LWPOLYLINE
  5
467
330
1F
100
AcDbEntity
  8
0
  6
Continuous
 62
     7
100
AcDbPolyline
 90
        3
 70
   128
 43
0.0
 10
4623.0163574219
 20
5343.8129533281
 10
4621.7257690559
 20
5344.2243558751
 10
4620.6661825433
 20
5344.3250764361
  0
LWPOLYLINE
  5
468
330
1F
100
AcDbEntity
  8
0
  6
Continuous
 62
     7
100
AcDbPolyline
 90
        3
 70
   128
 43
0.0
 10
4620.662689209
 20
5344.3250764361
 10
4619.1045040878
 20
5344.0807098345
 10
4617.9901081502
 20
5343.5335416546
  0
LWPOLYLINE
  5
469
330
1F
100
AcDbEntity
  8
0
  6
Continuous
 62
     7
100
AcDbPolyline
 90
        3
 70
   128
 43
0.0
 10
4617.9885864258
 20
5343.5335416546
 10
4616.9263380738
 20
5342.6078719334
 10
4616.3378711223
 20
5341.6718948832
  0
LWPOLYLINE
  5
46A
330
1F
100
AcDbEntity
  8
0
  6
Continuous
 62
     7
100
AcDbPolyline
 90
        3
 70
   128
 43
0.0
 10
4637.4855041504
 20
5342.9003615132
 10
4636.6652536402
 20
5343.901965757
 10
4635.8134205817
 20
5344.4515574923
  0
LWPOLYLINE
  5
46B
330
1F
100
AcDbEntity
  8
0
  6
Continuous
 62
     7
100
AcDbPolyline
 90
        3
 70
   128
 43
0.0
 10
4635.8108520508
 20
5344.4515574923
 10
4634.8643230598
 20
5344.7283250671
 10
4634.0913520559
 20
5344.8006320944
  0
LWPOLYLINE
  5
46C
330
1F
100
AcDbEntity
  8
0
  6
Continuous
 62
     7
100
AcDbPolyline
 90
        3
 70
   128
 43
0.0
 10
4624.4277954102
 20
5344.8006320944
 10
4625.7149579162
 20
5343.3887753424
 10
4626.5668537832
 20
5342.1502519598
  0
LWPOLYLINE
  5
46D
330
1F
100
AcDbEntity
  8
0
  6
Continuous
 62
     7
100
AcDbPolyline
 90
        3
 70
   128
 43
0.0
 10
4558.3114624023
 20
5287.2926254025
 10
4559.899961733
 20
5287.6775674201
 10
4560.3312253385
 20
5288.870531713
  0
LWPOLYLINE
  5
46E
330
1F
100
AcDbEntity
  8
0
  6
Continuous
 62
     7
100
AcDbPolyline
 90
        3
 70
   128
 43
0.0
 10
4560.3294372559
 20
5288.870531713
 10
4559.6120185565
 20
5290.1733834593
 10
4558.3785324722
 20
5290.3481830111
  0
LWPOLYLINE
  5
46F
330
1F
100
AcDbEntity
  8
0
  6
Continuous
 62
     7
100
AcDbPolyline
 90
        4
 70
   128
 43
0.0
 10
4559.6656799316
 20
5291.8759618154
 10
4562.6882604865
 20
5291.3530902943
 10
4563.8100154344
 20
5290.3232753753
 10
4564.150668624
 20
5288.8204042068
  0
LWPOLYLINE
  5
470
330
1F
100
AcDbEntity
  8
0
  6
Continuous
 62
     7
100
AcDbPolyline
 90
        4
 70
   128
 43
0.0
 10
4557.5637817383
 20
5283.3633754602
 10
4557.600060929
 20
5282.8610511176
 10
4557.78074632
 20
5282.5181059832
 10
4558.4740191131
 20
5282.4037332287
  0
LWPOLYLINE
  5
471
330
1F
100
AcDbEntity
  8
0
  6
Continuous
 62
     7
100
AcDbPolyline
 90
        3
 70
   128
 43
0.0
 10
4552.9632568359
 20
5282.4037332287
 10
4553.8127698272
 20
5282.6528292759
 10
4553.9145543604
 20
5283.3633754602
  0
LWPOLYLINE
  5
472
330
1F
100
AcDbEntity
  8
0
  6
Continuous
 62
     7
100
AcDbPolyline
 90
        3
 70
   128
 43
0.0
 10
4553.9131164551
 20
5289.5079065313
 10
4553.6599304137
 20
5290.3233315275
 10
4552.9668554097
 20
5290.4150221696
  0
LWPOLYLINE
  5
473
330
1F
100
AcDbEntity
  8
0
  6
Continuous
 62
     7
100
AcDbPolyline
 90
        4
 70
   128
 43
0.0
 10
4564.1479492188
 20
5288.8204042068
 10
4563.8129141065
 20
5287.3154436469
 10
4562.6913409332
 20
5286.2846554862
 10
4559.6675946742
 20
5285.7648465982
  0
LWPOLYLINE
  5
474
330
1F
100
AcDbEntity
  8
0
  6
Continuous
 62
     7
100
AcDbPolyline
 90
        4
 70
   128
 43
0.0
 10
4570.5642700195
 20
5286.3998297801
 10
4570.8499388714
 20
5283.806112205
 10
4571.4879416752
 20
5282.6790282535
 10
4572.6990624695
 20
5282.2509590736
  0
LWPOLYLINE
  5
475
330
1F
100
AcDbEntity
  8
0
  6
Continuous
 62
     7
100
AcDbPolyline
 90
        4
 70
   128
 43
0.0
 10
4572.696685791
 20
5282.2509590736
 10
4573.9081910031
 20
5282.6636718229
 10
4574.5574695493
 20
5283.7747523795
 10
4574.8451128035
 20
5286.3520864597
  0
LWPOLYLINE
  5
476
330
1F
100
AcDbEntity
  8
0
  6
Continuous
 62
     7
100
AcDbPolyline
 90
        4
 70
   128
 43
0.0
 10
4574.8443603516
 20
5286.3520864597
 10
4574.5595397759
 20
5288.9439604048
 10
4573.9228180228
 20
5290.0714336855
 10
4572.7133862107
 20
5290.5009571662
  0
LWPOLYLINE
  5
477
330
1F
100
AcDbEntity
  8
0
  6
Continuous
 62
     7
100
AcDbPolyline
 90
        4
 70
   128
 43
0.0
 10
4572.7119445801
 20
5290.5009571662
 10
4571.5061856459
 20
5290.0859361504
 10
4570.8566188161
 20
5288.975309609
 10
4570.5673358767
 20
5286.3998297801
  0
LWPOLYLINE
  5
478
330
1F
100
AcDbEntity
  8
0
  6
Continuous
 62
     7
100
AcDbPolyline
 90
        3
 70
   128
 43
0.0
 10
4566.2879943848
 20
5286.3687981119
 10
4568.5986023875
 20
5291.1048987033
 10
4572.7181583076
 20
5292.1815175762
  0
LWPOLYLINE
  5
479
330
1F
100
AcDbEntity
  8
0
  6
Continuous
 62
     7
100
AcDbPolyline
 90
        3
 70
   128
 43
0.0
 10
4572.7157592773
 20
5292.1815175762
 10
4577.7155799719
 20
5290.34105763
 10
4579.1228897303
 20
5286.3687981119
  0
LWPOLYLINE
  5
47A
330
1F
100
AcDbEntity
  8
0
  6
Continuous
 62
     7
100
AcDbPolyline
 90
        3
 70
   128
 43
0.0
 10
4579.1206359863
 20
5286.3687981119
 10
4576.8093911016
 20
5281.6378205186
 10
4572.6871266394
 20
5280.5704061141
  0
LWPOLYLINE
  5
47B
330
1F
100
AcDbEntity
  8
0
  6
Continuous
 62
     7
100
AcDbPolyline
 90
        3
 70
   128
 43
0.0
 10
4572.6852416992
 20
5280.5704061141
 10
4567.7000708501
 20
5282.4076847108
 10
4566.28955895
 20
5286.3687981119
  0
LWPOLYLINE
  5
47C
330
1F
100
AcDbEntity
  8
0
  6
Continuous
 62
     7
100
AcDbPolyline
 90
        3
 70
   128
 43
0.0
 10
4586.1473083496
 20
5284.552175199
 10
4586.5862892994
 20
5282.7381023194
 10
4587.9505834907
 20
5282.2509590736
  0
LWPOLYLINE
  5
47D
330
1F
100
AcDbEntity
  8
0
  6
Continuous
 62
     7
100
AcDbPolyline
 90
        3
 70
   128
 43
0.0
 10
4587.947845459
 20
5282.2509590736
 10
4589.7581387797
 20
5282.9204002259
 10
4590.1228896707
 20
5284.4161052456
  0
LWPOLYLINE
  5
47E
330
1F
100
AcDbEntity
  8
0
  6
Continuous
 62
     7
100
AcDbPolyline
 90
        3
 70
   128
 43
0.0
 10
4590.1222229004
 20
5289.410028254
 10
4589.8859740267
 20
5290.2478272273
 10
4589.1823507278
 20
5290.3481830111
  0
LWPOLYLINE
  5
47F
330
1F
100
AcDbEntity
  8
0
  6
Continuous
 62
     7
100
AcDbPolyline
 90
        5
 70
   128
 43
0.0
 10
4593.2426452637
 20
5290.3481830111
 10
4592.7409852723
 20
5290.3144196853
 10
4592.3907466936
 20
5290.1461111133
 10
4592.2788323971
 20
5289.7667896708
 10
4592.2617799967
 20
5289.4577715745
  0
LWPOLYLINE
  5
480
330
1F
100
AcDbEntity
  8
0
  6
Continuous
 62
     7
100
AcDbPolyline
 90
        3
 70
   128
 43
0.0
 10
4592.2584533691
 20
5284.1439727893
 10
4590.2324377641
 20
5281.0681657369
 10
4587.2105657487
 20
5280.5704061141
  0
LWPOLYLINE
  5
481
330
1F
100
AcDbEntity
  8
0
  6
Continuous
 62
     7
100
AcDbPolyline
 90
        3
 70
   128
 43
0.0
 10
4587.2077941895
 20
5280.5704061141
 10
4583.699254885
 20
5281.4845228174
 10
4582.4840030997
 20
5284.0055186501
  0
LWPOLYLINE
  5
482
330
1F
100
AcDbEntity
  8
0
  6
Continuous
 62
     7
100
AcDbPolyline
 90
        3
 70
   128
 43
0.0
 10
4582.4813842773
 20
5289.410028254
 10
4582.2339037062
 20
5290.2428098207
 10
4581.5339162379
 20
5290.3481830111
  0
LWPOLYLINE
  5
483
330
1F
100
AcDbEntity
  8
0
  6
Continuous
 62
     7
100
AcDbPolyline
 90
        3
 70
   128
 43
0.0
 10
4587.0666503906
 20
5290.3481830111
 10
4586.2495811361
 20
5290.1009165943
 10
4586.1506685048
 20
5289.410028254
  0
LWPOLYLINE
  5
484
330
1F
100
AcDbEntity
  8
0
  6
Continuous
 62
     7
100
AcDbPolyline
 90
        3
 70
   128
 43
0.0
 10
4600.0289916992
 20
5290.3481830111
 10
4598.0083669418
 20
5289.5005739816
 10
4597.6090020864
 20
5287.7509553185
  0
LWPOLYLINE
  5
485
330
1F
100
AcDbEntity
  8
0
  6
Continuous
 62
     7
100
AcDbPolyline
 90
        3
 70
   128
 43
0.0
 10
4601.1581420898
 20
5282.4037332287
 10
4603.3266449371
 20
5283.385156157
 10
4603.7201135784
 20
5285.3065166822
  0
LWPOLYLINE
  5
486
330
1F
100
AcDbEntity
  8
0
  6
Continuous
 62
     7
100
AcDbPolyline
 90
        3
 70
   128
 43
0.0
 10
4617.4697875977
 20
5287.7509553185
 10
4617.1593195477
 20
5288.9315672463
 10
4616.677578482
 20
5289.7609431496
  0
LWPOLYLINE
  5
487
330
1F
100
AcDbEntity
  8
0
  6
Continuous
 62
     7
100
AcDbPolyline
 90
        3
 70
   128
 43
0.0
 10
4616.6763305664
 20
5289.7609431496
 10
4615.5376954999
 20
5290.2958072072
 10
4614.5339151277
 20
5290.3481830111
  0
LWPOLYLINE
  5
488
330
1F
100
AcDbEntity
  8
0
  6
Continuous
 62
     7
100
AcDbPolyline
 90
        3
 70
   128
 43
0.0
 10
4613.1706237793
 20
5287.4453995576
 10
4614.3726845915
 20
5287.9636829966
 10
4614.5673356383
 20
5289.0209216824
  0
LWPOLYLINE
  5
489
330
1F
100
AcDbEntity
  8
0
  6
Continuous
 62
     7
100
AcDbPolyline
 90
        4
 70
   128
 43
0.0
 10
4614.5668029785
 20
5284.0842936387
 10
4614.3550901379
 20
5285.4088567517
 10
4613.8549977861
 20
5285.8304473154
 10
4613.1899477347
 20
5285.9176282039
  0
LWPOLYLINE
  5
48A
330
1F
100
AcDbEntity
  8
0
  6
Continuous
 62
     7
100
AcDbPolyline
 90
        3
 70
   128
 43
0.0
 10
4614.7422790527
 20
5282.4037332287
 10
4616.0412845594
 20
5282.4895482586
 10
4616.8900345816
 20
5283.0196205726
  0
LWPOLYLINE
  5
48B
330
1F
100
AcDbEntity
  8
0
  6
Continuous
 62
     7
100
AcDbPolyline
 90
        3
 70
   128
 43
0.0
 10
4616.8899536133
 20
5283.0196205726
 10
4617.3544798452
 20
5284.3546456023
 10
4617.4701125725
 20
5285.4592908373
  0
LWPOLYLINE
  5
48C
330
1F
100
AcDbEntity
  8
0
  6
Continuous
 62
     7
100
AcDbPolyline
 90
        3
 70
   128
 43
0.0
 10
4608.1237792969
 20
5282.4037332287
 10
4608.9575278541
 20
5282.6278076677
 10
4609.0673356681
 20
5283.3204005113
  0
LWPOLYLINE
  5
48D
330
1F
100
AcDbEntity
  8
0
  6
Continuous
 62
     7
100
AcDbPolyline
 90
        3
 70
   128
 43
0.0
 10
4609.0660095215
 20
5289.4553873887
 10
4608.8017350301
 20
5290.2637049458
 10
4608.1076990246
 20
5290.3481830111
  0
LWPOLYLINE
  5
48E
330
1F
100
AcDbEntity
  8
0
  6
Continuous
 62
     7
100
AcDbPolyline
 90
        3
 70
   128
 43
0.0
 10
4634.0866088867
 20
5287.2926254025
 10
4635.6777386921
 20
5287.6775681211
 10
4636.1090018778
 20
5288.870531713
  0
LWPOLYLINE
  5
48F
330
1F
100
AcDbEntity
  8
0
  6
Continuous
 62
     7
100
AcDbPolyline
 90
        3
 70
   128
 43
0.0
 10
4636.1083984375
 20
5288.870531713
 10
4635.3897969318
 20
5290.1733851143
 10
4634.1563108741
 20
5290.3481830111
  0
LWPOLYLINE
  5
490
330
1F
100
AcDbEntity
  8
0
  6
Continuous
 62
     7
100
AcDbPolyline
 90
        4
 70
   128
 43
0.0
 10
4633.3389282227
 20
5283.3633754602
 10
4633.3778407473
 20
5282.8610510529
 10
4633.5585238503
 20
5282.5181049078
 10
4634.2517970494
 20
5282.4037332287
  0
LWPOLYLINE
  5
491
330
1F
100
AcDbEntity
  8
0
  6
Continuous
 62
     7
100
AcDbPolyline
 90
        3
 70
   128
 43
0.0
 10
4628.7422180176
 20
5282.4037332287
 10
4629.5905486248
 20
5282.652829973
 10
4629.6923352071
 20
5283.3633754602
  0
LWPOLYLINE
  5
492
330
1F
100
AcDbEntity
  8
0
  6
Continuous
 62
     7
100
AcDbPolyline
 90
        3
 70
   128
 43
0.0
 10
4629.6920776367
 20
5289.5079065313
 10
4629.4377103128
 20
5290.3233316992
 10
4628.7446355579
 20
5290.4150221696
  0
LWPOLYLINE
  5
493
330
1F
100
AcDbEntity
  8
0
  6
Continuous
 62
     7
100
AcDbPolyline
 90
        4
 70
   128
 43
0.0
 10
4635.4446411133
 20
5291.8759618154
 10
4638.4660388779
 20
5291.3530902789
 10
4639.5877921791
 20
5290.3232750612
 10
4639.9284460946
 20
5288.8204042068
  0
LWPOLYLINE
  5
494
330
1F
100
AcDbEntity
  8
0
  6
Continuous
 62
     7
100
AcDbPolyline
 90
        4
 70
   128
 43
0.0
 10
4639.9269104004
 20
5288.8204042068
 10
4639.5906902351
 20
5287.3154446349
 10
4638.4691177315
 20
5286.2846569906
 10
4635.4453735418
 20
5285.7648465982
  0
LWPOLYLINE
  5
495
330
1F
100
AcDbEntity
  8
0
  6
Continuous
 62
     7
100
AcDbPolyline
 90
        4
 70
   128
 43
0.0
 10
4647.8462219238
 20
5290.3481830111
 10
4647.376762179
 20
5290.314086538
 10
4647.0587651747
 20
5290.13894045
 10
4646.9562239378
 20
5289.4864190569
  0
LWPOLYLINE
  5
496
330
1F
100
AcDbEntity
  8
0
  6
Continuous
 62
     7
100
AcDbPolyline
 90
        3
 70
   128
 43
0.0
 10
4647.7012634277
 20
5282.4371565333
 10
4648.9964723502
 20
5282.5031375993
 10
4649.9043572127
 20
5282.9289097538
  0
LWPOLYLINE
  5
497
330
1F
100
AcDbEntity
  8
0
  6
Continuous
 62
     7
100
AcDbPolyline
 90
        3
 70
   128
 43
0.0
 10
4649.90234375
 20
5282.9289097538
 10
4650.497639144
 20
5284.2881504647
 10
4650.6228912055
 20
5285.4592908373
  0
LWPOLYLINE
  5
498
330
1F
100
AcDbEntity
  8
0
  6
Continuous
 62
     7
100
AcDbPolyline
 90
        3
 70
   128
 43
0.0
 10
4642.3416137695
 20
5282.4037332287
 10
4643.1860765545
 20
5282.6481345627
 10
4643.2895576014
 20
5283.358599638
  0
LWPOLYLINE
  5
499
330
1F
100
AcDbEntity
  8
0
  6
Continuous
 62
     7
100
AcDbPolyline
 90
        3
 70
   128
 43
0.0
 10
4643.2876586914
 20
5289.4052524319
 10
4643.0487553393
 20
5290.2460800841
 10
4642.3418577193
 20
5290.3481830111
  0
LWPOLYLINE
  5
49A
330
1F
100
AcDbEntity
  8
0
  6
Continuous
 62
     7
100
AcDbPolyline
 90
        4
 70
   128
 43
0.0
 10
4660.4423522949
 20
5282.4037332287
 10
4660.9980222724
 20
5282.4270708966
 10
4661.2596051322
 20
5282.5072420652
 10
4661.3555289238
 20
5282.7594239464
  0
LWPOLYLINE
  5
49B
330
1F
100
AcDbEntity
  8
0
  6
Continuous
 62
     7
100
AcDbPolyline
 90
        3
 70
   128
 43
0.0
 10
4661.3540649414
 20
5282.7594239464
 10
4661.3300725316
 20
5283.0476571101
 10
4661.2839139431
 20
5283.270273005
  0
LWPOLYLINE
  5
49C
330
1F
100
AcDbEntity
  8
0
  6
Continuous
 62
     7
100
AcDbPolyline
 90
        3
 70
   128
 43
0.0
 10
4657.5584411621
 20
5283.4087271443
 10
4657.446724142
 20
5283.0363778843
 10
4657.4071794181
 20
5282.7331606498
  0
LWPOLYLINE
  5
49D
330
1F
100
AcDbEntity
  8
0
  6
Continuous
 62
     7
100
AcDbPolyline
 90
        4
 70
   128
 43
0.0
 10
4657.4058532715
 20
5282.7331606498
 10
4657.5156793239
 20
5282.5400759437
 10
4657.7257609641
 20
5282.449968256
 10
4658.1806167393
 20
5282.4037332287
  0
LWPOLYLINE
  5
49E
330
1F
100
AcDbEntity
  8
0
  6
Continuous
 62
     7
100
AcDbPolyline
 90
        3
 70
   128
 43
0.0
 10
4654.2358398438
 20
5282.4037332287
 10
4655.1032925286
 20
5282.8890205171
 10
4655.4353907137
 20
5283.6235720863
  0
LWPOLYLINE
  5
49F
330
1F
100
AcDbEntity
  8
0
  6
Continuous
 62
     7
100
AcDbPolyline
 90
        3
 70
   128
 43
0.0
 10
4664.8979187012
 20
5283.6593795767
 10
4665.3115072966
 20
5282.6688587003
 10
4666.0844794839
 20
5282.4037332287
  0
LWPOLYLINE
  5
4A0
330
1F
100
AcDbEntity
  8
0
  6
Continuous
 62
     7
100
AcDbPolyline
 90
        3
 70
   128
 43
0.0
 10
4669.5671081543
 20
5285.0009609213
 10
4670.9665877889
 20
5282.863688762
 10
4672.8783174782
 20
5282.2509590736
  0
LWPOLYLINE
  5
4A1
330
1F
100
AcDbEntity
  8
0
  6
Continuous
 62
     7
100
AcDbPolyline
 90
        3
 70
   128
 43
0.0
 10
4672.8782653809
 20
5282.2509590736
 10
4674.0377537437
 20
5282.5812514352
 10
4674.4562237888
 20
5283.4135029664
  0
LWPOLYLINE
  5
4A2
330
1F
100
AcDbEntity
  8
0
  6
Continuous
 62
     7
100
AcDbPolyline
 90
        3
 70
   128
 43
0.0
 10
4674.4537353516
 20
5283.4135029664
 10
4673.6474541582
 20
5284.3841976667
 10
4672.6921200185
 20
5284.7646285048
  0
LWPOLYLINE
  5
4A3
330
1F
100
AcDbEntity
  8
0
  6
Continuous
 62
     7
100
AcDbPolyline
 90
        3
 70
   128
 43
0.0
 10
4672.6913452148
 20
5284.7646285048
 10
4672.186380093
 20
5284.9181557954
 10
4671.7921606629
 20
5285.0487042418
  0
LWPOLYLINE
  5
4A4
330
1F
100
AcDbEntity
  8
0
  6
Continuous
 62
     7
100
AcDbPolyline
 90
        3
 70
   128
 43
0.0
 10
4671.7910766602
 20
5285.0487042418
 10
4670.1625995319
 20
5285.5483201543
 10
4668.9419000774
 20
5286.0990498414
  0
LWPOLYLINE
  5
4A5
330
1F
100
AcDbEntity
  8
0
  6
Continuous
 62
     7
100
AcDbPolyline
 90
        3
 70
   128
 43
0.0
 10
4668.9414978027
 20
5286.0990498414
 10
4667.8535551296
 20
5287.2981009814
 10
4667.5812228947
 20
5288.5411042919
  0
LWPOLYLINE
  5
4A6
330
1F
100
AcDbEntity
  8
0
  6
Continuous
 62
     7
100
AcDbPolyline
 90
        3
 70
   128
 43
0.0
 10
4667.5796508789
 20
5288.5411042919
 10
4669.313429665
 20
5291.5334421135
 10
4672.0356493621
 20
5292.1815175762
  0
LWPOLYLINE
  5
4A7
330
1F
100
AcDbEntity
  8
0
  6
Continuous
 62
     7
100
AcDbPolyline
 90
        3
 70
   128
 43
0.0
 10
4672.0352172852
 20
5292.1815175762
 10
4674.1134313432
 20
5291.9426500033
 10
4675.654575172
 20
5291.3722727647
  0
LWPOLYLINE
  5
4A8
330
1F
100
AcDbEntity
  8
0
  6
Continuous
 62
     7
100
AcDbPolyline
 90
        3
 70
   128
 43
0.0
 10
4675.6782531738
 20
5288.209292685
 10
4674.5209832751
 20
5290.0740246722
 10
4672.8329583435
 20
5290.5009571662
  0
LWPOLYLINE
  5
4A9
330
1F
100
AcDbEntity
  8
0
  6
Continuous
 62
     7
100
AcDbPolyline
 90
        3
 70
   128
 43
0.0
 10
4672.8324890137
 20
5290.5009571662
 10
4671.6878822988
 20
5290.1620308064
 10
4671.247892025
 20
5289.3503491035
  0
LWPOLYLINE
  5
4AA
330
1F
100
AcDbEntity
  8
0
  6
Continuous
 62
     7
100
AcDbPolyline
 90
        3
 70
   128
 43
0.0
 10
4671.2455749512
 20
5289.3503491035
 10
4672.0106162466
 20
5288.5239433169
 10
4672.9021891385
 20
5288.2474843612
  0
LWPOLYLINE
  5
4AB
330
1F
100
AcDbEntity
  8
0
  6
Continuous
 62
     7
100
AcDbPolyline
 90
        3
 70
   128
 43
0.0
 10
4672.9011535645
 20
5288.2474843612
 10
4673.2565057565
 20
5288.1635319788
 10
4673.5347844093
 20
5288.0970943918
  0
LWPOLYLINE
  5
4AC
330
1F
100
AcDbEntity
  8
0
  6
Continuous
 62
     7
100
AcDbPolyline
 90
        3
 70
   128
 43
0.0
 10
4673.5343933105
 20
5288.0970943918
 10
4676.9293750491
 20
5286.7671485183
 10
4678.1228891938
 20
5284.2442278018
  0
LWPOLYLINE
  5
4AD
330
1F
100
AcDbEntity
  8
0
  6
Continuous
 62
     7
100
AcDbPolyline
 90
        3
 70
   128
 43
0.0
 10
4673.5382080078
 20
5280.5704061141
 10
4671.4583226743
 20
5280.8521675706
 10
4669.9254065185
 20
5281.4632017365
  0
LWPOLYLINE
  5
4AE
330
1F
100
AcDbEntity
  8
0
  6
Continuous
 62
     7
100
AcDbPolyline
 90
        3
 70
   128
 43
0.0
 10
4678.1196594238
 20
5284.2442278018
 10
4676.3347625201
 20
5281.1991442123
 10
4673.5395565062
 20
5280.5704061141
  0
LWPOLYLINE
  5
4AF
330
1F
100
AcDbEntity
  8
0
  6
Continuous
 62
     7
100
AcDbPolyline
 90
        3
 70
   128
 43
0.0
 10
4683.7348937988
 20
5290.1954014053
 10
4682.209074711
 20
5289.2475315109
 10
4681.9423362046
 20
5287.7796028009
  0
LWPOLYLINE
  5
4B0
330
1F
100
AcDbEntity
  8
0
  6
Continuous
 62
     7
100
AcDbPolyline
 90
        3
 70
   128
 43
0.0
 10
4690.1893615723
 20
5287.7796028009
 10
4689.7052281632
 20
5289.5977754316
 10
4688.3780992954
 20
5290.1954014053
  0
LWPOLYLINE
  5
4B1
330
1F
100
AcDbEntity
  8
0
  6
Continuous
 62
     7
100
AcDbPolyline
 90
        4
 70
   128
 43
0.0
 10
4687.9005432129
 20
5283.358599638
 10
4687.9403624246
 20
5282.8571319306
 10
4688.1251587137
 20
5282.5183061527
 10
4688.8173333733
 20
5282.4037332287
  0
LWPOLYLINE
  5
4B2
330
1F
100
AcDbEntity
  8
0
  6
Continuous
 62
     7
100
AcDbPolyline
 90
        3
 70
   128
 43
0.0
 10
4683.292388916
 20
5282.4037332287
 10
4684.135096012
 20
5282.6478398824
 10
4684.2340006857
 20
5283.358599638
  0
LWPOLYLINE
  5
4B3
330
1F
100
AcDbEntity
  8
0
  6
Continuous
 62
     7
100
AcDbPolyline
 90
        3
 70
   128
 43
0.0
 10
4694.7898864746
 20
5289.3073816052
 10
4694.0654134858
 20
5290.1095223479
 10
4693.2598277359
 20
5290.3481830111
  0
LWPOLYLINE
  5
4B4
330
1F
100
AcDbEntity
  8
0
  6
Continuous
 62
     7
100
AcDbPolyline
 90
        4
 70
   128
 43
0.0
 10
4698.9898681641
 20
5290.3481830111
 10
4698.5282837703
 20
5290.2892319734
 10
4698.3342837889
 20
5290.1635722347
 10
4698.2633023887
 20
5289.9447489729
  0
LWPOLYLINE
  5
4B5
330
1F
100
AcDbEntity
  8
0
  6
Continuous
 62
     7
100
AcDbPolyline
 90
        3
 70
   128
 43
0.0
 10
4698.2612609863
 20
5289.9447489729
 10
4698.3271585723
 20
5289.6857690485
 10
4698.4256281882
 20
5289.5007390728
  0
LWPOLYLINE
  5
4B6
330
1F
100
AcDbEntity
  8
0
  6
Continuous
 62
     7
100
AcDbPolyline
 90
        3
 70
   128
 43
0.0
 10
4701.0688781738
 20
5289.524610733
 10
4701.1962440211
 20
5289.8182412414
 10
4701.2329175501
 20
5290.0664989104
  0
LWPOLYLINE
  5
4B7
330
1F
100
AcDbEntity
  8
0
  6
Continuous
 62
     7
100
AcDbPolyline
 90
        4
 70
   128
 43
0.0
 10
4701.2329101562
 20
5290.0664989104
 10
4701.1305062311
 20
5290.231063692
 10
4700.9445271423
 20
5290.3063463049
 10
4700.5454152255
 20
5290.3481830111
  0
LWPOLYLINE
  5
4B8
330
1F
100
AcDbEntity
  8
0
  6
Continuous
 62
     7
100
AcDbPolyline
 90
        3
 70
   128
 43
0.0
 10
4704.8110961914
 20
5290.3481830111
 10
4703.8768809575
 20
5289.9039682059
 10
4703.3789678841
 20
5289.2357666245
  0
LWPOLYLINE
  5
4B9
330
1F
100
AcDbEntity
  8
0
  6
Continuous
 62
     7
100
AcDbPolyline
 90
        3
 70
   128
 43
0.0
 10
4700.8857727051
 20
5283.3562080016
 10
4701.1138105874
 20
5282.5170285462
 10
4701.8106057673
 20
5282.4037332287
  0
LWPOLYLINE
  5
4BA
330
1F
100
AcDbEntity
  8
0
  6
Continuous
 62
     7
100
AcDbPolyline
 90
        3
 70
   128
 43
0.0
 10
4696.3195800781
 20
5282.4037332287
 10
4697.1323421118
 20
5282.663329535
 10
4697.2201093464
 20
5283.3562080016
  0
LWPOLYLINE
  5
4BB
330
1F
100
AcDbEntity
  8
0
  6
Continuous
 62
     7
100
AcDbPolyline
 90
        3
 70
   128
 43
0.0
 10
4560.7528686523
 20
5266.5842917016
 10
4562.3444096222
 20
5266.9692330678
 10
4562.7756714254
 20
5268.1622017374
  0
LWPOLYLINE
  5
4BC
330
1F
100
AcDbEntity
  8
0
  6
Continuous
 62
     7
100
AcDbPolyline
 90
        3
 70
   128
 43
0.0
 10
4562.7746582031
 20
5268.1622017374
 10
4562.0564638382
 20
5269.4650534161
 10
4560.8229785591
 20
5269.6398493102
  0
LWPOLYLINE
  5
4BD
330
1F
100
AcDbEntity
  8
0
  6
Continuous
 62
     7
100
AcDbPolyline
 90
        4
 70
   128
 43
0.0
 10
4562.1109008789
 20
5271.1676243892
 10
4565.1327056808
 20
5270.6447570107
 10
4566.2544566394
 20
5269.6149402731
 10
4566.5951147108
 20
5268.1120705059
  0
LWPOLYLINE
  5
4BE
330
1F
100
AcDbEntity
  8
0
  6
Continuous
 62
     7
100
AcDbPolyline
 90
        4
 70
   128
 43
0.0
 10
4566.593170166
 20
5268.1120705059
 10
4566.2573588785
 20
5266.6071109108
 10
4565.1357844849
 20
5265.5763241816
 10
4562.112040761
 20
5265.0565128973
  0
LWPOLYLINE
  5
4BF
330
1F
100
AcDbEntity
  8
0
  6
Continuous
 62
     7
100
AcDbPolyline
 90
        4
 70
   128
 43
0.0
 10
4560.0051879883
 20
5262.655038034
 10
4560.0445073114
 20
5262.1527157146
 10
4560.2251948368
 20
5261.8097742278
 10
4560.9184652
 20
5261.6954032531
  0
LWPOLYLINE
  5
4C0
330
1F
100
AcDbEntity
  8
0
  6
Continuous
 62
     7
100
AcDbPolyline
 90
        3
 70
   128
 43
0.0
 10
4555.4084777832
 20
5261.6954032531
 10
4556.2572170927
 20
5261.9444934055
 10
4556.3590004473
 20
5262.655038034
  0
LWPOLYLINE
  5
4C1
330
1F
100
AcDbEntity
  8
0
  6
Continuous
 62
     7
100
AcDbPolyline
 90
        3
 70
   128
 43
0.0
 10
4556.3583374023
 20
5268.7995691052
 10
4556.104376599
 20
5269.614994023
 10
4555.4113014965
 20
5269.7066884687
  0
LWPOLYLINE
  5
4C2
330
1F
100
AcDbEntity
  8
0
  6
Continuous
 62
     7
100
AcDbPolyline
 90
        4
 70
   128
 43
0.0
 10
4574.5124816895
 20
5269.6398493102
 10
4574.0434284905
 20
5269.6057529203
 10
4573.7254323529
 20
5269.4306059998
 10
4573.6228897601
 20
5268.778085356
  0
LWPOLYLINE
  5
4C3
330
1F
100
AcDbEntity
  8
0
  6
Continuous
 62
     7
100
AcDbPolyline
 90
        3
 70
   128
 43
0.0
 10
4574.3675231934
 20
5261.7288228324
 10
4575.6631399944
 20
5261.7948041822
 10
4576.5710248976
 20
5262.2205760529
  0
LWPOLYLINE
  5
4C4
330
1F
100
AcDbEntity
  8
0
  6
Continuous
 62
     7
100
AcDbPolyline
 90
        3
 70
   128
 43
0.0
 10
4576.5686035156
 20
5262.2205760529
 10
4577.1643074695
 20
5263.5798168883
 10
4577.2895588904
 20
5264.7509571364
  0
LWPOLYLINE
  5
4C5
330
1F
100
AcDbEntity
  8
0
  6
Continuous
 62
     7
100
AcDbPolyline
 90
        3
 70
   128
 43
0.0
 10
4569.0078735352
 20
5261.6954032531
 10
4569.8527420841
 20
5261.9398018176
 10
4569.956224355
 20
5262.6502659371
  0
LWPOLYLINE
  5
4C6
330
1F
100
AcDbEntity
  8
0
  6
Continuous
 62
     7
100
AcDbPolyline
 90
        3
 70
   128
 43
0.0
 10
4569.953918457
 20
5268.6969224563
 10
4569.7154212412
 20
5269.5377463456
 10
4569.0085254043
 20
5269.6398493102
  0
LWPOLYLINE
  5
4C7
330
1F
100
AcDbEntity
  8
0
  6
Continuous
 62
     7
100
AcDbPolyline
 90
        4
 70
   128
 43
0.0
 10
4587.1124267578
 20
5261.6954032531
 10
4587.6646869337
 20
5261.7187407976
 10
4587.9262707541
 20
5261.7989087914
 10
4588.0221947461
 20
5262.0510902455
  0
LWPOLYLINE
  5
4C8
330
1F
100
AcDbEntity
  8
0
  6
Continuous
 62
     7
100
AcDbPolyline
 90
        3
 70
   128
 43
0.0
 10
4588.020324707
 20
5262.0510902455
 10
4587.9967378591
 20
5262.3393228926
 10
4587.9505834907
 20
5262.5619393041
  0
LWPOLYLINE
  5
4C9
330
1F
100
AcDbEntity
  8
0
  6
Continuous
 62
     7
100
AcDbPolyline
 90
        3
 70
   128
 43
0.0
 10
4584.2247009277
 20
5262.7003934434
 10
4584.1133921675
 20
5262.3280458387
 10
4584.0738452404
 20
5262.0248306742
  0
LWPOLYLINE
  5
4CA
330
1F
100
AcDbEntity
  8
0
  6
Continuous
 62
     7
100
AcDbPolyline
 90
        4
 70
   128
 43
0.0
 10
4584.0721130371
 20
5262.0248306742
 10
4584.1823448163
 20
5261.8317462076
 10
4584.3924254469
 20
5261.7416348798
 10
4584.8472825616
 20
5261.6954032531
  0
LWPOLYLINE
  5
4CB
330
1F
100
AcDbEntity
  8
0
  6
Continuous
 62
     7
100
AcDbPolyline
 90
        3
 70
   128
 43
0.0
 10
4580.9059143066
 20
5261.6954032531
 10
4581.7699601873
 20
5262.1806858335
 10
4582.102056536
 20
5262.9152383855
  0
LWPOLYLINE
  5
4CC
330
1F
100
AcDbEntity
  8
0
  6
Continuous
 62
     7
100
AcDbPolyline
 90
        3
 70
   128
 43
0.0
 10
4591.5641784668
 20
5262.9510458758
 10
4591.9781723671
 20
5261.9605254336
 10
4592.7511453062
 20
5261.6954032531
  0
LWPOLYLINE
  5
4CD
330
1F
100
AcDbEntity
  8
0
  6
Continuous
 62
     7
100
AcDbPolyline
 90
        3
 70
   128
 43
0.0
 10
4596.2333679199
 20
5264.2926272204
 10
4597.6332540338
 20
5262.1553547467
 10
4599.5449833005
 20
5261.5426253727
  0
LWPOLYLINE
  5
4CE
330
1F
100
AcDbEntity
  8
0
  6
Continuous
 62
     7
100
AcDbPolyline
 90
        3
 70
   128
 43
0.0
 10
4599.5445251465
 20
5261.5426253727
 10
4600.7044212495
 20
5261.8729152789
 10
4601.1228914737
 20
5262.7051692655
  0
LWPOLYLINE
  5
4CF
330
1F
100
AcDbEntity
  8
0
  6
Continuous
 62
     7
100
AcDbPolyline
 90
        3
 70
   128
 43
0.0
 10
4601.1199951172
 20
5262.7051692655
 10
4600.314117877
 20
5263.6758612192
 10
4599.3587839781
 20
5264.0562985292
  0
LWPOLYLINE
  5
4D0
330
1F
100
AcDbEntity
  8
0
  6
Continuous
 62
     7
100
AcDbPolyline
 90
        3
 70
   128
 43
0.0
 10
4599.3576049805
 20
5264.0562985292
 10
4598.8530464549
 20
5264.2098225165
 10
4598.4588283478
 20
5264.3403668156
  0
LWPOLYLINE
  5
4D1
330
1F
100
AcDbEntity
  8
0
  6
Continuous
 62
     7
100
AcDbPolyline
 90
        3
 70
   128
 43
0.0
 10
4598.4573364258
 20
5264.3403668156
 10
4596.8292683009
 20
5264.8399853136
 10
4595.6085696249
 20
5265.3907161405
  0
LWPOLYLINE
  5
4D2
330
1F
100
AcDbEntity
  8
0
  6
Continuous
 62
     7
100
AcDbPolyline
 90
        3
 70
   128
 43
0.0
 10
4595.6077575684
 20
5265.3907161405
 10
4594.5202207506
 20
5266.589767707
 10
4594.2478924423
 20
5267.8327743163
  0
LWPOLYLINE
  5
4D3
330
1F
100
AcDbEntity
  8
0
  6
Continuous
 62
     7
100
AcDbPolyline
 90
        3
 70
   128
 43
0.0
 10
4594.2459106445
 20
5267.8327743163
 10
4595.9800967134
 20
5270.8251128655
 10
4598.702317047
 20
5271.47318015
  0
LWPOLYLINE
  5
4D4
330
1F
100
AcDbEntity
  8
0
  6
Continuous
 62
     7
100
AcDbPolyline
 90
        3
 70
   128
 43
0.0
 10
4598.7014770508
 20
5271.47318015
 10
4600.7800988257
 20
5271.2343158802
 10
4602.3212409943
 20
5270.6639353385
  0
LWPOLYLINE
  5
4D5
330
1F
100
AcDbEntity
  8
0
  6
Continuous
 62
     7
100
AcDbPolyline
 90
        3
 70
   128
 43
0.0
 10
4602.3445129395
 20
5267.5009589842
 10
4601.1876506513
 20
5269.3656911672
 10
4599.4996260285
 20
5269.7926271906
  0
LWPOLYLINE
  5
4D6
330
1F
100
AcDbEntity
  8
0
  6
Continuous
 62
     7
100
AcDbPolyline
 90
        3
 70
   128
 43
0.0
 10
4599.4987487793
 20
5269.7926271906
 10
4598.3545498697
 20
5269.4536997813
 10
4597.9145578473
 20
5268.6420191279
  0
LWPOLYLINE
  5
4D7
330
1F
100
AcDbEntity
  8
0
  6
Continuous
 62
     7
100
AcDbPolyline
 90
        3
 70
   128
 43
0.0
 10
4597.9118347168
 20
5268.6420191279
 10
4598.677278695
 20
5267.8156069399
 10
4599.5688549607
 20
5267.5391543856
  0
LWPOLYLINE
  5
4D8
330
1F
100
AcDbEntity
  8
0
  6
Continuous
 62
     7
100
AcDbPolyline
 90
        3
 70
   128
 43
0.0
 10
4599.5674133301
 20
5267.5391543856
 10
4599.9231713109
 20
5267.4551987848
 10
4600.2014502316
 20
5267.3887606909
  0
LWPOLYLINE
  5
4D9
330
1F
100
AcDbEntity
  8
0
  6
Continuous
 62
     7
100
AcDbPolyline
 90
        3
 70
   128
 43
0.0
 10
4600.2006530762
 20
5267.3887606909
 10
4603.5960414673
 20
5266.0588180672
 10
4604.7895568787
 20
5263.5358978262
  0
LWPOLYLINE
  5
4DA
330
1F
100
AcDbEntity
  8
0
  6
Continuous
 62
     7
100
AcDbPolyline
 90
        3
 70
   128
 43
0.0
 10
4604.7859191895
 20
5263.5358978262
 10
4603.0014309258
 20
5260.4908119386
 10
4600.2062241911
 20
5259.8620686879
  0
LWPOLYLINE
  5
4DB
330
1F
100
AcDbEntity
  8
0
  6
Continuous
 62
     7
100
AcDbPolyline
 90
        3
 70
   128
 43
0.0
 10
4600.2044677734
 20
5259.8620686879
 10
4598.1249903592
 20
5260.1438301444
 10
4596.5920742034
 20
5260.7548643103
  0
LWPOLYLINE
  5
4DC
330
1F
100
AcDbEntity
  8
0
  6
Continuous
 62
     7
100
AcDbPolyline
 90
        3
 70
   128
 43
0.0
 10
4610.4011535645
 20
5269.4870714297
 10
4608.8757412177
 20
5268.5391989559
 10
4608.6090020268
 20
5267.0712728253
  0
LWPOLYLINE
  5
4DD
330
1F
100
AcDbEntity
  8
0
  6
Continuous
 62
     7
100
AcDbPolyline
 90
        3
 70
   128
 43
0.0
 10
4616.8556213379
 20
5267.0712728253
 10
4616.3718920762
 20
5268.889441604
 10
4615.044766049
 20
5269.4870714297
  0
LWPOLYLINE
  5
4DE
330
1F
100
AcDbEntity
  8
0
  6
Continuous
 62
     7
100
AcDbPolyline
 90
        4
 70
   128
 43
0.0
 10
4614.5668029785
 20
5262.6502659371
 10
4614.6070301138
 20
5262.1487982857
 10
4614.7918266706
 20
5261.809974719
 10
4615.4840019896
 20
5261.6954032531
  0
LWPOLYLINE
  5
4DF
330
1F
100
AcDbEntity
  8
0
  6
Continuous
 62
     7
100
AcDbPolyline
 90
        3
 70
   128
 43
0.0
 10
4609.9586486816
 20
5261.6954032531
 10
4610.8017633548
 20
5261.9395048978
 10
4610.9006683706
 20
5262.6502659371
  0
LWPOLYLINE
  5
4E0
330
1F
100
AcDbEntity
  8
0
  6
Continuous
 62
     7
100
AcDbPolyline
 90
        3
 70
   128
 43
0.0
 10
4626.3771057129
 20
5269.6398493102
 10
4625.5273380221
 20
5269.4040216885
 10
4625.4145574655
 20
5268.6969224563
  0
LWPOLYLINE
  5
4E1
330
1F
100
AcDbEntity
  8
0
  6
Continuous
 62
     7
100
AcDbPolyline
 90
        3
 70
   128
 43
0.0
 10
4625.4119873047
 20
5262.647878026
 10
4625.6660700278
 20
5261.801893808
 10
4626.3789671372
 20
5261.6954032531
  0
LWPOLYLINE
  5
4E2
330
1F
100
AcDbEntity
  8
0
  6
Continuous
 62
     7
100
AcDbPolyline
 90
        3
 70
   128
 43
0.0
 10
4620.7885742188
 20
5261.6954032531
 10
4621.6366414356
 20
5261.9411733026
 10
4621.7478908963
 20
5262.647878026
  0
LWPOLYLINE
  5
4E3
330
1F
100
AcDbEntity
  8
0
  6
Continuous
 62
     7
100
AcDbPolyline
 90
        3
 70
   128
 43
0.0
 10
4621.7460632324
 20
5268.6969224563
 10
4621.496521459
 20
5269.5356049766
 10
4620.7906426295
 20
5269.6398493102
  0
LWPOLYLINE
  5
4E4
330
1F
100
AcDbEntity
  8
0
  6
Continuous
 62
     7
100
AcDbPolyline
 90
        3
 70
   128
 43
0.0
 10
4634.8838806152
 20
5259.8620686879
 10
4630.1198167899
 20
5261.7478970364
 10
4628.9284462706
 20
5265.660464411
  0
LWPOLYLINE
  5
4E5
330
1F
100
AcDbEntity
  8
0
  6
Continuous
 62
     7
100
AcDbPolyline
 90
        3
 70
   128
 43
0.0
 10
4628.9253234863
 20
5265.660464411
 10
4630.9737225489
 20
5270.2747614723
 10
4634.8294880605
 20
5271.47318015
  0
LWPOLYLINE
  5
4E6
330
1F
100
AcDbEntity
  8
0
  6
Continuous
 62
     7
100
AcDbPolyline
 90
        3
 70
   128
 43
0.0
 10
4634.8266601562
 20
5271.47318015
 10
4636.6557058873
 20
5271.2472196239
 10
4637.9948527916
 20
5270.7021307399
  0
LWPOLYLINE
  5
4E7
330
1F
100
AcDbEntity
  8
0
  6
Continuous
 62
     7
100
AcDbPolyline
 90
        3
 70
   128
 43
0.0
 10
4638.0920410156
 20
5266.8898474624
 10
4637.1975585791
 20
5269.0785432852
 10
4635.5169880568
 20
5269.7926271906
  0
LWPOLYLINE
  5
4E8
330
1F
100
AcDbEntity
  8
0
  6
Continuous
 62
     7
100
AcDbPolyline
 90
        4
 70
   128
 43
0.0
 10
4635.5133056641
 20
5269.7926271906
 10
4634.2657966928
 20
5269.4164276856
 10
4633.536283793
 20
5268.3284928431
 10
4633.2062240123
 20
5265.7082077315
  0
LWPOLYLINE
  5
4E9
330
1F
100
AcDbEntity
  8
0
  6
Continuous
 62
     7
100
AcDbPolyline
 90
        4
 70
   128
 43
0.0
 10
4633.2054138184
 20
5265.7082077315
 10
4633.5367878194
 20
5263.0279002939
 10
4634.2838814457
 20
5261.917845604
 10
4635.567118357
 20
5261.5426253727
  0
LWPOLYLINE
  5
4EA
330
1F
100
AcDbEntity
  8
0
  6
Continuous
 62
     7
100
AcDbPolyline
 90
        3
 70
   128
 43
0.0
 10
4635.5667114258
 20
5261.5426253727
 10
4637.6713345594
 20
5262.6299123371
 10
4638.2478903412
 20
5264.4454013755
  0
LWPOLYLINE
  5
4EB
330
1F
100
AcDbEntity
  8
0
  6
Continuous
 62
     7
100
AcDbPolyline
 90
        3
 70
   128
 43
0.0
 10
4640.079498291
 20
5264.4454013755
 10
4638.1786690219
 20
5260.6755401096
 10
4634.8843923203
 20
5259.8620686879
  0
LWPOLYLINE
  5
4EC
330
1F
100
AcDbEntity
  8
0
  6
Continuous
 62
     7
100
AcDbPolyline
 90
        4
 70
   128
 43
0.0
 10
4653.2173156738
 20
5265.6914960792
 10
4653.5027170992
 20
5263.0977795515
 10
4654.1407183627
 20
5261.9706952088
 10
4655.3518399029
 20
5261.5426253727
  0
LWPOLYLINE
  5
4ED
330
1F
100
AcDbEntity
  8
0
  6
Continuous
 62
     7
100
AcDbPolyline
 90
        4
 70
   128
 43
0.0
 10
4655.3497314453
 20
5261.5426253727
 10
4656.5609707715
 20
5261.9553348035
 10
4657.210244044
 20
5263.0664188804
 10
4657.4978902369
 20
5265.6437527588
  0
LWPOLYLINE
  5
4EE
330
1F
100
AcDbEntity
  8
0
  6
Continuous
 62
     7
100
AcDbPolyline
 90
        4
 70
   128
 43
0.0
 10
4657.4974060059
 20
5265.6437527588
 10
4657.2123168252
 20
5268.23562795
 10
4656.5755943685
 20
5269.363100969
 10
4655.3661636441
 20
5269.7926271906
  0
LWPOLYLINE
  5
4EF
330
1F
100
AcDbEntity
  8
0
  6
Continuous
 62
     7
100
AcDbPolyline
 90
        4
 70
   128
 43
0.0
 10
4655.3649902344
 20
5269.7926271906
 10
4654.1589657775
 20
5269.3776010899
 10
4653.5093980683
 20
5268.266975731
 10
4653.2201133101
 20
5265.6914960792
  0
LWPOLYLINE
  5
4F0
330
1F
100
AcDbEntity
  8
0
  6
Continuous
 62
     7
100
AcDbPolyline
 90
        3
 70
   128
 43
0.0
 10
4648.9410400391
 20
5265.660464411
 10
4651.2513821667
 20
5270.3965628542
 10
4655.3709376036
 20
5271.47318015
  0
LWPOLYLINE
  5
4F1
330
1F
100
AcDbEntity
  8
0
  6
Continuous
 62
     7
100
AcDbPolyline
 90
        3
 70
   128
 43
0.0
 10
4661.7736816406
 20
5265.660464411
 10
4659.4621676282
 20
5260.9294862098
 10
4655.3399040728
 20
5259.8620686879
  0
LWPOLYLINE
  5
4F2
330
1F
100
AcDbEntity
  8
0
  6
Continuous
 62
     7
100
AcDbPolyline
 90
        3
 70
   128
 43
0.0
 10
4655.3382873535
 20
5259.8620686879
 10
4650.3528503156
 20
5261.6993525403
 10
4648.9423345207
 20
5265.660464411
  0
LWPOLYLINE
  5
4F3
330
1F
100
AcDbEntity
  8
0
  6
Continuous
 62
     7
100
AcDbPolyline
 90
        3
 70
   128
 43
0.0
 10
4655.3688049316
 20
5271.47318015
 10
4660.3683577302
 20
5269.6327235946
 10
4661.7756671637
 20
5265.660464411
  0
LWPOLYLINE
  5
4F4
330
1F
100
AcDbEntity
  8
0
  6
Continuous
 62
     7
100
AcDbPolyline
 90
        4
 70
   128
 43
0.0
 10
4673.3856201172
 20
5268.6969224563
 10
4673.3511890597
 20
5269.1947843207
 10
4673.1704692094
 20
5269.53165645
 10
4672.4820471733
 20
5269.6398493102
  0
LWPOLYLINE
  5
4F5
330
1F
100
AcDbEntity
  8
0
  6
Continuous
 62
     7
100
AcDbPolyline
 90
        5
 70
   128
 43
0.0
 10
4676.4373779297
 20
5269.6398493102
 10
4675.8977010717
 20
5269.6042782632
 10
4675.5154980431
 20
5269.4355092877
 10
4675.3895871662
 20
5269.0293366806
 10
4675.3728910714
 20
5268.6969224563
  0
LWPOLYLINE
  5
4F6
330
1F
100
AcDbEntity
  8
0
  6
Continuous
 62
     7
100
AcDbPolyline
 90
        3
 70
   128
 43
0.0
 10
4667.2744750977
 20
5262.647878026
 10
4667.543229497
 20
5261.7936159133
 10
4668.2687252193
 20
5261.6954032531
  0
LWPOLYLINE
  5
4F7
330
1F
100
AcDbEntity
  8
0
  6
Continuous
 62
     7
100
AcDbPolyline
 90
        3
 70
   128
 43
0.0
 10
4664.3218994141
 20
5261.6954032531
 10
4665.1767340293
 20
5261.9383120431
 10
4665.2895584135
 20
5262.647878026
  0
LWPOLYLINE
  5
4F8
330
1F
100
AcDbEntity
  8
0
  6
Continuous
 62
     7
100
AcDbPolyline
 90
        3
 70
   128
 43
0.0
 10
4665.2870178223
 20
5268.6969224563
 10
4665.0344761869
 20
5269.5375124304
 10
4664.3251478105
 20
5269.6398493102
  0
LWPOLYLINE
  5
4F9
330
1F
100
AcDbEntity
  8
0
  6
Continuous
 62
     7
100
AcDbPolyline
 90
        4
 70
   128
 43
0.0
 10
4684.513092041
 20
5269.6398493102
 10
4684.0434278945
 20
5269.6057529203
 10
4683.7254317569
 20
5269.4306059998
 10
4683.622889164
 20
5268.778085356
  0
LWPOLYLINE
  5
4FA
330
1F
100
AcDbEntity
  8
0
  6
Continuous
 62
     7
100
AcDbPolyline
 90
        3
 70
   128
 43
0.0
 10
4684.3681335449
 20
5261.7288228324
 10
4685.6631393984
 20
5261.7948041822
 10
4686.5710243016
 20
5262.2205760529
  0
LWPOLYLINE
  5
4FB
330
1F
100
AcDbEntity
  8
0
  6
Continuous
 62
     7
100
AcDbPolyline
 90
        3
 70
   128
 43
0.0
 10
4686.5692138672
 20
5262.2205760529
 10
4687.1643067943
 20
5263.5798164561
 10
4687.2895582943
 20
5264.7509571364
  0
LWPOLYLINE
  5
4FC
330
1F
100
AcDbEntity
  8
0
  6
Continuous
 62
     7
100
AcDbPolyline
 90
        3
 70
   128
 43
0.0
 10
4679.0084838867
 20
5261.6954032531
 10
4679.8527444039
 20
5261.9398006071
 10
4679.956223759
 20
5262.6502659371
  0
LWPOLYLINE
  5
4FD
330
1F
100
AcDbEntity
  8
0
  6
Continuous
 62
     7
100
AcDbPolyline
 90
        3
 70
   128
 43
0.0
 10
4679.9545288086
 20
5268.6969224563
 10
4679.7154206451
 20
5269.5377463456
 10
4679.0085248082
 20
5269.6398493102
  0
LWPOLYLINE
  5
4FE
330
1F
100
AcDbEntity
  8
0
  6
Continuous
 62
     7
100
AcDbPolyline
 90
        3
 70
   128
 43
0.0
 10
4692.3446655273
 20
5268.5990479043
 10
4691.6209671133
 20
5269.4011888549
 10
4690.8153816491
 20
5269.6398493102
  0
LWPOLYLINE
  5
4FF
330
1F
100
AcDbEntity
  8
0
  6
Continuous
 62
     7
100
AcDbPolyline
 90
        4
 70
   128
 43
0.0
 10
4696.5446472168
 20
5269.6398493102
 10
4696.0838394224
 20
5269.5808988791
 10
4695.8898394507
 20
5269.4552407001
 10
4695.8188563018
 20
5269.2364189973
  0
LWPOLYLINE
  5
500
330
1F
100
AcDbEntity
  8
0
  6
Continuous
 62
     7
100
AcDbPolyline
 90
        3
 70
   128
 43
0.0
 10
4695.8160400391
 20
5269.2364189973
 10
4695.8827124854
 20
5268.9774390729
 10
4695.9811821013
 20
5268.7924090972
  0
LWPOLYLINE
  5
501
330
1F
100
AcDbEntity
  8
0
  6
Continuous
 62
     7
100
AcDbPolyline
 90
        3
 70
   128
 43
0.0
 10
4698.6236572266
 20
5268.8162807574
 10
4698.7517992292
 20
5269.1099086818
 10
4698.7884714632
 20
5269.3581652095
  0
LWPOLYLINE
  5
502
330
1F
100
AcDbEntity
  8
0
  6
Continuous
 62
     7
100
AcDbPolyline
 90
        4
 70
   128
 43
0.0
 10
4698.787689209
 20
5269.3581652095
 10
4698.68606082
 20
5269.5227257838
 10
4698.5000831057
 20
5269.5980139483
 10
4698.1009691387
 20
5269.6398493102
  0
LWPOLYLINE
  5
503
330
1F
100
AcDbEntity
  8
0
  6
Continuous
 62
     7
100
AcDbPolyline
 90
        3
 70
   128
 43
0.0
 10
4702.3658752441
 20
5269.6398493102
 10
4701.4324406837
 20
5269.1956289756
 10
4700.9345217972
 20
5268.5274329236
  0
LWPOLYLINE
  5
504
330
1F
100
AcDbEntity
  8
0
  6
Continuous
 62
     7
100
AcDbPolyline
 90
        3
 70
   128
 43
0.0
 10
4698.4405517578
 20
5262.647878026
 10
4698.6693622757
 20
5261.8086927593
 10
4699.3661596804
 20
5261.6954032531
  0
LWPOLYLINE
  5
505
330
1F
100
AcDbEntity
  8
0
  6
Continuous
 62
     7
100
AcDbPolyline
 90
        3
 70
   128
 43
0.0
 10
4693.8743591309
 20
5261.6954032531
 10
4694.6878997134
 20
5261.9550013277
 10
4694.7756707101
 20
5262.647878026
  0
LINE
  5
506
330
1F
100
AcDbEntity
  8
0
  6
Continuous
 62
     7
100
AcDbLine
 10
4579.1854858398
 20
4220.9703543738
 30
0.0
 11
4580.3228802412
 21
4220.9703543738
 31
0.0
  0
LINE
  5
507
330
1F
100
AcDbEntity
  8
0
  6
Continuous
 62
     7
100
AcDbLine
 10
4650.4745483398
 20
4220.9703543738
 30
0.0
 11
4651.1027104586
 21
4220.9703543738
 31
0.0
  0
LINE
  5
508
330
1F
100
AcDbEntity
  8
0
  6
Continuous
 62
     7
100
AcDbLine
 10
4618.350982666
 20
4220.9703543738
 30
0.0
 11
4623.2158522486
 21
4220.9703543738
 31
0.0
  0
LINE
  5
509
330
1F
100
AcDbEntity
  8
0
  6
Continuous
 62
     7
100
AcDbLine
 10
4633.9149475098
 20
4220.9703543738
 30
0.0
 11
4636.4547497957
 21
4220.9703543738
 31
0.0
  0
LINE
  5
50A
330
1F
100
AcDbEntity
  8
0
  6
Continuous
 62
     7
100
AcDbLine
 10
4636.4517211914
 20
4220.9703543738
 30
0.0
 11
4638.4326749846
 21
4220.9703543738
 31
0.0
  0
LINE
  5
50B
330
1F
100
AcDbEntity
  8
0
  6
Continuous
 62
     7
100
AcDbLine
 10
4615.3030395508
 20
4220.9703543738
 30
0.0
 11
4618.3521113723
 21
4220.9703543738
 31
0.0
  0
LINE
  5
50C
330
1F
100
AcDbEntity
  8
0
  6
Continuous
 62
     7
100
AcDbLine
 10
4559.6656799316
 20
4220.9703543738
 30
0.0
 11
4564.150668624
 21
4220.9703543738
 31
0.0
  0
LINE
  5
50D
330
1F
100
AcDbEntity
  8
0
  6
Continuous
 62
     7
100
AcDbLine
 10
4572.7157592773
 20
4220.9703543738
 30
0.0
 11
4579.1228897303
 21
4220.9703543738
 31
0.0
  0
LINE
  5
50E
330
1F
100
AcDbEntity
  8
0
  6
Continuous
 62
     7
100
AcDbLine
 10
4566.2879943848
 20
4220.9703543738
 30
0.0
 11
4572.7181583076
 21
4220.9703543738
 31
0.0
  0
LINE
  5
50F
330
1F
100
AcDbEntity
  8
0
  6
Continuous
 62
     7
100
AcDbLine
 10
4664.8979187012
 20
4220.9703543738
 30
0.0
 11
4666.0844794839
 21
4220.9703543738
 31
0.0
  0
LINE
  5
510
330
1F
100
AcDbEntity
  8
0
  6
Continuous
 62
     7
100
AcDbLine
 10
4654.2358398438
 20
4220.9703543738
 30
0.0
 11
4655.4353907137
 21
4220.9703543738
 31
0.0
  0
LINE
  5
511
330
1F
100
AcDbEntity
  8
0
  6
Continuous
 62
     7
100
AcDbLine
 10
4667.5796508789
 20
4220.9703543738
 30
0.0
 11
4672.0356493621
 21
4220.9703543738
 31
0.0
  0
LINE
  5
512
330
1F
100
AcDbEntity
  8
0
  6
Continuous
 62
     7
100
AcDbLine
 10
4672.0352172852
 20
4220.9703543738
 30
0.0
 11
4675.654575172
 21
4220.9703543738
 31
0.0
  0
LINE
  5
513
330
1F
100
AcDbEntity
  8
0
  6
Continuous
 62
     7
100
AcDbLine
 10
4677.6847839355
 20
4220.9703543738
 30
0.0
 11
4678.1228891938
 21
4220.9703543738
 31
0.0
  0
LINE
  5
514
330
1F
100
AcDbEntity
  8
0
  6
Continuous
 62
     7
100
AcDbLine
 10
4564.4989013672
 20
4220.9703543738
 30
0.0
 11
4566.28955895
 21
4220.9703543738
 31
0.0
  0
LINE
  5
515
330
1F
100
AcDbEntity
  8
0
  6
Continuous
 62
     7
100
AcDbLine
 10
4594.2459106445
 20
4220.9703543738
 30
0.0
 11
4595.1423160165
 21
4220.9703543738
 31
0.0
  0
LINE
  5
516
330
1F
100
AcDbEntity
  8
0
  6
Continuous
 62
     7
100
AcDbLine
 10
4652.4772644043
 20
4220.9703543738
 30
0.0
 11
4653.6562144189
 21
4220.9703543738
 31
0.0
  0
ENDSEC
  0
SECTION
  2
OBJECTS
  0
DICTIONARY
  5
C
330
0
100
AcDbDictionary
281
     1
  3
ACAD_GROUP
350
D
  3
ACAD_LAYOUT
350
1A
  3
ACAD_MLINESTYLE
350
17
  3
ACAD_PLOTSETTINGS
350
19
  3
ACAD_PLOTSTYLENAME
350
E
  3
ACAD_SCALELIST
350
47
  3
DWGPROPS
350
517
  0
DICTIONARY
  5
D
102
{ACAD_REACTORS
330
C
102
}
330
C
100
AcDbDictionary
281
     1
  0
DICTIONARY
  5
1A
102
{ACAD_REACTORS
330
C
102
}
330
C
100
AcDbDictionary
281
     1
  3
Layout1
350
1E
  3
Layout2
350
26
  3
Model
350
22
  0
DICTIONARY
  5
17
102
{ACAD_REACTORS
330
C
102
}
330
C
100
AcDbDictionary
281
     1
  3
Standard
350
18
  0
DICTIONARY
  5
19
102
{ACAD_REACTORS
330
C
102
}
330
C
100
AcDbDictionary
281
     1
  0
ACDBDICTIONARYWDFLT
  5
E
102
{ACAD_REACTORS
330
C
102
}
330
C
100
AcDbDictionary
281
     1
  3
Normal
350
F
100
AcDbDictionaryWithDefault
340
F
  0
DICTIONARY
  5
47
102
{ACAD_REACTORS
330
C
102
}
330
C
100
AcDbDictionary
281
     1
  3
A0
350
48
  3
A1
350
49
  3
A2
350
4A
  3
A3
350
4B
  3
A4
350
4C
  3
A5
350
4D
  3
A6
350
4E
  3
A7
350
4F
  3
A8
350
50
  3
A9
350
51
  3
B0
350
52
  3
B1
350
53
  3
B2
350
54
  3
B3
350
55
  3
B4
350
56
  3
B5
350
57
  3
B6
350
58
  3
B7
350
59
  3
B8
350
5A
  3
B9
350
5B
  3
C0
350
5C
  3
C1
350
5D
  3
C2
350
5E
  3
C3
350
5F
  3
C4
350
60
  3
C5
350
61
  3
C6
350
62
  3
C7
350
63
  3
C8
350
64
  3
C9
350
65
  3
D0
350
66
  3
D1
350
67
  3
D2
350
68
  0
XRECORD
  5
517
102
{ACAD_REACTORS
330
C
102
}
330
C
100
AcDbXrecord
280
     1
  1
DWGPROPS COOKIE
  2

  3

  4

  6

  7

  8
radek.stransky
  9

300
=
301
=
302
=
303
=
304
=
305
=
306
=
307
=
308
=
309
=
 40
0.0
 41
2459100.46004096
 42
2459100.46007669
  1

 90
        0
  0
LAYOUT
  5
1E
102
{ACAD_REACTORS
330
1A
102
}
330
1A
100
AcDbPlotSettings
  1

  2
none_device
  4

  6

 40
0.0
 41
0.0
 42
0.0
 43
0.0
 44
0.0
 45
0.0
 46
0.0
 47
0.0
 48
0.0
 49
0.0
140
0.0
141
0.0
142
1.0
143
1.0
 70
   688
 72
     1
 73
     0
 74
     5
  7

 75
    16
147
1.0
148
0.0
149
0.0
100
AcDbLayout
  1
Layout1
 70
     1
 71
     1
 10
0.0
 20
0.0
 11
420.0
 21
297.0
 12
0.0
 22
0.0
 32
0.0
 14
1.0000000000E+20
 24
1.0000000000E+20
 34
1.0000000000E+20
 15
-1.0000000000E+20
 25
-1.0000000000E+20
 35
-1.0000000000E+20
146
0.0
 13
0.0
 23
0.0
 33
0.0
 16
1.0
 26
0.0
 36
0.0
 17
0.0
 27
1.0
 37
0.0
 76
     0
330
1B
  0
LAYOUT
  5
26
102
{ACAD_REACTORS
330
1A
102
}
330
1A
100
AcDbPlotSettings
  1

  2
none_device
  4

  6

 40
0.0
 41
0.0
 42
0.0
 43
0.0
 44
0.0
 45
0.0
 46
0.0
 47
0.0
 48
0.0
 49
0.0
140
0.0
141
0.0
142
1.0
143
1.0
 70
   688
 72
     1
 73
     0
 74
     5
  7

 75
    16
147
1.0
148
0.0
149
0.0
100
AcDbLayout
  1
Layout2
 70
     1
 71
     2
 10
0.0
 20
0.0
 11
0.0
 21
0.0
 12
0.0
 22
0.0
 32
0.0
 14
0.0
 24
0.0
 34
0.0
 15
0.0
 25
0.0
 35
0.0
146
0.0
 13
0.0
 23
0.0
 33
0.0
 16
1.0
 26
0.0
 36
0.0
 17
0.0
 27
1.0
 37
0.0
 76
     0
330
23
  0
LAYOUT
  5
22
102
{ACAD_REACTORS
330
1A
102
}
330
1A
100
AcDbPlotSettings
  1

  2
none_device
  4
ANSI_A_(11.00_x_8.50_Inches)
  6

 40
6.35
 41
19.05
 42
6.35000508
 43
19.05000254
 44
279.4
 45
215.9
 46
-693.5573899228
 47
-719.0349855277
 48
0.0
 49
0.0
140
0.0
141
0.0
142
0.0065392028
143
1.0
 70
  1696
 72
     0
 73
     0
 74
     0
  7

 75
     0
147
0.0179189148
148
-1300.4909072572
149
0.0
100
AcDbLayout
  1
Model
 70
     1
 71
     0
 10
0.0
 20
0.0
 11
420.0
 21
297.0
 12
0.0
 22
0.0
 32
0.0
 14
4417.7826195387
 24
4220.8453543533
 34
0.0
 15
5539.2135851986
 25
5507.6994557133
 35
0.0
146
0.0
 13
0.0
 23
0.0
 33
0.0
 16
1.0
 26
0.0
 36
0.0
 17
0.0
 27
1.0
 37
0.0
 76
     0
330
1F
331
29
  0
MLINESTYLE
  5
18
102
{ACAD_REACTORS
330
17
102
}
330
17
100
AcDbMlineStyle
  2
Standard
 70
     0
  3

 62
   256
 51
90.0
 52
90.0
 71
     2
 49
0.5
 62
   256
  6
BYLAYER
 49
-0.5
 62
   256
  6
BYLAYER
  0
ACDBPLACEHOLDER
  5
F
102
{ACAD_REACTORS
330
E
102
}
330
E
  0
SCALE
  5
48
102
{ACAD_REACTORS
330
47
102
}
330
47
100
AcDbScale
 70
     0
300
1:1
140
1.0
141
1.0
290
     1
  0
SCALE
  5
49
102
{ACAD_REACTORS
330
47
102
}
330
47
100
AcDbScale
 70
     0
300
1:2
140
1.0
141
2.0
290
     0
  0
SCALE
  5
4A
102
{ACAD_REACTORS
330
47
102
}
330
47
100
AcDbScale
 70
     0
300
1:4
140
1.0
141
4.0
290
     0
  0
SCALE
  5
4B
102
{ACAD_REACTORS
330
47
102
}
330
47
100
AcDbScale
 70
     0
300
1:5
140
1.0
141
5.0
290
     0
  0
SCALE
  5
4C
102
{ACAD_REACTORS
330
47
102
}
330
47
100
AcDbScale
 70
     0
300
1:8
140
1.0
141
8.0
290
     0
  0
SCALE
  5
4D
102
{ACAD_REACTORS
330
47
102
}
330
47
100
AcDbScale
 70
     0
300
1:10
140
1.0
141
10.0
290
     0
  0
SCALE
  5
4E
102
{ACAD_REACTORS
330
47
102
}
330
47
100
AcDbScale
 70
     0
300
1:16
140
1.0
141
16.0
290
     0
  0
SCALE
  5
4F
102
{ACAD_REACTORS
330
47
102
}
330
47
100
AcDbScale
 70
     0
300
1:20
140
1.0
141
20.0
290
     0
  0
SCALE
  5
50
102
{ACAD_REACTORS
330
47
102
}
330
47
100
AcDbScale
 70
     0
300
1:30
140
1.0
141
30.0
290
     0
  0
SCALE
  5
51
102
{ACAD_REACTORS
330
47
102
}
330
47
100
AcDbScale
 70
     0
300
1:40
140
1.0
141
40.0
290
     0
  0
SCALE
  5
52
102
{ACAD_REACTORS
330
47
102
}
330
47
100
AcDbScale
 70
     0
300
1:50
140
1.0
141
50.0
290
     0
  0
SCALE
  5
53
102
{ACAD_REACTORS
330
47
102
}
330
47
100
AcDbScale
 70
     0
300
1:100
140
1.0
141
100.0
290
     0
  0
SCALE
  5
54
102
{ACAD_REACTORS
330
47
102
}
330
47
100
AcDbScale
 70
     0
300
2:1
140
2.0
141
1.0
290
     0
  0
SCALE
  5
55
102
{ACAD_REACTORS
330
47
102
}
330
47
100
AcDbScale
 70
     0
300
4:1
140
4.0
141
1.0
290
     0
  0
SCALE
  5
56
102
{ACAD_REACTORS
330
47
102
}
330
47
100
AcDbScale
 70
     0
300
8:1
140
8.0
141
1.0
290
     0
  0
SCALE
  5
57
102
{ACAD_REACTORS
330
47
102
}
330
47
100
AcDbScale
 70
     0
300
10:1
140
10.0
141
1.0
290
     0
  0
SCALE
  5
58
102
{ACAD_REACTORS
330
47
102
}
330
47
100
AcDbScale
 70
     0
300
100:1
140
100.0
141
1.0
290
     0
  0
SCALE
  5
59
102
{ACAD_REACTORS
330
47
102
}
330
47
100
AcDbScale
 70
     0
300
1/128" = 1'-0"
140
0.0078125
141
12.0
290
     0
  0
SCALE
  5
5A
102
{ACAD_REACTORS
330
47
102
}
330
47
100
AcDbScale
 70
     0
300
1/64" = 1'-0"
140
0.015625
141
12.0
290
     0
  0
SCALE
  5
5B
102
{ACAD_REACTORS
330
47
102
}
330
47
100
AcDbScale
 70
     0
300
1/32" = 1'-0"
140
0.03125
141
12.0
290
     0
  0
SCALE
  5
5C
102
{ACAD_REACTORS
330
47
102
}
330
47
100
AcDbScale
 70
     0
300
1/16" = 1'-0"
140
0.0625
141
12.0
290
     0
  0
SCALE
  5
5D
102
{ACAD_REACTORS
330
47
102
}
330
47
100
AcDbScale
 70
     0
300
3/32" = 1'-0"
140
0.09375
141
12.0
290
     0
  0
SCALE
  5
5E
102
{ACAD_REACTORS
330
47
102
}
330
47
100
AcDbScale
 70
     0
300
1/8" = 1'-0"
140
0.125
141
12.0
290
     0
  0
SCALE
  5
5F
102
{ACAD_REACTORS
330
47
102
}
330
47
100
AcDbScale
 70
     0
300
3/16" = 1'-0"
140
0.1875
141
12.0
290
     0
  0
SCALE
  5
60
102
{ACAD_REACTORS
330
47
102
}
330
47
100
AcDbScale
 70
     0
300
1/4" = 1'-0"
140
0.25
141
12.0
290
     0
  0
SCALE
  5
61
102
{ACAD_REACTORS
330
47
102
}
330
47
100
AcDbScale
 70
     0
300
3/8" = 1'-0"
140
0.375
141
12.0
290
     0
  0
SCALE
  5
62
102
{ACAD_REACTORS
330
47
102
}
330
47
100
AcDbScale
 70
     0
300
1/2" = 1'-0"
140
0.5
141
12.0
290
     0
  0
SCALE
  5
63
102
{ACAD_REACTORS
330
47
102
}
330
47
100
AcDbScale
 70
     0
300
3/4" = 1'-0"
140
0.75
141
12.0
290
     0
  0
SCALE
  5
64
102
{ACAD_REACTORS
330
47
102
}
330
47
100
AcDbScale
 70
     0
300
1" = 1'-0"
140
1.0
141
12.0
290
     0
  0
SCALE
  5
65
102
{ACAD_REACTORS
330
47
102
}
330
47
100
AcDbScale
 70
     0
300
1-1/2" = 1'-0"
140
1.5
141
12.0
290
     0
  0
SCALE
  5
66
102
{ACAD_REACTORS
330
47
102
}
330
47
100
AcDbScale
 70
     0
300
3" = 1'-0"
140
3.0
141
12.0
290
     0
  0
SCALE
  5
67
102
{ACAD_REACTORS
330
47
102
}
330
47
100
AcDbScale
 70
     0
300
6" = 1'-0"
140
6.0
141
12.0
290
     0
  0
SCALE
  5
68
102
{ACAD_REACTORS
330
47
102
}
330
47
100
AcDbScale
 70
     0
300
1'-0" = 1'-0"
140
12.0
141
12.0
290
     0
  0
ENDSEC
  0
EOF
