  0
SECTION
  2
HEADER
  9
$ACADVER
  1
AC1015
  9
$ACADMAINTVER
 70
     6
  9
$DWGCODEPAGE
  3
ANSI_1250
  9
$INSBASE
 10
0.0
 20
0.0
 30
0.0
  9
$EXTMIN
 10
0.0
 20
0.0
 30
0.0
  9
$EXTMAX
 10
20000.0
 20
10000.0
 30
0.0
  9
$LIMMIN
 10
0.0
 20
0.0
  9
$LIMMAX
 10
20000.0
 20
10000.0
  9
$ORTHOMODE
 70
     0
  9
$REGENMODE
 70
     1
  9
$FILLMODE
 70
     1
  9
$QTEXTMODE
 70
     0
  9
$MIRRTEXT
 70
     1
  9
$LTSCALE
 40
1.0
  9
$ATTMODE
 70
     1
  9
$TEXTSIZE
 40
2.0
  9
$TRACEWID
 40
1.0
  9
$TEXTSTYLE
  7
STANDARD
  9
$CLAYER
  8
0
  9
$CELTYPE
  6
ByLayer
  9
$CECOLOR
 62
   256
  9
$CELTSCALE
 40
1.0
  9
$DISPSILH
 70
     0
  9
$DIMSCALE
 40
1.0
  9
$DIMASZ
 40
2.0
  9
$DIMEXO
 40
1.0
  9
$DIMDLI
 40
3.75
  9
$DIMRND
 40
0.0
  9
$DIMDLE
 40
0.0
  9
$DIMEXE
 40
1.0
  9
$DIMTP
 40
0.0
  9
$DIMTM
 40
0.0
  9
$DIMTXT
 40
2.0
  9
$DIMCEN
 40
2.5
  9
$DIMTSZ
 40
0.0
  9
$DIMTOL
 70
     0
  9
$DIMLIM
 70
     0
  9
$DIMTIH
 70
     1
  9
$DIMTOH
 70
     1
  9
$DIMSE1
 70
     0
  9
$DIMSE2
 70
     0
  9
$DIMTAD
 70
     1
  9
$DIMZIN
 70
     0
  9
$DIMBLK
  1

  9
$DIMASO
 70
     1
  9
$DIMSHO
 70
     1
  9
$DIMPOST
  1

  9
$DIMAPOST
  1

  9
$DIMALT
 70
     0
  9
$DIMALTD
 70
     3
  9
$DIMALTF
 40
0.0393700787
  9
$DIMLFAC
 40
1.0
  9
$DIMTOFL
 70
     1
  9
$DIMTVP
 40
0.0
  9
$DIMTIX
 70
     0
  9
$DIMSOXD
 70
     0
  9
$DIMSAH
 70
     0
  9
$DIMBLK1
  1

  9
$DIMBLK2
  1

  9
$DIMSTYLE
  2
ISO-25
  9
$DIMCLRD
 70
     0
  9
$DIMCLRE
 70
     0
  9
$DIMCLRT
 70
     0
  9
$DIMTFAC
 40
1.0
  9
$DIMGAP
 40
1.524
  9
$DIMJUST
 70
     0
  9
$DIMSD1
 70
     0
  9
$DIMSD2
 70
     0
  9
$DIMTOLJ
 70
     0
  9
$DIMTZIN
 70
     0
  9
$DIMALTZ
 70
     0
  9
$DIMALTTZ
 70
     0
  9
$DIMUPT
 70
     0
  9
$DIMDEC
 70
     2
  9
$DIMTDEC
 70
     0
  9
$DIMALTU
 70
     2
  9
$DIMALTTD
 70
     3
  9
$DIMTXSTY
  7
STANDARD
  9
$DIMAUNIT
 70
     0
  9
$DIMADEC
 70
     2
  9
$DIMALTRND
 40
0.0
  9
$DIMAZIN
 70
     0
  9
$DIMDSEP
 70
    44
  9
$DIMATFIT
 70
     3
  9
$DIMFRAC
 70
     0
  9
$DIMLDRBLK
  1

  9
$DIMLUNIT
 70
     2
  9
$DIMLWD
 70
    -2
  9
$DIMLWE
 70
    -2
  9
$DIMTMOVE
 70
     0
  9
$LUNITS
 70
     2
  9
$LUPREC
 70
     3
  9
$SKETCHINC
 40
1.0
  9
$FILLETRAD
 40
10.0
  9
$AUNITS
 70
     0
  9
$AUPREC
 70
     2
  9
$MENU
  1
.
  9
$ELEVATION
 40
0.0
  9
$PELEVATION
 40
0.0
  9
$THICKNESS
 40
0.0
  9
$LIMCHECK
 70
     0
  9
$CHAMFERA
 40
0.0
  9
$CHAMFERB
 40
0.0
  9
$CHAMFERC
 40
0.0
  9
$CHAMFERD
 40
0.0
  9
$SKPOLY
 70
     0
  9
$TDCREATE
 40
2460957.298569039
  9
$TDUCREATE
 40
2460957.215235706
  9
$TDUPDATE
 40
2460957.298570278
  9
$TDUUPDATE
 40
2460957.215236945
  9
$TDINDWG
 40
0.0000000116
  9
$TDUSRTIMER
 40
0.0000000116
  9
$USRTIMER
 70
     1
  9
$ANGBASE
 50
0.0
  9
$ANGDIR
 70
     0
  9
$PDMODE
 70
     0
  9
$PDSIZE
 40
-1.0
  9
$PLINEWID
 40
0.0
  9
$SPLFRAME
 70
     0
  9
$SPLINETYPE
 70
     6
  9
$SPLINESEGS
 70
     8
  9
$HANDSEED
  5
29E
  9
$SURFTAB1
 70
     6
  9
$SURFTAB2
 70
     6
  9
$SURFTYPE
 70
     6
  9
$SURFU
 70
     6
  9
$SURFV
 70
     6
  9
$UCSBASE
  2

  9
$UCSNAME
  2

  9
$UCSORG
 10
0.0
 20
0.0
 30
0.0
  9
$UCSXDIR
 10
1.0
 20
0.0
 30
0.0
  9
$UCSYDIR
 10
0.0
 20
1.0
 30
0.0
  9
$UCSORTHOREF
  2

  9
$UCSORTHOVIEW
 70
     0
  9
$UCSORGTOP
 10
0.0
 20
0.0
 30
0.0
  9
$UCSORGBOTTOM
 10
0.0
 20
0.0
 30
0.0
  9
$UCSORGLEFT
 10
0.0
 20
0.0
 30
0.0
  9
$UCSORGRIGHT
 10
0.0
 20
0.0
 30
0.0
  9
$UCSORGFRONT
 10
0.0
 20
0.0
 30
0.0
  9
$UCSORGBACK
 10
0.0
 20
0.0
 30
0.0
  9
$PUCSBASE
  2

  9
$PUCSNAME
  2

  9
$PUCSORG
 10
0.0
 20
0.0
 30
0.0
  9
$PUCSXDIR
 10
1.0
 20
0.0
 30
0.0
  9
$PUCSYDIR
 10
0.0
 20
1.0
 30
0.0
  9
$PUCSORTHOREF
  2

  9
$PUCSORTHOVIEW
 70
     0
  9
$PUCSORGTOP
 10
0.0
 20
0.0
 30
0.0
  9
$PUCSORGBOTTOM
 10
0.0
 20
0.0
 30
0.0
  9
$PUCSORGLEFT
 10
0.0
 20
0.0
 30
0.0
  9
$PUCSORGRIGHT
 10
0.0
 20
0.0
 30
0.0
  9
$PUCSORGFRONT
 10
0.0
 20
0.0
 30
0.0
  9
$PUCSORGBACK
 10
0.0
 20
0.0
 30
0.0
  9
$USERI1
 70
     0
  9
$USERI2
 70
     0
  9
$USERI3
 70
     0
  9
$USERI4
 70
     0
  9
$USERI5
 70
     0
  9
$USERR1
 40
0.0
  9
$USERR2
 40
0.0
  9
$USERR3
 40
0.0
  9
$USERR4
 40
0.0
  9
$USERR5
 40
0.0
  9
$WORLDVIEW
 70
     1
  9
$SHADEDGE
 70
     3
  9
$SHADEDIF
 70
    70
  9
$TILEMODE
 70
     1
  9
$MAXACTVP
 70
    64
  9
$PINSBASE
 10
0.0
 20
0.0
 30
0.0
  9
$PLIMCHECK
 70
     0
  9
$PEXTMIN
 10
1.0000000000E+20
 20
1.0000000000E+20
 30
1.0000000000E+20
  9
$PEXTMAX
 10
-1.0000000000E+20
 20
-1.0000000000E+20
 30
-1.0000000000E+20
  9
$PLIMMIN
 10
0.0
 20
0.0
  9
$PLIMMAX
 10
420.0
 20
297.0
  9
$UNITMODE
 70
     0
  9
$VISRETAIN
 70
     1
  9
$PLINEGEN
 70
     0
  9
$PSLTSCALE
 70
     1
  9
$TREEDEPTH
 70
  3020
  9
$CMLSTYLE
  2
Standard
  9
$CMLJUST
 70
     0
  9
$CMLSCALE
 40
20.0
  9
$PROXYGRAPHICS
 70
     1
  9
$MEASUREMENT
 70
     1
  9
$CELWEIGHT
370
    -1
  9
$ENDCAPS
280
     0
  9
$JOINSTYLE
280
     0
  9
$LWDISPLAY
290
     1
  9
$INSUNITS
 70
     4
  9
$HYPERLINKBASE
  1

  9
$STYLESHEET
  1

  9
$XEDIT
290
     1
  9
$CEPSNTYPE
380
     0
  9
$PSTYLEMODE
290
     1
  9
$FINGERPRINTGUID
  2
{4da74471-5005-4439-b0ba-51d3bf69b922}
  9
$VERSIONGUID
  2
{FAEB1C32-E019-11D5-929B-00C0DF256EC4}
  9
$EXTNAMES
290
     1
  9
$PSVPSCALE
 40
0.0
  9
$OLESTARTUP
290
     0
  0
ENDSEC
  0
SECTION
  2
CLASSES
  0
CLASS
  1
ACDBDICTIONARYWDFLT
  2
AcDbDictionaryWithDefault
  3
ObjectDBX Classes
 90
        0
280
     0
281
     0
  0
CLASS
  1
VISUALSTYLE
  2
AcDbVisualStyle
  3
ObjectDBX Classes
 90
     4095
280
     0
281
     0
  0
CLASS
  1
MATERIAL
  2
AcDbMaterial
  3
ObjectDBX Classes
 90
     1153
280
     0
281
     0
  0
CLASS
  1
SCALE
  2
AcDbScale
  3
ObjectDBX Classes
 90
     1153
280
     0
281
     0
  0
CLASS
  1
TABLESTYLE
  2
AcDbTableStyle
  3
ObjectDBX Classes
 90
     4095
280
     0
281
     0
  0
CLASS
  1
MLEADERSTYLE
  2
AcDbMLeaderStyle
  3
ACDB_MLEADERSTYLE_CLASS
 90
     4095
280
     0
281
     0
  0
CLASS
  1
SUN
  2
AcDbSun
  3
SCENEOE
 90
     1153
280
     0
281
     0
  0
CLASS
  1
ACDBPLACEHOLDER
  2
AcDbPlaceHolder
  3
ObjectDBX Classes
 90
        0
280
     0
281
     0
  0
CLASS
  1
LAYOUT
  2
AcDbLayout
  3
ObjectDBX Classes
 90
        0
280
     0
281
     0
  0
ENDSEC
  0
SECTION
  2
TABLES
  0
TABLE
  2
VPORT
  5
8
330
0
100
AcDbSymbolTable
 70
     1
  0
VPORT
  5
29
330
8
100
AcDbSymbolTableRecord
100
AcDbViewportTableRecord
  2
*Active
 70
     0
 10
0.0
 20
0.0
 11
1.0
 21
1.0
 12
10000.0
 22
5000.0
 13
0.0
 23
0.0
 14
10.0
 24
10.0
 15
10.0
 25
10.0
 16
0.0
 26
0.0
 36
1.0
 17
0.0
 27
0.0
 37
0.0
 40
10000.0
 41
2.0
 42
50.0
 43
0.0
 44
0.0
 50
0.0
 51
0.0
 71
     0
 72
  2000
 73
     1
 74
     3
 75
     0
 76
     0
 77
     0
 78
     0
281
     0
 65
     1
110
0.0
120
0.0
130
0.0
111
1.0
121
0.0
131
0.0
112
0.0
122
1.0
132
0.0
 79
     0
146
0.0
  0
ENDTAB
  0
TABLE
  2
LTYPE
  5
5
330
0
100
AcDbSymbolTable
 70
    10
  0
LTYPE
  5
14
330
5
100
AcDbSymbolTableRecord
100
AcDbLinetypeTableRecord
  2
ByBlock
 70
     0
  3

 72
    65
 73
     0
 40
0.0
  0
LTYPE
  5
15
330
5
100
AcDbSymbolTableRecord
100
AcDbLinetypeTableRecord
  2
ByLayer
 70
     0
  3

 72
    65
 73
     0
 40
0.0
  0
LTYPE
  5
16
330
5
100
AcDbSymbolTableRecord
100
AcDbLinetypeTableRecord
  2
Continuous
 70
     0
  3
Solid line
 72
    65
 73
     0
 40
0.0
  0
LTYPE
  5
6E
330
5
100
AcDbSymbolTableRecord
100
AcDbLinetypeTableRecord
  2
SLD-Plná
 70
     0
  3
SolidWorks Line Style
 72
    65
 73
     0
 40
0.0
  0
LTYPE
  5
6F
330
5
100
AcDbSymbolTableRecord
100
AcDbLinetypeTableRecord
  2
SLD-Čárkovaná
 70
     0
  3
SolidWorks Line Style
 72
    65
 73
     2
 40
1.905
 49
1.27
 74
     0
 49
-0.635
 74
     0
  0
LTYPE
  5
70
330
5
100
AcDbSymbolTableRecord
100
AcDbLinetypeTableRecord
  2
SLD-Dvojitě-čerchovaná
 70
     0
  3
SolidWorks Line Style
 72
    65
 73
     6
 40
12.7
 49
6.35
 74
     0
 49
-1.27
 74
     0
 49
1.27
 74
     0
 49
-1.27
 74
     0
 49
1.27
 74
     0
 49
-1.27
 74
     0
  0
LTYPE
  5
71
330
5
100
AcDbSymbolTableRecord
100
AcDbLinetypeTableRecord
  2
SLD-Čerchovaná
 70
     0
  3
SolidWorks Line Style
 72
    65
 73
     4
 40
10.16
 49
6.35
 74
     0
 49
-1.27
 74
     0
 49
1.27
 74
     0
 49
-1.27
 74
     0
  0
LTYPE
  5
72
330
5
100
AcDbSymbolTableRecord
100
AcDbLinetypeTableRecord
  2
SLD-Osa
 70
     0
  3
SolidWorks Line Style
 72
    65
 73
     4
 40
19.05
 49
15.24
 74
     0
 49
-1.27
 74
     0
 49
1.27
 74
     0
 49
-1.27
 74
     0
  0
LTYPE
  5
73
330
5
100
AcDbSymbolTableRecord
100
AcDbLinetypeTableRecord
  2
SLD-Tečkovaná
 70
     0
  3
SolidWorks Line Style
 72
    65
 73
     2
 40
0.635
 49
0.0
 74
     0
 49
-0.635
 74
     0
  0
LTYPE
  5
74
330
5
100
AcDbSymbolTableRecord
100
AcDbLinetypeTableRecord
  2
SLD-Hrubá-tenká-čerchovaná
 70
     0
  3
SolidWorks Line Style
 72
    65
 73
     4
 40
10.16
 49
6.35
 74
     0
 49
-1.27
 74
     0
 49
1.27
 74
     0
 49
-1.27
 74
     0
  0
LTYPE
  5
75
330
5
100
AcDbSymbolTableRecord
100
AcDbLinetypeTableRecord
  2
SLD-Řez-1
 70
     0
  3
SolidWorks Line Style
 72
    65
 73
     4
 40
8.128
 49
5.08
 74
     0
 49
-1.016
 74
     0
 49
1.016
 74
     0
 49
-1.016
 74
     0
  0
LTYPE
  5
76
330
5
100
AcDbSymbolTableRecord
100
AcDbLinetypeTableRecord
  2
SLD-Řez-2
 70
     0
  3
SolidWorks Line Style
 72
    65
 73
     2
 40
5080.0
 49
0.0
 74
     0
 49
-5080.0
 74
     0
  0
ENDTAB
  0
TABLE
  2
LAYER
  5
2
330
0
100
AcDbSymbolTable
 70
    13
  0
LAYER
  5
10
330
2
100
AcDbSymbolTableRecord
100
AcDbLayerTableRecord
  2
0
 70
     0
 62
     7
  6
Continuous
370
    -3
390
F
  0
LAYER
  5
77
330
2
100
AcDbSymbolTableRecord
100
AcDbLayerTableRecord
  2
FORMAT
 70
     0
 62
     7
  6
SLD-Plná
370
    -3
390
F
  0
LAYER
  5
78
330
2
100
AcDbSymbolTableRecord
100
AcDbLayerTableRecord
  2
OSA
 70
     0
 62
     7
  6
SLD-Hrubá-tenká-čerchovaná
370
    -3
390
F
  0
LAYER
  5
79
330
2
100
AcDbSymbolTableRecord
100
AcDbLayerTableRecord
  2
0_35
 70
     0
 62
     7
  6
SLD-Plná
370
    35
390
F
  0
LAYER
  5
7A
330
2
100
AcDbSymbolTableRecord
100
AcDbLayerTableRecord
  2
0_5
 70
     0
 62
     7
  6
SLD-Plná
370
    50
390
F
  0
LAYER
  5
7B
330
2
100
AcDbSymbolTableRecord
100
AcDbLayerTableRecord
  2
0_25
 70
     0
 62
     7
  6
SLD-Plná
370
    25
390
F
  0
LAYER
  5
7C
330
2
100
AcDbSymbolTableRecord
100
AcDbLayerTableRecord
  2
0_18
 70
     0
 62
     7
  6
SLD-Plná
370
    -3
390
F
  0
LAYER
  5
7D
330
2
100
AcDbSymbolTableRecord
100
AcDbLayerTableRecord
  2
SLD-0
 70
     0
 62
   179
  6
SLD-Plná
370
    -3
390
F
  0
LAYER
  5
7E
330
2
100
AcDbSymbolTableRecord
100
AcDbLayerTableRecord
  2
KOTY
 70
     0
 62
     7
  6
SLD-Plná
370
    -3
390
F
  0
LAYER
  5
7F
330
2
100
AcDbSymbolTableRecord
100
AcDbLayerTableRecord
  2
SILNA
 70
     0
 62
   179
  6
SLD-Plná
370
    -3
390
F
  0
LAYER
  5
80
330
2
100
AcDbSymbolTableRecord
100
AcDbLayerTableRecord
  2
0_18_1
 70
     0
 62
   179
  6
SLD-Plná
370
    -3
390
F
  0
LAYER
  5
81
330
2
100
AcDbSymbolTableRecord
100
AcDbLayerTableRecord
  2
0_35_1
 70
     0
 62
   179
  6
SLD-Plná
370
    35
390
F
  0
LAYER
  5
82
330
2
100
AcDbSymbolTableRecord
100
AcDbLayerTableRecord
  2
0_5_1
 70
     0
 62
   179
  6
SLD-Plná
370
    50
390
F
  0
ENDTAB
  0
TABLE
  2
STYLE
  5
3
330
0
100
AcDbSymbolTable
 70
     1
  0
STYLE
  5
11
330
3
100
AcDbSymbolTableRecord
100
AcDbTextStyleTableRecord
  2
STANDARD
 70
     0
 40
0.0
 41
1.0
 50
0.0
 71
     0
 42
2.0
  3
SWISOP1.TTF
  4

1001
ACAD
1000
SWISOP1
1071
        2
  0
ENDTAB
  0
TABLE
  2
VIEW
  5
6
330
0
100
AcDbSymbolTable
 70
     0
  0
ENDTAB
  0
TABLE
  2
UCS
  5
7
330
0
100
AcDbSymbolTable
 70
     0
  0
ENDTAB
  0
TABLE
  2
APPID
  5
9
330
0
100
AcDbSymbolTable
 70
     1
  0
APPID
  5
12
330
9
100
AcDbSymbolTableRecord
100
AcDbRegAppTableRecord
  2
ACAD
 70
     0
  0
ENDTAB
  0
TABLE
  2
DIMSTYLE
  5
A
330
0
100
AcDbSymbolTable
 70
     1
100
AcDbDimStyleTable
  0
DIMSTYLE
105
27
330
A
100
AcDbSymbolTableRecord
100
AcDbDimStyleTableRecord
  2
ISO-25
 70
     0
 41
2.5
 42
0.625
 43
3.75
 44
1.25
 73
     0
 74
     0
 77
     1
 78
     8
140
2.5
141
2.5
143
0.0393700787
147
0.625
171
     3
172
     1
178
     0
271
     2
272
     2
274
     3
278
    44
283
     0
284
     8
340
11
  0
ENDTAB
  0
TABLE
  2
BLOCK_RECORD
  5
1
330
0
100
AcDbSymbolTable
 70
     1
  0
BLOCK_RECORD
  5
1F
330
1
100
AcDbSymbolTableRecord
100
AcDbBlockTableRecord
  2
*Model_Space
340
22
  0
BLOCK_RECORD
  5
1B
330
1
100
AcDbSymbolTableRecord
100
AcDbBlockTableRecord
  2
*Paper_Space
340
1E
  0
BLOCK_RECORD
  5
23
330
1
100
AcDbSymbolTableRecord
100
AcDbBlockTableRecord
  2
*Paper_Space0
340
26
  0
ENDTAB
  0
ENDSEC
  0
SECTION
  2
BLOCKS
  0
BLOCK
  5
20
330
1F
100
AcDbEntity
  8
0
100
AcDbBlockBegin
  2
*Model_Space
 70
     0
 10
0.0
 20
0.0
 30
0.0
  3
*Model_Space
  1

  0
ENDBLK
  5
21
330
1F
100
AcDbEntity
  8
0
100
AcDbBlockEnd
  0
BLOCK
  5
1C
330
1B
100
AcDbEntity
 67
     1
  8
0
100
AcDbBlockBegin
  2
*Paper_Space
 70
     0
 10
0.0
 20
0.0
 30
0.0
  3
*Paper_Space
  1

  0
ENDBLK
  5
1D
330
1B
100
AcDbEntity
 67
     1
  8
0
100
AcDbBlockEnd
  0
BLOCK
  5
24
330
23
100
AcDbEntity
  8
0
100
AcDbBlockBegin
  2
*Paper_Space0
 70
     0
 10
0.0
 20
0.0
 30
0.0
  3
*Paper_Space0
  1

  0
ENDBLK
  5
25
330
23
100
AcDbEntity
  8
0
100
AcDbBlockEnd
  0
ENDSEC
  0
SECTION
  2
ENTITIES
  0
LINE
  5
83
330
1F
100
AcDbEntity
  8
0
  6
SLD-Plná
 62
     7
370
    25
100
AcDbLine
 10
9534.4886516438
 20
3313.8485210238
 30
0.0
 11
9546.3381279448
 21
3325.9544968118
 31
0.0
  0
SPLINE
  5
84
330
1F
100
AcDbEntity
  8
0
  6
SLD-Plná
 62
     7
370
    25
100
AcDbSpline
210
0.0
220
0.0
230
1.0
 70
     8
 71
     3
 72
    15
 73
    11
 74
     0
 42
0.00000001
 43
0.00000001
 40
0.0
 40
0.0
 40
0.0
 40
0.0
 40
0.125419796165946
 40
0.2493134064782861
 40
0.3756143160180603
 40
0.4999988874585939
 40
0.6243840363497901
 40
0.7506874118959238
 40
0.8745829928870542
 40
1.0
 40
1.0
 40
1.0
 40
1.0
 10
9551.897216826626
 20
3320.464007792808
 30
0.0
 10
9552.218328069885
 20
3320.870433873909
 30
0.0
 10
9552.856643075664
 20
3321.678340391528
 30
0.0
 10
9553.134059174217
 20
3323.243770505037
 30
0.0
 10
9552.827902627076
 20
3324.773808140989
 30
0.0
 10
9551.946373767812
 20
3326.073256970481
 30
0.0
 10
9550.636069429587
 20
3326.938592275293
 30
0.0
 10
9549.102327121336
 20
3327.225713226519
 30
0.0
 10
9547.540451154853
 20
3326.928908974744
 30
0.0
 10
9546.740529517878
 20
3326.280619591353
 30
0.0
 10
9546.338127944826
 20
3325.954496811808
 30
0.0
  0
LINE
  5
85
330
1F
100
AcDbEntity
  8
0
  6
SLD-Plná
 62
     7
370
    25
100
AcDbLine
 10
9540.0178405854
 20
3308.3275320658
 30
0.0
 11
9551.8972168266
 21
3320.4640077928
 31
0.0
  0
LINE
  5
86
330
1F
100
AcDbEntity
  8
0
  6
SLD-Plná
 62
     7
370
    25
100
AcDbLine
 10
9537.5332455546
 20
3310.8088271032
 30
0.0
 11
9540.0178405854
 21
3308.3275320658
 31
0.0
  0
SPLINE
  5
87
330
1F
100
AcDbEntity
  8
0
  6
SLD-Plná
 62
     7
370
    25
100
AcDbSpline
210
0.0
220
0.0
230
1.0
 70
     8
 71
     3
 72
     9
 73
     5
 74
     0
 42
0.00000001
 43
0.00000001
 40
0.0
 40
0.0
 40
0.0
 40
0.0
 40
0.5722797759146212
 40
1.0
 40
1.0
 40
1.0
 40
1.0
 10
9537.175846269427
 20
3309.874128972609
 30
0.0
 10
9537.154011361032
 20
3309.799752115757
 30
0.0
 10
9537.115857106217
 20
3309.669786214495
 30
0.0
 10
9537.07179343749
 20
3309.541710374143
 30
0.0
 10
9537.052946515227
 20
3309.486929747008
 30
0.0
  0
SPLINE
  5
88
330
1F
100
AcDbEntity
  8
0
  6
SLD-Plná
 62
     7
370
    25
100
AcDbSpline
210
0.0
220
0.0
230
1.0
 70
     8
 71
     3
 72
     9
 73
     5
 74
     0
 42
0.00000001
 43
0.00000001
 40
0.0
 40
0.0
 40
0.0
 40
0.0
 40
0.5739969826550452
 40
1.0
 40
1.0
 40
1.0
 40
1.0
 10
9537.052946515227
 20
3309.486929747008
 30
0.0
 10
9537.004836955699
 20
3309.357575521608
 30
0.0
 10
9536.92102195147
 20
3309.132218543596
 30
0.0
 10
9536.804490052153
 20
3308.922059459679
 30
0.0
 10
9536.754847111426
 20
3308.832531055808
 30
0.0
  0
SPLINE
  5
89
330
1F
100
AcDbEntity
  8
0
  6
SLD-Plná
 62
     7
370
    25
100
AcDbSpline
210
0.0
220
0.0
230
1.0
 70
     8
 71
     3
 72
     9
 73
     5
 74
     0
 42
0.00000001
 43
0.00000001
 40
0.0
 40
0.0
 40
0.0
 40
0.0
 40
0.5663268099474245
 40
1.0
 40
1.0
 40
1.0
 40
1.0
 10
9536.754847111426
 20
3308.832531055808
 30
0.0
 10
9536.685346163775
 20
3308.725047347326
 30
0.0
 10
9536.562623830256
 20
3308.535256388124
 30
0.0
 10
9536.399702553043
 20
3308.378997422503
 30
0.0
 10
9536.329047963027
 20
3308.311232098408
 30
0.0
  0
SPLINE
  5
8A
330
1F
100
AcDbEntity
  8
0
  6
SLD-Plná
 62
     7
370
    25
100
AcDbSpline
210
0.0
220
0.0
230
1.0
 70
     8
 71
     3
 72
     9
 73
     5
 74
     0
 42
0.00000001
 43
0.00000001
 40
0.0
 40
0.0
 40
0.0
 40
0.0
 40
0.4812024750297414
 40
1.0
 40
1.0
 40
1.0
 40
1.0
 10
9533.144854331427
 20
3306.905534909808
 30
0.0
 10
9533.100761455793
 20
3306.834774166975
 30
0.0
 10
9533.009130847218
 20
3306.687724335553
 30
0.0
 10
9532.969049057783
 20
3306.519045842513
 30
0.0
 10
9532.948254724626
 20
3306.431535857808
 30
0.0
  0
SPLINE
  5
8B
330
1F
100
AcDbEntity
  8
0
  6
SLD-Plná
 62
     7
370
    25
100
AcDbSpline
210
0.0
220
0.0
230
1.0
 70
     8
 71
     3
 72
    10
 73
     6
 74
     0
 42
0.00000001
 43
0.00000001
 40
0.0
 40
0.0
 40
0.0
 40
0.0
 40
0.282614196827864
 40
0.5606731714586094
 40
1.0
 40
1.0
 40
1.0
 40
1.0
 10
9549.839420942228
 20
3325.947396826008
 30
0.0
 10
9549.564946254513
 20
3325.99338147322
 30
0.0
 10
9549.020420907333
 20
3326.084609579523
 30
0.0
 10
9548.02628954464
 20
3325.899525198911
 30
0.0
 10
9547.46249436694
 20
3325.46059750919
 30
0.0
 10
9547.117226386626
 20
3325.191798337208
 30
0.0
  0
LINE
  5
8C
330
1F
100
AcDbEntity
  8
0
  6
SLD-Plná
 62
     7
370
    25
100
AcDbLine
 10
9536.0228485754
 20
3313.8573210062
 30
0.0
 11
9547.1172263866
 21
3325.1917983372
 31
0.0
  0
LINE
  5
8D
330
1F
100
AcDbEntity
  8
0
  6
SLD-Plná
 62
     7
370
    25
100
AcDbLine
 10
9536.0228485754
 20
3313.8573210062
 30
0.0
 11
9540.009040603
 21
3309.8771289666
 31
0.0
  0
LINE
  5
8E
330
1F
100
AcDbEntity
  8
0
  6
SLD-Plná
 62
     7
370
    25
100
AcDbLine
 10
9540.009040603
 20
3309.8771289666
 30
0.0
 11
9551.1218183774
 21
3321.23040626
 31
0.0
  0
SPLINE
  5
8F
330
1F
100
AcDbEntity
  8
0
  6
SLD-Plná
 62
     7
370
    25
100
AcDbSpline
210
0.0
220
0.0
230
1.0
 70
     8
 71
     3
 72
    15
 73
    11
 74
     0
 42
0.00000001
 43
0.00000001
 40
0.0
 40
0.0
 40
0.0
 40
0.0
 40
0.1260332984450073
 40
0.249998293137019
 40
0.3739640013368374
 40
0.4999991832912274
 40
0.6260350404560504
 40
0.750001770118566
 40
0.8739670758807402
 40
1.0
 40
1.0
 40
1.0
 40
1.0
 10
9551.121818377427
 20
3321.230406260008
 30
0.0
 10
9551.284144244082
 20
3321.419751975169
 30
0.0
 10
9551.606132084571
 20
3321.795336096089
 30
0.0
 10
9551.881119844806
 20
3322.491302222061
 30
0.0
 10
9551.97961671154
 20
3323.227034142774
 30
0.0
 10
9551.879564079536
 20
3323.96923293428
 30
0.0
 10
9551.590068381343
 20
3324.659931991926
 30
0.0
 10
9551.132623411413
 20
3325.244528412687
 30
0.0
 10
9550.543108948827
 20
3325.70546904499
 30
0.0
 10
9550.075273360826
 20
3325.866310816663
 30
0.0
 10
9549.839420942228
 20
3325.947396826008
 30
0.0
  0
SPLINE
  5
90
330
1F
100
AcDbEntity
  8
0
  6
SLD-Plná
 62
     7
370
    25
100
AcDbSpline
210
0.0
220
0.0
230
1.0
 70
     8
 71
     3
 72
     9
 73
     5
 74
     0
 42
0.00000001
 43
0.00000001
 40
0.0
 40
0.0
 40
0.0
 40
0.0
 40
0.5223652169224342
 40
1.0
 40
1.0
 40
1.0
 40
1.0
 10
9532.948254724626
 20
3306.431535857808
 30
0.0
 10
9532.932618768082
 20
3306.359389844865
 30
0.0
 10
9532.902685770936
 20
3306.221275723547
 30
0.0
 10
9532.87627134326
 20
3306.082446401655
 30
0.0
 10
9532.863654893827
 20
3306.016136688608
 30
0.0
  0
SPLINE
  5
91
330
1F
100
AcDbEntity
  8
0
  6
SLD-Plná
 62
     7
370
    25
100
AcDbSpline
210
0.0
220
0.0
230
1.0
 70
     8
 71
     3
 72
     9
 73
     5
 74
     0
 42
0.00000001
 43
0.00000001
 40
0.0
 40
0.0
 40
0.0
 40
0.0
 40
0.5329820947438992
 40
1.0
 40
1.0
 40
1.0
 40
1.0
 10
9532.863654893827
 20
3306.016136688608
 30
0.0
 10
9532.844817481942
 20
3305.920473541131
 30
0.0
 10
9532.809474058457
 20
3305.740986934694
 30
0.0
 10
9532.763517617715
 20
3305.563927625905
 30
0.0
 10
9532.742055137027
 20
3305.481237758408
 30
0.0
  0
SPLINE
  5
92
330
1F
100
AcDbEntity
  8
0
  6
SLD-Plná
 62
     7
370
    25
100
AcDbSpline
210
0.0
220
0.0
230
1.0
 70
     8
 71
     3
 72
     9
 73
     5
 74
     0
 42
0.00000001
 43
0.00000001
 40
0.0
 40
0.0
 40
0.0
 40
0.0
 40
0.5403130621796174
 40
1.0
 40
1.0
 40
1.0
 40
1.0
 10
9532.742055137027
 20
3305.481237758408
 30
0.0
 10
9532.708147697753
 20
3305.366513429032
 30
0.0
 10
9532.645392525523
 20
3305.154184064065
 30
0.0
 10
9532.557471660322
 20
3304.951027448236
 30
0.0
 10
9532.517055587026
 20
3304.857639005608
 30
0.0
  0
SPLINE
  5
93
330
1F
100
AcDbEntity
  8
0
  6
SLD-Plná
 62
     7
370
    25
100
AcDbSpline
210
0.0
220
0.0
230
1.0
 70
     8
 71
     3
 72
     9
 73
     5
 74
     0
 42
0.00000001
 43
0.00000001
 40
0.0
 40
0.0
 40
0.0
 40
0.0
 40
0.54341194219614
 40
0.9999999999999999
 40
0.9999999999999999
 40
0.9999999999999999
 40
0.9999999999999999
 10
9532.517055587026
 20
3304.857639005608
 30
0.0
 10
9532.454943639506
 20
3304.732100518615
 30
0.0
 10
9532.34064370846
 20
3304.501081512137
 30
0.0
 10
9532.192086033094
 20
3304.290561332127
 30
0.0
 10
9532.124256372628
 20
3304.194440332008
 30
0.0
  0
SPLINE
  5
94
330
1F
100
AcDbEntity
  8
0
  6
SLD-Plná
 62
     7
370
    25
100
AcDbSpline
210
0.0
220
0.0
230
1.0
 70
     8
 71
     3
 72
     9
 73
     5
 74
     0
 42
0.00000001
 43
0.00000001
 40
0.0
 40
0.0
 40
0.0
 40
0.0
 40
0.5736610655005158
 40
0.9999999999999999
 40
0.9999999999999999
 40
0.9999999999999999
 40
0.9999999999999999
 10
9532.124256372628
 20
3304.194440332008
 30
0.0
 10
9532.023022051215
 20
3304.066906874891
 30
0.0
 10
9531.846551435548
 20
3303.844591879529
 30
0.0
 10
9531.62073283414
 20
3303.673349018934
 30
0.0
 10
9531.524457572226
 20
3303.600341520208
 30
0.0
  0
SPLINE
  5
95
330
1F
100
AcDbEntity
  8
0
  6
SLD-Plná
 62
     7
370
    25
100
AcDbSpline
210
0.0
220
0.0
230
1.0
 70
     8
 71
     3
 72
     9
 73
     5
 74
     0
 42
0.00000001
 43
0.00000001
 40
0.0
 40
0.0
 40
0.0
 40
0.0
 40
0.5769493882866887
 40
1.0
 40
1.0
 40
1.0
 40
1.0
 10
9531.524457572226
 20
3303.600341520208
 30
0.0
 10
9531.40310650883
 20
3303.523130504673
 30
0.0
 10
9531.192774258097
 20
3303.389304181076
 30
0.0
 10
9530.960445654639
 20
3303.299594101605
 30
0.0
 10
9530.862158896827
 20
3303.261642197608
 30
0.0
  0
SPLINE
  5
96
330
1F
100
AcDbEntity
  8
0
  6
SLD-Plná
 62
     7
370
    25
100
AcDbSpline
210
0.0
220
0.0
230
1.0
 70
     8
 71
     3
 72
     9
 73
     5
 74
     0
 42
0.00000001
 43
0.00000001
 40
0.0
 40
0.0
 40
0.0
 40
0.0
 40
0.5809990480565203
 40
1.0
 40
1.0
 40
1.0
 40
1.0
 10
9530.862158896827
 20
3303.261642197608
 30
0.0
 10
9530.744944270535
 20
3303.223460855267
 30
0.0
 10
9530.54319759524
 20
3303.157744151481
 30
0.0
 10
9530.335419390152
 20
3303.115107375946
 30
0.0
 10
9530.248360124426
 20
3303.097242526408
 30
0.0
  0
SPLINE
  5
97
330
1F
100
AcDbEntity
  8
0
  6
SLD-Plná
 62
     7
370
    25
100
AcDbSpline
210
0.0
220
0.0
230
1.0
 70
     8
 71
     3
 72
     9
 73
     5
 74
     0
 42
0.00000001
 43
0.00000001
 40
0.0
 40
0.0
 40
0.0
 40
0.0
 40
0.5872872809062349
 40
1.0
 40
1.0
 40
1.0
 40
1.0
 10
9530.248360124426
 20
3303.097242526408
 30
0.0
 10
9530.147182868
 20
3303.078518407624
 30
0.0
 10
9529.974903883398
 20
3303.046636023326
 30
0.0
 10
9529.802156288879
 20
3303.017406221286
 30
0.0
 10
9529.730861159427
 20
3303.005342710208
 30
0.0
  0
SPLINE
  5
98
330
1F
100
AcDbEntity
  8
0
  6
SLD-Plná
 62
     7
370
    25
100
AcDbSpline
210
0.0
220
0.0
230
1.0
 70
     8
 71
     3
 72
     9
 73
     5
 74
     0
 42
0.00000001
 43
0.00000001
 40
0.0
 40
0.0
 40
0.0
 40
0.0
 40
0.6052883959637148
 40
1.0
 40
1.0
 40
1.0
 40
1.0
 10
9529.730861159427
 20
3303.005342710208
 30
0.0
 10
9529.652092080634
 20
3302.991179580522
 30
0.0
 10
9529.521957289819
 20
3302.967780602813
 30
0.0
 10
9529.394120570401
 20
3302.934126531628
 30
0.0
 10
9529.343661933828
 20
3302.920842879208
 30
0.0
  0
SPLINE
  5
99
330
1F
100
AcDbEntity
  8
0
  6
SLD-Plná
 62
     7
370
    25
100
AcDbSpline
210
0.0
220
0.0
230
1.0
 70
     8
 71
     3
 72
     9
 73
     5
 74
     0
 42
0.00000001
 43
0.00000001
 40
0.0
 40
0.0
 40
0.0
 40
0.0
 40
0.628345307265828
 40
1.0
 40
1.0
 40
1.0
 40
1.0
 10
9529.343661933828
 20
3302.920842879208
 30
0.0
 10
9529.293954268735
 20
3302.905447368735
 30
0.0
 10
9529.21484543396
 20
3302.880945696973
 30
0.0
 10
9529.1420989596
 20
3302.841648175191
 30
0.0
 10
9529.115062391027
 20
3302.827043066808
 30
0.0
  0
SPLINE
  5
9A
330
1F
100
AcDbEntity
  8
0
  6
SLD-Plná
 62
     7
370
    25
100
AcDbSpline
210
0.0
220
0.0
230
1.0
 70
     8
 71
     3
 72
     9
 73
     5
 74
     0
 42
0.00000001
 43
0.00000001
 40
0.0
 40
0.0
 40
0.0
 40
0.0
 40
0.5819785161173127
 40
1.0
 40
1.0
 40
1.0
 40
1.0
 10
9529.115062391027
 20
3302.827043066808
 30
0.0
 10
9529.101682452316
 20
3302.818628315226
 30
0.0
 10
9529.078692018236
 20
3302.80416944544
 30
0.0
 10
9529.058008625112
 20
3302.786591232899
 30
0.0
 10
9529.049362522426
 20
3302.779243162408
 30
0.0
  0
SPLINE
  5
9B
330
1F
100
AcDbEntity
  8
0
  6
SLD-Plná
 62
     7
370
    25
100
AcDbSpline
210
0.0
220
0.0
230
1.0
 70
     8
 71
     3
 72
     9
 73
     5
 74
     0
 42
0.00000001
 43
0.00000001
 40
0.0
 40
0.0
 40
0.0
 40
0.0
 40
0.536277175034771
 40
1.0
 40
1.0
 40
1.0
 40
1.0
 10
9529.049362522426
 20
3302.779243162408
 30
0.0
 10
9529.038786200466
 20
3302.769358655954
 30
0.0
 10
9529.019064454971
 20
3302.750926943932
 30
0.0
 10
9529.002325067891
 20
3302.729759232126
 30
0.0
 10
9528.994562632028
 20
3302.719943281008
 30
0.0
  0
SPLINE
  5
9C
330
1F
100
AcDbEntity
  8
0
  6
SLD-Plná
 62
     7
370
    25
100
AcDbSpline
210
0.0
220
0.0
230
1.0
 70
     8
 71
     3
 72
     9
 73
     5
 74
     0
 42
0.00000001
 43
0.00000001
 40
0.0
 40
0.0
 40
0.0
 40
0.0
 40
0.5118409441278031
 40
1.0
 40
1.0
 40
1.0
 40
1.0
 10
9528.994562632028
 20
3302.719943281008
 30
0.0
 10
9528.983546846228
 20
3302.704443582933
 30
0.0
 10
9528.962024953684
 20
3302.674161327765
 30
0.0
 10
9528.944847888266
 20
3302.641222740345
 30
0.0
 10
9528.936462748226
 20
3302.625143470608
 30
0.0
  0
SPLINE
  5
9D
330
1F
100
AcDbEntity
  8
0
  6
SLD-Plná
 62
     7
370
    25
100
AcDbSpline
210
0.0
220
0.0
230
1.0
 70
     8
 71
     3
 72
     9
 73
     5
 74
     0
 42
0.00000001
 43
0.00000001
 40
0.0
 40
0.0
 40
0.0
 40
0.0
 40
0.527792671194474
 40
1.0
 40
1.0
 40
1.0
 40
1.0
 10
9528.936462748226
 20
3302.625143470608
 30
0.0
 10
9528.930608404142
 20
3302.613112193442
 30
0.0
 10
9528.919516275726
 20
3302.590316732605
 30
0.0
 10
9528.909970429007
 20
3302.566832864185
 30
0.0
 10
9528.905462810228
 20
3302.555743609408
 30
0.0
  0
SPLINE
  5
9E
330
1F
100
AcDbEntity
  8
0
  6
SLD-Plná
 62
     7
370
    25
100
AcDbSpline
210
0.0
220
0.0
230
1.0
 70
     8
 71
     3
 72
     9
 73
     5
 74
     0
 42
0.00000001
 43
0.00000001
 40
0.0
 40
0.0
 40
0.0
 40
0.0
 40
0.5527905719729326
 40
1.0
 40
1.0
 40
1.0
 40
1.0
 10
9528.905462810228
 20
3302.555743609408
 30
0.0
 10
9528.899330301132
 20
3302.539657044403
 30
0.0
 10
9528.888236571594
 20
3302.510556394318
 30
0.0
 10
9528.878719152
 20
3302.480904425585
 30
0.0
 10
9528.874462872227
 20
3302.467643785608
 30
0.0
  0
SPLINE
  5
9F
330
1F
100
AcDbEntity
  8
0
  6
SLD-Plná
 62
     7
370
    25
100
AcDbSpline
210
0.0
220
0.0
230
1.0
 70
     8
 71
     3
 72
    10
 73
     6
 74
     0
 42
0.00000001
 43
0.00000001
 40
0.0
 40
0.0
 40
0.0
 40
0.0
 40
0.2826081301536618
 40
0.5606668279964059
 40
1.0
 40
1.0
 40
1.0
 40
1.0
 10
9528.559863501427
 20
3302.176844367208
 30
0.0
 10
9528.600030186915
 20
3302.189748695142
 30
0.0
 10
9528.679716953648
 20
3302.215349616836
 30
0.0
 10
9528.800833274054
 20
3302.309281378773
 30
0.0
 10
9528.846497777888
 20
3302.407496511188
 30
0.0
 10
9528.874462872227
 20
3302.467643785608
 30
0.0
  0
SPLINE
  5
A0
330
1F
100
AcDbEntity
  8
0
  6
SLD-Plná
 62
     7
370
    25
100
AcDbSpline
210
0.0
220
0.0
230
1.0
 70
     8
 71
     3
 72
    10
 73
     6
 74
     0
 42
0.00000001
 43
0.00000001
 40
0.0
 40
0.0
 40
0.0
 40
0.0
 40
0.2826343334445964
 40
0.560748559199546
 40
1.0
 40
1.0
 40
1.0
 40
1.0
 10
9528.150764319626
 20
3302.303944113008
 30
0.0
 10
9528.182023876783
 20
3302.275611464633
 30
0.0
 10
9528.244043063987
 20
3302.219399285591
 30
0.0
 10
9528.385938134272
 20
3302.161498846418
 30
0.0
 10
9528.493811419343
 20
3302.17101655948
 30
0.0
 10
9528.559863501427
 20
3302.176844367209
 30
0.0
  0
SPLINE
  5
A1
330
1F
100
AcDbEntity
  8
0
  6
SLD-Plná
 62
     7
370
    25
100
AcDbSpline
210
0.0
220
0.0
230
1.0
 70
     8
 71
     3
 72
    10
 73
     6
 74
     0
 42
0.00000001
 43
0.00000001
 40
0.0
 40
0.0
 40
0.0
 40
0.0
 40
0.2826411390208983
 40
0.5607134230362584
 40
1.0
 40
1.0
 40
1.0
 40
1.0
 10
9528.056264508628
 20
3302.721743277408
 30
0.0
 10
9528.047355460576
 20
3302.680507271939
 30
0.0
 10
9528.029681378006
 20
3302.59870183534
 30
0.0
 10
9528.050501064947
 20
3302.446878351778
 30
0.0
 10
9528.112684973528
 20
3302.358229627324
 30
0.0
 10
9528.150764319626
 20
3302.303944113008
 30
0.0
  0
SPLINE
  5
A2
330
1F
100
AcDbEntity
  8
0
  6
SLD-Plná
 62
     7
370
    25
100
AcDbSpline
210
0.0
220
0.0
230
1.0
 70
     8
 71
     3
 72
    13
 73
     9
 74
     0
 42
0.00000001
 43
0.00000001
 40
0.0
 40
0.0
 40
0.0
 40
0.0
 40
0.1785719785141072
 40
0.3441626507584963
 40
0.5091332109257569
 40
0.7420758021578898
 40
0.8591576853171653
 40
1.0
 40
1.0
 40
1.0
 40
1.0
 10
9531.432757755627
 20
3304.700239320408
 30
0.0
 10
9531.26333508458
 20
3304.518109221708
 30
0.0
 10
9530.936805939016
 20
3304.167088988447
 30
0.0
 10
9530.249365285617
 20
3303.957109359713
 30
0.0
 10
9529.4960522914
 20
3303.84078311841
 30
0.0
 10
9528.783711754137
 20
3303.693160303427
 30
0.0
 10
9528.25810422764
 20
3303.236904856318
 30
0.0
 10
9528.127553276183
 20
3302.903695740642
 30
0.0
 10
9528.056264508628
 20
3302.721743277408
 30
0.0
  0
SPLINE
  5
A3
330
1F
100
AcDbEntity
  8
0
  6
SLD-Plná
 62
     7
370
    25
100
AcDbSpline
210
0.0
220
0.0
230
1.0
 70
     8
 71
     3
 72
    13
 73
     9
 74
     0
 42
0.00000001
 43
0.00000001
 40
0.0
 40
0.0
 40
0.0
 40
0.0
 40
0.1761446612313166
 40
0.3114532653405446
 40
0.4315921496447898
 40
0.5527169130285846
 40
0.7582824052863614
 40
1.0
 40
1.0
 40
1.0
 40
1.0
 10
9533.416253788626
 20
3308.097832525208
 30
0.0
 10
9533.197127772977
 20
3307.992994238947
 30
0.0
 10
9532.809676273637
 20
3307.807622588394
 30
0.0
 10
9532.387970134601
 20
3307.373282922185
 30
0.0
 10
9532.171020180878
 20
3306.897491798633
 30
0.0
 10
9532.038953776424
 20
3306.299728229132
 30
0.0
 10
9531.919900980398
 20
3305.520740066163
 30
0.0
 10
9531.603659021333
 20
3304.98809022099
 30
0.0
 10
9531.432757755627
 20
3304.700239320408
 30
0.0
  0
SPLINE
  5
A4
330
1F
100
AcDbEntity
  8
0
  6
SLD-Plná
 62
     7
370
    25
100
AcDbSpline
210
0.0
220
0.0
230
1.0
 70
     8
 71
     3
 72
    13
 73
     9
 74
     0
 42
0.00000001
 43
0.00000001
 40
0.0
 40
0.0
 40
0.0
 40
0.0
 40
0.1999583273417456
 40
0.3368915924838156
 40
0.4384734396671944
 40
0.5349675738325994
 40
0.7244111725477588
 40
1.0
 40
1.0
 40
1.0
 40
1.0
 10
9536.458347704427
 20
3310.515527689808
 30
0.0
 10
9536.38772656533
 20
3310.241895428089
 30
0.0
 10
9536.26874343355
 20
3309.780877326814
 30
0.0
 10
9536.014748903684
 20
3309.209197200935
 30
0.0
 10
9535.683161462857
 20
3308.853911931771
 30
0.0
 10
9535.171423251068
 20
3308.635993340258
 30
0.0
 10
9534.38983817918
 20
3308.491226271527
 30
0.0
 10
9533.778529350267
 20
3308.244216281744
 30
0.0
 10
9533.416253788626
 20
3308.097832525208
 30
0.0
  0
SPLINE
  5
A5
330
1F
100
AcDbEntity
  8
0
  6
SLD-Plná
 62
     7
370
    25
100
AcDbSpline
210
0.0
220
0.0
230
1.0
 70
     8
 71
     3
 72
     9
 73
     5
 74
     0
 42
0.00000001
 43
0.00000001
 40
0.0
 40
0.0
 40
0.0
 40
0.0
 40
0.5595706366018673
 40
1.0
 40
1.0
 40
1.0
 40
1.0
 10
9536.924646771826
 20
3311.416125888608
 30
0.0
 10
9536.808075742561
 20
3311.262927646313
 30
0.0
 10
9536.59975346537
 20
3310.989149445181
 30
0.0
 10
9536.501584291278
 20
3310.660343488146
 30
0.0
 10
9536.458347704427
 20
3310.515527689808
 30
0.0
  0
LINE
  5
A6
330
1F
100
AcDbEntity
  8
0
  6
SLD-Plná
 62
     7
370
    25
100
AcDbLine
 10
9534.4886516438
 20
3313.8485210238
 30
0.0
 11
9536.9246467718
 21
3311.4161258886
 31
0.0
  0
SPLINE
  5
A7
330
1F
100
AcDbEntity
  8
0
  6
SLD-Plná
 62
     7
370
    25
100
AcDbSpline
210
0.0
220
0.0
230
1.0
 70
     8
 71
     3
 72
     9
 73
     5
 74
     0
 42
0.00000001
 43
0.00000001
 40
0.0
 40
0.0
 40
0.0
 40
0.0
 40
0.5809798798306309
 40
1.0
 40
1.0
 40
1.0
 40
1.0
 10
9533.629753361627
 20
3307.254834211208
 30
0.0
 10
9533.607920418704
 20
3307.244245103935
 30
0.0
 10
9533.570340902304
 20
3307.226018814798
 30
0.0
 10
9533.533563892073
 20
3307.206227347862
 30
0.0
 10
9533.518153584828
 20
3307.197934325008
 30
0.0
  0
SPLINE
  5
A8
330
1F
100
AcDbEntity
  8
0
  6
SLD-Plná
 62
     7
370
    25
100
AcDbSpline
210
0.0
220
0.0
230
1.0
 70
     8
 71
     3
 72
     9
 73
     5
 74
     0
 42
0.00000001
 43
0.00000001
 40
0.0
 40
0.0
 40
0.0
 40
0.0
 40
0.656322421471269
 40
1.0
 40
1.0
 40
1.0
 40
1.0
 10
9533.518153584828
 20
3307.197934325008
 30
0.0
 10
9533.427027038206
 20
3307.145251370091
 30
0.0
 10
9533.288182860953
 20
3307.064981439955
 30
0.0
 10
9533.18151402029
 20
3306.946317161638
 30
0.0
 10
9533.144854331427
 20
3306.905534909808
 30
0.0
  0
SPLINE
  5
A9
330
1F
100
AcDbEntity
  8
0
  6
SLD-Plná
 62
     7
370
    25
100
AcDbSpline
210
0.0
220
0.0
230
1.0
 70
     8
 71
     3
 72
     9
 73
     5
 74
     0
 42
0.00000001
 43
0.00000001
 40
0.0
 40
0.0
 40
0.0
 40
0.0
 40
0.5797462506198794
 40
1.0
 40
1.0
 40
1.0
 40
1.0
 10
9535.804549012028
 20
3307.978432764008
 30
0.0
 10
9535.710504255063
 20
3307.940181916692
 30
0.0
 10
9535.548287152555
 20
3307.874203314372
 30
0.0
 10
9535.379206699268
 20
3307.82888027742
 30
0.0
 10
9535.308150004827
 20
3307.809833101208
 30
0.0
  0
SPLINE
  5
AA
330
1F
100
AcDbEntity
  8
0
  6
SLD-Plná
 62
     7
370
    25
100
AcDbSpline
210
0.0
220
0.0
230
1.0
 70
     8
 71
     3
 72
     9
 73
     5
 74
     0
 42
0.00000001
 43
0.00000001
 40
0.0
 40
0.0
 40
0.0
 40
0.0
 40
0.5609558098724742
 40
1.0
 40
1.0
 40
1.0
 40
1.0
 10
9535.308150004827
 20
3307.809833101208
 30
0.0
 10
9535.221693659067
 20
3307.787841918739
 30
0.0
 10
9535.067570385469
 20
3307.748638861953
 30
0.0
 10
9534.913287801955
 20
3307.710067755016
 30
0.0
 10
9534.845550930027
 20
3307.693133334608
 30
0.0
  0
SPLINE
  5
AB
330
1F
100
AcDbEntity
  8
0
  6
SLD-Plná
 62
     7
370
    25
100
AcDbSpline
210
0.0
220
0.0
230
1.0
 70
     8
 71
     3
 72
     9
 73
     5
 74
     0
 42
0.00000001
 43
0.00000001
 40
0.0
 40
0.0
 40
0.0
 40
0.0
 40
0.5596305733237752
 40
1.0
 40
1.0
 40
1.0
 40
1.0
 10
9537.533245554627
 20
3310.808827103208
 30
0.0
 10
9537.473379028179
 20
3310.723708989287
 30
0.0
 10
9537.366403946216
 20
3310.571612020361
 30
0.0
 10
9537.314224341319
 20
3310.393543862982
 30
0.0
 10
9537.291246038627
 20
3310.315128090608
 30
0.0
  0
SPLINE
  5
AC
330
1F
100
AcDbEntity
  8
0
  6
SLD-Plná
 62
     7
370
    25
100
AcDbSpline
210
0.0
220
0.0
230
1.0
 70
     8
 71
     3
 72
     9
 73
     5
 74
     0
 42
0.00000001
 43
0.00000001
 40
0.0
 40
0.0
 40
0.0
 40
0.0
 40
0.562964062067494
 40
0.9999999999999999
 40
0.9999999999999999
 40
0.9999999999999999
 40
0.9999999999999999
 10
9537.291246038627
 20
3310.315128090608
 30
0.0
 10
9537.280837620936
 20
3310.272284638989
 30
0.0
 10
9537.262349020344
 20
3310.196181287984
 30
0.0
 10
9537.242723298556
 20
3310.120363600548
 30
0.0
 10
9537.234146152827
 20
3310.087228546408
 30
0.0
  0
SPLINE
  5
AD
330
1F
100
AcDbEntity
  8
0
  6
SLD-Plná
 62
     7
370
    25
100
AcDbSpline
210
0.0
220
0.0
230
1.0
 70
     8
 71
     3
 72
     9
 73
     5
 74
     0
 42
0.00000001
 43
0.00000001
 40
0.0
 40
0.0
 40
0.0
 40
0.0
 40
0.568746652988011
 40
1.0
 40
1.0
 40
1.0
 40
1.0
 10
9537.234146152827
 20
3310.087228546408
 30
0.0
 10
9537.223460638856
 20
3310.04672787865
 30
0.0
 10
9537.20467281142
 20
3309.975517494297
 30
0.0
 10
9537.184532043153
 20
3309.904678518164
 30
0.0
 10
9537.175846269427
 20
3309.874128972609
 30
0.0
  0
SPLINE
  5
AE
330
1F
100
AcDbEntity
  8
0
  6
SLD-Plná
 62
     7
370
    25
100
AcDbSpline
210
0.0
220
0.0
230
1.0
 70
     8
 71
     3
 72
     9
 73
     5
 74
     0
 42
0.00000001
 43
0.00000001
 40
0.0
 40
0.0
 40
0.0
 40
0.0
 40
0.5494984005633151
 40
1.0
 40
1.0
 40
1.0
 40
1.0
 10
9534.071952477227
 20
3307.446733827408
 30
0.0
 10
9534.04431965772
 20
3307.435689643681
 30
0.0
 10
9533.994032305698
 20
3307.41559097967
 30
0.0
 10
9533.944201593273
 20
3307.394386571158
 30
0.0
 10
9533.921752777625
 20
3307.384833951208
 30
0.0
  0
SPLINE
  5
AF
330
1F
100
AcDbEntity
  8
0
  6
SLD-Plná
 62
     7
370
    25
100
AcDbSpline
210
0.0
220
0.0
230
1.0
 70
     8
 71
     3
 72
     9
 73
     5
 74
     0
 42
0.00000001
 43
0.00000001
 40
0.0
 40
0.0
 40
0.0
 40
0.0
 40
0.5571433556462598
 40
1.0
 40
1.0
 40
1.0
 40
1.0
 10
9533.921752777625
 20
3307.384833951208
 30
0.0
 10
9533.891971749095
 20
3307.371942181103
 30
0.0
 10
9533.838518668788
 20
3307.348803127258
 30
0.0
 10
9533.785522709653
 20
3307.324636461508
 30
0.0
 10
9533.762053097027
 20
3307.313934093008
 30
0.0
  0
SPLINE
  5
B0
330
1F
100
AcDbEntity
  8
0
  6
SLD-Plná
 62
     7
370
    25
100
AcDbSpline
210
0.0
220
0.0
230
1.0
 70
     8
 71
     3
 72
     9
 73
     5
 74
     0
 42
0.00000001
 43
0.00000001
 40
0.0
 40
0.0
 40
0.0
 40
0.0
 40
0.5672399671405088
 40
1.0
 40
1.0
 40
1.0
 40
1.0
 10
9533.762053097027
 20
3307.313934093008
 30
0.0
 10
9533.73687788834
 20
3307.303116322766
 30
0.0
 10
9533.692495950983
 20
3307.284045434132
 30
0.0
 10
9533.648704535872
 20
3307.263657356398
 30
0.0
 10
9533.629753361627
 20
3307.254834211208
 30
0.0
  0
SPLINE
  5
B1
330
1F
100
AcDbEntity
  8
0
  6
SLD-Plná
 62
     7
370
    25
100
AcDbSpline
210
0.0
220
0.0
230
1.0
 70
     8
 71
     3
 72
     9
 73
     5
 74
     0
 42
0.00000001
 43
0.00000001
 40
0.0
 40
0.0
 40
0.0
 40
0.0
 40
0.5757900938060896
 40
1.0
 40
1.0
 40
1.0
 40
1.0
 10
9536.329047963027
 20
3308.311232098408
 30
0.0
 10
9536.234924302225
 20
3308.236787799464
 30
0.0
 10
9536.071455597546
 20
3308.107497108734
 30
0.0
 10
9535.884048822492
 20
3308.016875393379
 30
0.0
 10
9535.804549012028
 20
3307.978432764008
 30
0.0
  0
SPLINE
  5
B2
330
1F
100
AcDbEntity
  8
0
  6
SLD-Plná
 62
     7
370
    25
100
AcDbSpline
210
0.0
220
0.0
230
1.0
 70
     8
 71
     3
 72
     9
 73
     5
 74
     0
 42
0.00000001
 43
0.00000001
 40
0.0
 40
0.0
 40
0.0
 40
0.0
 40
0.5465780319861113
 40
1.0
 40
1.0
 40
1.0
 40
1.0
 10
9534.350951919228
 20
3307.548733623408
 30
0.0
 10
9534.299778302224
 20
3307.531081974338
 30
0.0
 10
9534.2061528471
 20
3307.498787136205
 30
0.0
 10
9534.113818774253
 20
3307.46297282354
 30
0.0
 10
9534.071952477227
 20
3307.446733827408
 30
0.0
  0
SPLINE
  5
B3
330
1F
100
AcDbEntity
  8
0
  6
SLD-Plná
 62
     7
370
    25
100
AcDbSpline
210
0.0
220
0.0
230
1.0
 70
     8
 71
     3
 72
     9
 73
     5
 74
     0
 42
0.00000001
 43
0.00000001
 40
0.0
 40
0.0
 40
0.0
 40
0.0
 40
0.5481967246452919
 40
1.0
 40
1.0
 40
1.0
 40
1.0
 10
9534.606451408226
 20
3307.628333464208
 30
0.0
 10
9534.559527573523
 20
3307.614542157007
 30
0.0
 10
9534.473930866
 20
3307.589384569264
 30
0.0
 10
9534.389223145015
 20
3307.561384256448
 30
0.0
 10
9534.350951919228
 20
3307.548733623408
 30
0.0
  0
SPLINE
  5
B4
330
1F
100
AcDbEntity
  8
0
  6
SLD-Plná
 62
     7
370
    25
100
AcDbSpline
210
0.0
220
0.0
230
1.0
 70
     8
 71
     3
 72
     9
 73
     5
 74
     0
 42
0.00000001
 43
0.00000001
 40
0.0
 40
0.0
 40
0.0
 40
0.0
 40
0.5525044663282846
 40
1.0
 40
1.0
 40
1.0
 40
1.0
 10
9534.845550930027
 20
3307.693133334608
 30
0.0
 10
9534.80137913018
 20
3307.681704142889
 30
0.0
 10
9534.721430817472
 20
3307.661017990259
 30
0.0
 10
9534.641997474451
 20
3307.638437937132
 30
0.0
 10
9534.606451408226
 20
3307.628333464208
 30
0.0
  0
LINE
  5
B5
330
1F
100
AcDbEntity
  8
0
  6
SLD-Plná
 62
     7
370
    25
100
AcDbLine
 10
9537.469045683
 20
3313.9856207496
 30
0.0
 11
9538.234044153
 21
3313.2088223032
 31
0.0
  0
LINE
  5
B6
330
1F
100
AcDbEntity
  8
0
  6
SLD-Plná
 62
     7
370
    25
100
AcDbLine
 10
9537.469045683
 20
3313.9856207496
 30
0.0
 11
9547.7916250378
 21
3324.5316996574
 31
0.0
  0
SPLINE
  5
B7
330
1F
100
AcDbEntity
  8
0
  6
SLD-Plná
 62
     7
370
    25
100
AcDbSpline
210
0.0
220
0.0
230
1.0
 70
     8
 71
     3
 72
    10
 73
     6
 74
     0
 42
0.00000001
 43
0.00000001
 40
0.0
 40
0.0
 40
0.0
 40
0.0
 40
0.2830665955003337
 40
0.5608163295607018
 40
1.0
 40
1.0
 40
1.0
 40
1.0
 10
9549.760821099428
 20
3324.985098750608
 30
0.0
 10
9549.565952028157
 20
3325.034335749894
 30
0.0
 10
9549.179874126237
 20
3325.131884926154
 30
0.0
 10
9548.453980624972
 20
3325.035010547948
 30
0.0
 10
9548.043239484325
 20
3324.722896491251
 30
0.0
 10
9547.791625037828
 20
3324.531699657408
 30
0.0
  0
LINE
  5
B8
330
1F
100
AcDbEntity
  8
0
  6
SLD-Plná
 62
     7
370
    25
100
AcDbLine
 10
9538.234044153
 20
3313.2088223032
 30
0.0
 11
9549.7608210994
 21
3324.9850987506
 31
0.0
  0
LINE
  5
B9
330
1F
100
AcDbEntity
  8
0
  6
SLD-Plná
 62
     7
370
    25
100
AcDbLine
 10
9539.3323419564
 20
3312.093424534
 30
0.0
 11
9540.1038404134
 21
3311.3231260746
 31
0.0
  0
LINE
  5
BA
330
1F
100
AcDbEntity
  8
0
  6
SLD-Plná
 62
     7
370
    25
100
AcDbLine
 10
9539.3323419564
 20
3312.093424534
 30
0.0
 11
9550.8793188624
 21
3323.89040094
 31
0.0
  0
SPLINE
  5
BB
330
1F
100
AcDbEntity
  8
0
  6
SLD-Plná
 62
     7
370
    25
100
AcDbSpline
210
0.0
220
0.0
230
1.0
 70
     8
 71
     3
 72
    11
 73
     7
 74
     0
 42
0.00000001
 43
0.00000001
 40
0.0
 40
0.0
 40
0.0
 40
0.0
 40
0.2821021917006203
 40
0.5588229117060846
 40
0.7772355942002764
 40
1.0
 40
1.0
 40
1.0
 40
1.0
 10
9550.453119714828
 20
3321.896304928208
 30
0.0
 10
9550.5833914807
 20
3322.053254203799
 30
0.0
 10
9550.841449906551
 20
3322.364158740371
 30
0.0
 10
9550.999806024794
 20
3322.911760286909
 30
0.0
 10
9551.016839150667
 20
3323.432042506973
 30
0.0
 10
9550.92545941181
 20
3323.73661337757
 30
0.0
 10
9550.879318862426
 20
3323.890400940008
 30
0.0
  0
LINE
  5
BC
330
1F
100
AcDbEntity
  8
0
  6
SLD-Plná
 62
     7
370
    25
100
AcDbLine
 10
9550.4531197148
 20
3321.8963049282
 30
0.0
 11
9540.1038404134
 21
3311.3231260746
 31
0.0
  0
SPLINE
  5
BD
330
1F
100
AcDbEntity
  8
0
  6
SLD-Plná
 62
     7
370
    25
100
AcDbSpline
210
0.0
220
0.0
230
1.0
 70
     8
 71
     3
 72
     9
 73
     5
 74
     0
 42
0.00000001
 43
0.00000001
 40
0.0
 40
0.0
 40
0.0
 40
0.0
 40
0.5526181067987749
 40
1.0
 40
1.0
 40
1.0
 40
1.0
 10
9652.451515717628
 20
3261.080426560208
 30
0.0
 10
9652.578074126728
 20
3261.26581558365
 30
0.0
 10
9652.807090164282
 20
3261.601289613838
 30
0.0
 10
9652.988745273815
 20
3261.964452132202
 30
0.0
 10
9653.070014480629
 20
3262.126924467208
 30
0.0
  0
SPLINE
  5
BE
330
1F
100
AcDbEntity
  8
0
  6
SLD-Plná
 62
     7
370
    25
100
AcDbSpline
210
0.0
220
0.0
230
1.0
 70
     8
 71
     3
 72
     9
 73
     5
 74
     0
 42
0.00000001
 43
0.00000001
 40
0.0
 40
0.0
 40
0.0
 40
0.0
 40
0.5546004436328431
 40
1.0
 40
1.0
 40
1.0
 40
1.0
 10
9651.697417225827
 20
3260.207328306408
 30
0.0
 10
9651.846914643002
 20
3260.360103270997
 30
0.0
 10
9652.11647341976
 20
3260.635571793143
 30
0.0
 10
9652.348272507004
 20
3260.943344661278
 30
0.0
 10
9652.451515717628
 20
3261.080426560208
 30
0.0
  0
SPLINE
  5
BF
330
1F
100
AcDbEntity
  8
0
  6
SLD-Plná
 62
     7
370
    25
100
AcDbSpline
210
0.0
220
0.0
230
1.0
 70
     8
 71
     3
 72
     9
 73
     5
 74
     0
 42
0.00000001
 43
0.00000001
 40
0.0
 40
0.0
 40
0.0
 40
0.0
 40
0.5568463960113859
 40
1.0
 40
1.0
 40
1.0
 40
1.0
 10
9650.844218932229
 20
3259.488529744008
 30
0.0
 10
9651.009488071599
 20
3259.613824064142
 30
0.0
 10
9651.306282915843
 20
3259.838831033804
 30
0.0
 10
9651.577310413471
 20
3260.09417271856
 30
0.0
 10
9651.697417225827
 20
3260.207328306408
 30
0.0
  0
SPLINE
  5
C0
330
1F
100
AcDbEntity
  8
0
  6
SLD-Plná
 62
     7
370
    25
100
AcDbSpline
210
0.0
220
0.0
230
1.0
 70
     8
 71
     3
 72
     9
 73
     5
 74
     0
 42
0.00000001
 43
0.00000001
 40
0.0
 40
0.0
 40
0.0
 40
0.0
 40
0.5589378384488403
 40
1.0
 40
1.0
 40
1.0
 40
1.0
 10
9649.840720939228
 20
3258.841231038607
 30
0.0
 10
9650.032601685662
 20
3258.954264332783
 30
0.0
 10
9650.375897009817
 20
3259.15649307165
 30
0.0
 10
9650.700880855002
 20
3259.386904140108
 30
0.0
 10
9650.844218932229
 20
3259.488529744008
 30
0.0
  0
SPLINE
  5
C1
330
1F
100
AcDbEntity
  8
0
  6
SLD-Plná
 62
     7
370
    25
100
AcDbSpline
210
0.0
220
0.0
230
1.0
 70
     8
 71
     3
 72
     9
 73
     5
 74
     0
 42
0.00000001
 43
0.00000001
 40
0.0
 40
0.0
 40
0.0
 40
0.0
 40
0.5621948731218451
 40
1.0
 40
1.0
 40
1.0
 40
1.0
 10
9636.523647573427
 20
3245.128058465008
 30
0.0
 10
9636.66065123861
 20
3245.348652127769
 30
0.0
 10
9636.904345501462
 20
3245.741031484655
 30
0.0
 10
9637.110841299269
 20
3246.154108719845
 30
0.0
 10
9637.201246218227
 20
3246.334956051208
 30
0.0
  0
SPLINE
  5
C2
330
1F
100
AcDbEntity
  8
0
  6
SLD-Plná
 62
     7
370
    25
100
AcDbSpline
210
0.0
220
0.0
230
1.0
 70
     8
 71
     3
 72
     9
 73
     5
 74
     0
 42
0.00000001
 43
0.00000001
 40
0.0
 40
0.0
 40
0.0
 40
0.0
 40
0.5647531304104566
 40
0.9999999999999999
 40
0.9999999999999999
 40
0.9999999999999999
 40
0.9999999999999999
 10
9635.653149314427
 20
3244.034760651608
 30
0.0
 10
9635.8316592002
 20
3244.229072335046
 30
0.0
 10
9636.147744009935
 20
3244.573137153769
 30
0.0
 10
9636.409652655379
 20
3244.95977538514
 30
0.0
 10
9636.523647573427
 20
3245.128058465008
 30
0.0
  0
SPLINE
  5
C3
330
1F
100
AcDbEntity
  8
0
  6
SLD-Plná
 62
     7
370
    25
100
AcDbSpline
210
0.0
220
0.0
230
1.0
 70
     8
 71
     3
 72
     9
 73
     5
 74
     0
 42
0.00000001
 43
0.00000001
 40
0.0
 40
0.0
 40
0.0
 40
0.0
 40
0.5681814343698348
 40
1.0
 40
1.0
 40
1.0
 40
1.0
 10
9634.494951630828
 20
3243.121762477608
 30
0.0
 10
9634.730281698305
 20
3243.274772662278
 30
0.0
 10
9635.144462896846
 20
3243.544070769211
 30
0.0
 10
9635.49973585516
 20
3243.886774722195
 30
0.0
 10
9635.653149314427
 20
3244.034760651608
 30
0.0
  0
SPLINE
  5
C4
330
1F
100
AcDbEntity
  8
0
  6
SLD-Plná
 62
     7
370
    25
100
AcDbSpline
210
0.0
220
0.0
230
1.0
 70
     8
 71
     3
 72
     9
 73
     5
 74
     0
 42
0.00000001
 43
0.00000001
 40
0.0
 40
0.0
 40
0.0
 40
0.0
 40
0.5683770355069164
 40
0.9999999999999999
 40
0.9999999999999999
 40
0.9999999999999999
 40
0.9999999999999999
 10
9642.864234892228
 20
3270.958306804408
 30
0.0
 10
9642.614282585344
 20
3270.775117366549
 30
0.0
 10
9642.174517620768
 20
3270.452814693473
 30
0.0
 10
9641.799572339187
 20
3270.057525039492
 30
0.0
 10
9641.637737345227
 20
3269.886908947208
 30
0.0
  0
SPLINE
  5
C5
330
1F
100
AcDbEntity
  8
0
  6
SLD-Plná
 62
     7
370
    25
100
AcDbSpline
210
0.0
220
0.0
230
1.0
 70
     8
 71
     3
 72
     9
 73
     5
 74
     0
 42
0.00000001
 43
0.00000001
 40
0.0
 40
0.0
 40
0.0
 40
0.0
 40
0.5485967703099826
 40
1.0
 40
1.0
 40
1.0
 40
1.0
 10
9630.378359864028
 20
3256.697635325808
 30
0.0
 10
9630.749765888839
 20
3256.8659552597
 30
0.0
 10
9631.42677684645
 20
3257.17277429875
 30
0.0
 10
9632.077994241481
 20
3257.530951148865
 30
0.0
 10
9632.371955876828
 20
3257.692633335808
 30
0.0
  0
SPLINE
  5
C6
330
1F
100
AcDbEntity
  8
0
  6
SLD-Plná
 62
     7
370
    25
100
AcDbSpline
210
0.0
220
0.0
230
1.0
 70
     8
 71
     3
 72
    17
 73
    13
 74
     0
 42
0.00000001
 43
0.00000001
 40
0.0
 40
0.0
 40
0.0
 40
0.0
 40
0.1543469919301974
 40
0.2843102864631431
 40
0.395846207584082
 40
0.4938857682062269
 40
0.5819483537405739
 40
0.6621410072489465
 40
0.748225870797341
 40
0.8277541711468345
 40
0.9074284130512906
 40
1.0
 40
1.0
 40
1.0
 40
1.0
 10
9639.689641241426
 20
3263.932620855808
 30
0.0
 10
9639.147414947838
 20
3263.047162600613
 30
0.0
 10
9638.148623128633
 20
3261.416130553683
 30
0.0
 10
9636.40232681505
 20
3259.395175109867
 30
0.0
 10
9634.68244596573
 20
3257.886688232803
 30
0.0
 10
9633.005225750809
 20
3256.787962897837
 30
0.0
 10
9631.407966329267
 20
3255.977630235512
 30
0.0
 10
9629.839646792265
 20
3255.300267742182
 30
0.0
 10
9628.325646729407
 20
3254.638485799512
 30
0.0
 10
9626.909178048774
 20
3253.781323563611
 30
0.0
 10
9625.72223862799
 20
3252.520431521104
 30
0.0
 10
9625.31970668672
 20
3251.423877629998
 30
0.0
 10
9625.103370414028
 20
3250.834547052008
 30
0.0
  0
SPLINE
  5
C7
330
1F
100
AcDbEntity
  8
0
  6
SLD-Plná
 62
     7
370
    25
100
AcDbSpline
210
0.0
220
0.0
230
1.0
 70
     8
 71
     3
 72
     9
 73
     5
 74
     0
 42
0.00000001
 43
0.00000001
 40
0.0
 40
0.0
 40
0.0
 40
0.0
 40
0.5529165740812828
 40
1.0
 40
1.0
 40
1.0
 40
1.0
 10
9646.942826735029
 20
3257.418633883808
 30
0.0
 10
9646.55438365142
 20
3257.23411168486
 30
0.0
 10
9645.851848943987
 20
3256.900386476398
 30
0.0
 10
9645.172815486647
 20
3256.521244231408
 30
0.0
 10
9644.869230882226
 20
3256.351736017608
 30
0.0
  0
SPLINE
  5
C8
330
1F
100
AcDbEntity
  8
0
  6
SLD-Plná
 62
     7
370
    25
100
AcDbSpline
210
0.0
220
0.0
230
1.0
 70
     8
 71
     3
 72
     9
 73
     5
 74
     0
 42
0.00000001
 43
0.00000001
 40
0.0
 40
0.0
 40
0.0
 40
0.0
 40
0.5515334634687206
 40
1.0
 40
1.0
 40
1.0
 40
1.0
 10
9632.371955876828
 20
3257.692633335808
 30
0.0
 10
9632.564039195884
 20
3257.805224929865
 30
0.0
 10
9632.91231057338
 20
3258.009367745332
 30
0.0
 10
9633.247798648934
 20
3258.233856401766
 30
0.0
 10
9633.398253824227
 20
3258.334532052008
 30
0.0
  0
ARC
  5
C9
330
1F
100
AcDbEntity
  8
0
  6
SLD-Plná
 62
     7
370
    25
100
AcDbCircle
 10
9625.2341775037
 20
3270.2908623146
 30
0.0
 40
14.47777522673972
100
AcDbArc
 50
304.3262222774
 51
309.5029579876
  0
SPLINE
  5
CA
330
1F
100
AcDbEntity
  8
0
  6
SLD-Plná
 62
     7
370
    25
100
AcDbSpline
210
0.0
220
0.0
230
1.0
 70
     8
 71
     3
 72
     9
 73
     5
 74
     0
 42
0.00000001
 43
0.00000001
 40
0.0
 40
0.0
 40
0.0
 40
0.0
 40
0.5473298391756264
 40
1.0
 40
1.0
 40
1.0
 40
1.0
 10
9634.443751733228
 20
3259.119930481208
 30
0.0
 10
9634.643901868625
 20
3259.289536571147
 30
0.0
 10
9635.009586545528
 20
3259.599415693021
 30
0.0
 10
9635.35217158246
 20
3259.934600422851
 30
0.0
 10
9635.507249606228
 20
3260.086328548408
 30
0.0
  0
SPLINE
  5
CB
330
1F
100
AcDbEntity
  8
0
  6
SLD-Plná
 62
     7
370
    25
100
AcDbSpline
210
0.0
220
0.0
230
1.0
 70
     8
 71
     3
 72
     9
 73
     5
 74
     0
 42
0.00000001
 43
0.00000001
 40
0.0
 40
0.0
 40
0.0
 40
0.0
 40
0.5456548799124583
 40
1.0
 40
1.0
 40
1.0
 40
1.0
 10
9635.507249606228
 20
3260.086328548408
 30
0.0
 10
9635.710863051283
 20
3260.295369564909
 30
0.0
 10
9636.084017315183
 20
3260.678470723163
 30
0.0
 10
9636.429073056706
 20
3261.08700886479
 30
0.0
 10
9636.585847449027
 20
3261.272626175808
 30
0.0
  0
SPLINE
  5
CC
330
1F
100
AcDbEntity
  8
0
  6
SLD-Plná
 62
     7
370
    25
100
AcDbSpline
210
0.0
220
0.0
230
1.0
 70
     8
 71
     3
 72
     9
 73
     5
 74
     0
 42
0.00000001
 43
0.00000001
 40
0.0
 40
0.0
 40
0.0
 40
0.0
 40
0.5445018770197171
 40
1.0
 40
1.0
 40
1.0
 40
1.0
 10
9636.585847449027
 20
3261.272626175808
 30
0.0
 10
9636.791924837213
 20
3261.52856077978
 30
0.0
 10
9637.170394401564
 20
3261.998595163084
 30
0.0
 10
9637.516427737582
 20
3262.492946966335
 30
0.0
 10
9637.674045272626
 20
3262.718123284808
 30
0.0
  0
SPLINE
  5
CD
330
1F
100
AcDbEntity
  8
0
  6
SLD-Plná
 62
     7
370
    25
100
AcDbSpline
210
0.0
220
0.0
230
1.0
 70
     8
 71
     3
 72
     9
 73
     5
 74
     0
 42
0.00000001
 43
0.00000001
 40
0.0
 40
0.0
 40
0.0
 40
0.0
 40
0.5522903817540233
 40
1.0
 40
1.0
 40
1.0
 40
1.0
 10
9637.674045272626
 20
3262.718123284808
 30
0.0
 10
9637.776822447577
 20
3262.869752774631
 30
0.0
 10
9637.96291508715
 20
3263.144299453032
 30
0.0
 10
9638.140180673592
 20
3263.424619596424
 30
0.0
 10
9638.219544181627
 20
3263.550121620808
 30
0.0
  0
ARC
  5
CE
330
1F
100
AcDbEntity
  8
0
  6
SLD-Plná
 62
     7
370
    25
100
AcDbCircle
 10
9616.4632417934
 20
3277.1718407909
 30
0.0
 40
25.66881233631582
100
AcDbArc
 50
327.9491317223
 51
329.1147587615
  0
ARC
  5
CF
330
1F
100
AcDbEntity
  8
0
  6
SLD-Plná
 62
     7
370
    25
100
AcDbCircle
 10
9614.6454606374
 20
3278.2484403404
 30
0.0
 40
27.78146877822142
100
AcDbArc
 50
329.133668924
 51
330.2464433039
  0
SPLINE
  5
D0
330
1F
100
AcDbEntity
  8
0
  6
SLD-Plná
 62
     7
370
    25
100
AcDbSpline
210
0.0
220
0.0
230
1.0
 70
     8
 71
     3
 72
     9
 73
     5
 74
     0
 42
0.00000001
 43
0.00000001
 40
0.0
 40
0.0
 40
0.0
 40
0.0
 40
0.5522829234932191
 40
1.0
 40
1.0
 40
1.0
 40
1.0
 10
9638.764443091828
 20
3264.461319798408
 30
0.0
 10
9638.779456295406
 20
3264.488074710623
 30
0.0
 10
9638.806640195073
 20
3264.536518924768
 30
0.0
 10
9638.832199566414
 20
3264.585838354371
 30
0.0
 10
9638.843642933427
 20
3264.607919505208
 30
0.0
  0
SPLINE
  5
D1
330
1F
100
AcDbEntity
  8
0
  6
SLD-Plná
 62
     7
370
    25
100
AcDbSpline
210
0.0
220
0.0
230
1.0
 70
     8
 71
     3
 72
     9
 73
     5
 74
     0
 42
0.00000001
 43
0.00000001
 40
0.0
 40
0.0
 40
0.0
 40
0.0
 40
0.5412816882549133
 40
1.0
 40
1.0
 40
1.0
 40
1.0
 10
9638.843642933427
 20
3264.607919505208
 30
0.0
 10
9638.859267031783
 20
3264.638875505006
 30
0.0
 10
9638.888132036263
 20
3264.696065689839
 30
0.0
 10
9638.915697829769
 20
3264.753892804019
 30
0.0
 10
9638.928342764028
 20
3264.780419160208
 30
0.0
  0
SPLINE
  5
D2
330
1F
100
AcDbEntity
  8
0
  6
SLD-Plná
 62
     7
370
    25
100
AcDbSpline
210
0.0
220
0.0
230
1.0
 70
     8
 71
     3
 72
     9
 73
     5
 74
     0
 42
0.00000001
 43
0.00000001
 40
0.0
 40
0.0
 40
0.0
 40
0.0
 40
0.5386991985714505
 40
0.9999999999999999
 40
0.9999999999999999
 40
0.9999999999999999
 40
0.9999999999999999
 10
9638.928342764028
 20
3264.780419160208
 30
0.0
 10
9638.96218491196
 20
3264.853821105947
 30
0.0
 10
9639.025006887601
 20
3264.990078865256
 30
0.0
 10
9639.083609135505
 20
3265.128202016735
 30
0.0
 10
9639.110642399426
 20
3265.191918337208
 30
0.0
  0
SPLINE
  5
D3
330
1F
100
AcDbEntity
  8
0
  6
SLD-Plná
 62
     7
370
    25
100
AcDbSpline
210
0.0
220
0.0
230
1.0
 70
     8
 71
     3
 72
     9
 73
     5
 74
     0
 42
0.00000001
 43
0.00000001
 40
0.0
 40
0.0
 40
0.0
 40
0.0
 40
0.5339409590520242
 40
1.0
 40
1.0
 40
1.0
 40
1.0
 10
9639.110642399426
 20
3265.191918337208
 30
0.0
 10
9639.185400161314
 20
3265.373864071769
 30
0.0
 10
9639.325411450238
 20
3265.714624096781
 30
0.0
 10
9639.462875297846
 20
3266.056419467111
 30
0.0
 10
9639.526941566828
 20
3266.215716289608
 30
0.0
  0
SPLINE
  5
D4
330
1F
100
AcDbEntity
  8
0
  6
SLD-Plná
 62
     7
370
    25
100
AcDbSpline
210
0.0
220
0.0
230
1.0
 70
     8
 71
     3
 72
     9
 73
     5
 74
     0
 42
0.00000001
 43
0.00000001
 40
0.0
 40
0.0
 40
0.0
 40
0.0
 40
0.5452428383380098
 40
1.0
 40
1.0
 40
1.0
 40
1.0
 10
9639.526941566828
 20
3266.215716289608
 30
0.0
 10
9639.616573553245
 20
3266.434149792059
 30
0.0
 10
9639.780962665975
 20
3266.834766704545
 30
0.0
 10
9639.96214607761
 20
3267.228060662974
 30
0.0
 10
9640.044540531628
 20
3267.406913907208
 30
0.0
  0
ARC
  5
D5
330
1F
100
AcDbEntity
  8
0
  6
SLD-Plná
 62
     7
370
    25
100
AcDbCircle
 10
9653.3483160201
 20
3261.1146452063
 30
0.0
 40
14.71676213204848
100
AcDbArc
 50
154.1356549984
 51
154.687318719
  0
LINE
  5
D6
330
1F
100
AcDbEntity
  8
0
  6
SLD-Plná
 62
     7
370
    25
100
AcDbLine
 10
9640.1057404092
 20
3267.5347136516
 30
0.0
 11
9636.8871468464
 21
3267.7161132888
 31
0.0
  0
LINE
  5
D7
330
1F
100
AcDbEntity
  8
0
  6
SLD-Plná
 62
     7
370
    25
100
AcDbLine
 10
9636.8871468464
 20
3267.7161132888
 30
0.0
 11
9628.4149637908
 21
3259.4376298458
 31
0.0
  0
LINE
  5
D8
330
1F
100
AcDbEntity
  8
0
  6
SLD-Plná
 62
     7
370
    25
100
AcDbLine
 10
9628.4149637908
 20
3259.4376298458
 30
0.0
 11
9628.6027634152
 21
3255.915036891
 31
0.0
  0
SPLINE
  5
D9
330
1F
100
AcDbEntity
  8
0
  6
SLD-Plná
 62
     7
370
    25
100
AcDbSpline
210
0.0
220
0.0
230
1.0
 70
     8
 71
     3
 72
     9
 73
     5
 74
     0
 42
0.00000001
 43
0.00000001
 40
0.0
 40
0.0
 40
0.0
 40
0.0
 40
0.5548799876415409
 40
1.0
 40
1.0
 40
1.0
 40
1.0
 10
9628.602763415227
 20
3255.915036891008
 30
0.0
 10
9628.93075477296
 20
3256.0607464903
 30
0.0
 10
9629.521858011569
 20
3256.323343092335
 30
0.0
 10
9630.114543632924
 20
3256.582347348225
 30
0.0
 10
9630.378359864028
 20
3256.697635325808
 30
0.0
  0
SPLINE
  5
DA
330
1F
100
AcDbEntity
  8
0
  6
SLD-Plná
 62
     7
370
    25
100
AcDbSpline
210
0.0
220
0.0
230
1.0
 70
     8
 71
     3
 72
    14
 73
    10
 74
     0
 42
0.00000001
 43
0.00000001
 40
0.0
 40
0.0
 40
0.0
 40
0.0
 40
0.150047574537804
 40
0.2912480675607416
 40
0.4287045909770769
 40
0.5650475847930627
 40
0.7079145563163343
 40
0.8520168782153595
 40
1.0
 40
1.0
 40
1.0
 40
1.0
 10
9625.103370414028
 20
3250.834547052008
 30
0.0
 10
9624.985942247667
 20
3250.276792429755
 30
0.0
 10
9624.758009696041
 20
3249.194169425656
 30
0.0
 10
9625.010532158007
 20
3247.564216117175
 30
0.0
 10
9625.645221133278
 20
3246.117999829236
 30
0.0
 10
9626.640446989353
 20
3244.876548803127
 30
0.0
 10
9627.937575207123
 20
3243.922283420648
 30
0.0
 10
9629.489028920889
 20
3243.296299162363
 30
0.0
 10
9630.598269191758
 20
3243.271982217871
 30
0.0
 10
9631.160258300228
 20
3243.259662201808
 30
0.0
  0
SPLINE
  5
DB
330
1F
100
AcDbEntity
  8
0
  6
SLD-Plná
 62
     7
370
    25
100
AcDbSpline
210
0.0
220
0.0
230
1.0
 70
     8
 71
     3
 72
    13
 73
     9
 74
     0
 42
0.00000001
 43
0.00000001
 40
0.0
 40
0.0
 40
0.0
 40
0.0
 40
0.1663643210141462
 40
0.303814255212548
 40
0.4299451109087148
 40
0.5571840426352964
 40
0.77054643211285
 40
1.0
 40
1.0
 40
1.0
 40
1.0
 10
9631.160258300228
 20
3243.259662201808
 30
0.0
 10
9631.745543974552
 20
3243.326576489143
 30
0.0
 10
9632.814391730773
 20
3243.448775252951
 30
0.0
 10
9634.206415655028
 20
3244.116372970932
 30
0.0
 10
9635.223937628893
 20
3245.066674092322
 30
0.0
 10
9636.126867190167
 20
3246.452371860398
 30
0.0
 10
9636.89729856783
 20
3248.310163956671
 30
0.0
 10
9637.562142956294
 20
3249.719811797981
 30
0.0
 10
9637.906644807428
 20
3250.450247820608
 30
0.0
  0
SPLINE
  5
DC
330
1F
100
AcDbEntity
  8
0
  6
SLD-Plná
 62
     7
370
    25
100
AcDbSpline
210
0.0
220
0.0
230
1.0
 70
     8
 71
     3
 72
    17
 73
    13
 74
     0
 42
0.00000001
 43
0.00000001
 40
0.0
 40
0.0
 40
0.0
 40
0.0
 40
0.140776689165424
 40
0.2623930154661833
 40
0.3701926183179893
 40
0.4681986448479665
 40
0.5588838294767391
 40
0.6433833385984441
 40
0.7356237979310538
 40
0.8213387565803844
 40
0.9057306569410908
 40
1.0
 40
1.0
 40
1.0
 40
1.0
 10
9637.906644807428
 20
3250.450247820608
 30
0.0
 10
9638.381922382596
 20
3251.27329818719
 30
0.0
 10
9639.267790042017
 20
3252.807377933265
 30
0.0
 10
9640.901065417096
 20
3254.711165386261
 30
0.0
 10
9642.570213988969
 20
3256.164171220917
 30
0.0
 10
9644.247343567777
 20
3257.259432708791
 30
0.0
 10
9645.882566860077
 20
3258.108662281044
 30
0.0
 10
9647.520594437643
 20
3258.858920959186
 30
0.0
 10
9649.120882986062
 20
3259.616206813774
 30
0.0
 10
9650.615786931152
 20
3260.570536484251
 30
0.0
 10
9651.86682625042
 20
3261.896318772234
 30
0.0
 10
9652.281968659154
 20
3263.039061374863
 30
0.0
 10
9652.501015618627
 20
3263.642021437008
 30
0.0
  0
SPLINE
  5
DD
330
1F
100
AcDbEntity
  8
0
  6
SLD-Plná
 62
     7
370
    25
100
AcDbSpline
210
0.0
220
0.0
230
1.0
 70
     8
 71
     3
 72
    14
 73
    10
 74
     0
 42
0.00000001
 43
0.00000001
 40
0.0
 40
0.0
 40
0.0
 40
0.0
 40
0.1511961791797921
 40
0.292178174433903
 40
0.4288506731409683
 40
0.5645495659262635
 40
0.7073114630607209
 40
0.8518150531310509
 40
1.0
 40
1.0
 40
1.0
 40
1.0
 10
9652.501015618627
 20
3263.642021437008
 30
0.0
 10
9652.611406868647
 20
3264.195750522746
 30
0.0
 10
9652.824731795767
 20
3265.265801064234
 30
0.0
 10
9652.558138693244
 20
3266.866189637256
 30
0.0
 10
9651.912157772547
 20
3268.272119605593
 30
0.0
 10
9650.912623673756
 20
3269.467839044287
 30
0.0
 10
9649.621005236126
 20
3270.380481133285
 30
0.0
 10
9648.089524531686
 20
3270.977667993589
 30
0.0
 10
9646.997770592336
 20
3271.008033139155
 30
0.0
 10
9646.445027730626
 20
3271.023406674208
 30
0.0
  0
SPLINE
  5
DE
330
1F
100
AcDbEntity
  8
0
  6
SLD-Plná
 62
     7
370
    25
100
AcDbSpline
210
0.0
220
0.0
230
1.0
 70
     8
 71
     3
 72
    13
 73
     9
 74
     0
 42
0.00000001
 43
0.00000001
 40
0.0
 40
0.0
 40
0.0
 40
0.0
 40
0.1789543907720785
 40
0.3337010078804044
 40
0.4790770062695973
 40
0.6209418103434473
 40
0.8306667948383585
 40
0.9999999999999999
 40
0.9999999999999999
 40
0.9999999999999999
 40
0.9999999999999999
 10
9646.445027730626
 20
3271.023406674208
 30
0.0
 10
9645.820122357381
 20
3270.945306217196
 30
0.0
 10
9644.654844702096
 20
3270.799670219621
 30
0.0
 10
9643.16642706345
 20
3269.956354866281
 30
0.0
 10
9642.081718663678
 20
3268.843010069021
 30
0.0
 10
9641.150945685797
 20
3267.367932460716
 30
0.0
 10
9640.476947434676
 20
3265.675763534521
 30
0.0
 10
9639.93274695462
 20
3264.470871345567
 30
0.0
 10
9639.689641241426
 20
3263.932620855808
 30
0.0
  0
SPLINE
  5
DF
330
1F
100
AcDbEntity
  8
0
  6
SLD-Plná
 62
     7
370
    25
100
AcDbSpline
210
0.0
220
0.0
230
1.0
 70
     8
 71
     3
 72
     9
 73
     5
 74
     0
 42
0.00000001
 43
0.00000001
 40
0.0
 40
0.0
 40
0.0
 40
0.0
 40
0.5474127824575237
 40
1.0
 40
1.0
 40
1.0
 40
1.0
 10
9644.869230882226
 20
3256.351736017608
 30
0.0
 10
9644.475321656842
 20
3256.113873381021
 30
0.0
 10
9643.755738121328
 20
3255.679351856844
 30
0.0
 10
9643.095190457467
 20
3255.159787195995
 30
0.0
 10
9642.796235028227
 20
3254.924638871808
 30
0.0
  0
SPLINE
  5
E0
330
1F
100
AcDbEntity
  8
0
  6
SLD-Plná
 62
     7
370
    25
100
AcDbSpline
210
0.0
220
0.0
230
1.0
 70
     8
 71
     3
 72
     9
 73
     5
 74
     0
 42
0.00000001
 43
0.00000001
 40
0.0
 40
0.0
 40
0.0
 40
0.0
 40
0.5506830682851394
 40
1.0
 40
1.0
 40
1.0
 40
1.0
 10
9642.796235028227
 20
3254.924638871808
 30
0.0
 10
9642.602613758672
 20
3254.761180727764
 30
0.0
 10
9642.251011756165
 20
3254.464352745466
 30
0.0
 10
9641.922184655681
 20
3254.142537682072
 30
0.0
 10
9641.774437071828
 20
3253.997940725208
 30
0.0
  0
SPLINE
  5
E1
330
1F
100
AcDbEntity
  8
0
  6
SLD-Plná
 62
     7
370
    25
100
AcDbSpline
210
0.0
220
0.0
230
1.0
 70
     8
 71
     3
 72
     9
 73
     5
 74
     0
 42
0.00000001
 43
0.00000001
 40
0.0
 40
0.0
 40
0.0
 40
0.0
 40
0.5485867355816871
 40
1.0
 40
1.0
 40
1.0
 40
1.0
 10
9641.774437071828
 20
3253.997940725208
 30
0.0
 10
9641.583267874652
 20
3253.800995076452
 30
0.0
 10
9641.234792082629
 20
3253.441989588383
 30
0.0
 10
9640.91472266216
 20
3253.057504584107
 30
0.0
 10
9640.770239080228
 20
3252.883942953208
 30
0.0
  0
SPLINE
  5
E2
330
1F
100
AcDbEntity
  8
0
  6
SLD-Plná
 62
     7
370
    25
100
AcDbSpline
210
0.0
220
0.0
230
1.0
 70
     8
 71
     3
 72
     9
 73
     5
 74
     0
 42
0.00000001
 43
0.00000001
 40
0.0
 40
0.0
 40
0.0
 40
0.0
 40
0.5468060715443562
 40
0.9999999999999999
 40
0.9999999999999999
 40
0.9999999999999999
 40
0.9999999999999999
 10
9640.770239080228
 20
3252.883942953208
 30
0.0
 10
9640.582930517789
 20
3252.646724308012
 30
0.0
 10
9640.240380256946
 20
3252.212898391402
 30
0.0
 10
9639.931378677647
 20
3251.75463005491
 30
0.0
 10
9639.791341038026
 20
3251.546945627208
 30
0.0
  0
SPLINE
  5
E3
330
1F
100
AcDbEntity
  8
0
  6
SLD-Plná
 62
     7
370
    25
100
AcDbSpline
210
0.0
220
0.0
230
1.0
 70
     8
 71
     3
 72
     9
 73
     5
 74
     0
 42
0.00000001
 43
0.00000001
 40
0.0
 40
0.0
 40
0.0
 40
0.0
 40
0.5531466490023677
 40
1.0
 40
1.0
 40
1.0
 40
1.0
 10
9639.791341038026
 20
3251.546945627208
 30
0.0
 10
9639.700979869565
 20
3251.407694444179
 30
0.0
 10
9639.537621438982
 20
3251.155950746047
 30
0.0
 10
9639.383438952415
 20
3250.898493007443
 30
0.0
 10
9639.314541991627
 20
3250.783447154208
 30
0.0
  0
ARC
  5
E4
330
1F
100
AcDbEntity
  8
0
  6
SLD-Plná
 62
     7
370
    25
100
AcDbCircle
 10
9655.5093979122
 20
3241.186444361
 30
0.0
 40
18.8248724006728
100
AcDbArc
 50
149.3491981469
 51
150.7800967431
  0
SPLINE
  5
E5
330
1F
100
AcDbEntity
  8
0
  6
SLD-Plná
 62
     7
370
    25
100
AcDbSpline
210
0.0
220
0.0
230
1.0
 70
     8
 71
     3
 72
     9
 73
     5
 74
     0
 42
0.00000001
 43
0.00000001
 40
0.0
 40
0.0
 40
0.0
 40
0.0
 40
0.5588252169821586
 40
1.0
 40
1.0
 40
1.0
 40
1.0
 10
9639.079942460829
 20
3250.376047969008
 30
0.0
 10
9639.036094771576
 20
3250.297198224623
 30
0.0
 10
9638.957630722496
 20
3250.15609910814
 30
0.0
 10
9638.881590120649
 20
3250.01368037368
 30
0.0
 10
9638.848042924626
 20
3249.950848819408
 30
0.0
  0
SPLINE
  5
E6
330
1F
100
AcDbEntity
  8
0
  6
SLD-Plná
 62
     7
370
    25
100
AcDbSpline
210
0.0
220
0.0
230
1.0
 70
     8
 71
     3
 72
     9
 73
     5
 74
     0
 42
0.00000001
 43
0.00000001
 40
0.0
 40
0.0
 40
0.0
 40
0.0
 40
0.5589607435371369
 40
1.0
 40
1.0
 40
1.0
 40
1.0
 10
9638.848042924626
 20
3249.950848819408
 30
0.0
 10
9638.629782300843
 20
3249.506530495606
 30
0.0
 10
9638.239306536118
 20
3248.711629728531
 30
0.0
 10
9637.895553650089
 20
3247.895499235729
 30
0.0
 10
9637.743945132828
 20
3247.535553650008
 30
0.0
  0
SPLINE
  5
E7
330
1F
100
AcDbEntity
  8
0
  6
SLD-Plná
 62
     7
370
    25
100
AcDbSpline
210
0.0
220
0.0
230
1.0
 70
     8
 71
     3
 72
     9
 73
     5
 74
     0
 42
0.00000001
 43
0.00000001
 40
0.0
 40
0.0
 40
0.0
 40
0.0
 40
0.5595660696796185
 40
1.0
 40
1.0
 40
1.0
 40
1.0
 10
9637.743945132828
 20
3247.535553650008
 30
0.0
 10
9637.703479966563
 20
3247.441568495045
 30
0.0
 10
9637.631164705761
 20
3247.273607712474
 30
0.0
 10
9637.557284792012
 20
3247.106329608568
 30
0.0
 10
9637.524745571227
 20
3247.032654655808
 30
0.0
  0
LINE
  5
E8
330
1F
100
AcDbEntity
  8
0
  6
SLD-Plná
 62
     7
370
    25
100
AcDbLine
 10
9637.5247455712
 20
3247.0326546558
 30
0.0
 11
9641.0472385262
 21
3246.86555499
 31
0.0
  0
LINE
  5
E9
330
1F
100
AcDbEntity
  8
0
  6
SLD-Plná
 62
     7
370
    25
100
AcDbLine
 10
9641.0472385262
 20
3246.86555499
 30
0.0
 11
9649.346321928
 21
3255.249038223
 31
0.0
  0
LINE
  5
EA
330
1F
100
AcDbEntity
  8
0
  6
SLD-Plná
 62
     7
370
    25
100
AcDbLine
 10
9649.346321928
 20
3255.249038223
 30
0.0
 11
9649.1461223284
 21
3258.4663317884
 31
0.0
  0
ARC
  5
EB
330
1F
100
AcDbEntity
  8
0
  6
SLD-Plná
 62
     7
370
    25
100
AcDbCircle
 10
9638.5633923917
 20
3279.1315091598
 30
0.0
 40
23.21731527770999
100
AcDbArc
 50
296.6015632319
 51
297.1171892134
  0
SPLINE
  5
EC
330
1F
100
AcDbEntity
  8
0
  6
SLD-Plná
 62
     7
370
    25
100
AcDbSpline
210
0.0
220
0.0
230
1.0
 70
     8
 71
     3
 72
     9
 73
     5
 74
     0
 42
0.00000001
 43
0.00000001
 40
0.0
 40
0.0
 40
0.0
 40
0.0
 40
0.5559349962425827
 40
1.0
 40
1.0
 40
1.0
 40
1.0
 10
9648.95972270123
 20
3258.371931977208
 30
0.0
 10
9648.587345207427
 20
3258.192357135441
 30
0.0
 10
9647.917523202485
 20
3257.869343036706
 30
0.0
 10
9647.242556033472
 20
3257.557231634708
 30
0.0
 10
9646.942826735029
 20
3257.418633883808
 30
0.0
  0
ARC
  5
ED
330
1F
100
AcDbEntity
  8
0
  6
SLD-Plná
 62
     7
370
    25
100
AcDbCircle
 10
9646.4233970724
 20
3265.6967179489
 30
0.0
 40
6.352318687648549
100
AcDbArc
 50
116.279218272
 51
124.0760901346
  0
SPLINE
  5
EE
330
1F
100
AcDbEntity
  8
0
  6
SLD-Plná
 62
     7
370
    25
100
AcDbSpline
210
0.0
220
0.0
230
1.0
 70
     8
 71
     3
 72
     9
 73
     5
 74
     0
 42
0.00000001
 43
0.00000001
 40
0.0
 40
0.0
 40
0.0
 40
0.0
 40
0.5661618974429207
 40
1.0
 40
1.0
 40
1.0
 40
1.0
 10
9644.448731723227
 20
3271.734605251808
 30
0.0
 10
9644.287336722457
 20
3271.677983868768
 30
0.0
 10
9644.002268084845
 20
3271.577974695959
 30
0.0
 10
9643.7293400009
 20
3271.448623439621
 30
0.0
 10
9643.610933398828
 20
3271.392505936008
 30
0.0
  0
SPLINE
  5
EF
330
1F
100
AcDbEntity
  8
0
  6
SLD-Plná
 62
     7
370
    25
100
AcDbSpline
210
0.0
220
0.0
230
1.0
 70
     8
 71
     3
 72
     9
 73
     5
 74
     0
 42
0.00000001
 43
0.00000001
 40
0.0
 40
0.0
 40
0.0
 40
0.0
 40
0.5670003189734864
 40
0.9999999999999999
 40
0.9999999999999999
 40
0.9999999999999999
 40
0.9999999999999999
 10
9645.375329870029
 20
3271.969804781408
 30
0.0
 10
9645.197977769818
 20
3271.93395154596
 30
0.0
 10
9644.885187645594
 20
3271.870718362048
 30
0.0
 10
9644.580612614527
 20
3271.775733616383
 30
0.0
 10
9644.448731723227
 20
3271.734605251808
 30
0.0
  0
SPLINE
  5
F0
330
1F
100
AcDbEntity
  8
0
  6
SLD-Plná
 62
     7
370
    25
100
AcDbSpline
210
0.0
220
0.0
230
1.0
 70
     8
 71
     3
 72
     9
 73
     5
 74
     0
 42
0.00000001
 43
0.00000001
 40
0.0
 40
0.0
 40
0.0
 40
0.0
 40
0.5649909290178354
 40
1.0
 40
1.0
 40
1.0
 40
1.0
 10
9645.871128878427
 20
3272.043704633608
 30
0.0
 10
9645.777419828044
 20
3272.03200238446
 30
0.0
 10
9645.611560438856
 20
3272.011290106532
 30
0.0
 10
9645.446940874
 20
3271.982380655043
 30
0.0
 10
9645.375329870029
 20
3271.969804781408
 30
0.0
  0
SPLINE
  5
F1
330
1F
100
AcDbEntity
  8
0
  6
SLD-Plná
 62
     7
370
    25
100
AcDbSpline
210
0.0
220
0.0
230
1.0
 70
     8
 71
     3
 72
     9
 73
     5
 74
     0
 42
0.00000001
 43
0.00000001
 40
0.0
 40
0.0
 40
0.0
 40
0.0
 40
0.5618273497637792
 40
1.0
 40
1.0
 40
1.0
 40
1.0
 10
9646.388527843626
 20
3272.086904547208
 30
0.0
 10
9646.291445152605
 20
3272.08099572534
 30
0.0
 10
9646.118647066034
 20
3272.070478576486
 30
0.0
 10
9645.946541034422
 20
3272.051861936214
 30
0.0
 10
9645.871128878427
 20
3272.043704633608
 30
0.0
  0
SPLINE
  5
F2
330
1F
100
AcDbEntity
  8
0
  6
SLD-Plná
 62
     7
370
    25
100
AcDbSpline
210
0.0
220
0.0
230
1.0
 70
     8
 71
     3
 72
     9
 73
     5
 74
     0
 42
0.00000001
 43
0.00000001
 40
0.0
 40
0.0
 40
0.0
 40
0.0
 40
0.5594360638618627
 40
1.0
 40
1.0
 40
1.0
 40
1.0
 10
9647.227126166428
 20
3272.081104558808
 30
0.0
 10
9647.07076810383
 20
3272.088881518021
 30
0.0
 10
9646.791275820977
 20
3272.102782944326
 30
0.0
 10
9646.511699214034
 20
3272.091760596258
 30
0.0
 10
9646.388527843626
 20
3272.086904547208
 30
0.0
  0
ARC
  5
F3
330
1F
100
AcDbEntity
  8
0
  6
SLD-Plná
 62
     7
370
    25
100
AcDbCircle
 10
9646.7591583967
 20
3265.0654220275
 30
0.0
 40
7.031272659625868
100
AcDbArc
 50
79.4575779036
 51
86.1838469611
  0
SPLINE
  5
F4
330
1F
100
AcDbEntity
  8
0
  6
SLD-Plná
 62
     7
370
    25
100
AcDbSpline
210
0.0
220
0.0
230
1.0
 70
     8
 71
     3
 72
     9
 73
     5
 74
     0
 42
0.00000001
 43
0.00000001
 40
0.0
 40
0.0
 40
0.0
 40
0.0
 40
0.5561533043331486
 40
0.9999999999999999
 40
0.9999999999999999
 40
0.9999999999999999
 40
0.9999999999999999
 10
9650.975418669826
 20
3270.706607307808
 30
0.0
 10
9650.46956358404
 20
3271.031291449776
 30
0.0
 10
9649.560003069257
 20
3271.615094763427
 30
0.0
 10
9648.511153115605
 20
3271.866444164073
 30
0.0
 10
9648.045624529426
 20
3271.978004765008
 30
0.0
  0
SPLINE
  5
F5
330
1F
100
AcDbEntity
  8
0
  6
SLD-Plná
 62
     7
370
    25
100
AcDbSpline
210
0.0
220
0.0
230
1.0
 70
     8
 71
     3
 72
     9
 73
     5
 74
     0
 42
0.00000001
 43
0.00000001
 40
0.0
 40
0.0
 40
0.0
 40
0.0
 40
0.5599119077819852
 40
1.0
 40
1.0
 40
1.0
 40
1.0
 10
9652.142516335629
 20
3269.629309462408
 30
0.0
 10
9651.940791055977
 20
3269.848050602008
 30
0.0
 10
9651.580510667496
 20
3270.238721235297
 30
0.0
 10
9651.160333595733
 20
3270.563622243117
 30
0.0
 10
9650.975418669826
 20
3270.706607307808
 30
0.0
  0
SPLINE
  5
F6
330
1F
100
AcDbEntity
  8
0
  6
SLD-Plná
 62
     7
370
    25
100
AcDbSpline
210
0.0
220
0.0
230
1.0
 70
     8
 71
     3
 72
     9
 73
     5
 74
     0
 42
0.00000001
 43
0.00000001
 40
0.0
 40
0.0
 40
0.0
 40
0.0
 40
0.56125766303281
 40
1.0
 40
1.0
 40
1.0
 40
1.0
 10
9653.040714539227
 20
3268.309012103008
 30
0.0
 10
9652.893252641523
 20
3268.570236178175
 30
0.0
 10
9652.630517880973
 20
3269.035662474105
 30
0.0
 10
9652.291331681467
 20
3269.448277695782
 30
0.0
 10
9652.142516335629
 20
3269.629309462408
 30
0.0
  0
SPLINE
  5
F7
330
1F
100
AcDbEntity
  8
0
  6
SLD-Plná
 62
     7
370
    25
100
AcDbSpline
210
0.0
220
0.0
230
1.0
 70
     8
 71
     3
 72
     9
 73
     5
 74
     0
 42
0.00000001
 43
0.00000001
 40
0.0
 40
0.0
 40
0.0
 40
0.0
 40
0.5631087757846754
 40
0.9999999999999999
 40
0.9999999999999999
 40
0.9999999999999999
 40
0.9999999999999999
 10
9653.610613399427
 20
3266.786315148408
 30
0.0
 10
9653.528815770069
 20
3267.081775058367
 30
0.0
 10
9653.383554973438
 20
3267.60646926074
 30
0.0
 10
9653.144956234415
 20
3268.095401777292
 30
0.0
 10
9653.040714539227
 20
3268.309012103008
 30
0.0
  0
SPLINE
  5
F8
330
1F
100
AcDbEntity
  8
0
  6
SLD-Plná
 62
     7
370
    25
100
AcDbSpline
210
0.0
220
0.0
230
1.0
 70
     8
 71
     3
 72
    11
 73
     7
 74
     0
 42
0.00000001
 43
0.00000001
 40
0.0
 40
0.0
 40
0.0
 40
0.0
 40
0.1293636249522611
 40
0.256784185025739
 40
0.4229418775094891
 40
1.0
 40
1.0
 40
1.0
 40
1.0
 10
9653.716613187427
 20
3264.239420242207
 30
0.0
 10
9653.731486321121
 20
3264.348903748754
 30
0.0
 10
9653.761009191367
 20
3264.566226299915
 30
0.0
 10
9653.787128441229
 20
3264.92650099222
 30
0.0
 10
9653.807032684741
 20
3265.67094015474
 30
0.0
 10
9653.696463267996
 20
3266.298813137306
 30
0.0
 10
9653.610613399427
 20
3266.786315148408
 30
0.0
  0
SPLINE
  5
F9
330
1F
100
AcDbEntity
  8
0
  6
SLD-Plná
 62
     7
370
    25
100
AcDbSpline
210
0.0
220
0.0
230
1.0
 70
     8
 71
     3
 72
     9
 73
     5
 74
     0
 42
0.00000001
 43
0.00000001
 40
0.0
 40
0.0
 40
0.0
 40
0.0
 40
0.5616181937677943
 40
1.0
 40
1.0
 40
1.0
 40
1.0
 10
9653.526313568027
 20
3263.353222014608
 30
0.0
 10
9653.569350584694
 20
3263.517561744448
 30
0.0
 10
9653.645980966587
 20
3263.810179988773
 30
0.0
 10
9653.695086301857
 20
3264.108598845001
 30
0.0
 10
9653.716613187427
 20
3264.239420242208
 30
0.0
  0
SPLINE
  5
FA
330
1F
100
AcDbEntity
  8
0
  6
SLD-Plná
 62
     7
370
    25
100
AcDbSpline
210
0.0
220
0.0
230
1.0
 70
     8
 71
     3
 72
     9
 73
     5
 74
     0
 42
0.00000001
 43
0.00000001
 40
0.0
 40
0.0
 40
0.0
 40
0.0
 40
0.5583715041687671
 40
0.9999999999999999
 40
0.9999999999999999
 40
0.9999999999999999
 40
0.9999999999999999
 10
9653.319413981828
 20
3262.717223286608
 30
0.0
 10
9653.361391135999
 20
3262.834478635475
 30
0.0
 10
9653.436568959112
 20
3263.044473859069
 30
0.0
 10
9653.498821203137
 20
3263.258640099839
 30
0.0
 10
9653.526313568027
 20
3263.353222014608
 30
0.0
  0
SPLINE
  5
FB
330
1F
100
AcDbEntity
  8
0
  6
SLD-Plná
 62
     7
370
    25
100
AcDbSpline
210
0.0
220
0.0
230
1.0
 70
     8
 71
     3
 72
     9
 73
     5
 74
     0
 42
0.00000001
 43
0.00000001
 40
0.0
 40
0.0
 40
0.0
 40
0.0
 40
0.5539105184721194
 40
1.0
 40
1.0
 40
1.0
 40
1.0
 10
9653.070014480629
 20
3262.126924467208
 30
0.0
 10
9653.119573555967
 20
3262.234442015211
 30
0.0
 10
9653.209044821968
 20
3262.428548363472
 30
0.0
 10
9653.285367318791
 20
3262.62817288659
 30
0.0
 10
9653.319413981828
 20
3262.717223286608
 30
0.0
  0
LINE
  5
FC
330
1F
100
AcDbEntity
  8
0
  6
SLD-Plná
 62
     7
370
    25
100
AcDbLine
 10
9650.0784204638
 20
3255.0201386808
 30
0.0
 11
9649.8407209392
 21
3258.8412310386
 31
0.0
  0
LINE
  5
FD
330
1F
100
AcDbEntity
  8
0
  6
SLD-Plná
 62
     7
370
    25
100
AcDbLine
 10
9641.3137379932
 20
3246.1397564416
 30
0.0
 11
9650.0784204638
 21
3255.0201386808
 31
0.0
  0
LINE
  5
FE
330
1F
100
AcDbEntity
  8
0
  6
SLD-Plná
 62
     7
370
    25
100
AcDbLine
 10
9637.2012462182
 20
3246.3349560512
 30
0.0
 11
9641.3137379932
 21
3246.1397564416
 31
0.0
  0
SPLINE
  5
FF
330
1F
100
AcDbEntity
  8
0
  6
SLD-Plná
 62
     7
370
    25
100
AcDbSpline
210
0.0
220
0.0
230
1.0
 70
     8
 71
     3
 72
     9
 73
     5
 74
     0
 42
0.00000001
 43
0.00000001
 40
0.0
 40
0.0
 40
0.0
 40
0.0
 40
0.5655653486207829
 40
1.0
 40
1.0
 40
1.0
 40
1.0
 10
9633.797153026426
 20
3242.766163188808
 30
0.0
 10
9633.931940608702
 20
3242.826916851795
 30
0.0
 10
9634.170264230548
 20
3242.934337971451
 30
0.0
 10
9634.396616403486
 20
3243.064998860029
 30
0.0
 10
9634.494951630828
 20
3243.121762477608
 30
0.0
  0
SPLINE
  5
100
330
1F
100
AcDbEntity
  8
0
  6
SLD-Plná
 62
     7
370
    25
100
AcDbSpline
210
0.0
220
0.0
230
1.0
 70
     8
 71
     3
 72
     9
 73
     5
 74
     0
 42
0.00000001
 43
0.00000001
 40
0.0
 40
0.0
 40
0.0
 40
0.0
 40
0.575005608438003
 40
0.9999999999999999
 40
0.9999999999999999
 40
0.9999999999999999
 40
0.9999999999999999
 10
9632.164956290828
 20
3242.300364120408
 30
0.0
 10
9632.485820586975
 20
3242.362474315153
 30
0.0
 10
9633.04384000703
 20
3242.47049099157
 30
0.0
 10
9633.572482803
 20
3242.677981069418
 30
0.0
 10
9633.797153026426
 20
3242.766163188808
 30
0.0
  0
SPLINE
  5
101
330
1F
100
AcDbEntity
  8
0
  6
SLD-Plná
 62
     7
370
    25
100
AcDbSpline
210
0.0
220
0.0
230
1.0
 70
     8
 71
     3
 72
     9
 73
     5
 74
     0
 42
0.00000001
 43
0.00000001
 40
0.0
 40
0.0
 40
0.0
 40
0.0
 40
0.5656188364513585
 40
1.0
 40
1.0
 40
1.0
 40
1.0
 10
9631.706657207427
 20
3242.237264246608
 30
0.0
 10
9631.793299210914
 20
3242.247480234891
 30
0.0
 10
9631.946480112789
 20
3242.265541847456
 30
0.0
 10
9632.098794005073
 20
3242.28981870903
 30
0.0
 10
9632.164956290828
 20
3242.300364120408
 30
0.0
  0
SPLINE
  5
102
330
1F
100
AcDbEntity
  8
0
  6
SLD-Plná
 62
     7
370
    25
100
AcDbSpline
210
0.0
220
0.0
230
1.0
 70
     8
 71
     3
 72
     9
 73
     5
 74
     0
 42
0.00000001
 43
0.00000001
 40
0.0
 40
0.0
 40
0.0
 40
0.0
 40
0.5619376625305603
 40
1.0
 40
1.0
 40
1.0
 40
1.0
 10
9631.227058166627
 20
3242.195764329608
 30
0.0
 10
9631.317030121987
 20
3242.201981191773
 30
0.0
 10
9631.477140328798
 20
3242.213044451242
 30
0.0
 10
9631.636741809658
 20
3242.22988641611
 30
0.0
 10
9631.706657207427
 20
3242.237264246608
 30
0.0
  0
SPLINE
  5
103
330
1F
100
AcDbEntity
  8
0
  6
SLD-Plná
 62
     7
370
    25
100
AcDbSpline
210
0.0
220
0.0
230
1.0
 70
     8
 71
     3
 72
     9
 73
     5
 74
     0
 42
0.00000001
 43
0.00000001
 40
0.0
 40
0.0
 40
0.0
 40
0.0
 40
0.5593174416563841
 40
1.0
 40
1.0
 40
1.0
 40
1.0
 10
9630.369259882227
 20
3242.195864329408
 30
0.0
 10
9630.529212868263
 20
3242.188652256297
 30
0.0
 10
9630.815191767048
 20
3242.175757837898
 30
0.0
 10
9631.10107459196
 20
3242.189644652584
 30
0.0
 10
9631.227058166627
 20
3242.195764329608
 30
0.0
  0
SPLINE
  5
104
330
1F
100
AcDbEntity
  8
0
  6
SLD-Plná
 62
     7
370
    25
100
AcDbSpline
210
0.0
220
0.0
230
1.0
 70
     8
 71
     3
 72
     9
 73
     5
 74
     0
 42
0.00000001
 43
0.00000001
 40
0.0
 40
0.0
 40
0.0
 40
0.0
 40
0.5573471726805276
 40
1.0
 40
1.0
 40
1.0
 40
1.0
 10
9629.533661553427
 20
3242.300464120208
 30
0.0
 10
9629.68805411469
 20
3242.274064372282
 30
0.0
 10
9629.965067381874
 20
3242.226697579697
 30
0.0
 10
9630.245240471822
 20
3242.205324973825
 30
0.0
 10
9630.369259882227
 20
3242.195864329408
 30
0.0
  0
SPLINE
  5
105
330
1F
100
AcDbEntity
  8
0
  6
SLD-Plná
 62
     7
370
    25
100
AcDbSpline
210
0.0
220
0.0
230
1.0
 70
     8
 71
     3
 72
     9
 73
     5
 74
     0
 42
0.00000001
 43
0.00000001
 40
0.0
 40
0.0
 40
0.0
 40
0.0
 40
0.5574897270246548
 40
1.0
 40
1.0
 40
1.0
 40
1.0
 10
9627.961364698027
 20
3242.796263128608
 30
0.0
 10
9628.245815649787
 20
3242.679021861679
 30
0.0
 10
9628.756050974263
 20
3242.468719749829
 30
0.0
 10
9629.295118593907
 20
3242.352078896191
 30
0.0
 10
9629.533661553427
 20
3242.300464120208
 30
0.0
  0
SPLINE
  5
106
330
1F
100
AcDbEntity
  8
0
  6
SLD-Plná
 62
     7
370
    25
100
AcDbSpline
210
0.0
220
0.0
230
1.0
 70
     8
 71
     3
 72
     9
 73
     5
 74
     0
 42
0.00000001
 43
0.00000001
 40
0.0
 40
0.0
 40
0.0
 40
0.0
 40
0.5587243033015722
 40
1.0
 40
1.0
 40
1.0
 40
1.0
 10
9626.566967486828
 20
3243.628961463208
 30
0.0
 10
9626.814011867287
 20
3243.452367959858
 30
0.0
 10
9627.256169795626
 20
3243.136302411417
 30
0.0
 10
9627.74545501983
 20
3242.90037303053
 30
0.0
 10
9627.961364698027
 20
3242.796263128608
 30
0.0
  0
SPLINE
  5
107
330
1F
100
AcDbEntity
  8
0
  6
SLD-Plná
 62
     7
370
    25
100
AcDbSpline
210
0.0
220
0.0
230
1.0
 70
     8
 71
     3
 72
     9
 73
     5
 74
     0
 42
0.00000001
 43
0.00000001
 40
0.0
 40
0.0
 40
0.0
 40
0.0
 40
0.5599706018808389
 40
1.0
 40
1.0
 40
1.0
 40
1.0
 10
9625.400169820427
 20
3244.748659223808
 30
0.0
 10
9625.601092515213
 20
3244.52184238146
 30
0.0
 10
9625.9599018779
 20
3244.116791042004
 30
0.0
 10
9626.381466611036
 20
3243.778027417155
 30
0.0
 10
9626.566967486828
 20
3243.628961463208
 30
0.0
  0
SPLINE
  5
108
330
1F
100
AcDbEntity
  8
0
  6
SLD-Plná
 62
     7
370
    25
100
AcDbSpline
210
0.0
220
0.0
230
1.0
 70
     8
 71
     3
 72
     9
 73
     5
 74
     0
 42
0.00000001
 43
0.00000001
 40
0.0
 40
0.0
 40
0.0
 40
0.0
 40
0.5611899464194299
 40
1.0
 40
1.0
 40
1.0
 40
1.0
 10
9624.511471597827
 20
3246.109756501608
 30
0.0
 10
9624.656689764955
 20
3245.841204955518
 30
0.0
 10
9624.915458062671
 20
3245.362665473829
 30
0.0
 10
9625.252341834472
 20
3244.935919602479
 30
0.0
 10
9625.400169820427
 20
3244.748659223808
 30
0.0
  0
SPLINE
  5
109
330
1F
100
AcDbEntity
  8
0
  6
SLD-Plná
 62
     7
370
    25
100
AcDbSpline
210
0.0
220
0.0
230
1.0
 70
     8
 71
     3
 72
     9
 73
     5
 74
     0
 42
0.00000001
 43
0.00000001
 40
0.0
 40
0.0
 40
0.0
 40
0.0
 40
0.5628141797394522
 40
0.9999999999999999
 40
0.9999999999999999
 40
0.9999999999999999
 40
0.9999999999999999
 10
9623.956572707626
 20
3247.666353388408
 30
0.0
 10
9624.03533886663
 20
3247.365079058481
 30
0.0
 10
9624.175289425511
 20
3246.829779237025
 30
0.0
 10
9624.409206409367
 20
3246.328784358515
 30
0.0
 10
9624.511471597827
 20
3246.109756501608
 30
0.0
  0
SPLINE
  5
10A
330
1F
100
AcDbEntity
  8
0
  6
SLD-Plná
 62
     7
370
    25
100
AcDbSpline
210
0.0
220
0.0
230
1.0
 70
     8
 71
     3
 72
    11
 73
     7
 74
     0
 42
0.00000001
 43
0.00000001
 40
0.0
 40
0.0
 40
0.0
 40
0.0
 40
0.1289602523821756
 40
0.2561257062892739
 40
0.4221404887298623
 40
1.0
 40
1.0
 40
1.0
 40
1.0
 10
9623.879372862028
 20
3250.244948231208
 30
0.0
 10
9623.863129166843
 20
3250.134675459194
 30
0.0
 10
9623.83086784737
 20
3249.91566463148
 30
0.0
 10
9623.80037210554
 20
3249.55208672724
 30
0.0
 10
9623.771949484388
 20
3248.798673796501
 30
0.0
 10
9623.875855784789
 20
3248.16140172201
 30
0.0
 10
9623.956572707626
 20
3247.666353388408
 30
0.0
  0
SPLINE
  5
10B
330
1F
100
AcDbEntity
  8
0
  6
SLD-Plná
 62
     7
370
    25
100
AcDbSpline
210
0.0
220
0.0
230
1.0
 70
     8
 71
     3
 72
     9
 73
     5
 74
     0
 42
0.00000001
 43
0.00000001
 40
0.0
 40
0.0
 40
0.0
 40
0.0
 40
0.5614781531926267
 40
1.0
 40
1.0
 40
1.0
 40
1.0
 10
9624.081372458028
 20
3251.135146450807
 30
0.0
 10
9624.036007219962
 20
3250.970222009618
 30
0.0
 10
9623.955211132337
 20
3250.676489403546
 30
0.0
 10
9623.902491550441
 20
3250.376500096261
 30
0.0
 10
9623.879372862028
 20
3250.244948231208
 30
0.0
  0
SPLINE
  5
10C
330
1F
100
AcDbEntity
  8
0
  6
SLD-Plná
 62
     7
370
    25
100
AcDbSpline
210
0.0
220
0.0
230
1.0
 70
     8
 71
     3
 72
     9
 73
     5
 74
     0
 42
0.00000001
 43
0.00000001
 40
0.0
 40
0.0
 40
0.0
 40
0.0
 40
0.5580676474455144
 40
0.9999999999999999
 40
0.9999999999999999
 40
0.9999999999999999
 40
0.9999999999999999
 10
9624.290972038827
 20
3251.759245202608
 30
0.0
 10
9624.248817477044
 20
3251.644203757804
 30
0.0
 10
9624.173280824854
 20
3251.43806128506
 30
0.0
 10
9624.109541103178
 20
3251.227985664164
 30
0.0
 10
9624.081372458028
 20
3251.135146450808
 30
0.0
  0
SPLINE
  5
10D
330
1F
100
AcDbEntity
  8
0
  6
SLD-Plná
 62
     7
370
    25
100
AcDbSpline
210
0.0
220
0.0
230
1.0
 70
     8
 71
     3
 72
     9
 73
     5
 74
     0
 42
0.00000001
 43
0.00000001
 40
0.0
 40
0.0
 40
0.0
 40
0.0
 40
0.5529278975535828
 40
1.0
 40
1.0
 40
1.0
 40
1.0
 10
9624.537471545826
 20
3252.335244050608
 30
0.0
 10
9624.488752603113
 20
3252.230479903323
 30
0.0
 10
9624.400641760934
 20
3252.041008278273
 30
0.0
 10
9624.324854437054
 20
3251.846295744469
 30
0.0
 10
9624.290972038827
 20
3251.759245202608
 30
0.0
  0
SPLINE
  5
10E
330
1F
100
AcDbEntity
  8
0
  6
SLD-Plná
 62
     7
370
    25
100
AcDbSpline
210
0.0
220
0.0
230
1.0
 70
     8
 71
     3
 72
     9
 73
     5
 74
     0
 42
0.00000001
 43
0.00000001
 40
0.0
 40
0.0
 40
0.0
 40
0.0
 40
0.5512523909946624
 40
1.0
 40
1.0
 40
1.0
 40
1.0
 10
9625.138070344628
 20
3253.348042025008
 30
0.0
 10
9625.015621916249
 20
3253.169033158428
 30
0.0
 10
9624.79349421145
 20
3252.844301929133
 30
0.0
 10
9624.616774219623
 20
3252.492924038767
 30
0.0
 10
9624.537471545826
 20
3252.335244050608
 30
0.0
  0
SPLINE
  5
10F
330
1F
100
AcDbEntity
  8
0
  6
SLD-Plná
 62
     7
370
    25
100
AcDbSpline
210
0.0
220
0.0
230
1.0
 70
     8
 71
     3
 72
     9
 73
     5
 74
     0
 42
0.00000001
 43
0.00000001
 40
0.0
 40
0.0
 40
0.0
 40
0.0
 40
0.5532432114692091
 40
0.9999999999999999
 40
0.9999999999999999
 40
0.9999999999999999
 40
0.9999999999999999
 10
9625.864468891827
 20
3254.181340358408
 30
0.0
 10
9625.720533318283
 20
3254.036282214078
 30
0.0
 10
9625.460366414181
 20
3253.774086237114
 30
0.0
 10
9625.237594990464
 20
3253.479603974799
 30
0.0
 10
9625.138070344628
 20
3253.348042025008
 30
0.0
  0
SPLINE
  5
110
330
1F
100
AcDbEntity
  8
0
  6
SLD-Plná
 62
     7
370
    25
100
AcDbSpline
210
0.0
220
0.0
230
1.0
 70
     8
 71
     3
 72
     9
 73
     5
 74
     0
 42
0.00000001
 43
0.00000001
 40
0.0
 40
0.0
 40
0.0
 40
0.0
 40
0.5555702195576001
 40
1.0
 40
1.0
 40
1.0
 40
1.0
 10
9626.682167256427
 20
3254.852139016808
 30
0.0
 10
9626.523879360257
 20
3254.736202264193
 30
0.0
 10
9626.238968667423
 20
3254.527521617655
 30
0.0
 10
9625.979696959885
 20
3254.287855235852
 30
0.0
 10
9625.864468891827
 20
3254.181340358408
 30
0.0
  0
SPLINE
  5
111
330
1F
100
AcDbEntity
  8
0
  6
SLD-Plná
 62
     7
370
    25
100
AcDbSpline
210
0.0
220
0.0
230
1.0
 70
     8
 71
     3
 72
     9
 73
     5
 74
     0
 42
0.00000001
 43
0.00000001
 40
0.0
 40
0.0
 40
0.0
 40
0.0
 40
0.5578000589899361
 40
0.9999999999999999
 40
0.9999999999999999
 40
0.9999999999999999
 40
0.9999999999999999
 10
9627.909064802629
 20
3255.581037559008
 30
0.0
 10
9627.673799758893
 20
3255.457421634865
 30
0.0
 10
9627.252026688162
 20
3255.235808312759
 30
0.0
 10
9626.85689462947
 20
3254.969777726402
 30
0.0
 10
9626.682167256427
 20
3254.852139016808
 30
0.0
  0
LINE
  5
112
330
1F
100
AcDbEntity
  8
0
  6
SLD-Plná
 62
     7
370
    25
100
AcDbLine
 10
9627.689865241
 20
3259.6939293332
 30
0.0
 11
9627.9090648026
 21
3255.581037559
 31
0.0
  0
LINE
  5
113
330
1F
100
AcDbEntity
  8
0
  6
SLD-Plná
 62
     7
370
    25
100
AcDbLine
 10
9636.6421473364
 20
3268.441511838
 30
0.0
 11
9627.689865241
 21
3259.6939293332
 31
0.0
  0
LINE
  5
114
330
1F
100
AcDbEntity
  8
0
  6
SLD-Plná
 62
     7
370
    25
100
AcDbLine
 10
9640.4649396908
 20
3268.2261122688
 30
0.0
 11
9636.6421473364
 21
3268.441511838
 31
0.0
  0
SPLINE
  5
115
330
1F
100
AcDbEntity
  8
0
  6
SLD-Plná
 62
     7
370
    25
100
AcDbSpline
210
0.0
220
0.0
230
1.0
 70
     8
 71
     3
 72
     9
 73
     5
 74
     0
 42
0.00000001
 43
0.00000001
 40
0.0
 40
0.0
 40
0.0
 40
0.0
 40
0.5629483947859659
 40
1.0
 40
1.0
 40
1.0
 40
1.0
 10
9640.723339174026
 20
3268.663811393408
 30
0.0
 10
9640.673489011173
 20
3268.582478579455
 30
0.0
 10
9640.584937088268
 20
3268.438002079111
 30
0.0
 10
9640.501434591208
 20
3268.290554479084
 30
0.0
 10
9640.464939690828
 20
3268.226112268808
 30
0.0
  0
SPLINE
  5
116
330
1F
100
AcDbEntity
  8
0
  6
SLD-Plná
 62
     7
370
    25
100
AcDbSpline
210
0.0
220
0.0
230
1.0
 70
     8
 71
     3
 72
     9
 73
     5
 74
     0
 42
0.00000001
 43
0.00000001
 40
0.0
 40
0.0
 40
0.0
 40
0.0
 40
0.5675408956727466
 40
1.0
 40
1.0
 40
1.0
 40
1.0
 10
9641.637737345227
 20
3269.886908947208
 30
0.0
 10
9641.449916719272
 20
3269.666474822715
 30
0.0
 10
9641.118979112152
 20
3269.27807263677
 30
0.0
 10
9640.84278278869
 20
3268.849256734447
 30
0.0
 10
9640.723339174026
 20
3268.663811393408
 30
0.0
  0
SPLINE
  5
117
330
1F
100
AcDbEntity
  8
0
  6
SLD-Plná
 62
     7
370
    25
100
AcDbSpline
210
0.0
220
0.0
230
1.0
 70
     8
 71
     3
 72
     9
 73
     5
 74
     0
 42
0.00000001
 43
0.00000001
 40
0.0
 40
0.0
 40
0.0
 40
0.0
 40
0.5598014448102797
 40
1.0
 40
1.0
 40
1.0
 40
1.0
 10
9631.458157704428
 20
3254.841539038008
 30
0.0
 10
9631.160207615823
 20
3254.708773167077
 30
0.0
 10
9630.627965172782
 20
3254.471607164449
 30
0.0
 10
9630.093313707412
 20
3254.239926110445
 30
0.0
 10
9629.857960904827
 20
3254.137940445208
 30
0.0
  0
SPLINE
  5
118
330
1F
100
AcDbEntity
  8
0
  6
SLD-Plná
 62
     7
370
    25
100
AcDbSpline
210
0.0
220
0.0
230
1.0
 70
     8
 71
     3
 72
    10
 73
     6
 74
     0
 42
0.00000001
 43
0.00000001
 40
0.0
 40
0.0
 40
0.0
 40
0.0
 40
0.181583459330579
 40
0.4057841903858133
 40
1.0
 40
1.0
 40
1.0
 40
1.0
 10
9633.327253966227
 20
3245.534157652808
 30
0.0
 10
9633.404400170615
 20
3245.59302024042
 30
0.0
 10
9633.576798637989
 20
3245.724560346255
 30
0.0
 10
9633.96336351992
 20
3246.096189589589
 30
0.0
 10
9634.210915424172
 20
3246.458672544009
 30
0.0
 10
9634.390651839427
 20
3246.721855277408
 30
0.0
  0
SPLINE
  5
119
330
1F
100
AcDbEntity
  8
0
  6
SLD-Plná
 62
     7
370
    25
100
AcDbSpline
210
0.0
220
0.0
230
1.0
 70
     8
 71
     3
 72
     9
 73
     5
 74
     0
 42
0.00000001
 43
0.00000001
 40
0.0
 40
0.0
 40
0.0
 40
0.0
 40
0.5503359068085978
 40
1.0
 40
1.0
 40
1.0
 40
1.0
 10
9634.390651839427
 20
3246.721855277408
 30
0.0
 10
9634.594178323074
 20
3247.099167192635
 30
0.0
 10
9634.964000610022
 20
3247.784770131783
 30
0.0
 10
9635.265966568384
 20
3248.502716408519
 30
0.0
 10
9635.401749817227
 20
3248.825551070008
 30
0.0
  0
ARC
  5
11A
330
1F
100
AcDbEntity
  8
0
  6
SLD-Plná
 62
     7
370
    25
100
AcDbCircle
 10
9654.7349239111
 20
3241.67994843
 30
0.0
 40
20.56908731996618
100
AcDbArc
 50
146.0161051665
 51
152.9104655173
  0
SPLINE
  5
11B
330
1F
100
AcDbEntity
  8
0
  6
SLD-Plná
 62
     7
370
    25
100
AcDbSpline
210
0.0
220
0.0
230
1.0
 70
     8
 71
     3
 72
     9
 73
     5
 74
     0
 42
0.00000001
 43
0.00000001
 40
0.0
 40
0.0
 40
0.0
 40
0.0
 40
0.5597000725093711
 40
1.0
 40
1.0
 40
1.0
 40
1.0
 10
9637.679145262427
 20
3253.177242366608
 30
0.0
 10
9637.944361656964
 20
3253.556754320532
 30
0.0
 10
9638.418216150765
 20
3254.234817398534
 30
0.0
 10
9638.957288649375
 20
3254.862062480499
 30
0.0
 10
9639.194642231427
 20
3255.138238444608
 30
0.0
  0
SPLINE
  5
11C
330
1F
100
AcDbEntity
  8
0
  6
SLD-Plná
 62
     7
370
    25
100
AcDbSpline
210
0.0
220
0.0
230
1.0
 70
     8
 71
     3
 72
     9
 73
     5
 74
     0
 42
0.00000001
 43
0.00000001
 40
0.0
 40
0.0
 40
0.0
 40
0.0
 40
0.5596621228297655
 40
0.9999999999999999
 40
0.9999999999999999
 40
0.9999999999999999
 40
0.9999999999999999
 10
9639.194642231427
 20
3255.138238444608
 30
0.0
 10
9639.510241728442
 20
3255.479524457076
 30
0.0
 10
9640.074152495565
 20
3256.089331693523
 30
0.0
 10
9640.70142626527
 20
3256.633442414977
 30
0.0
 10
9640.977638665428
 20
3256.873034975008
 30
0.0
  0
SPLINE
  5
11D
330
1F
100
AcDbEntity
  8
0
  6
SLD-Plná
 62
     7
370
    25
100
AcDbSpline
210
0.0
220
0.0
230
1.0
 70
     8
 71
     3
 72
     9
 73
     5
 74
     0
 42
0.00000001
 43
0.00000001
 40
0.0
 40
0.0
 40
0.0
 40
0.0
 40
0.5614029726785154
 40
1.0
 40
1.0
 40
1.0
 40
1.0
 10
9642.991234638228
 20
3258.328832063408
 30
0.0
 10
9643.387312598701
 20
3258.564887634073
 30
0.0
 10
9644.092827139502
 20
3258.985362020837
 30
0.0
 10
9644.828059563897
 20
3259.351182098994
 30
0.0
 10
9645.150530319628
 20
3259.511629697808
 30
0.0
  0
SPLINE
  5
11E
330
1F
100
AcDbEntity
  8
0
  6
SLD-Plná
 62
     7
370
    25
100
AcDbSpline
210
0.0
220
0.0
230
1.0
 70
     8
 71
     3
 72
     9
 73
     5
 74
     0
 42
0.00000001
 43
0.00000001
 40
0.0
 40
0.0
 40
0.0
 40
0.0
 40
0.5640693023190714
 40
1.0
 40
1.0
 40
1.0
 40
1.0
 10
9645.150530319628
 20
3259.511629697808
 30
0.0
 10
9645.560985545073
 20
3259.705977948586
 30
0.0
 10
9646.288653623726
 20
3260.050524709028
 30
0.0
 10
9647.017778175066
 20
3260.391977768825
 30
0.0
 10
9647.335625949427
 20
3260.540827639408
 30
0.0
  0
SPLINE
  5
11F
330
1F
100
AcDbEntity
  8
0
  6
SLD-Plná
 62
     7
370
    25
100
AcDbSpline
210
0.0
220
0.0
230
1.0
 70
     8
 71
     3
 72
     9
 73
     5
 74
     0
 42
0.00000001
 43
0.00000001
 40
0.0
 40
0.0
 40
0.0
 40
0.0
 40
0.56753959336069
 40
1.0
 40
1.0
 40
1.0
 40
1.0
 10
9647.335625949427
 20
3260.540827639408
 30
0.0
 10
9647.729449257518
 20
3260.730319124281
 30
0.0
 10
9648.423362620915
 20
3261.06420153018
 30
0.0
 10
9649.059512371574
 20
3261.497458755546
 30
0.0
 10
9649.334621951426
 20
3261.684825351408
 30
0.0
  0
SPLINE
  5
120
330
1F
100
AcDbEntity
  8
0
  6
SLD-Plná
 62
     7
370
    25
100
AcDbSpline
210
0.0
220
0.0
230
1.0
 70
     8
 71
     3
 72
     9
 73
     5
 74
     0
 42
0.00000001
 43
0.00000001
 40
0.0
 40
0.0
 40
0.0
 40
0.0
 40
0.5620040887861361
 40
1.0
 40
1.0
 40
1.0
 40
1.0
 10
9649.334621951426
 20
3261.684825351408
 30
0.0
 10
9649.646410250964
 20
3261.946127291165
 30
0.0
 10
9650.20118966584
 20
3262.411073979225
 30
0.0
 10
9650.543005359163
 20
3263.04671423693
 30
0.0
 10
9650.692719235227
 20
3263.325122070808
 30
0.0
  0
SPLINE
  5
121
330
1F
100
AcDbEntity
  8
0
  6
SLD-Plná
 62
     7
370
    25
100
AcDbSpline
210
0.0
220
0.0
230
1.0
 70
     8
 71
     3
 72
     9
 73
     5
 74
     0
 42
0.00000001
 43
0.00000001
 40
0.0
 40
0.0
 40
0.0
 40
0.0
 40
0.5625144076918397
 40
1.0
 40
1.0
 40
1.0
 40
1.0
 10
9650.692719235227
 20
3263.325122070808
 30
0.0
 10
9650.839765404111
 20
3263.70669847529
 30
0.0
 10
9651.101174119822
 20
3264.385039152905
 30
0.0
 10
9651.116926801675
 20
3265.110040307198
 30
0.0
 10
9651.123818373027
 20
3265.427217866608
 30
0.0
  0
SPLINE
  5
122
330
1F
100
AcDbEntity
  8
0
  6
SLD-Plná
 62
     7
370
    25
100
AcDbSpline
210
0.0
220
0.0
230
1.0
 70
     8
 71
     3
 72
     9
 73
     5
 74
     0
 42
0.00000001
 43
0.00000001
 40
0.0
 40
0.0
 40
0.0
 40
0.0
 40
0.5599204584392915
 40
1.0
 40
1.0
 40
1.0
 40
1.0
 10
9651.123818373027
 20
3265.427217866608
 30
0.0
 10
9651.10735982505
 20
3265.625999941878
 30
0.0
 10
9651.077965385663
 20
3265.981018359717
 30
0.0
 10
9650.977174681784
 20
3266.322386598
 30
0.0
 10
9650.932818755027
 20
3266.472615775808
 30
0.0
  0
SPLINE
  5
123
330
1F
100
AcDbEntity
  8
0
  6
SLD-Plná
 62
     7
370
    25
100
AcDbSpline
210
0.0
220
0.0
230
1.0
 70
     8
 71
     3
 72
     9
 73
     5
 74
     0
 42
0.00000001
 43
0.00000001
 40
0.0
 40
0.0
 40
0.0
 40
0.0
 40
0.5590785456370548
 40
1.0
 40
1.0
 40
1.0
 40
1.0
 10
9650.932818755027
 20
3266.472615775808
 30
0.0
 10
9650.863401285274
 20
3266.660232549023
 30
0.0
 10
9650.73923721156
 20
3266.995814686238
 30
0.0
 10
9650.552330749782
 20
3267.300619062243
 30
0.0
 10
9650.469919680827
 20
3267.435013851008
 30
0.0
  0
SPLINE
  5
124
330
1F
100
AcDbEntity
  8
0
  6
SLD-Plná
 62
     7
370
    25
100
AcDbSpline
210
0.0
220
0.0
230
1.0
 70
     8
 71
     3
 72
     9
 73
     5
 74
     0
 42
0.00000001
 43
0.00000001
 40
0.0
 40
0.0
 40
0.0
 40
0.0
 40
0.5585982500654976
 40
1.0
 40
1.0
 40
1.0
 40
1.0
 10
9650.469919680827
 20
3267.435013851008
 30
0.0
 10
9650.223787668001
 20
3267.75706301538
 30
0.0
 10
9649.783163278655
 20
3268.333593937799
 30
0.0
 10
9649.16734576
 20
3268.713860591307
 30
0.0
 10
9648.895522829627
 20
3268.881710957608
 30
0.0
  0
SPLINE
  5
125
330
1F
100
AcDbEntity
  8
0
  6
SLD-Plná
 62
     7
370
    25
100
AcDbSpline
210
0.0
220
0.0
230
1.0
 70
     8
 71
     3
 72
     9
 73
     5
 74
     0
 42
0.00000001
 43
0.00000001
 40
0.0
 40
0.0
 40
0.0
 40
0.0
 40
0.5594898224770155
 40
1.0
 40
1.0
 40
1.0
 40
1.0
 10
9648.895522829627
 20
3268.881710957608
 30
0.0
 10
9648.524940055333
 20
3269.051373858843
 30
0.0
 10
9647.862581672023
 20
3269.354619591687
 30
0.0
 10
9647.138008735794
 20
3269.410148710029
 30
0.0
 10
9646.818826983028
 20
3269.434609851808
 30
0.0
  0
SPLINE
  5
126
330
1F
100
AcDbEntity
  8
0
  6
SLD-Plná
 62
     7
370
    25
100
AcDbSpline
210
0.0
220
0.0
230
1.0
 70
     8
 71
     3
 72
     9
 73
     5
 74
     0
 42
0.00000001
 43
0.00000001
 40
0.0
 40
0.0
 40
0.0
 40
0.0
 40
0.5622173298179662
 40
1.0
 40
1.0
 40
1.0
 40
1.0
 10
9646.818826983028
 20
3269.434609851808
 30
0.0
 10
9646.411906371233
 20
3269.417211360045
 30
0.0
 10
9645.688128233822
 20
3269.386265156789
 30
0.0
 10
9645.02648645268
 20
3269.096266965109
 30
0.0
 10
9644.736831147027
 20
3268.969310782408
 30
0.0
  0
SPLINE
  5
127
330
1F
100
AcDbEntity
  8
0
  6
SLD-Plná
 62
     7
370
    25
100
AcDbSpline
210
0.0
220
0.0
230
1.0
 70
     8
 71
     3
 72
     9
 73
     5
 74
     0
 42
0.00000001
 43
0.00000001
 40
0.0
 40
0.0
 40
0.0
 40
0.0
 40
0.5591178746830409
 40
1.0
 40
1.0
 40
1.0
 40
1.0
 10
9644.736831147027
 20
3268.969310782408
 30
0.0
 10
9644.563304597266
 20
3268.871284092424
 30
0.0
 10
9644.252946875546
 20
3268.695960257465
 30
0.0
 10
9643.984976316584
 20
3268.461348247004
 30
0.0
 10
9643.866832887028
 20
3268.357912005208
 30
0.0
  0
SPLINE
  5
128
330
1F
100
AcDbEntity
  8
0
  6
SLD-Plná
 62
     7
370
    25
100
AcDbSpline
210
0.0
220
0.0
230
1.0
 70
     8
 71
     3
 72
     9
 73
     5
 74
     0
 42
0.00000001
 43
0.00000001
 40
0.0
 40
0.0
 40
0.0
 40
0.0
 40
0.550033003829791
 40
1.0
 40
1.0
 40
1.0
 40
1.0
 10
9643.866832887028
 20
3268.357912005208
 30
0.0
 10
9643.591881955914
 20
3268.0543607667
 30
0.0
 10
9643.092001168396
 20
3267.502482540494
 30
0.0
 10
9642.746706598457
 20
3266.843662776727
 30
0.0
 10
9642.591335438026
 20
3266.547215626608
 30
0.0
  0
SPLINE
  5
129
330
1F
100
AcDbEntity
  8
0
  6
SLD-Plná
 62
     7
370
    25
100
AcDbSpline
210
0.0
220
0.0
230
1.0
 70
     8
 71
     3
 72
     9
 73
     5
 74
     0
 42
0.00000001
 43
0.00000001
 40
0.0
 40
0.0
 40
0.0
 40
0.0
 40
0.5571019396861226
 40
1.0
 40
1.0
 40
1.0
 40
1.0
 10
9642.591335438026
 20
3266.547215626608
 30
0.0
 10
9642.496436609033
 20
3266.352516235873
 30
0.0
 10
9642.32609286719
 20
3266.00303012415
 30
0.0
 10
9642.17559265492
 20
3265.644576267313
 30
0.0
 10
9642.108936402828
 20
3265.485817749408
 30
0.0
  0
SPLINE
  5
12A
330
1F
100
AcDbEntity
  8
0
  6
SLD-Plná
 62
     7
370
    25
100
AcDbSpline
210
0.0
220
0.0
230
1.0
 70
     8
 71
     3
 72
     9
 73
     5
 74
     0
 42
0.00000001
 43
0.00000001
 40
0.0
 40
0.0
 40
0.0
 40
0.0
 40
0.5544204575571606
 40
1.0
 40
1.0
 40
1.0
 40
1.0
 10
9642.108936402828
 20
3265.485817749408
 30
0.0
 10
9642.02581038175
 20
3265.279917974802
 30
0.0
 10
9641.875877203885
 20
3264.908539588957
 30
0.0
 10
9641.726566912115
 20
3264.536910360142
 30
0.0
 10
9641.660037300628
 20
3264.371319978408
 30
0.0
  0
SPLINE
  5
12B
330
1F
100
AcDbEntity
  8
0
  6
SLD-Plná
 62
     7
370
    25
100
AcDbSpline
210
0.0
220
0.0
230
1.0
 70
     8
 71
     3
 72
     9
 73
     5
 74
     0
 42
0.00000001
 43
0.00000001
 40
0.0
 40
0.0
 40
0.0
 40
0.0
 40
0.5573956237928381
 40
1.0
 40
1.0
 40
1.0
 40
1.0
 10
9635.401749817227
 20
3248.825551070008
 30
0.0
 10
9635.581246616825
 20
3249.242923965448
 30
0.0
 10
9635.903274260989
 20
3249.991715089066
 30
0.0
 10
9636.263091216766
 20
3250.723053185596
 30
0.0
 10
9636.422347776028
 20
3251.046746627608
 30
0.0
  0
SPLINE
  5
12C
330
1F
100
AcDbEntity
  8
0
  6
SLD-Plná
 62
     7
370
    25
100
AcDbSpline
210
0.0
220
0.0
230
1.0
 70
     8
 71
     3
 72
     9
 73
     5
 74
     0
 42
0.00000001
 43
0.00000001
 40
0.0
 40
0.0
 40
0.0
 40
0.0
 40
0.5603970256320793
 40
0.9999999999999999
 40
0.9999999999999999
 40
0.9999999999999999
 40
0.9999999999999999
 10
9641.412537795628
 20
3263.797021127008
 30
0.0
 10
9641.36175782819
 20
3263.689778973124
 30
0.0
 10
9641.271143558102
 20
3263.498410802024
 30
0.0
 10
9641.172084861355
 20
3263.311283834511
 30
0.0
 10
9641.128538363628
 20
3263.229022263008
 30
0.0
  0
SPLINE
  5
12D
330
1F
100
AcDbEntity
  8
0
  6
SLD-Plná
 62
     7
370
    25
100
AcDbSpline
210
0.0
220
0.0
230
1.0
 70
     8
 71
     3
 72
     9
 73
     5
 74
     0
 42
0.00000001
 43
0.00000001
 40
0.0
 40
0.0
 40
0.0
 40
0.0
 40
0.5633407381410173
 40
1.0
 40
1.0
 40
1.0
 40
1.0
 10
9641.128538363628
 20
3263.229022263008
 30
0.0
 10
9641.014705674384
 20
3263.025423357704
 30
0.0
 10
9640.812638467922
 20
3262.664009933254
 30
0.0
 10
9640.59226691031
 20
3262.313484553705
 30
0.0
 10
9640.496039628628
 20
3262.160424400208
 30
0.0
  0
SPLINE
  5
12E
330
1F
100
AcDbEntity
  8
0
  6
SLD-Plná
 62
     7
370
    25
100
AcDbSpline
210
0.0
220
0.0
230
1.0
 70
     8
 71
     3
 72
     9
 73
     5
 74
     0
 42
0.00000001
 43
0.00000001
 40
0.0
 40
0.0
 40
0.0
 40
0.0
 40
0.5587862176928522
 40
1.0
 40
1.0
 40
1.0
 40
1.0
 10
9640.496039628628
 20
3262.160424400208
 30
0.0
 10
9640.248664125194
 20
3261.774381163523
 30
0.0
 10
9639.805962613236
 20
3261.083520822911
 30
0.0
 10
9639.312267513907
 20
3260.428245115936
 30
0.0
 10
9639.094442431828
 20
3260.139128442808
 30
0.0
  0
SPLINE
  5
12F
330
1F
100
AcDbEntity
  8
0
  6
SLD-Plná
 62
     7
370
    25
100
AcDbSpline
210
0.0
220
0.0
230
1.0
 70
     8
 71
     3
 72
     9
 73
     5
 74
     0
 42
0.00000001
 43
0.00000001
 40
0.0
 40
0.0
 40
0.0
 40
0.0
 40
0.559806497022998
 40
0.9999999999999999
 40
0.9999999999999999
 40
0.9999999999999999
 40
0.9999999999999999
 10
9639.094442431828
 20
3260.139128442808
 30
0.0
 10
9638.952031205805
 20
3259.957739463046
 30
0.0
 10
9638.6976375416
 20
3259.633718608114
 30
0.0
 10
9638.429344744434
 20
3259.321129880852
 30
0.0
 10
9638.311243998227
 20
3259.183530354008
 30
0.0
  0
SPLINE
  5
130
330
1F
100
AcDbEntity
  8
0
  6
SLD-Plná
 62
     7
370
    25
100
AcDbSpline
210
0.0
220
0.0
230
1.0
 70
     8
 71
     3
 72
     9
 73
     5
 74
     0
 42
0.00000001
 43
0.00000001
 40
0.0
 40
0.0
 40
0.0
 40
0.0
 40
0.5594296585344419
 40
1.0
 40
1.0
 40
1.0
 40
1.0
 10
9638.311243998227
 20
3259.183530354008
 30
0.0
 10
9637.677846236824
 20
3258.504104809527
 30
0.0
 10
9636.545625676581
 20
3257.289607983847
 30
0.0
 10
9635.185973757218
 20
3256.339101740572
 30
0.0
 10
9634.586951446827
 20
3255.920336880408
 30
0.0
  0
SPLINE
  5
131
330
1F
100
AcDbEntity
  8
0
  6
SLD-Plná
 62
     7
370
    25
100
AcDbSpline
210
0.0
220
0.0
230
1.0
 70
     8
 71
     3
 72
     9
 73
     5
 74
     0
 42
0.00000001
 43
0.00000001
 40
0.0
 40
0.0
 40
0.0
 40
0.0
 40
0.5633399282521077
 40
1.0
 40
1.0
 40
1.0
 40
1.0
 10
9632.429155762427
 20
3254.709039303008
 30
0.0
 10
9632.015749544198
 20
3254.515082223336
 30
0.0
 10
9631.28190094321
 20
3254.170783745731
 30
0.0
 10
9630.537159185975
 20
3253.85077593333
 30
0.0
 10
9630.211960196828
 20
3253.711041299008
 30
0.0
  0
SPLINE
  5
132
330
1F
100
AcDbEntity
  8
0
  6
SLD-Plná
 62
     7
370
    25
100
AcDbSpline
210
0.0
220
0.0
230
1.0
 70
     8
 71
     3
 72
     9
 73
     5
 74
     0
 42
0.00000001
 43
0.00000001
 40
0.0
 40
0.0
 40
0.0
 40
0.0
 40
0.5658773056966119
 40
1.0
 40
1.0
 40
1.0
 40
1.0
 10
9630.211960196828
 20
3253.711041299008
 30
0.0
 10
9630.008362183473
 20
3253.623323691431
 30
0.0
 10
9629.648570385314
 20
3253.468311983602
 30
0.0
 10
9629.29650284333
 20
3253.296520750277
 30
0.0
 10
9629.143662333428
 20
3253.221942277208
 30
0.0
  0
SPLINE
  5
133
330
1F
100
AcDbEntity
  8
0
  6
SLD-Plná
 62
     7
370
    25
100
AcDbSpline
210
0.0
220
0.0
230
1.0
 70
     8
 71
     3
 72
    11
 73
     7
 74
     0
 42
0.00000001
 43
0.00000001
 40
0.0
 40
0.0
 40
0.0
 40
0.0
 40
0.2854623066742918
 40
0.5610253060406727
 40
0.7790658828637508
 40
1.0
 40
1.0
 40
1.0
 40
1.0
 10
9629.143662333428
 20
3253.221942277208
 30
0.0
 10
9628.692750069447
 20
3252.962886529668
 30
0.0
 10
9627.80656234875
 20
3252.453758611035
 30
0.0
 10
9626.918277368122
 20
3251.310667273504
 30
0.0
 10
9626.487620295686
 20
3250.069020107978
 30
0.0
 10
9626.480667153595
 20
3249.270861069704
 30
0.0
 10
9626.477167666428
 20
3248.869150982808
 30
0.0
  0
SPLINE
  5
134
330
1F
100
AcDbEntity
  8
0
  6
SLD-Plná
 62
     7
370
    25
100
AcDbSpline
210
0.0
220
0.0
230
1.0
 70
     8
 71
     3
 72
     9
 73
     5
 74
     0
 42
0.00000001
 43
0.00000001
 40
0.0
 40
0.0
 40
0.0
 40
0.0
 40
0.5615688367331443
 40
1.0
 40
1.0
 40
1.0
 40
1.0
 10
9626.477167666428
 20
3248.869150982808
 30
0.0
 10
9626.497472664534
 20
3248.668029080193
 30
0.0
 10
9626.533630294332
 20
3248.309886160823
 30
0.0
 10
9626.637310584849
 20
3247.965460176969
 30
0.0
 10
9626.682767255226
 20
3247.814453092208
 30
0.0
  0
SPLINE
  5
135
330
1F
100
AcDbEntity
  8
0
  6
SLD-Plná
 62
     7
370
    25
100
AcDbSpline
210
0.0
220
0.0
230
1.0
 70
     8
 71
     3
 72
     9
 73
     5
 74
     0
 42
0.00000001
 43
0.00000001
 40
0.0
 40
0.0
 40
0.0
 40
0.0
 40
0.5591011444730597
 40
1.0
 40
1.0
 40
1.0
 40
1.0
 10
9626.682767255226
 20
3247.814453092208
 30
0.0
 10
9626.75375597276
 20
3247.626852224683
 30
0.0
 10
9626.880725338206
 20
3247.291312100362
 30
0.0
 10
9627.069594234712
 20
3246.986601549673
 30
0.0
 10
9627.152866315027
 20
3246.852255016608
 30
0.0
  0
SPLINE
  5
136
330
1F
100
AcDbEntity
  8
0
  6
SLD-Plná
 62
     7
370
    25
100
AcDbSpline
210
0.0
220
0.0
230
1.0
 70
     8
 71
     3
 72
     9
 73
     5
 74
     0
 42
0.00000001
 43
0.00000001
 40
0.0
 40
0.0
 40
0.0
 40
0.0
 40
0.5598783090935026
 40
1.0
 40
1.0
 40
1.0
 40
1.0
 10
9628.721263178228
 20
3245.391457938208
 30
0.0
 10
9628.899477729372
 20
3245.29929245419
 30
0.0
 10
9629.217787169568
 20
3245.134675460603
 30
0.0
 10
9629.56121233258
 20
3245.033214092777
 30
0.0
 10
9629.712361196027
 20
3244.988558744008
 30
0.0
  0
SPLINE
  5
137
330
1F
100
AcDbEntity
  8
0
  6
SLD-Plná
 62
     7
370
    25
100
AcDbSpline
210
0.0
220
0.0
230
1.0
 70
     8
 71
     3
 72
     9
 73
     5
 74
     0
 42
0.00000001
 43
0.00000001
 40
0.0
 40
0.0
 40
0.0
 40
0.0
 40
0.5585669256867263
 40
1.0
 40
1.0
 40
1.0
 40
1.0
 10
9629.712361196027
 20
3244.988558744008
 30
0.0
 10
9629.909351060673
 20
3244.944304540123
 30
0.0
 10
9630.262021180559
 20
3244.865076426446
 30
0.0
 10
9630.622938301818
 20
3244.849940522999
 30
0.0
 10
9630.782259056226
 20
3244.843259034608
 30
0.0
  0
SPLINE
  5
138
330
1F
100
AcDbEntity
  8
0
  6
SLD-Plná
 62
     7
370
    25
100
AcDbSpline
210
0.0
220
0.0
230
1.0
 70
     8
 71
     3
 72
     9
 73
     5
 74
     0
 42
0.00000001
 43
0.00000001
 40
0.0
 40
0.0
 40
0.0
 40
0.0
 40
0.5584961850282685
 40
1.0
 40
1.0
 40
1.0
 40
1.0
 10
9630.782259056226
 20
3244.843259034608
 30
0.0
 10
9630.985765315263
 20
3244.846159336219
 30
0.0
 10
9631.350147856254
 20
3244.851352391584
 30
0.0
 10
9631.708668607434
 20
3244.915595330563
 30
0.0
 10
9631.866956886828
 20
3244.943958833207
 30
0.0
  0
SPLINE
  5
139
330
1F
100
AcDbEntity
  8
0
  6
SLD-Plná
 62
     7
370
    25
100
AcDbSpline
210
0.0
220
0.0
230
1.0
 70
     8
 71
     3
 72
     9
 73
     5
 74
     0
 42
0.00000001
 43
0.00000001
 40
0.0
 40
0.0
 40
0.0
 40
0.0
 40
0.5688982920433048
 40
1.0
 40
1.0
 40
1.0
 40
1.0
 10
9631.866956886828
 20
3244.943958833207
 30
0.0
 10
9632.066432149291
 20
3244.98968159098
 30
0.0
 10
9632.41706646346
 20
3245.07005229768
 30
0.0
 10
9632.747013927112
 20
3245.212673799697
 30
0.0
 10
9632.889254842228
 20
3245.274158172808
 30
0.0
  0
SPLINE
  5
13A
330
1F
100
AcDbEntity
  8
0
  6
SLD-Plná
 62
     7
370
    25
100
AcDbSpline
210
0.0
220
0.0
230
1.0
 70
     8
 71
     3
 72
     9
 73
     5
 74
     0
 42
0.00000001
 43
0.00000001
 40
0.0
 40
0.0
 40
0.0
 40
0.0
 40
0.5601173721186338
 40
1.0
 40
1.0
 40
1.0
 40
1.0
 10
9632.889254842228
 20
3245.274158172808
 30
0.0
 10
9632.974123495524
 20
3245.317555288685
 30
0.0
 10
9633.125642904704
 20
3245.395033899485
 30
0.0
 10
9633.265661999052
 20
3245.491655492543
 30
0.0
 10
9633.327253966227
 20
3245.534157652808
 30
0.0
  0
SPLINE
  5
13B
330
1F
100
AcDbEntity
  8
0
  6
SLD-Plná
 62
     7
370
    25
100
AcDbSpline
210
0.0
220
0.0
230
1.0
 70
     8
 71
     3
 72
     9
 73
     5
 74
     0
 42
0.00000001
 43
0.00000001
 40
0.0
 40
0.0
 40
0.0
 40
0.0
 40
0.5599947046232607
 40
1.0
 40
1.0
 40
1.0
 40
1.0
 10
9632.965754689227
 20
3255.580437560208
 30
0.0
 10
9632.687505623966
 20
3255.436019166124
 30
0.0
 10
9632.190627594651
 20
3255.178126738051
 30
0.0
 10
9631.681969819172
 20
3254.944386139233
 30
0.0
 10
9631.458157704428
 20
3254.841539038008
 30
0.0
  0
SPLINE
  5
13C
330
1F
100
AcDbEntity
  8
0
  6
SLD-Plná
 62
     7
370
    25
100
AcDbSpline
210
0.0
220
0.0
230
1.0
 70
     8
 71
     3
 72
     9
 73
     5
 74
     0
 42
0.00000001
 43
0.00000001
 40
0.0
 40
0.0
 40
0.0
 40
0.0
 40
0.5599942519817658
 40
1.0
 40
1.0
 40
1.0
 40
1.0
 10
9634.076152468428
 20
3256.225736269608
 30
0.0
 10
9633.871907280107
 20
3256.100047858468
 30
0.0
 10
9633.507179985858
 20
3255.875601963362
 30
0.0
 10
9633.131191697355
 20
3255.670627501586
 30
0.0
 10
9632.965754689227
 20
3255.580437560208
 30
0.0
  0
SPLINE
  5
13D
330
1F
100
AcDbEntity
  8
0
  6
SLD-Plná
 62
     7
370
    25
100
AcDbSpline
210
0.0
220
0.0
230
1.0
 70
     8
 71
     3
 72
     9
 73
     5
 74
     0
 42
0.00000001
 43
0.00000001
 40
0.0
 40
0.0
 40
0.0
 40
0.0
 40
0.5599949529287614
 40
1.0
 40
1.0
 40
1.0
 40
1.0
 10
9635.418849783027
 20
3257.165834389408
 30
0.0
 10
9635.174335254093
 20
3256.981555502633
 30
0.0
 10
9634.73769823146
 20
3256.652483096156
 30
0.0
 10
9634.278293061749
 20
3256.356132171959
 30
0.0
 10
9634.076152468428
 20
3256.225736269608
 30
0.0
  0
SPLINE
  5
13E
330
1F
100
AcDbEntity
  8
0
  6
SLD-Plná
 62
     7
370
    25
100
AcDbSpline
210
0.0
220
0.0
230
1.0
 70
     8
 71
     3
 72
     9
 73
     5
 74
     0
 42
0.00000001
 43
0.00000001
 40
0.0
 40
0.0
 40
0.0
 40
0.0
 40
0.559998591393299
 40
1.0
 40
1.0
 40
1.0
 40
1.0
 10
9636.558547503628
 20
3258.135032451008
 30
0.0
 10
9636.35156448585
 20
3257.947305977075
 30
0.0
 10
9635.981951024394
 20
3257.612079287549
 30
0.0
 10
9635.590908878185
 20
3257.302187300309
 30
0.0
 10
9635.418849783027
 20
3257.165834389408
 30
0.0
  0
SPLINE
  5
13F
330
1F
100
AcDbEntity
  8
0
  6
SLD-Plná
 62
     7
370
    25
100
AcDbSpline
210
0.0
220
0.0
230
1.0
 70
     8
 71
     3
 72
     9
 73
     5
 74
     0
 42
0.00000001
 43
0.00000001
 40
0.0
 40
0.0
 40
0.0
 40
0.0
 40
0.5599734870751626
 40
1.0
 40
1.0
 40
1.0
 40
1.0
 10
9637.909344802027
 20
3259.533329654408
 30
0.0
 10
9637.667148593091
 20
3259.262662192166
 30
0.0
 10
9637.234634885697
 20
3258.779304553833
 30
0.0
 10
9636.765138403513
 20
3258.331901608788
 30
0.0
 10
9636.558547503628
 20
3258.135032451008
 30
0.0
  0
SPLINE
  5
140
330
1F
100
AcDbEntity
  8
0
  6
SLD-Plná
 62
     7
370
    25
100
AcDbSpline
210
0.0
220
0.0
230
1.0
 70
     8
 71
     3
 72
     9
 73
     5
 74
     0
 42
0.00000001
 43
0.00000001
 40
0.0
 40
0.0
 40
0.0
 40
0.0
 40
0.5599620838446674
 40
1.0
 40
1.0
 40
1.0
 40
1.0
 10
9638.703543213627
 20
3260.504627711808
 30
0.0
 10
9638.55924563601
 20
3260.320095205982
 30
0.0
 10
9638.301553942625
 20
3259.990550561533
 30
0.0
 10
9638.029193655302
 20
3259.673044402844
 30
0.0
 10
9637.909344802027
 20
3259.533329654408
 30
0.0
  0
SPLINE
  5
141
330
1F
100
AcDbEntity
  8
0
  6
SLD-Plná
 62
     7
370
    25
100
AcDbSpline
210
0.0
220
0.0
230
1.0
 70
     8
 71
     3
 72
     9
 73
     5
 74
     0
 42
0.00000001
 43
0.00000001
 40
0.0
 40
0.0
 40
0.0
 40
0.0
 40
0.5599466128591957
 40
0.9999999999999999
 40
0.9999999999999999
 40
0.9999999999999999
 40
0.9999999999999999
 10
9639.488141644428
 20
3261.589625541808
 30
0.0
 10
9639.34600438189
 20
3261.383985632836
 30
0.0
 10
9639.092163641946
 20
3261.016736498276
 30
0.0
 10
9638.822298349596
 20
3260.661118580884
 30
0.0
 10
9638.703543213627
 20
3260.504627711808
 30
0.0
  0
SPLINE
  5
142
330
1F
100
AcDbEntity
  8
0
  6
SLD-Plná
 62
     7
370
    25
100
AcDbSpline
210
0.0
220
0.0
230
1.0
 70
     8
 71
     3
 72
     9
 73
     5
 74
     0
 42
0.00000001
 43
0.00000001
 40
0.0
 40
0.0
 40
0.0
 40
0.0
 40
0.5601509331489352
 40
1.0
 40
1.0
 40
1.0
 40
1.0
 10
9640.053140514427
 20
3262.457223806608
 30
0.0
 10
9639.949713474769
 20
3262.293878712117
 30
0.0
 10
9639.765072097705
 20
3262.002269638875
 30
0.0
 10
9639.57273912361
 20
3261.715681199456
 30
0.0
 10
9639.488141644428
 20
3261.589625541808
 30
0.0
  0
SPLINE
  5
143
330
1F
100
AcDbEntity
  8
0
  6
SLD-Plná
 62
     7
370
    25
100
AcDbSpline
210
0.0
220
0.0
230
1.0
 70
     8
 71
     3
 72
     9
 73
     5
 74
     0
 42
0.00000001
 43
0.00000001
 40
0.0
 40
0.0
 40
0.0
 40
0.0
 40
0.5595664557865044
 40
1.0
 40
1.0
 40
1.0
 40
1.0
 10
9640.866138888427
 20
3263.886920947208
 30
0.0
 10
9640.725138365908
 20
3263.614152702771
 30
0.0
 10
9640.473156637798
 20
3263.126689164497
 30
0.0
 10
9640.18156656406
 20
3262.661922594335
 30
0.0
 10
9640.053140514427
 20
3262.457223806608
 30
0.0
  0
SPLINE
  5
144
330
1F
100
AcDbEntity
  8
0
  6
SLD-Plná
 62
     7
370
    25
100
AcDbSpline
210
0.0
220
0.0
230
1.0
 70
     8
 71
     3
 72
     9
 73
     5
 74
     0
 42
0.00000001
 43
0.00000001
 40
0.0
 40
0.0
 40
0.0
 40
0.0
 40
0.5603486340937911
 40
1.0
 40
1.0
 40
1.0
 40
1.0
 10
9641.421137778429
 20
3265.209618301808
 30
0.0
 10
9641.323807911152
 20
3264.959887140411
 30
0.0
 10
9641.15011271257
 20
3264.514216095277
 30
0.0
 10
9640.952860911982
 20
3264.078488972083
 30
0.0
 10
9640.866138888427
 20
3263.886920947208
 30
0.0
  0
SPLINE
  5
145
330
1F
100
AcDbEntity
  8
0
  6
SLD-Plná
 62
     7
370
    25
100
AcDbSpline
210
0.0
220
0.0
230
1.0
 70
     8
 71
     3
 72
     9
 73
     5
 74
     0
 42
0.00000001
 43
0.00000001
 40
0.0
 40
0.0
 40
0.0
 40
0.0
 40
0.559878070708468
 40
1.0
 40
1.0
 40
1.0
 40
1.0
 10
9641.919736781228
 20
3266.381715957608
 30
0.0
 10
9641.822528950122
 20
3266.164732329907
 30
0.0
 10
9641.6489057343
 20
3265.777177183434
 30
0.0
 10
9641.49074693452
 20
3265.383072441271
 30
0.0
 10
9641.421137778429
 20
3265.209618301808
 30
0.0
  0
SPLINE
  5
146
330
1F
100
AcDbEntity
  8
0
  6
SLD-Plná
 62
     7
370
    25
100
AcDbSpline
210
0.0
220
0.0
230
1.0
 70
     8
 71
     3
 72
     9
 73
     5
 74
     0
 42
0.00000001
 43
0.00000001
 40
0.0
 40
0.0
 40
0.0
 40
0.0
 40
0.5601409844332894
 40
1.0
 40
1.0
 40
1.0
 40
1.0
 10
9642.649035322627
 20
3267.716213288608
 30
0.0
 10
9642.499603203692
 20
3267.474215900725
 30
0.0
 10
9642.232827297108
 20
3267.042186474905
 30
0.0
 10
9642.015382038582
 20
3266.583481483543
 30
0.0
 10
9641.919736781228
 20
3266.381715957608
 30
0.0
  0
SPLINE
  5
147
330
1F
100
AcDbEntity
  8
0
  6
SLD-Plná
 62
     7
370
    25
100
AcDbSpline
210
0.0
220
0.0
230
1.0
 70
     8
 71
     3
 72
     9
 73
     5
 74
     0
 42
0.00000001
 43
0.00000001
 40
0.0
 40
0.0
 40
0.0
 40
0.0
 40
0.5595338925100335
 40
1.0
 40
1.0
 40
1.0
 40
1.0
 10
9643.596933426828
 20
3268.832211056608
 30
0.0
 10
9643.400306542633
 20
3268.64064524516
 30
0.0
 10
9643.04889461419
 20
3268.298278475226
 30
0.0
 10
9642.771304402602
 20
3267.894197335384
 30
0.0
 10
9642.649035322627
 20
3267.716213288608
 30
0.0
  0
SPLINE
  5
148
330
1F
100
AcDbEntity
  8
0
  6
SLD-Plná
 62
     7
370
    25
100
AcDbSpline
210
0.0
220
0.0
230
1.0
 70
     8
 71
     3
 72
     9
 73
     5
 74
     0
 42
0.00000001
 43
0.00000001
 40
0.0
 40
0.0
 40
0.0
 40
0.0
 40
0.5604325651786249
 40
0.9999999999999999
 40
0.9999999999999999
 40
0.9999999999999999
 40
0.9999999999999999
 10
9645.153530313628
 20
3269.722609275808
 30
0.0
 10
9644.838374024892
 20
3269.597705657882
 30
0.0
 10
9644.276029314184
 20
3269.374835636248
 30
0.0
 10
9643.804293241994
 20
3268.9978997828
 30
0.0
 10
9643.596933426828
 20
3268.832211056608
 30
0.0
  0
SPLINE
  5
149
330
1F
100
AcDbEntity
  8
0
  6
SLD-Plná
 62
     7
370
    25
100
AcDbSpline
210
0.0
220
0.0
230
1.0
 70
     8
 71
     3
 72
    10
 73
     6
 74
     0
 42
0.00000001
 43
0.00000001
 40
0.0
 40
0.0
 40
0.0
 40
0.0
 40
0.2801592320752978
 40
0.5607120829569522
 40
1.0
 40
1.0
 40
1.0
 40
1.0
 10
9648.839922940826
 20
3269.505709709608
 30
0.0
 10
9648.510751190543
 20
3269.63170658402
 30
0.0
 10
9647.851945209439
 20
3269.883877356243
 30
0.0
 10
9646.585909983465
 20
3270.039880365882
 30
0.0
 10
9645.69637520198
 20
3269.842849037022
 30
0.0
 10
9645.153530313628
 20
3269.722609275808
 30
0.0
  0
SPLINE
  5
14A
330
1F
100
AcDbEntity
  8
0
  6
SLD-Plná
 62
     7
370
    25
100
AcDbSpline
210
0.0
220
0.0
230
1.0
 70
     8
 71
     3
 72
     9
 73
     5
 74
     0
 42
0.00000001
 43
0.00000001
 40
0.0
 40
0.0
 40
0.0
 40
0.0
 40
0.5598881849351476
 40
1.0
 40
1.0
 40
1.0
 40
1.0
 10
9650.257220106228
 20
3268.527511666008
 30
0.0
 10
9650.015114076023
 20
3268.74326250108
 30
0.0
 10
9649.582695538322
 20
3269.128608791423
 30
0.0
 10
9649.066921284042
 20
3269.390464096157
 30
0.0
 10
9648.839922940826
 20
3269.505709709608
 30
0.0
  0
SPLINE
  5
14B
330
1F
100
AcDbEntity
  8
0
  6
SLD-Plná
 62
     7
370
    25
100
AcDbSpline
210
0.0
220
0.0
230
1.0
 70
     8
 71
     3
 72
     9
 73
     5
 74
     0
 42
0.00000001
 43
0.00000001
 40
0.0
 40
0.0
 40
0.0
 40
0.0
 40
0.5599233546376451
 40
1.0
 40
1.0
 40
1.0
 40
1.0
 10
9651.152918314827
 20
3267.321514078008
 30
0.0
 10
9651.011148775262
 20
3267.565846414478
 30
0.0
 10
9650.757954229275
 20
3268.002213882358
 30
0.0
 10
9650.410240706762
 20
3268.366984594626
 30
0.0
 10
9650.257220106228
 20
3268.527511666008
 30
0.0
  0
SPLINE
  5
14C
330
1F
100
AcDbEntity
  8
0
  6
SLD-Plná
 62
     7
370
    25
100
AcDbSpline
210
0.0
220
0.0
230
1.0
 70
     8
 71
     3
 72
     9
 73
     5
 74
     0
 42
0.00000001
 43
0.00000001
 40
0.0
 40
0.0
 40
0.0
 40
0.0
 40
0.5595259705628286
 40
1.0
 40
1.0
 40
1.0
 40
1.0
 10
9651.646517327626
 20
3265.608717503608
 30
0.0
 10
9651.600048546385
 20
3265.941894161234
 30
0.0
 10
9651.516998279398
 20
3266.537356526082
 30
0.0
 10
9651.264248172745
 20
3267.081731180468
 30
0.0
 10
9651.152918314827
 20
3267.321514078008
 30
0.0
  0
SPLINE
  5
14D
330
1F
100
AcDbEntity
  8
0
  6
SLD-Plná
 62
     7
370
    25
100
AcDbSpline
210
0.0
220
0.0
230
1.0
 70
     8
 71
     3
 72
     9
 73
     5
 74
     0
 42
0.00000001
 43
0.00000001
 40
0.0
 40
0.0
 40
0.0
 40
0.0
 40
0.560404971242519
 40
0.9999999999999999
 40
0.9999999999999999
 40
0.9999999999999999
 40
0.9999999999999999
 10
9651.536617547426
 20
3264.171820377408
 30
0.0
 10
9651.586149037255
 20
3264.438281115323
 30
0.0
 10
9651.674534209356
 20
3264.913760012887
 30
0.0
 10
9651.65507256829
 20
3265.396505143871
 30
0.0
 10
9651.646517327626
 20
3265.608717503608
 30
0.0
  0
SPLINE
  5
14E
330
1F
100
AcDbEntity
  8
0
  6
SLD-Plná
 62
     7
370
    25
100
AcDbSpline
210
0.0
220
0.0
230
1.0
 70
     8
 71
     3
 72
     9
 73
     5
 74
     0
 42
0.00000001
 43
0.00000001
 40
0.0
 40
0.0
 40
0.0
 40
0.0
 40
0.5592747628336151
 40
1.0
 40
1.0
 40
1.0
 40
1.0
 10
9650.922718775228
 20
3262.627723465608
 30
0.0
 10
9651.071379169105
 20
3262.902363305146
 30
0.0
 10
9651.33718839877
 20
3263.393427550824
 30
0.0
 10
9651.475611148308
 20
3263.933706020655
 30
0.0
 10
9651.536617547426
 20
3264.171820377408
 30
0.0
  0
SPLINE
  5
14F
330
1F
100
AcDbEntity
  8
0
  6
SLD-Plná
 62
     7
370
    25
100
AcDbSpline
210
0.0
220
0.0
230
1.0
 70
     8
 71
     3
 72
     9
 73
     5
 74
     0
 42
0.00000001
 43
0.00000001
 40
0.0
 40
0.0
 40
0.0
 40
0.0
 40
0.5597727991826102
 40
0.9999999999999999
 40
0.9999999999999999
 40
0.9999999999999999
 40
0.9999999999999999
 10
9650.238620143427
 20
3261.761125198808
 30
0.0
 10
9650.380164984042
 20
3261.912012377496
 30
0.0
 10
9650.633026217783
 20
3262.181563128996
 30
0.0
 10
9650.834169868785
 20
3262.491347818772
 30
0.0
 10
9650.922718775228
 20
3262.627723465608
 30
0.0
  0
SPLINE
  5
150
330
1F
100
AcDbEntity
  8
0
  6
SLD-Plná
 62
     7
370
    25
100
AcDbSpline
210
0.0
220
0.0
230
1.0
 70
     8
 71
     3
 72
     9
 73
     5
 74
     0
 42
0.00000001
 43
0.00000001
 40
0.0
 40
0.0
 40
0.0
 40
0.0
 40
0.5605810488011073
 40
1.0
 40
1.0
 40
1.0
 40
1.0
 10
9649.019222582227
 20
3260.830927059208
 30
0.0
 10
9649.262207634856
 20
3260.985208548418
 30
0.0
 10
9649.695659770183
 20
3261.260425645999
 30
0.0
 10
9650.072867790679
 20
3261.608274027731
 30
0.0
 10
9650.238620143427
 20
3261.761125198808
 30
0.0
  0
SPLINE
  5
151
330
1F
100
AcDbEntity
  8
0
  6
SLD-Plná
 62
     7
370
    25
100
AcDbSpline
210
0.0
220
0.0
230
1.0
 70
     8
 71
     3
 72
     9
 73
     5
 74
     0
 42
0.00000001
 43
0.00000001
 40
0.0
 40
0.0
 40
0.0
 40
0.0
 40
0.5598637024841477
 40
1.0
 40
1.0
 40
1.0
 40
1.0
 10
9647.111526397626
 20
3259.846629027807
 30
0.0
 10
9647.47532298484
 20
3260.015369906102
 30
0.0
 10
9648.125117900277
 20
3260.316766259438
 30
0.0
 10
9648.74596516556
 20
3260.673788577851
 30
0.0
 10
9649.019222582227
 20
3260.830927059208
 30
0.0
  0
SPLINE
  5
152
330
1F
100
AcDbEntity
  8
0
  6
SLD-Plná
 62
     7
370
    25
100
AcDbSpline
210
0.0
220
0.0
230
1.0
 70
     8
 71
     3
 72
     9
 73
     5
 74
     0
 42
0.00000001
 43
0.00000001
 40
0.0
 40
0.0
 40
0.0
 40
0.0
 40
0.5599887400785344
 40
1.0
 40
1.0
 40
1.0
 40
1.0
 10
9645.688929242826
 20
3259.180730359607
 30
0.0
 10
9645.953980925744
 20
3259.306086172322
 30
0.0
 10
9646.42729701935
 20
3259.529940338919
 30
0.0
 10
9646.902452594395
 20
3259.749861319888
 30
0.0
 10
9647.111526397626
 20
3259.846629027807
 30
0.0
  0
SPLINE
  5
153
330
1F
100
AcDbEntity
  8
0
  6
SLD-Plná
 62
     7
370
    25
100
AcDbSpline
210
0.0
220
0.0
230
1.0
 70
     8
 71
     3
 72
     9
 73
     5
 74
     0
 42
0.00000001
 43
0.00000001
 40
0.0
 40
0.0
 40
0.0
 40
0.0
 40
0.5599309818080961
 40
1.0
 40
1.0
 40
1.0
 40
1.0
 10
9643.867232886229
 20
3258.231832257408
 30
0.0
 10
9644.202636159358
 20
3258.417825468666
 30
0.0
 10
9644.801644401497
 20
3258.749997142143
 30
0.0
 10
9645.417784899015
 20
3259.04910309611
 30
0.0
 10
9645.688929242828
 20
3259.180730359607
 30
0.0
  0
SPLINE
  5
154
330
1F
100
AcDbEntity
  8
0
  6
SLD-Plná
 62
     7
370
    25
100
AcDbSpline
210
0.0
220
0.0
230
1.0
 70
     8
 71
     3
 72
     9
 73
     5
 74
     0
 42
0.00000001
 43
0.00000001
 40
0.0
 40
0.0
 40
0.0
 40
0.0
 40
0.5600542708819325
 40
0.9999999999999999
 40
0.9999999999999999
 40
0.9999999999999999
 40
0.9999999999999999
 10
9642.834034952628
 20
3257.594533532008
 30
0.0
 10
9643.024176939407
 20
3257.717969355797
 30
0.0
 10
9643.363683299178
 20
3257.938369110261
 30
0.0
 10
9643.713383691955
 20
3258.142170643342
 30
0.0
 10
9643.867232886229
 20
3258.231832257408
 30
0.0
  0
SPLINE
  5
155
330
1F
100
AcDbEntity
  8
0
  6
SLD-Plná
 62
     7
370
    25
100
AcDbSpline
210
0.0
220
0.0
230
1.0
 70
     8
 71
     3
 72
     9
 73
     5
 74
     0
 42
0.00000001
 43
0.00000001
 40
0.0
 40
0.0
 40
0.0
 40
0.0
 40
0.559976872033346
 40
1.0
 40
1.0
 40
1.0
 40
1.0
 10
9640.552339516027
 20
3255.779237162608
 30
0.0
 10
9640.957069363276
 20
3256.144974441516
 30
0.0
 10
9641.679831083382
 20
3256.79810369948
 30
0.0
 10
9642.481348674892
 20
3257.351171089205
 30
0.0
 10
9642.834034952628
 20
3257.594533532008
 30
0.0
  0
SPLINE
  5
156
330
1F
100
AcDbEntity
  8
0
  6
SLD-Plná
 62
     7
370
    25
100
AcDbSpline
210
0.0
220
0.0
230
1.0
 70
     8
 71
     3
 72
     9
 73
     5
 74
     0
 42
0.00000001
 43
0.00000001
 40
0.0
 40
0.0
 40
0.0
 40
0.0
 40
0.559909319268721
 40
1.0
 40
1.0
 40
1.0
 40
1.0
 10
9639.371841877028
 20
3254.530039661008
 30
0.0
 10
9639.583440488192
 20
3254.771482589051
 30
0.0
 10
9639.961356346852
 20
3255.202700501906
 30
0.0
 10
9640.371735482751
 20
3255.603047971976
 30
0.0
 10
9640.552339516027
 20
3255.779237162608
 30
0.0
  0
SPLINE
  5
157
330
1F
100
AcDbEntity
  8
0
  6
SLD-Plná
 62
     7
370
    25
100
AcDbSpline
210
0.0
220
0.0
230
1.0
 70
     8
 71
     3
 72
     9
 73
     5
 74
     0
 42
0.00000001
 43
0.00000001
 40
0.0
 40
0.0
 40
0.0
 40
0.0
 40
0.5600452558961053
 40
1.0
 40
1.0
 40
1.0
 40
1.0
 10
9638.683543253628
 20
3253.669141382808
 30
0.0
 10
9638.808485164476
 20
3253.832705112154
 30
0.0
 10
9639.03157769054
 20
3254.124759598152
 30
0.0
 10
9639.26787969092
 20
3254.406212931679
 30
0.0
 10
9639.371841877028
 20
3254.530039661008
 30
0.0
  0
SPLINE
  5
158
330
1F
100
AcDbEntity
  8
0
  6
SLD-Plná
 62
     7
370
    25
100
AcDbSpline
210
0.0
220
0.0
230
1.0
 70
     8
 71
     3
 72
     9
 73
     5
 74
     0
 42
0.00000001
 43
0.00000001
 40
0.0
 40
0.0
 40
0.0
 40
0.0
 40
0.5600666879383039
 40
0.9999999999999999
 40
0.9999999999999999
 40
0.9999999999999999
 40
0.9999999999999999
 10
9637.186646247426
 20
3251.349446022208
 30
0.0
 10
9637.444149820263
 20
3251.796804209499
 30
0.0
 10
9637.903922876547
 20
3252.595562994703
 30
0.0
 10
9638.445350990301
 20
3253.341138070376
 30
0.0
 10
9638.683543253628
 20
3253.669141382808
 30
0.0
  0
SPLINE
  5
159
330
1F
100
AcDbEntity
  8
0
  6
SLD-Plná
 62
     7
370
    25
100
AcDbSpline
210
0.0
220
0.0
230
1.0
 70
     8
 71
     3
 72
     9
 73
     5
 74
     0
 42
0.00000001
 43
0.00000001
 40
0.0
 40
0.0
 40
0.0
 40
0.0
 40
0.5597874784396295
 40
1.0
 40
1.0
 40
1.0
 40
1.0
 10
9636.300348020028
 20
3249.557449606208
 30
0.0
 10
9636.455705307846
 20
3249.896816657265
 30
0.0
 10
9636.733234359139
 20
3250.503059319219
 30
0.0
 10
9637.048057263051
 20
3251.090741130284
 30
0.0
 10
9637.186646247426
 20
3251.349446022208
 30
0.0
  0
SPLINE
  5
15A
330
1F
100
AcDbEntity
  8
0
  6
SLD-Plná
 62
     7
370
    25
100
AcDbSpline
210
0.0
220
0.0
230
1.0
 70
     8
 71
     3
 72
     9
 73
     5
 74
     0
 42
0.00000001
 43
0.00000001
 40
0.0
 40
0.0
 40
0.0
 40
0.0
 40
0.5605441636970673
 40
1.0
 40
1.0
 40
1.0
 40
1.0
 10
9635.456849707029
 20
3247.623653473808
 30
0.0
 10
9635.615010623913
 20
3247.98473756461
 30
0.0
 10
9635.897166655728
 20
3248.628904633303
 30
0.0
 10
9636.177259558985
 20
3249.273971296334
 30
0.0
 10
9636.300348020028
 20
3249.557449606208
 30
0.0
  0
SPLINE
  5
15B
330
1F
100
AcDbEntity
  8
0
  6
SLD-Plná
 62
     7
370
    25
100
AcDbSpline
210
0.0
220
0.0
230
1.0
 70
     8
 71
     3
 72
     9
 73
     5
 74
     0
 42
0.00000001
 43
0.00000001
 40
0.0
 40
0.0
 40
0.0
 40
0.0
 40
0.5589791455573262
 40
1.0
 40
1.0
 40
1.0
 40
1.0
 10
9634.406351808026
 20
3245.827057067008
 30
0.0
 10
9634.63313796356
 20
3246.14396816526
 30
0.0
 10
9635.038852840999
 20
3246.710914357745
 30
0.0
 10
9635.328922804067
 20
3247.344311933671
 30
0.0
 10
9635.456849707029
 20
3247.623653473808
 30
0.0
  0
SPLINE
  5
15C
330
1F
100
AcDbEntity
  8
0
  6
SLD-Plná
 62
     7
370
    25
100
AcDbSpline
210
0.0
220
0.0
230
1.0
 70
     8
 71
     3
 72
     9
 73
     5
 74
     0
 42
0.00000001
 43
0.00000001
 40
0.0
 40
0.0
 40
0.0
 40
0.0
 40
0.5590711117727408
 40
1.0
 40
1.0
 40
1.0
 40
1.0
 10
9633.359153902427
 20
3244.920358880408
 30
0.0
 10
9633.575820403461
 20
3245.064992896557
 30
0.0
 10
9633.963367705532
 20
3245.323697045462
 30
0.0
 10
9634.2707972436
 20
3245.673027276578
 30
0.0
 10
9634.406351808026
 20
3245.827057067008
 30
0.0
  0
SPLINE
  5
15D
330
1F
100
AcDbEntity
  8
0
  6
SLD-Plná
 62
     7
370
    25
100
AcDbSpline
210
0.0
220
0.0
230
1.0
 70
     8
 71
     3
 72
     9
 73
     5
 74
     0
 42
0.00000001
 43
0.00000001
 40
0.0
 40
0.0
 40
0.0
 40
0.0
 40
0.5608302808794117
 40
1.0
 40
1.0
 40
1.0
 40
1.0
 10
9632.357055906628
 20
3244.513759693608
 30
0.0
 10
9632.551635409689
 20
3244.57231484894
 30
0.0
 10
9632.898584406013
 20
3244.676722826413
 30
0.0
 10
9633.218608855039
 20
3244.846012140076
 30
0.0
 10
9633.359153902427
 20
3244.920358880408
 30
0.0
  0
SPLINE
  5
15E
330
1F
100
AcDbEntity
  8
0
  6
SLD-Plná
 62
     7
370
    25
100
AcDbSpline
210
0.0
220
0.0
230
1.0
 70
     8
 71
     3
 72
     9
 73
     5
 74
     0
 42
0.00000001
 43
0.00000001
 40
0.0
 40
0.0
 40
0.0
 40
0.0
 40
0.5596596836868706
 40
1.0
 40
1.0
 40
1.0
 40
1.0
 10
9630.850758919227
 20
3244.309660101808
 30
0.0
 10
9631.135727818531
 20
3244.320165860127
 30
0.0
 10
9631.644910287112
 20
3244.33893755054
 30
0.0
 10
9632.139339007497
 20
3244.460313131774
 30
0.0
 10
9632.357055906628
 20
3244.513759693608
 30
0.0
  0
SPLINE
  5
15F
330
1F
100
AcDbEntity
  8
0
  6
SLD-Plná
 62
     7
370
    25
100
AcDbSpline
210
0.0
220
0.0
230
1.0
 70
     8
 71
     3
 72
     9
 73
     5
 74
     0
 42
0.00000001
 43
0.00000001
 40
0.0
 40
0.0
 40
0.0
 40
0.0
 40
0.5596363497783339
 40
0.9999999999999999
 40
0.9999999999999999
 40
0.9999999999999999
 40
0.9999999999999999
 10
9629.313861993029
 20
3244.550659619808
 30
0.0
 10
9629.595825862212
 20
3244.473545992365
 30
0.0
 10
9630.09965994893
 20
3244.335753607233
 30
0.0
 10
9630.621124768026
 20
3244.317637692255
 30
0.0
 10
9630.850758919227
 20
3244.309660101808
 30
0.0
  0
SPLINE
  5
160
330
1F
100
AcDbEntity
  8
0
  6
SLD-Plná
 62
     7
370
    25
100
AcDbSpline
210
0.0
220
0.0
230
1.0
 70
     8
 71
     3
 72
     9
 73
     5
 74
     0
 42
0.00000001
 43
0.00000001
 40
0.0
 40
0.0
 40
0.0
 40
0.0
 40
0.5599790619301406
 40
1.0
 40
1.0
 40
1.0
 40
1.0
 10
9628.166564287627
 20
3245.105158510808
 30
0.0
 10
9628.371045483811
 20
3244.981230643406
 30
0.0
 10
9628.736204130066
 20
3244.75992260561
 30
0.0
 10
9629.137349591003
 20
3244.614603200684
 30
0.0
 10
9629.313861993029
 20
3244.550659619808
 30
0.0
  0
ARC
  5
161
330
1F
100
AcDbEntity
  8
0
  6
SLD-Plná
 62
     7
370
    25
100
AcDbCircle
 10
9630.9539037901
 20
3249.3623520529
 30
0.0
 40
5.088512391347884
100
AcDbArc
 50
221.9926650176
 51
236.7857720095
  0
SPLINE
  5
162
330
1F
100
AcDbEntity
  8
0
  6
SLD-Plná
 62
     7
370
    25
100
AcDbSpline
210
0.0
220
0.0
230
1.0
 70
     8
 71
     3
 72
     9
 73
     5
 74
     0
 42
0.00000001
 43
0.00000001
 40
0.0
 40
0.0
 40
0.0
 40
0.0
 40
0.5597008828315755
 40
1.0
 40
1.0
 40
1.0
 40
1.0
 10
9626.213668193428
 20
3247.541453638208
 30
0.0
 10
9626.351865412204
 20
3247.220820957541
 30
0.0
 10
9626.59877804539
 20
3246.647956610705
 30
0.0
 10
9626.996742763
 20
3246.168889591034
 30
0.0
 10
9627.171966276828
 20
3245.957956805208
 30
0.0
  0
SPLINE
  5
163
330
1F
100
AcDbEntity
  8
0
  6
SLD-Plná
 62
     7
370
    25
100
AcDbSpline
210
0.0
220
0.0
230
1.0
 70
     8
 71
     3
 72
     9
 73
     5
 74
     0
 42
0.00000001
 43
0.00000001
 40
0.0
 40
0.0
 40
0.0
 40
0.0
 40
0.5609754810932994
 40
1.0
 40
1.0
 40
1.0
 40
1.0
 10
9625.967768685226
 20
3249.765149190808
 30
0.0
 10
9625.944684926575
 20
3249.340711679779
 30
0.0
 10
9625.903535608237
 20
3248.584105508325
 30
0.0
 10
9626.119051453252
 20
3247.859550883704
 30
0.0
 10
9626.213668193428
 20
3247.541453638208
 30
0.0
  0
SPLINE
  5
164
330
1F
100
AcDbEntity
  8
0
  6
SLD-Plná
 62
     7
370
    25
100
AcDbSpline
210
0.0
220
0.0
230
1.0
 70
     8
 71
     3
 72
     9
 73
     5
 74
     0
 42
0.00000001
 43
0.00000001
 40
0.0
 40
0.0
 40
0.0
 40
0.0
 40
0.5582993363870449
 40
1.0
 40
1.0
 40
1.0
 40
1.0
 10
9626.655467309827
 20
3251.769745181608
 30
0.0
 10
9626.467114623563
 20
3251.416526163686
 30
0.0
 10
9626.12974598637
 20
3250.783856563526
 30
0.0
 10
9626.017394438486
 20
3250.077255395594
 30
0.0
 10
9625.967768685226
 20
3249.765149190808
 30
0.0
  0
SPLINE
  5
165
330
1F
100
AcDbEntity
  8
0
  6
SLD-Plná
 62
     7
370
    25
100
AcDbSpline
210
0.0
220
0.0
230
1.0
 70
     8
 71
     3
 72
     9
 73
     5
 74
     0
 42
0.00000001
 43
0.00000001
 40
0.0
 40
0.0
 40
0.0
 40
0.0
 40
0.5605927096210991
 40
1.0
 40
1.0
 40
1.0
 40
1.0
 10
9628.179264262228
 20
3253.283042155007
 30
0.0
 10
9627.850393133027
 20
3253.043557365354
 30
0.0
 10
9627.263744174605
 20
3252.616358107241
 30
0.0
 10
9626.84115574613
 20
3252.028190372304
 30
0.0
 10
9626.655467309827
 20
3251.769745181608
 30
0.0
  0
SPLINE
  5
166
330
1F
100
AcDbEntity
  8
0
  6
SLD-Plná
 62
     7
370
    25
100
AcDbSpline
210
0.0
220
0.0
230
1.0
 70
     8
 71
     3
 72
     9
 73
     5
 74
     0
 42
0.00000001
 43
0.00000001
 40
0.0
 40
0.0
 40
0.0
 40
0.0
 40
0.559982471323442
 40
1.0
 40
1.0
 40
1.0
 40
1.0
 10
9629.857960904827
 20
3254.137940445208
 30
0.0
 10
9629.534419878048
 20
3253.998123755775
 30
0.0
 10
9628.956649959617
 20
3253.748443280774
 30
0.0
 10
9628.416805352235
 20
3253.425251988655
 30
0.0
 10
9628.179264262228
 20
3253.283042155007
 30
0.0
  0
SPLINE
  5
167
330
1F
100
AcDbEntity
  8
0
  6
SLD-Plná
 62
     7
370
    25
100
AcDbSpline
210
0.0
220
0.0
230
1.0
 70
     8
 71
     3
 72
     9
 73
     5
 74
     0
 42
0.00000001
 43
0.00000001
 40
0.0
 40
0.0
 40
0.0
 40
0.0
 40
0.560659206663509
 40
0.9999999999999999
 40
0.9999999999999999
 40
0.9999999999999999
 40
0.9999999999999999
 10
9640.977638665428
 20
3256.873034975008
 30
0.0
 10
9641.340311776534
 20
3257.164140659403
 30
0.0
 10
9641.987180867052
 20
3257.683361035944
 30
0.0
 10
9642.684759769716
 20
3258.131810097106
 30
0.0
 10
9642.991234638228
 20
3258.328832063408
 30
0.0
  0
SPLINE
  5
168
330
1F
100
AcDbEntity
  8
0
  6
SLD-Plná
 62
     7
370
    25
100
AcDbSpline
210
0.0
220
0.0
230
1.0
 70
     8
 71
     3
 72
     9
 73
     5
 74
     0
 42
0.00000001
 43
0.00000001
 40
0.0
 40
0.0
 40
0.0
 40
0.0
 40
0.5567838059103125
 40
1.0
 40
1.0
 40
1.0
 40
1.0
 10
9641.660037300628
 20
3264.371319978408
 30
0.0
 10
9641.61583061631
 20
3264.263985945672
 30
0.0
 10
9641.536434118338
 20
3264.071210883616
 30
0.0
 10
9641.450586742721
 20
3263.881225656364
 30
0.0
 10
9641.412537795628
 20
3263.797021127008
 30
0.0
  0
SPLINE
  5
169
330
1F
100
AcDbEntity
  8
0
  6
SLD-Plná
 62
     7
370
    25
100
AcDbSpline
210
0.0
220
0.0
230
1.0
 70
     8
 71
     3
 72
     9
 73
     5
 74
     0
 42
0.00000001
 43
0.00000001
 40
0.0
 40
0.0
 40
0.0
 40
0.0
 40
0.5611495368267807
 40
1.0
 40
1.0
 40
1.0
 40
1.0
 10
9634.586951446827
 20
3255.920336880408
 30
0.0
 10
9634.193162814732
 20
3255.676105417054
 30
0.0
 10
9633.491409349297
 20
3255.240871228438
 30
0.0
 10
9632.753143897773
 20
3254.871248436465
 30
0.0
 10
9632.429155762427
 20
3254.709039303008
 30
0.0
  0
SPLINE
  5
16A
330
1F
100
AcDbEntity
  8
0
  6
SLD-Plná
 62
     7
370
    25
100
AcDbSpline
210
0.0
220
0.0
230
1.0
 70
     8
 71
     3
 72
     9
 73
     5
 74
     0
 42
0.00000001
 43
0.00000001
 40
0.0
 40
0.0
 40
0.0
 40
0.0
 40
0.5601363990141977
 40
1.0
 40
1.0
 40
1.0
 40
1.0
 10
9627.152866315027
 20
3246.852255016608
 30
0.0
 10
9627.399744384165
 20
3246.528723714734
 30
0.0
 10
9627.840490726614
 20
3245.951129931428
 30
0.0
 10
9628.45219620414
 20
3245.56243200696
 30
0.0
 10
9628.721263178228
 20
3245.391457938208
 30
0.0
  0
CIRCLE
  5
16B
330
1F
100
AcDbEntity
  8
0
  6
SLD-Plná
 62
     7
370
    25
100
AcDbCircle
 10
9602.7871177048
 20
3392.6505612737
 30
0.0
 40
7.0
  0
LINE
  5
16C
330
1F
100
AcDbEntity
  8
0
  6
SLD-Plná
 62
     7
370
    25
100
AcDbLine
 10
9606.7871177048
 20
3393.6505612737
 30
0.0
 11
9598.7871177048
 21
3393.6505612737
 31
0.0
  0
LINE
  5
16D
330
1F
100
AcDbEntity
  8
0
  6
SLD-Plná
 62
     7
370
    25
100
AcDbLine
 10
9598.7871177048
 20
3393.6505612737
 30
0.0
 11
9598.7871177048
 21
3391.6505612737
 31
0.0
  0
LINE
  5
16E
330
1F
100
AcDbEntity
  8
0
  6
SLD-Plná
 62
     7
370
    25
100
AcDbLine
 10
9598.7871177048
 20
3391.6505612737
 30
0.0
 11
9606.7871177048
 21
3391.6505612737
 31
0.0
  0
LINE
  5
16F
330
1F
100
AcDbEntity
  8
0
  6
SLD-Plná
 62
     7
370
    25
100
AcDbLine
 10
9606.7871177048
 20
3391.6505612737
 30
0.0
 11
9606.7871177048
 21
3393.6505612737
 31
0.0
  0
CIRCLE
  5
170
330
1F
100
AcDbEntity
  8
0
  6
SLD-Plná
 62
     7
370
    25
100
AcDbCircle
 10
9602.7871177048
 20
3392.6505612737
 30
0.0
 40
12.0
  0
LINE
  5
171
330
1F
100
AcDbEntity
  8
0
  6
SLD-Plná
 62
     7
370
    25
100
AcDbLine
 10
9502.5371177048
 20
3196.4005612737
 30
0.0
 11
9502.5371177048
 21
3426.9005612737
 31
0.0
  0
LINE
  5
172
330
1F
100
AcDbEntity
  8
0
  6
SLD-Plná
 62
     7
370
    25
100
AcDbLine
 10
9502.5371177048
 20
3426.9005612737
 30
0.0
 11
9502.7871177048
 21
3426.9005612737
 31
0.0
  0
LINE
  5
173
330
1F
100
AcDbEntity
  8
0
  6
SLD-Plná
 62
     7
370
    25
100
AcDbLine
 10
9502.7871177048
 20
3426.9005612737
 30
0.0
 11
9504.2871177048
 21
3426.9005612737
 31
0.0
  0
LINE
  5
174
330
1F
100
AcDbEntity
  8
0
  6
SLD-Plná
 62
     7
370
    25
100
AcDbLine
 10
9504.2871177048
 20
3426.9005612737
 30
0.0
 11
9504.2871177048
 21
3196.4005612737
 31
0.0
  0
LINE
  5
175
330
1F
100
AcDbEntity
  8
0
  6
SLD-Plná
 62
     7
370
    25
100
AcDbLine
 10
9504.2871177048
 20
3196.4005612737
 30
0.0
 11
9502.5371177048
 21
3196.4005612737
 31
0.0
  0
LINE
  5
176
330
1F
100
AcDbEntity
  8
0
  6
SLD-Plná
 62
     7
370
    25
100
AcDbLine
 10
9701.2871177048
 20
3426.9005612737
 30
0.0
 11
9702.7871177048
 21
3426.9005612737
 31
0.0
  0
LINE
  5
177
330
1F
100
AcDbEntity
  8
0
  6
SLD-Plná
 62
     7
370
    25
100
AcDbLine
 10
9702.7871177048
 20
3426.9005612737
 30
0.0
 11
9703.0371177048
 21
3426.9005612737
 31
0.0
  0
LINE
  5
178
330
1F
100
AcDbEntity
  8
0
  6
SLD-Plná
 62
     7
370
    25
100
AcDbLine
 10
9703.0371177048
 20
3426.9005612737
 30
0.0
 11
9703.0371177048
 21
3196.4005612737
 31
0.0
  0
LINE
  5
179
330
1F
100
AcDbEntity
  8
0
  6
SLD-Plná
 62
     7
370
    25
100
AcDbLine
 10
9703.0371177048
 20
3196.4005612737
 30
0.0
 11
9701.2871177048
 21
3196.4005612737
 31
0.0
  0
LINE
  5
17A
330
1F
100
AcDbEntity
  8
0
  6
SLD-Plná
 62
     7
370
    25
100
AcDbLine
 10
9701.2871177048
 20
3196.4005612737
 30
0.0
 11
9701.2871177048
 21
3426.9005612737
 31
0.0
  0
LINE
  5
17B
330
1F
100
AcDbEntity
  8
0
  6
SLD-Plná
 62
     7
370
    25
100
AcDbLine
 10
9510.7871177048
 20
3214.6505612737
 30
0.0
 11
9510.7871177048
 21
3214.4005612737
 31
0.0
  0
LINE
  5
17C
330
1F
100
AcDbEntity
  8
0
  6
SLD-Plná
 62
     7
370
    25
100
AcDbLine
 10
9570.7871177048
 20
3214.6505612737
 30
0.0
 11
9510.7871177048
 21
3214.6505612737
 31
0.0
  0
ARC
  5
17D
330
1F
100
AcDbEntity
  8
0
  6
SLD-Plná
 62
     7
370
    25
100
AcDbCircle
 10
9567.2871177048
 20
3281.4005612737
 30
0.0
 40
5.0
100
AcDbArc
 50
0.0
 51
90.0
  0
ARC
  5
17E
330
1F
100
AcDbEntity
  8
0
  6
SLD-Plná
 62
     7
370
    25
100
AcDbCircle
 10
9514.2871177048
 20
3281.4005612737
 30
0.0
 40
5.0
100
AcDbArc
 50
90.0
 51
180.0
  0
LINE
  5
17F
330
1F
100
AcDbEntity
  8
0
  6
SLD-Plná
 62
     7
370
    25
100
AcDbLine
 10
9504.2871177048
 20
3196.4005612737
 30
0.0
 11
9579.7871177048
 21
3196.4005612737
 31
0.0
  0
LINE
  5
180
330
1F
100
AcDbEntity
  8
0
  6
SLD-Plná
 62
     7
370
    25
100
AcDbLine
 10
9700.7871177048
 20
3427.9005612737
 30
0.0
 11
9504.7871177048
 21
3427.9005612737
 31
0.0
  0
LINE
  5
181
330
1F
100
AcDbEntity
  8
0
  6
SLD-Plná
 62
     7
370
    25
100
AcDbLine
 10
9570.7871177048
 20
3214.6505612737
 30
0.0
 11
9570.7871177048
 21
3214.4005612737
 31
0.0
  0
LINE
  5
182
330
1F
100
AcDbEntity
  8
0
  6
SLD-Plná
 62
     7
370
    25
100
AcDbLine
 10
9570.7871177048
 20
3214.4005612737
 30
0.0
 11
9572.2871177048
 21
3214.4005612737
 31
0.0
  0
LINE
  5
183
330
1F
100
AcDbEntity
  8
0
  6
SLD-Plná
 62
     7
370
    25
100
AcDbLine
 10
9694.7871177048
 20
3196.4005612737
 30
0.0
 11
9701.2871177048
 21
3196.4005612737
 31
0.0
  0
LINE
  5
184
330
1F
100
AcDbEntity
  8
0
  6
SLD-Plná
 62
     7
370
    25
100
AcDbLine
 10
9567.2871177048
 20
3286.4005612737
 30
0.0
 11
9514.2871177048
 21
3286.4005612737
 31
0.0
  0
LINE
  5
185
330
1F
100
AcDbEntity
  8
0
  6
SLD-Plná
 62
     7
370
    25
100
AcDbLine
 10
9582.2871177048
 20
3216.4005612737
 30
0.0
 11
9582.2871177048
 21
3198.9005612737
 31
0.0
  0
LINE
  5
186
330
1F
100
AcDbEntity
  8
0
  6
SLD-Plná
 62
     7
370
    25
100
AcDbLine
 10
9692.2871177048
 20
3198.9005612737
 30
0.0
 11
9692.2871177048
 21
3216.4005612737
 31
0.0
  0
ARC
  5
187
330
1F
100
AcDbEntity
  8
0
  6
SLD-Plná
 62
     7
370
    25
100
AcDbCircle
 10
9682.2871177048
 20
3216.4005612737
 30
0.0
 40
10.0
100
AcDbArc
 50
0.0
 51
90.0
  0
LINE
  5
188
330
1F
100
AcDbEntity
  8
0
  6
SLD-Plná
 62
     7
370
    25
100
AcDbLine
 10
9682.2871177048
 20
3226.4005612737
 30
0.0
 11
9592.2871177048
 21
3226.4005612737
 31
0.0
  0
ARC
  5
189
330
1F
100
AcDbEntity
  8
0
  6
SLD-Plná
 62
     7
370
    25
100
AcDbCircle
 10
9592.2871177048
 20
3216.4005612737
 30
0.0
 40
10.0
100
AcDbArc
 50
90.0
 51
180.0
  0
LINE
  5
18A
330
1F
100
AcDbEntity
  8
0
  6
SLD-Plná
 62
     7
370
    25
100
AcDbLine
 10
9572.2871177048
 20
3214.4005612737
 30
0.0
 11
9572.2871177048
 21
3281.4005612737
 31
0.0
  0
LINE
  5
18B
330
1F
100
AcDbEntity
  8
0
  6
SLD-Plná
 62
     7
370
    25
100
AcDbLine
 10
9701.2871177048
 20
3426.9005612737
 30
0.0
 11
9700.7871177048
 21
3426.9005612737
 31
0.0
  0
LINE
  5
18C
330
1F
100
AcDbEntity
  8
0
  6
SLD-Plná
 62
     7
370
    25
100
AcDbLine
 10
9504.7871177048
 20
3426.9005612737
 30
0.0
 11
9504.2871177048
 21
3426.9005612737
 31
0.0
  0
ARC
  5
18D
330
1F
100
AcDbEntity
  8
0
  6
SLD-Plná
 62
     7
370
    25
100
AcDbCircle
 10
9579.7871177048
 20
3198.9005612737
 30
0.0
 40
2.5
100
AcDbArc
 50
270.0
 51
0.0
  0
ARC
  5
18E
330
1F
100
AcDbEntity
  8
0
  6
SLD-Plná
 62
     7
370
    25
100
AcDbCircle
 10
9694.7871177048
 20
3198.9005612737
 30
0.0
 40
2.5
100
AcDbArc
 50
180.0
 51
270.0
  0
LINE
  5
18F
330
1F
100
AcDbEntity
  8
0
  6
SLD-Plná
 62
     7
370
    25
100
AcDbLine
 10
9509.2871177048
 20
3214.4005612737
 30
0.0
 11
9510.7871177048
 21
3214.4005612737
 31
0.0
  0
LINE
  5
190
330
1F
100
AcDbEntity
  8
0
  6
SLD-Plná
 62
     7
370
    25
100
AcDbLine
 10
9509.2871177048
 20
3281.4005612737
 30
0.0
 11
9509.2871177048
 21
3214.4005612737
 31
0.0
  0
LINE
  5
191
330
1F
100
AcDbEntity
  8
0
  6
SLD-Plná
 62
     7
370
    25
100
AcDbLine
 10
9504.7871177048
 20
3427.9005612737
 30
0.0
 11
9504.7871177048
 21
3426.9005612737
 31
0.0
  0
LINE
  5
192
330
1F
100
AcDbEntity
  8
0
  6
SLD-Plná
 62
     7
370
    25
100
AcDbLine
 10
9700.7871177048
 20
3426.9005612737
 30
0.0
 11
9700.7871177048
 21
3427.9005612737
 31
0.0
  0
LINE
  5
193
330
1F
100
AcDbEntity
  8
0
  6
SLD-Plná
 62
     7
370
    25
100
AcDbLine
 10
9504.7871177048
 20
3429.4005612737
 30
0.0
 11
9504.7871177048
 21
3429.6505612737
 31
0.0
  0
LINE
  5
194
330
1F
100
AcDbEntity
  8
0
  6
SLD-Plná
 62
     7
370
    25
100
AcDbLine
 10
9504.7871177048
 20
3429.6505612737
 30
0.0
 11
9700.7871177048
 21
3429.6505612737
 31
0.0
  0
LINE
  5
195
330
1F
100
AcDbEntity
  8
0
  6
SLD-Plná
 62
     7
370
    25
100
AcDbLine
 10
9700.7871177048
 20
3429.6505612737
 30
0.0
 11
9700.7871177048
 21
3429.4005612737
 31
0.0
  0
LINE
  5
196
330
1F
100
AcDbEntity
  8
0
  6
SLD-Plná
 62
     7
370
    25
100
AcDbLine
 10
9700.7871177048
 20
3429.4005612737
 30
0.0
 11
9700.7871177048
 21
3427.9005612737
 31
0.0
  0
LINE
  5
197
330
1F
100
AcDbEntity
  8
0
  6
SLD-Plná
 62
     7
370
    25
100
AcDbLine
 10
9504.7871177048
 20
3427.9005612737
 30
0.0
 11
9504.7871177048
 21
3429.4005612737
 31
0.0
  0
LINE
  5
198
330
1F
100
AcDbEntity
  8
0
  6
SLD-Plná
 62
     7
370
    25
100
AcDbLine
 10
9510.7871177048
 20
3214.6505612737
 30
0.0
 11
9510.7871177048
 21
3216.4005612737
 31
0.0
  0
LINE
  5
199
330
1F
100
AcDbEntity
  8
0
  6
SLD-Plná
 62
     7
370
    25
100
AcDbLine
 10
9510.7871177048
 20
3216.4005612737
 30
0.0
 11
9570.7871177048
 21
3216.4005612737
 31
0.0
  0
LINE
  5
19A
330
1F
100
AcDbEntity
  8
0
  6
SLD-Plná
 62
     7
370
    25
100
AcDbLine
 10
9570.7871177048
 20
3216.4005612737
 30
0.0
 11
9570.7871177048
 21
3214.6505612737
 31
0.0
  0
LINE
  5
19B
330
1F
100
AcDbEntity
  8
0
  6
SLD-Plná
 62
     7
370
    25
100
AcDbLine
 10
9503.2871177048
 20
3427.1005612737
 30
0.0
 11
9502.5371177048
 21
3427.1005612737
 31
0.0
  0
LINE
  5
19C
330
1F
100
AcDbEntity
  8
0
  6
SLD-Plná
 62
     7
370
    25
100
AcDbLine
 10
9503.2871177048
 20
3427.1005612737
 30
0.0
 11
9503.2871177048
 21
3426.9005612737
 31
0.0
  0
LINE
  5
19D
330
1F
100
AcDbEntity
  8
0
  6
SLD-Plná
 62
     7
370
    25
100
AcDbLine
 10
9502.5371177048
 20
3427.1005612737
 30
0.0
 11
9502.5371177048
 21
3426.9005612737
 31
0.0
  0
LINE
  5
19E
330
1F
100
AcDbEntity
  8
0
  6
SLD-Plná
 62
     7
370
    25
100
AcDbLine
 10
9702.2871177048
 20
3427.1005612737
 30
0.0
 11
9702.2871177048
 21
3426.9005612737
 31
0.0
  0
LINE
  5
19F
330
1F
100
AcDbEntity
  8
0
  6
SLD-Plná
 62
     7
370
    25
100
AcDbLine
 10
9702.2871177048
 20
3427.1005612737
 30
0.0
 11
9703.0371177048
 21
3427.1005612737
 31
0.0
  0
LINE
  5
1A0
330
1F
100
AcDbEntity
  8
0
  6
SLD-Plná
 62
     7
370
    25
100
AcDbLine
 10
9703.0371177048
 20
3427.1005612737
 30
0.0
 11
9703.0371177048
 21
3426.9005612737
 31
0.0
  0
LINE
  5
1A1
330
1F
100
AcDbEntity
  8
0
  6
SLD-Plná
 62
     7
370
    25
100
AcDbLine
 10
9504.2871177048
 20
3428.1005612737
 30
0.0
 11
9504.2871177048
 21
3428.8505612737
 31
0.0
  0
ARC
  5
1A2
330
1F
100
AcDbEntity
  8
0
  6
SLD-Plná
 62
     7
370
    25
100
AcDbCircle
 10
9504.2871177048
 20
3427.1005612737
 30
0.0
 40
1.75
100
AcDbArc
 50
90.0
 51
180.0
  0
ARC
  5
1A3
330
1F
100
AcDbEntity
  8
0
  6
SLD-Plná
 62
     7
370
    25
100
AcDbCircle
 10
9504.2871177048
 20
3427.1005612737
 30
0.0
 40
1.0
100
AcDbArc
 50
90.0
 51
180.0
  0
LINE
  5
1A4
330
1F
100
AcDbEntity
  8
0
  6
SLD-Plná
 62
     7
370
    25
100
AcDbLine
 10
9701.2871177048
 20
3428.1005612737
 30
0.0
 11
9701.2871177048
 21
3428.8505612737
 31
0.0
  0
ARC
  5
1A5
330
1F
100
AcDbEntity
  8
0
  6
SLD-Plná
 62
     7
370
    25
100
AcDbCircle
 10
9701.2871177048
 20
3427.1005612737
 30
0.0
 40
1.000000000001819
100
AcDbArc
 50
0.0
 51
90.0
  0
ARC
  5
1A6
330
1F
100
AcDbEntity
  8
0
  6
SLD-Plná
 62
     7
370
    25
100
AcDbCircle
 10
9701.2871177048
 20
3427.1005612737
 30
0.0
 40
1.750000000001819
100
AcDbArc
 50
0.0
 51
90.0
  0
LINE
  5
1A7
330
1F
100
AcDbEntity
  8
0
  6
SLD-Plná
 62
     7
370
    25
100
AcDbLine
 10
9701.2871177048
 20
3428.1005612737
 30
0.0
 11
9700.7871177048
 21
3428.1005612737
 31
0.0
  0
LINE
  5
1A8
330
1F
100
AcDbEntity
  8
0
  6
SLD-Plná
 62
     7
370
    25
100
AcDbLine
 10
9701.2871177048
 20
3428.8505612737
 30
0.0
 11
9700.7871177048
 21
3428.8505612737
 31
0.0
  0
LINE
  5
1A9
330
1F
100
AcDbEntity
  8
0
  6
SLD-Plná
 62
     7
370
    25
100
AcDbLine
 10
9504.7871177048
 20
3428.8505612737
 30
0.0
 11
9504.2871177048
 21
3428.8505612737
 31
0.0
  0
LINE
  5
1AA
330
1F
100
AcDbEntity
  8
0
  6
SLD-Plná
 62
     7
370
    25
100
AcDbLine
 10
9504.7871177048
 20
3428.1005612737
 30
0.0
 11
9504.2871177048
 21
3428.1005612737
 31
0.0
  0
LINE
  5
1AB
330
1F
100
AcDbEntity
  8
0
  6
SLD-Plná
 62
     7
370
    25
100
AcDbLine
 10
9582.2071177048
 20
3198.2731857881
 30
0.0
 11
9582.2071177048
 21
3198.1005612737
 31
0.0
  0
LINE
  5
1AC
330
1F
100
AcDbEntity
  8
0
  6
SLD-Plná
 62
     7
370
    25
100
AcDbLine
 10
9582.2071177048
 20
3198.1005612737
 30
0.0
 11
9582.2071177048
 21
3196.3505612737
 31
0.0
  0
LINE
  5
1AD
330
1F
100
AcDbEntity
  8
0
  6
SLD-Plná
 62
     7
370
    25
100
AcDbLine
 10
9582.2071177048
 20
3196.3505612737
 30
0.0
 11
9507.2121177048
 21
3196.3505612737
 31
0.0
  0
LINE
  5
1AE
330
1F
100
AcDbEntity
  8
0
  6
SLD-Plná
 62
     7
370
    25
100
AcDbLine
 10
9507.2121177048
 20
3196.4005612737
 30
0.0
 11
9507.2121177048
 21
3196.3505612737
 31
0.0
  0
LINE
  5
1AF
330
1F
100
AcDbEntity
  8
0
  6
SLD-Plná
 62
     7
370
    25
100
AcDbLine
 10
9587.2071177048
 20
3196.3505612737
 30
0.0
 11
9587.2071177048
 21
3197.1005612737
 31
0.0
  0
LINE
  5
1B0
330
1F
100
AcDbEntity
  8
0
  6
SLD-Plná
 62
     7
370
    25
100
AcDbLine
 10
9587.2071177048
 20
3197.1005612737
 30
0.0
 11
9582.2071177048
 21
3197.1005612737
 31
0.0
  0
LINE
  5
1B1
330
1F
100
AcDbEntity
  8
0
  6
SLD-Plná
 62
     7
370
    25
100
AcDbLine
 10
9582.2071177048
 20
3196.3505612737
 30
0.0
 11
9587.2071177048
 21
3196.3505612737
 31
0.0
  0
LWPOLYLINE
  5
1B2
330
1F
100
AcDbEntity
  8
0
  6
SLD-Plná
 62
     7
370
    25
100
AcDbPolyline
 90
        3
 70
   128
 43
0.0
 10
9506.4217865116
 20
3196.4005612737
 10
9506.4957096413
 20
3196.384187033
 10
9506.8371177048
 20
3196.3505612737
  0
LINE
  5
1B3
330
1F
100
AcDbEntity
  8
0
  6
SLD-Plná
 62
     7
370
    25
100
AcDbLine
 10
9693.0521825475
 20
3197.1005612737
 30
0.0
 11
9587.2071177048
 21
3197.1005612737
 31
0.0
  0
LINE
  5
1B4
330
1F
100
AcDbEntity
  8
0
  6
SLD-Plná
 62
     7
370
    25
100
AcDbLine
 10
9587.2071177048
 20
3196.3505612737
 30
0.0
 11
9698.7371177048
 21
3196.3505612737
 31
0.0
  0
LINE
  5
1B5
330
1F
100
AcDbEntity
  8
0
  6
SLD-Plná
 62
     7
370
    25
100
AcDbLine
 10
9507.2121177048
 20
3196.3505612737
 30
0.0
 11
9506.8371177048
 21
3196.3505612737
 31
0.0
  0
LWPOLYLINE
  5
1B6
330
1F
100
AcDbEntity
  8
0
  6
SLD-Plná
 62
     7
370
    25
100
AcDbPolyline
 90
        3
 70
   128
 43
0.0
 10
9698.7371177048
 20
3196.3505612737
 10
9699.0785257683
 20
3196.384187033
 10
9699.1524488979
 20
3196.4005612737
  0
LWPOLYLINE
  5
1B7
330
1F
100
AcDbEntity
  8
0
  6
SLD-Plná
 62
     7
370
    25
100
AcDbPolyline
 90
        3
 70
   128
 43
0.0
 10
9509.2871177048
 20
3225.327874681
 10
9509.5018467387
 20
3225.2768852988
 10
9510.0871177048
 20
3225.21924114
  0
LINE
  5
1B8
330
1F
100
AcDbEntity
  8
0
  6
SLD-Plná
 62
     7
370
    25
100
AcDbLine
 10
9510.0871177048
 20
3225.21924114
 30
0.0
 11
9572.2871177048
 21
3225.21924114
 31
0.0
  0
LINE
  5
1B9
330
1F
100
AcDbEntity
  8
0
  6
SLD-Plná
 62
     7
370
    25
100
AcDbLine
 10
9582.2071177048
 20
3198.1005612737
 30
0.0
 11
9583.0871177048
 21
3198.1005612737
 31
0.0
  0
LINE
  5
1BA
330
1F
100
AcDbEntity
  8
0
  6
SLD-Plná
 62
     7
370
    25
100
AcDbLine
 10
9591.2871177048
 20
3226.3504356448
 30
0.0
 11
9591.2871177048
 21
3201.1005612737
 31
0.0
  0
ARC
  5
1BB
330
1F
100
AcDbEntity
  8
0
  6
SLD-Plná
 62
     7
370
    25
100
AcDbCircle
 10
9588.2871177048
 20
3201.1005612737
 30
0.0
 40
3.0
100
AcDbArc
 50
270.0
 51
0.0
  0
LINE
  5
1BC
330
1F
100
AcDbEntity
  8
0
  6
SLD-Plná
 62
     7
370
    25
100
AcDbLine
 10
9583.0871177048
 20
3198.1005612737
 30
0.0
 11
9588.2871177048
 21
3198.1005612737
 31
0.0
  0
LINE
  5
1BD
330
1F
100
AcDbEntity
  8
0
  6
SLD-Plná
 62
     8
370
    25
100
AcDbLine
 10
9582.1556615612
 20
3198.1005612737
 30
0.0
 11
9582.2071177048
 21
3198.1005612737
 31
0.0
  0
LINE
  5
1BE
330
1F
100
AcDbEntity
  8
0
  6
SLD-Plná
 62
     8
370
    25
100
AcDbLine
 10
9572.2871177048
 20
3267.232329292
 30
0.0
 11
9509.2871177048
 21
3267.232329292
 31
0.0
  0
LINE
  5
1BF
330
1F
100
AcDbEntity
  8
0
  6
SLD-Plná
 62
     8
370
    25
100
AcDbLine
 10
9506.8371177048
 20
3196.4005612737
 30
0.0
 11
9506.8371177048
 21
3196.3505612737
 31
0.0
  0
LINE
  5
1C0
330
1F
100
AcDbEntity
  8
0
  6
SLD-Plná
 62
     8
370
    25
100
AcDbLine
 10
9698.7371177048
 20
3196.4005612737
 30
0.0
 11
9698.7371177048
 21
3196.3505612737
 31
0.0
  0
LINE
  5
1C1
330
1F
100
AcDbEntity
  8
0
  6
SLD-Plná
 62
     8
370
    25
100
AcDbLine
 10
9509.2871177048
 20
3266.6166678167
 30
0.0
 11
9572.2871177048
 21
3266.6166678167
 31
0.0
  0
LINE
  5
1C2
330
1F
100
AcDbEntity
  8
0
  6
SLD-Plná
 62
     8
370
    25
100
AcDbLine
 10
9583.0871177048
 20
3198.1005612737
 30
0.0
 11
9583.0871177048
 21
3220.3197448622
 31
0.0
  0
LINE
  5
1C3
330
1F
100
AcDbEntity
  8
0
  6
SLD-Plná
 62
     8
370
    25
100
AcDbLine
 10
9692.4185738483
 20
3198.1005612737
 30
0.0
 11
9588.2871177048
 21
3198.1005612737
 31
0.0
  0
LINE
  5
1C4
330
1F
100
AcDbEntity
  8
0
  6
SLD-Plná
 62
     7
370
    25
100
AcDbLine
 10
9908.5077113997
 20
3380.6505612737
 30
0.0
 11
9912.0077113997
 21
3385.6505612737
 31
0.0
  0
LINE
  5
1C5
330
1F
100
AcDbEntity
  8
0
  6
SLD-Plná
 62
     7
370
    25
100
AcDbLine
 10
9912.0077113997
 20
3399.6505612737
 30
0.0
 11
9908.5077113997
 21
3404.6505612737
 31
0.0
  0
LINE
  5
1C6
330
1F
100
AcDbEntity
  8
0
  6
SLD-Plná
 62
     7
370
    25
100
AcDbLine
 10
9906.5077113997
 20
3380.6505612737
 30
0.0
 11
9908.5077113997
 21
3380.6505612737
 31
0.0
  0
LINE
  5
1C7
330
1F
100
AcDbEntity
  8
0
  6
SLD-Plná
 62
     7
370
    25
100
AcDbLine
 10
9908.5077113997
 20
3404.6505612737
 30
0.0
 11
9906.5077113997
 21
3404.6505612737
 31
0.0
  0
LINE
  5
1C8
330
1F
100
AcDbEntity
  8
0
  6
SLD-Plná
 62
     7
370
    25
100
AcDbLine
 10
9890.5077113997
 20
3423.1505612737
 30
0.0
 11
9890.5077113997
 21
3199.4005612737
 31
0.0
  0
LINE
  5
1C9
330
1F
100
AcDbEntity
  8
0
  6
SLD-Plná
 62
     7
370
    25
100
AcDbLine
 10
9906.5177113997
 20
3302.7217432774
 30
0.0
 11
9906.5077113997
 21
3302.7217432774
 31
0.0
  0
LINE
  5
1CA
330
1F
100
AcDbEntity
  8
0
  6
SLD-Plná
 62
     7
370
    25
100
AcDbLine
 10
9906.5177113997
 20
3302.303944113
 30
0.0
 11
9906.5077113997
 21
3302.303944113
 31
0.0
  0
LINE
  5
1CB
330
1F
100
AcDbEntity
  8
0
  6
SLD-Plná
 62
     7
370
    25
100
AcDbLine
 10
9906.5177113997
 20
3304.7002393204
 30
0.0
 11
9906.5077113997
 21
3304.7002393204
 31
0.0
  0
LINE
  5
1CC
330
1F
100
AcDbEntity
  8
0
  6
SLD-Plná
 62
     7
370
    25
100
AcDbLine
 10
9906.5177113997
 20
3308.0978325252
 30
0.0
 11
9906.5077113997
 21
3308.0978325252
 31
0.0
  0
LINE
  5
1CD
330
1F
100
AcDbEntity
  8
0
  6
SLD-Plná
 62
     7
370
    25
100
AcDbLine
 10
9906.5177113997
 20
3310.5155276898
 30
0.0
 11
9906.5077113997
 21
3310.5155276898
 31
0.0
  0
LINE
  5
1CE
330
1F
100
AcDbEntity
  8
0
  6
SLD-Plná
 62
     7
370
    25
100
AcDbLine
 10
9906.5177113997
 20
3313.8485210238
 30
0.0
 11
9906.5077113997
 21
3313.8485210238
 31
0.0
  0
LINE
  5
1CF
330
1F
100
AcDbEntity
  8
0
  6
SLD-Plná
 62
     7
370
    25
100
AcDbLine
 10
9906.5177113997
 20
3311.4161258886
 30
0.0
 11
9906.5077113997
 21
3311.4161258886
 31
0.0
  0
LINE
  5
1D0
330
1F
100
AcDbEntity
  8
0
  6
SLD-Plná
 62
     7
370
    25
100
AcDbLine
 10
9906.5177113997
 20
3313.8485210238
 30
0.0
 11
9906.5177113997
 21
3311.4161258886
 31
0.0
  0
LINE
  5
1D1
330
1F
100
AcDbEntity
  8
0
  6
SLD-Plná
 62
     7
370
    25
100
AcDbLine
 10
9906.5177113997
 20
3325.9544968118
 30
0.0
 11
9906.5077113997
 21
3325.9544968118
 31
0.0
  0
LINE
  5
1D2
330
1F
100
AcDbEntity
  8
0
  6
SLD-Plná
 62
     7
370
    25
100
AcDbLine
 10
9906.5177113997
 20
3313.8485210238
 30
0.0
 11
9906.5177113997
 21
3325.9544968118
 31
0.0
  0
LINE
  5
1D3
330
1F
100
AcDbEntity
  8
0
  6
SLD-Plná
 62
     7
370
    25
100
AcDbLine
 10
9906.5177113997
 20
3311.4161258886
 30
0.0
 11
9906.5177113997
 21
3311.3231260746
 31
0.0
  0
LINE
  5
1D4
330
1F
100
AcDbEntity
  8
0
  6
SLD-Plná
 62
     7
370
    25
100
AcDbLine
 10
9906.5177113997
 20
3250.2449482312
 30
0.0
 11
9906.5077113997
 21
3250.2449482312
 31
0.0
  0
LINE
  5
1D5
330
1F
100
AcDbEntity
  8
0
  6
SLD-Plná
 62
     7
370
    25
100
AcDbLine
 10
9906.5177113997
 20
3247.6663533884
 30
0.0
 11
9906.5077113997
 21
3247.6663533884
 31
0.0
  0
LINE
  5
1D6
330
1F
100
AcDbEntity
  8
0
  6
SLD-Plná
 62
     7
370
    25
100
AcDbLine
 10
9906.5177113997
 20
3251.1351464508
 30
0.0
 11
9906.5077113997
 21
3251.1351464508
 31
0.0
  0
LINE
  5
1D7
330
1F
100
AcDbEntity
  8
0
  6
SLD-Plná
 62
     7
370
    25
100
AcDbLine
 10
9906.5177113997
 20
3246.1097565016
 30
0.0
 11
9906.5077113997
 21
3246.1097565016
 31
0.0
  0
LINE
  5
1D8
330
1F
100
AcDbEntity
  8
0
  6
SLD-Plná
 62
     7
370
    25
100
AcDbLine
 10
9906.5177113997
 20
3251.7592452026
 30
0.0
 11
9906.5077113997
 21
3251.7592452026
 31
0.0
  0
LINE
  5
1D9
330
1F
100
AcDbEntity
  8
0
  6
SLD-Plná
 62
     7
370
    25
100
AcDbLine
 10
9906.5177113997
 20
3252.3352440506
 30
0.0
 11
9906.5077113997
 21
3252.3352440506
 31
0.0
  0
LINE
  5
1DA
330
1F
100
AcDbEntity
  8
0
  6
SLD-Plná
 62
     7
370
    25
100
AcDbLine
 10
9906.5177113997
 20
3244.7486592238
 30
0.0
 11
9906.5077113997
 21
3244.7486592238
 31
0.0
  0
LINE
  5
1DB
330
1F
100
AcDbEntity
  8
0
  6
SLD-Plná
 62
     7
370
    25
100
AcDbLine
 10
9906.5177113997
 20
3253.348042025
 30
0.0
 11
9906.5077113997
 21
3253.348042025
 31
0.0
  0
LINE
  5
1DC
330
1F
100
AcDbEntity
  8
0
  6
SLD-Plná
 62
     7
370
    25
100
AcDbLine
 10
9906.5177113997
 20
3254.1813403584
 30
0.0
 11
9906.5077113997
 21
3254.1813403584
 31
0.0
  0
LINE
  5
1DD
330
1F
100
AcDbEntity
  8
0
  6
SLD-Plná
 62
     7
370
    25
100
AcDbLine
 10
9906.5177113997
 20
3243.6289614632
 30
0.0
 11
9906.5077113997
 21
3243.6289614632
 31
0.0
  0
LINE
  5
1DE
330
1F
100
AcDbEntity
  8
0
  6
SLD-Plná
 62
     7
370
    25
100
AcDbLine
 10
9906.5177113997
 20
3254.8521390168
 30
0.0
 11
9906.5077113997
 21
3254.8521390168
 31
0.0
  0
LINE
  5
1DF
330
1F
100
AcDbEntity
  8
0
  6
SLD-Plná
 62
     7
370
    25
100
AcDbLine
 10
9906.5177113997
 20
3242.7962631286
 30
0.0
 11
9906.5077113997
 21
3242.7962631286
 31
0.0
  0
LINE
  5
1E0
330
1F
100
AcDbEntity
  8
0
  6
SLD-Plná
 62
     7
370
    25
100
AcDbLine
 10
9906.5177113997
 20
3255.581037559
 30
0.0
 11
9906.5077113997
 21
3255.581037559
 31
0.0
  0
LINE
  5
1E1
330
1F
100
AcDbEntity
  8
0
  6
SLD-Plná
 62
     7
370
    25
100
AcDbLine
 10
9906.5177113997
 20
3268.441511838
 30
0.0
 11
9906.5077113997
 21
3268.441511838
 31
0.0
  0
LINE
  5
1E2
330
1F
100
AcDbEntity
  8
0
  6
SLD-Plná
 62
     7
370
    25
100
AcDbLine
 10
9906.5177113997
 20
3259.6939293332
 30
0.0
 11
9906.5077113997
 21
3259.6939293332
 31
0.0
  0
LINE
  5
1E3
330
1F
100
AcDbEntity
  8
0
  6
SLD-Plná
 62
     7
370
    25
100
AcDbLine
 10
9906.5177113997
 20
3268.441511838
 30
0.0
 11
9906.5177113997
 21
3259.6939293332
 31
0.0
  0
LINE
  5
1E4
330
1F
100
AcDbEntity
  8
0
  6
SLD-Plná
 62
     7
370
    25
100
AcDbLine
 10
9906.5177113997
 20
3259.6939293332
 30
0.0
 11
9906.5177113997
 21
3255.581037559
 31
0.0
  0
LINE
  5
1E5
330
1F
100
AcDbEntity
  8
0
  6
SLD-Plná
 62
     7
370
    25
100
AcDbLine
 10
9906.5177113997
 20
3242.3004641202
 30
0.0
 11
9906.5077113997
 21
3242.3004641202
 31
0.0
  0
LINE
  5
1E6
330
1F
100
AcDbEntity
  8
0
  6
SLD-Plná
 62
     7
370
    25
100
AcDbLine
 10
9906.5177113997
 20
3242.1958643294
 30
0.0
 11
9906.5077113997
 21
3242.1958643294
 31
0.0
  0
LINE
  5
1E7
330
1F
100
AcDbEntity
  8
0
  6
SLD-Plná
 62
     7
370
    25
100
AcDbLine
 10
9906.5177113997
 20
3268.6638113934
 30
0.0
 11
9906.5077113997
 21
3268.6638113934
 31
0.0
  0
LINE
  5
1E8
330
1F
100
AcDbEntity
  8
0
  6
SLD-Plná
 62
     7
370
    25
100
AcDbLine
 10
9906.5177113997
 20
3269.8869089472
 30
0.0
 11
9906.5077113997
 21
3269.8869089472
 31
0.0
  0
LINE
  5
1E9
330
1F
100
AcDbEntity
  8
0
  6
SLD-Plná
 62
     7
370
    25
100
AcDbLine
 10
9906.5177113997
 20
3270.9583068044
 30
0.0
 11
9906.5077113997
 21
3270.9583068044
 31
0.0
  0
LINE
  5
1EA
330
1F
100
AcDbEntity
  8
0
  6
SLD-Plná
 62
     7
370
    25
100
AcDbLine
 10
9906.5177113997
 20
3271.392505936
 30
0.0
 11
9906.5077113997
 21
3271.392505936
 31
0.0
  0
LINE
  5
1EB
330
1F
100
AcDbEntity
  8
0
  6
SLD-Plná
 62
     7
370
    25
100
AcDbLine
 10
9906.5177113997
 20
3271.392505936
 30
0.0
 11
9906.5177113997
 21
3270.9583068044
 31
0.0
  0
LINE
  5
1EC
330
1F
100
AcDbEntity
  8
0
  6
SLD-Plná
 62
     7
370
    25
100
AcDbLine
 10
9906.5177113997
 20
3271.7346052518
 30
0.0
 11
9906.5077113997
 21
3271.7346052518
 31
0.0
  0
LINE
  5
1ED
330
1F
100
AcDbEntity
  8
0
  6
SLD-Plná
 62
     7
370
    25
100
AcDbLine
 10
9906.5177113997
 20
3271.9698047814
 30
0.0
 11
9906.5077113997
 21
3271.9698047814
 31
0.0
  0
LINE
  5
1EE
330
1F
100
AcDbEntity
  8
0
  6
SLD-Plná
 62
     7
370
    25
100
AcDbLine
 10
9906.5177113997
 20
3272.0437046336
 30
0.0
 11
9906.5077113997
 21
3272.0437046336
 31
0.0
  0
LINE
  5
1EF
330
1F
100
AcDbEntity
  8
0
  6
SLD-Plná
 62
     7
370
    25
100
AcDbLine
 10
9906.5177113997
 20
3272.0869045472
 30
0.0
 11
9906.5077113997
 21
3272.0869045472
 31
0.0
  0
LINE
  5
1F0
330
1F
100
AcDbEntity
  8
0
  6
SLD-Plná
 62
     7
370
    25
100
AcDbLine
 10
9908.5077113997
 20
3380.6505612737
 30
0.0
 11
9908.5077113997
 21
3404.6505612737
 31
0.0
  0
LINE
  5
1F1
330
1F
100
AcDbEntity
  8
0
  6
SLD-Plná
 62
     7
370
    25
100
AcDbLine
 10
9912.0077113997
 20
3385.6505612737
 30
0.0
 11
9912.0077113997
 21
3399.6505612737
 31
0.0
  0
LINE
  5
1F2
330
1F
100
AcDbEntity
  8
0
  6
SLD-Plná
 62
     7
370
    25
100
AcDbLine
 10
9891.6827113997
 20
3423.1505612737
 30
0.0
 11
9891.3077113997
 21
3423.1505612737
 31
0.0
  0
LINE
  5
1F3
330
1F
100
AcDbEntity
  8
0
  6
SLD-Plná
 62
     7
370
    25
100
AcDbLine
 10
9891.6827113997
 20
3423.8505612737
 30
0.0
 11
9891.6827113997
 21
3423.1505612737
 31
0.0
  0
LINE
  5
1F4
330
1F
100
AcDbEntity
  8
0
  6
SLD-Plná
 62
     7
370
    25
100
AcDbLine
 10
9890.5077113997
 20
3425.0255612737
 30
0.0
 11
9891.6827113997
 21
3423.8505612737
 31
0.0
  0
LINE
  5
1F5
330
1F
100
AcDbEntity
  8
0
  6
SLD-Plná
 62
     7
370
    25
100
AcDbLine
 10
9890.5077113997
 20
3425.0255612737
 30
0.0
 11
9890.5077113997
 21
3427.1005612737
 31
0.0
  0
LINE
  5
1F6
330
1F
100
AcDbEntity
  8
0
  6
SLD-Plná
 62
     7
370
    25
100
AcDbLine
 10
9904.7577113997
 20
3427.1005612737
 30
0.0
 11
9890.5077113997
 21
3427.1005612737
 31
0.0
  0
LINE
  5
1F7
330
1F
100
AcDbEntity
  8
0
  6
SLD-Plná
 62
     7
370
    25
100
AcDbLine
 10
9904.7577113997
 20
3427.1005612737
 30
0.0
 11
9904.7577113997
 21
3426.9005612737
 31
0.0
  0
LINE
  5
1F8
330
1F
100
AcDbEntity
  8
0
  6
SLD-Plná
 62
     7
370
    25
100
AcDbLine
 10
9904.7577113997
 20
3196.4005612737
 30
0.0
 11
9904.7577113997
 21
3426.9005612737
 31
0.0
  0
LINE
  5
1F9
330
1F
100
AcDbEntity
  8
0
  6
SLD-Plná
 62
     7
370
    25
100
AcDbLine
 10
9904.7577113997
 20
3196.4005612737
 30
0.0
 11
9893.5077113997
 21
3196.4005612737
 31
0.0
  0
ARC
  5
1FA
330
1F
100
AcDbEntity
  8
0
  6
SLD-Plná
 62
     7
370
    25
100
AcDbCircle
 10
9893.5077113997
 20
3199.4005612737
 30
0.0
 40
3.000000000000659
100
AcDbArc
 50
222.8334280661
 51
270.0
  0
LINE
  5
1FB
330
1F
100
AcDbEntity
  8
0
  6
SLD-Plná
 62
     7
370
    25
100
AcDbLine
 10
9891.3077113997
 20
3423.1505612737
 30
0.0
 11
9891.3077113997
 21
3197.3609534683
 31
0.0
  0
LINE
  5
1FC
330
1F
100
AcDbEntity
  8
0
  6
SLD-Plná
 62
     7
370
    25
100
AcDbLine
 10
9890.5077113997
 20
3423.1505612737
 30
0.0
 11
9891.3077113997
 21
3423.1505612737
 31
0.0
  0
SPLINE
  5
1FD
330
1F
100
AcDbEntity
  8
0
  6
SLD-Plná
 62
     7
370
    25
100
AcDbSpline
210
0.0
220
0.0
230
1.0
 70
     8
 71
     3
 72
    10
 73
     6
 74
     0
 42
0.00000001
 43
0.00000001
 40
0.0
 40
0.0
 40
0.0
 40
0.0
 40
0.2433986088717696
 40
0.6175130390052287
 40
1.0
 40
1.0
 40
1.0
 40
1.0
 10
9891.307711399651
 20
3197.360953468271
 30
0.0
 10
9891.184498217302
 20
3197.511316732438
 30
0.0
 10
9890.871900922562
 20
3197.892794985916
 30
0.0
 10
9890.572223573838
 20
3198.592776349653
 30
0.0
 10
9890.52937351691
 20
3199.129320504576
 30
0.0
 10
9890.507711399652
 20
3199.400561273708
 30
0.0
  0
LINE
  5
1FE
330
1F
100
AcDbEntity
  8
0
  6
SLD-Plná
 62
     7
370
    25
100
AcDbLine
 10
9890.5077113997
 20
3428.8505612737
 30
0.0
 11
9904.7577113997
 21
3428.8505612737
 31
0.0
  0
LINE
  5
1FF
330
1F
100
AcDbEntity
  8
0
  6
SLD-Plná
 62
     7
370
    25
100
AcDbLine
 10
9904.7577113997
 20
3428.8505612737
 30
0.0
 11
9904.7577113997
 21
3427.1005612737
 31
0.0
  0
LINE
  5
200
330
1F
100
AcDbEntity
  8
0
  6
SLD-Plná
 62
     7
370
    25
100
AcDbLine
 10
9890.5077113997
 20
3427.1005612737
 30
0.0
 11
9890.5077113997
 21
3428.8505612737
 31
0.0
  0
LINE
  5
201
330
1F
100
AcDbEntity
  8
0
  6
SLD-Plná
 62
     7
370
    25
100
AcDbLine
 10
9906.5077113997
 20
3196.4005612737
 30
0.0
 11
9904.7577113997
 21
3196.4005612737
 31
0.0
  0
LINE
  5
202
330
1F
100
AcDbEntity
  8
0
  6
SLD-Plná
 62
     7
370
    25
100
AcDbLine
 10
9905.6590992185
 20
3426.9005612737
 30
0.0
 11
9906.5077113997
 21
3426.9005612737
 31
0.0
  0
LINE
  5
203
330
1F
100
AcDbEntity
  8
0
  6
SLD-Plná
 62
     7
370
    25
100
AcDbLine
 10
9906.5077113997
 20
3426.9005612737
 30
0.0
 11
9906.5077113997
 21
3196.4005612737
 31
0.0
  0
LINE
  5
204
330
1F
100
AcDbEntity
  8
0
  6
SLD-Plná
 62
     7
370
    25
100
AcDbLine
 10
9904.7577113997
 20
3426.9005612737
 30
0.0
 11
9905.6590992185
 21
3426.9005612737
 31
0.0
  0
LINE
  5
205
330
1F
100
AcDbEntity
  8
0
  6
SLD-Plná
 62
     7
370
    25
100
AcDbLine
 10
9890.5077113997
 20
3429.6505612737
 30
0.0
 11
9890.5077113997
 21
3428.9005612737
 31
0.0
  0
LINE
  5
206
330
1F
100
AcDbEntity
  8
0
  6
SLD-Plná
 62
     7
370
    25
100
AcDbLine
 10
9904.7577113997
 20
3429.6505612737
 30
0.0
 11
9890.5077113997
 21
3429.6505612737
 31
0.0
  0
LINE
  5
207
330
1F
100
AcDbEntity
  8
0
  6
SLD-Plná
 62
     7
370
    25
100
AcDbLine
 10
9904.7577113997
 20
3428.9005612737
 30
0.0
 11
9904.7577113997
 21
3429.6505612737
 31
0.0
  0
LINE
  5
208
330
1F
100
AcDbEntity
  8
0
  6
SLD-Plná
 62
     7
370
    25
100
AcDbLine
 10
9904.7577113997
 20
3428.9005612737
 30
0.0
 11
9890.5077113997
 21
3428.9005612737
 31
0.0
  0
LINE
  5
209
330
1F
100
AcDbEntity
  8
0
  6
SLD-Plná
 62
     7
370
    25
100
AcDbLine
 10
9905.5077113997
 20
3428.5619991015
 30
0.0
 11
9905.5077113997
 21
3429.4005612737
 31
0.0
  0
ARC
  5
20A
330
1F
100
AcDbEntity
  8
0
  6
SLD-Plná
 62
     7
370
    25
100
AcDbCircle
 10
9904.7577113997
 20
3427.9005612737
 30
0.0
 40
0.9999999999998325
100
AcDbArc
 50
41.4096221093
 51
90.0
  0
LINE
  5
20B
330
1F
100
AcDbEntity
  8
0
  6
SLD-Plná
 62
     7
370
    25
100
AcDbLine
 10
9905.6590992185
 20
3429.4005612737
 30
0.0
 11
9905.5077113997
 21
3429.4005612737
 31
0.0
  0
ARC
  5
20C
330
1F
100
AcDbEntity
  8
0
  6
SLD-Plná
 62
     7
370
    25
100
AcDbCircle
 10
9904.7577113997
 20
3427.9005612737
 30
0.0
 40
1.75
100
AcDbArc
 50
58.9972808661
 51
90.0
  0
LINE
  5
20D
330
1F
100
AcDbEntity
  8
0
  6
SLD-Plná
 62
     7
370
    25
100
AcDbLine
 10
9905.7577113997
 20
3427.9005612737
 30
0.0
 11
9906.5077113997
 21
3427.9005612737
 31
0.0
  0
LINE
  5
20E
330
1F
100
AcDbEntity
  8
0
  6
SLD-Plná
 62
     7
370
    25
100
AcDbLine
 10
9906.5077113997
 20
3427.9005612737
 30
0.0
 11
9906.5077113997
 21
3426.9005612737
 31
0.0
  0
LINE
  5
20F
330
1F
100
AcDbEntity
  8
0
  6
SLD-Plná
 62
     7
370
    25
100
AcDbLine
 10
9905.7577113997
 20
3427.9005612737
 30
0.0
 11
9905.7577113997
 21
3426.9005612737
 31
0.0
  0
ARC
  5
210
330
1F
100
AcDbEntity
  8
0
  6
SLD-Plná
 62
     7
370
    25
100
AcDbCircle
 10
9904.7577113997
 20
3427.9005612737
 30
0.0
 40
1.0
100
AcDbArc
 50
0.0
 51
41.4096221093
  0
ARC
  5
211
330
1F
100
AcDbEntity
  8
0
  6
SLD-Plná
 62
     7
370
    25
100
AcDbCircle
 10
9904.7577113997
 20
3427.9005612737
 30
0.0
 40
1.75
100
AcDbArc
 50
0.0
 51
58.9972808661
  0
LINE
  5
212
330
1F
100
AcDbEntity
  8
0
  6
SLD-Plná
 62
     7
370
    25
100
AcDbLine
 10
9806.0577113997
 20
3426.3505612737
 30
0.0
 11
9806.0577113997
 21
3198.1005612737
 31
0.0
  0
LINE
  5
213
330
1F
100
AcDbEntity
  8
0
  6
SLD-Plná
 62
     7
370
    25
100
AcDbLine
 10
9806.0577113997
 20
3426.3505612737
 30
0.0
 11
9890.5077113997
 21
3426.3505612737
 31
0.0
  0
LINE
  5
214
330
1F
100
AcDbEntity
  8
0
  6
SLD-Plná
 62
     7
370
    25
100
AcDbLine
 10
9890.8344188175
 20
3198.1005612737
 30
0.0
 11
9806.0577113997
 21
3198.1005612737
 31
0.0
  0
LINE
  5
215
330
1F
100
AcDbEntity
  8
0
  6
SLD-Plná
 62
     7
370
    25
100
AcDbLine
 10
9842.3077113997
 20
3230.8505612737
 30
0.0
 11
9842.3077113997
 21
3282.8505612737
 31
0.0
  0
ARC
  5
216
330
1F
100
AcDbEntity
  8
0
  6
SLD-Plná
 62
     7
370
    25
100
AcDbCircle
 10
9838.3077113997
 20
3282.8505612737
 30
0.0
 40
4.0
100
AcDbArc
 50
0.0
 51
180.0
  0
LINE
  5
217
330
1F
100
AcDbEntity
  8
0
  6
SLD-Plná
 62
     7
370
    25
100
AcDbLine
 10
9834.3077113997
 20
3282.8505612737
 30
0.0
 11
9834.3077113997
 21
3230.8505612737
 31
0.0
  0
ARC
  5
218
330
1F
100
AcDbEntity
  8
0
  6
SLD-Plná
 62
     7
370
    25
100
AcDbCircle
 10
9838.3077113997
 20
3230.8505612737
 30
0.0
 40
4.0
100
AcDbArc
 50
180.0
 51
0.0
  0
LINE
  5
219
330
1F
100
AcDbEntity
  8
0
  6
SLD-Plná
 62
     7
370
    25
100
AcDbLine
 10
9804.3077113997
 20
3426.3505612737
 30
0.0
 11
9806.0577113997
 21
3426.3505612737
 31
0.0
  0
LINE
  5
21A
330
1F
100
AcDbEntity
  8
0
  6
SLD-Plná
 62
     7
370
    25
100
AcDbLine
 10
9804.3077113997
 20
3198.1005612737
 30
0.0
 11
9804.3077113997
 21
3426.3505612737
 31
0.0
  0
LINE
  5
21B
330
1F
100
AcDbEntity
  8
0
  6
SLD-Plná
 62
     7
370
    25
100
AcDbLine
 10
9806.0577113997
 20
3198.1005612737
 30
0.0
 11
9804.3077113997
 21
3198.1005612737
 31
0.0
  0
LINE
  5
21C
330
1F
100
AcDbEntity
  8
0
  6
SLD-Plná
 62
     7
370
    25
100
AcDbLine
 10
9879.3077113997
 20
3198.1005612737
 30
0.0
 11
9879.3077113997
 21
3196.3505612737
 31
0.0
  0
LINE
  5
21D
330
1F
100
AcDbEntity
  8
0
  6
SLD-Plná
 62
     7
370
    25
100
AcDbLine
 10
9879.3077113997
 20
3196.3505612737
 30
0.0
 11
9815.3077113997
 21
3196.3505612737
 31
0.0
  0
LINE
  5
21E
330
1F
100
AcDbEntity
  8
0
  6
SLD-Plná
 62
     7
370
    25
100
AcDbLine
 10
9815.3077113997
 20
3196.3505612737
 30
0.0
 11
9815.3077113997
 21
3198.1005612737
 31
0.0
  0
ARC
  5
21F
330
1F
100
AcDbEntity
  8
0
  6
SLD-Plná
 62
     7
370
    25
100
AcDbCircle
 10
9806.0577113997
 20
3198.1005612737
 30
0.0
 40
1.000000000000455
100
AcDbArc
 50
180.0
 51
270.0
  0
ARC
  5
220
330
1F
100
AcDbEntity
  8
0
  6
SLD-Plná
 62
     7
370
    25
100
AcDbCircle
 10
9806.0577113997
 20
3198.1005612737
 30
0.0
 40
1.750000000000455
100
AcDbArc
 50
180.0
 51
270.0
  0
LINE
  5
221
330
1F
100
AcDbEntity
  8
0
  6
SLD-Plná
 62
     7
370
    25
100
AcDbLine
 10
9815.3077113997
 20
3196.3505612737
 30
0.0
 11
9806.0577113997
 21
3196.3505612737
 31
0.0
  0
LINE
  5
222
330
1F
100
AcDbEntity
  8
0
  6
SLD-Plná
 62
     7
370
    25
100
AcDbLine
 10
9815.3077113997
 20
3197.1005612737
 30
0.0
 11
9806.0577113997
 21
3197.1005612737
 31
0.0
  0
LWPOLYLINE
  5
223
330
1F
100
AcDbEntity
  8
0
  6
SLD-Plná
 62
     7
370
    25
100
AcDbPolyline
 90
        3
 70
   128
 43
0.0
 10
9901.9730425928
 20
3196.4005612737
 10
9901.8991194632
 20
3196.384187033
 10
9901.5577113997
 20
3196.3505612737
  0
LINE
  5
224
330
1F
100
AcDbEntity
  8
0
  6
SLD-Plná
 62
     7
370
    25
100
AcDbLine
 10
9901.5577113997
 20
3196.3505612737
 30
0.0
 11
9879.3077113997
 21
3196.3505612737
 31
0.0
  0
LINE
  5
225
330
1F
100
AcDbEntity
  8
0
  6
SLD-Plná
 62
     7
370
    25
100
AcDbLine
 10
9891.5815753712
 20
3197.1005612737
 30
0.0
 11
9879.3077113997
 21
3197.1005612737
 31
0.0
  0
ARC
  5
226
330
1F
100
AcDbEntity
  8
0
  6
SLD-Plná
 62
     7
370
    25
100
AcDbCircle
 10
9806.0577113997
 20
3425.6005612737
 30
0.0
 40
1.000000000000133
100
AcDbArc
 50
104.4775121859
 51
131.4096221093
  0
ARC
  5
227
330
1F
100
AcDbEntity
  8
0
  6
SLD-Plná
 62
     7
370
    25
100
AcDbCircle
 10
9806.0577113997
 20
3425.6005612737
 30
0.0
 40
1.750000000000188
100
AcDbArc
 50
98.2132107017
 51
154.6230664749
  0
LINE
  5
228
330
1F
100
AcDbEntity
  8
0
  6
SLD-Plná
 62
     7
370
    25
100
AcDbLine
 10
9805.8077113997
 20
3428.1005612737
 30
0.0
 11
9890.5077113997
 21
3428.1005612737
 31
0.0
  0
LINE
  5
229
330
1F
100
AcDbEntity
  8
0
  6
SLD-Plná
 62
     7
370
    25
100
AcDbLine
 10
9805.8077113997
 20
3426.3505612737
 30
0.0
 11
9805.8077113997
 21
3428.1005612737
 31
0.0
  0
LINE
  5
22A
330
1F
100
AcDbEntity
  8
0
  6
SLD-Plná
 62
     7
370
    25
100
AcDbLine
 10
9590.7871177048
 20
2992.0432065122
 30
0.0
 11
9595.7871177048
 21
2988.5432065122
 31
0.0
  0
LINE
  5
22B
330
1F
100
AcDbEntity
  8
0
  6
SLD-Plná
 62
     7
370
    25
100
AcDbLine
 10
9609.7871177048
 20
2988.5432065122
 30
0.0
 11
9614.7871177048
 21
2992.0432065122
 31
0.0
  0
LINE
  5
22C
330
1F
100
AcDbEntity
  8
0
  6
SLD-Plná
 62
     7
370
    25
100
AcDbLine
 10
9590.7871177048
 20
2994.0432065122
 30
0.0
 11
9590.7871177048
 21
2992.0432065122
 31
0.0
  0
LINE
  5
22D
330
1F
100
AcDbEntity
  8
0
  6
SLD-Plná
 62
     7
370
    25
100
AcDbLine
 10
9614.7871177048
 20
2992.0432065122
 30
0.0
 11
9614.7871177048
 21
2994.0432065122
 31
0.0
  0
LINE
  5
22E
330
1F
100
AcDbEntity
  8
0
  6
SLD-Plná
 62
     7
370
    25
100
AcDbLine
 10
9546.3381279448
 20
2994.0332065122
 30
0.0
 11
9546.3381279448
 21
2994.0432065122
 31
0.0
  0
LINE
  5
22F
330
1F
100
AcDbEntity
  8
0
  6
SLD-Plná
 62
     7
370
    25
100
AcDbLine
 10
9534.4886516438
 20
2994.0332065122
 30
0.0
 11
9534.4886516438
 21
2994.0432065122
 31
0.0
  0
LINE
  5
230
330
1F
100
AcDbEntity
  8
0
  6
SLD-Plná
 62
     7
370
    25
100
AcDbLine
 10
9534.4886516438
 20
2994.0332065122
 30
0.0
 11
9546.3381279448
 21
2994.0332065122
 31
0.0
  0
LINE
  5
231
330
1F
100
AcDbEntity
  8
0
  6
SLD-Plná
 62
     7
370
    25
100
AcDbLine
 10
9533.4162537886
 20
2994.0332065122
 30
0.0
 11
9533.4162537886
 21
2994.0432065122
 31
0.0
  0
LINE
  5
232
330
1F
100
AcDbEntity
  8
0
  6
SLD-Plná
 62
     7
370
    25
100
AcDbLine
 10
9531.4327577556
 20
2994.0332065122
 30
0.0
 11
9531.4327577556
 21
2994.0432065122
 31
0.0
  0
LINE
  5
233
330
1F
100
AcDbEntity
  8
0
  6
SLD-Plná
 62
     7
370
    25
100
AcDbLine
 10
9528.0562645086
 20
2994.0332065122
 30
0.0
 11
9528.0562645086
 21
2994.0432065122
 31
0.0
  0
LINE
  5
234
330
1F
100
AcDbEntity
  8
0
  6
SLD-Plná
 62
     7
370
    25
100
AcDbLine
 10
9647.2271261664
 20
2994.0332065122
 30
0.0
 11
9647.2271261664
 21
2994.0432065122
 31
0.0
  0
LINE
  5
235
330
1F
100
AcDbEntity
  8
0
  6
SLD-Plná
 62
     7
370
    25
100
AcDbLine
 10
9646.3885278436
 20
2994.0332065122
 30
0.0
 11
9646.3885278436
 21
2994.0432065122
 31
0.0
  0
LINE
  5
236
330
1F
100
AcDbEntity
  8
0
  6
SLD-Plná
 62
     7
370
    25
100
AcDbLine
 10
9645.8711288784
 20
2994.0332065122
 30
0.0
 11
9645.8711288784
 21
2994.0432065122
 31
0.0
  0
LINE
  5
237
330
1F
100
AcDbEntity
  8
0
  6
SLD-Plná
 62
     7
370
    25
100
AcDbLine
 10
9648.0456245294
 20
2994.0332065122
 30
0.0
 11
9648.0456245294
 21
2994.0432065122
 31
0.0
  0
LINE
  5
238
330
1F
100
AcDbEntity
  8
0
  6
SLD-Plná
 62
     7
370
    25
100
AcDbLine
 10
9648.0456245294
 20
2994.0332065122
 30
0.0
 11
9647.2271261664
 21
2994.0332065122
 31
0.0
  0
LINE
  5
239
330
1F
100
AcDbEntity
  8
0
  6
SLD-Plná
 62
     7
370
    25
100
AcDbLine
 10
9645.37532987
 20
2994.0332065122
 30
0.0
 11
9645.37532987
 21
2994.0432065122
 31
0.0
  0
LINE
  5
23A
330
1F
100
AcDbEntity
  8
0
  6
SLD-Plná
 62
     7
370
    25
100
AcDbLine
 10
9650.9754186698
 20
2994.0332065122
 30
0.0
 11
9650.9754186698
 21
2994.0432065122
 31
0.0
  0
LINE
  5
23B
330
1F
100
AcDbEntity
  8
0
  6
SLD-Plná
 62
     7
370
    25
100
AcDbLine
 10
9644.4487317232
 20
2994.0332065122
 30
0.0
 11
9644.4487317232
 21
2994.0432065122
 31
0.0
  0
LINE
  5
23C
330
1F
100
AcDbEntity
  8
0
  6
SLD-Plná
 62
     7
370
    25
100
AcDbLine
 10
9643.6109333988
 20
2994.0332065122
 30
0.0
 11
9643.6109333988
 21
2994.0432065122
 31
0.0
  0
LINE
  5
23D
330
1F
100
AcDbEntity
  8
0
  6
SLD-Plná
 62
     7
370
    25
100
AcDbLine
 10
9642.8642348922
 20
2994.0332065122
 30
0.0
 11
9642.8642348922
 21
2994.0432065122
 31
0.0
  0
LINE
  5
23E
330
1F
100
AcDbEntity
  8
0
  6
SLD-Plná
 62
     7
370
    25
100
AcDbLine
 10
9643.6109333988
 20
2994.0332065122
 30
0.0
 11
9642.8642348922
 21
2994.0332065122
 31
0.0
  0
LINE
  5
23F
330
1F
100
AcDbEntity
  8
0
  6
SLD-Plná
 62
     7
370
    25
100
AcDbLine
 10
9641.6377373452
 20
2994.0332065122
 30
0.0
 11
9641.6377373452
 21
2994.0432065122
 31
0.0
  0
LINE
  5
240
330
1F
100
AcDbEntity
  8
0
  6
SLD-Plná
 62
     7
370
    25
100
AcDbLine
 10
9652.1425163356
 20
2994.0332065122
 30
0.0
 11
9652.1425163356
 21
2994.0432065122
 31
0.0
  0
LINE
  5
241
330
1F
100
AcDbEntity
  8
0
  6
SLD-Plná
 62
     7
370
    25
100
AcDbLine
 10
9640.723339174
 20
2994.0332065122
 30
0.0
 11
9640.723339174
 21
2994.0432065122
 31
0.0
  0
LINE
  5
242
330
1F
100
AcDbEntity
  8
0
  6
SLD-Plná
 62
     7
370
    25
100
AcDbLine
 10
9653.0407145392
 20
2994.0332065122
 30
0.0
 11
9653.0407145392
 21
2994.0432065122
 31
0.0
  0
LINE
  5
243
330
1F
100
AcDbEntity
  8
0
  6
SLD-Plná
 62
     7
370
    25
100
AcDbLine
 10
9640.4649396908
 20
2994.0332065122
 30
0.0
 11
9640.4649396908
 21
2994.0432065122
 31
0.0
  0
LINE
  5
244
330
1F
100
AcDbEntity
  8
0
  6
SLD-Plná
 62
     7
370
    25
100
AcDbLine
 10
9636.6421473364
 20
2994.0332065122
 30
0.0
 11
9636.6421473364
 21
2994.0432065122
 31
0.0
  0
LINE
  5
245
330
1F
100
AcDbEntity
  8
0
  6
SLD-Plná
 62
     7
370
    25
100
AcDbLine
 10
9640.4649396908
 20
2994.0332065122
 30
0.0
 11
9636.6421473364
 21
2994.0332065122
 31
0.0
  0
LINE
  5
246
330
1F
100
AcDbEntity
  8
0
  6
SLD-Plná
 62
     7
370
    25
100
AcDbLine
 10
9627.689865241
 20
2994.0332065122
 30
0.0
 11
9627.689865241
 21
2994.0432065122
 31
0.0
  0
LINE
  5
247
330
1F
100
AcDbEntity
  8
0
  6
SLD-Plná
 62
     7
370
    25
100
AcDbLine
 10
9636.6421473364
 20
2994.0332065122
 30
0.0
 11
9627.689865241
 21
2994.0332065122
 31
0.0
  0
LINE
  5
248
330
1F
100
AcDbEntity
  8
0
  6
SLD-Plná
 62
     7
370
    25
100
AcDbLine
 10
9653.6106133994
 20
2994.0332065122
 30
0.0
 11
9653.6106133994
 21
2994.0432065122
 31
0.0
  0
LINE
  5
249
330
1F
100
AcDbEntity
  8
0
  6
SLD-Plná
 62
     7
370
    25
100
AcDbLine
 10
9626.6821672564
 20
2994.0332065122
 30
0.0
 11
9626.6821672564
 21
2994.0432065122
 31
0.0
  0
LINE
  5
24A
330
1F
100
AcDbEntity
  8
0
  6
SLD-Plná
 62
     7
370
    25
100
AcDbLine
 10
9625.8644688918
 20
2994.0332065122
 30
0.0
 11
9625.8644688918
 21
2994.0432065122
 31
0.0
  0
LINE
  5
24B
330
1F
100
AcDbEntity
  8
0
  6
SLD-Plná
 62
     7
370
    25
100
AcDbLine
 10
9625.1380703446
 20
2994.0332065122
 30
0.0
 11
9625.1380703446
 21
2994.0432065122
 31
0.0
  0
LINE
  5
24C
330
1F
100
AcDbEntity
  8
0
  6
SLD-Plná
 62
     7
370
    25
100
AcDbLine
 10
9624.5374715458
 20
2994.0332065122
 30
0.0
 11
9624.5374715458
 21
2994.0432065122
 31
0.0
  0
LINE
  5
24D
330
1F
100
AcDbEntity
  8
0
  6
SLD-Plná
 62
     7
370
    25
100
AcDbLine
 10
9624.2909720388
 20
2994.0332065122
 30
0.0
 11
9624.2909720388
 21
2994.0432065122
 31
0.0
  0
LINE
  5
24E
330
1F
100
AcDbEntity
  8
0
  6
SLD-Plná
 62
     7
370
    25
100
AcDbLine
 10
9624.081372458
 20
2994.0332065122
 30
0.0
 11
9624.081372458
 21
2994.0432065122
 31
0.0
  0
LINE
  5
24F
330
1F
100
AcDbEntity
  8
0
  6
SLD-Plná
 62
     7
370
    25
100
AcDbLine
 10
9623.879372862
 20
2994.0332065122
 30
0.0
 11
9623.879372862
 21
2994.0432065122
 31
0.0
  0
LINE
  5
250
330
1F
100
AcDbEntity
  8
0
  6
SLD-Plná
 62
     7
370
    25
100
AcDbLine
 10
9602.7871177048
 20
2992.0432065122
 30
0.0
 11
9614.7871177048
 21
2992.0432065122
 31
0.0
  0
LINE
  5
251
330
1F
100
AcDbEntity
  8
0
  6
SLD-Plná
 62
     7
370
    25
100
AcDbLine
 10
9590.7871177048
 20
2992.0432065122
 30
0.0
 11
9602.7871177048
 21
2992.0432065122
 31
0.0
  0
LINE
  5
252
330
1F
100
AcDbEntity
  8
0
  6
SLD-Plná
 62
     7
370
    25
100
AcDbLine
 10
9602.7871177048
 20
2988.5432065122
 30
0.0
 11
9609.7871177048
 21
2988.5432065122
 31
0.0
  0
LINE
  5
253
330
1F
100
AcDbEntity
  8
0
  6
SLD-Plná
 62
     7
370
    25
100
AcDbLine
 10
9595.7871177048
 20
2988.5432065122
 30
0.0
 11
9602.7871177048
 21
2988.5432065122
 31
0.0
  0
LINE
  5
254
330
1F
100
AcDbEntity
  8
0
  6
SLD-Plná
 62
     7
370
    25
100
AcDbLine
 10
9504.7871177048
 20
3010.0432065122
 30
0.0
 11
9700.7871177048
 21
3010.0432065122
 31
0.0
  0
LINE
  5
255
330
1F
100
AcDbEntity
  8
0
  6
SLD-Plná
 62
     7
370
    25
100
AcDbLine
 10
9504.7871177048
 20
2995.7932065122
 30
0.0
 11
9700.7871177048
 21
2995.7932065122
 31
0.0
  0
LINE
  5
256
330
1F
100
AcDbEntity
  8
0
  6
SLD-Plná
 62
     7
370
    25
100
AcDbLine
 10
9504.7871177048
 20
2995.7932065122
 30
0.0
 11
9504.7871177048
 21
3010.0432065122
 31
0.0
  0
LINE
  5
257
330
1F
100
AcDbEntity
  8
0
  6
SLD-Plná
 62
     7
370
    25
100
AcDbLine
 10
9700.7871177048
 20
3010.0432065122
 30
0.0
 11
9700.7871177048
 21
2995.7932065122
 31
0.0
  0
LINE
  5
258
330
1F
100
AcDbEntity
  8
0
  6
SLD-Plná
 62
     7
370
    25
100
AcDbLine
 10
9504.7871177048
 20
2994.0432065122
 30
0.0
 11
9504.7871177048
 21
2994.8918186933
 31
0.0
  0
LINE
  5
259
330
1F
100
AcDbEntity
  8
0
  6
SLD-Plná
 62
     7
370
    25
100
AcDbLine
 10
9504.7871177048
 20
2994.8918186933
 30
0.0
 11
9504.7871177048
 21
2995.7932065122
 31
0.0
  0
LINE
  5
25A
330
1F
100
AcDbEntity
  8
0
  6
SLD-Plná
 62
     7
370
    25
100
AcDbLine
 10
9700.7871177048
 20
2995.7932065122
 30
0.0
 11
9700.7871177048
 21
2994.8918186933
 31
0.0
  0
LINE
  5
25B
330
1F
100
AcDbEntity
  8
0
  6
SLD-Plná
 62
     7
370
    25
100
AcDbLine
 10
9700.7871177048
 20
2994.8918186933
 30
0.0
 11
9700.7871177048
 21
2994.0432065122
 31
0.0
  0
LINE
  5
25C
330
1F
100
AcDbEntity
  8
0
  6
SLD-Plná
 62
     7
370
    25
100
AcDbLine
 10
9700.7871177048
 20
2994.0432065122
 30
0.0
 11
9504.7871177048
 21
2994.0432065122
 31
0.0
  0
LINE
  5
25D
330
1F
100
AcDbEntity
  8
0
  6
SLD-Plná
 62
     7
370
    25
100
AcDbLine
 10
9700.7871177048
 20
3010.0432065122
 30
0.0
 11
9701.2871177048
 21
3010.0432065122
 31
0.0
  0
LINE
  5
25E
330
1F
100
AcDbEntity
  8
0
  6
SLD-Plná
 62
     7
370
    25
100
AcDbLine
 10
9701.2871177048
 20
2995.7932065122
 30
0.0
 11
9701.2871177048
 21
3010.0432065122
 31
0.0
  0
LINE
  5
25F
330
1F
100
AcDbEntity
  8
0
  6
SLD-Plná
 62
     7
370
    25
100
AcDbLine
 10
9701.2871177048
 20
2995.7932065122
 30
0.0
 11
9700.7871177048
 21
2995.7932065122
 31
0.0
  0
LINE
  5
260
330
1F
100
AcDbEntity
  8
0
  6
SLD-Plná
 62
     7
370
    25
100
AcDbLine
 10
9703.0371177048
 20
2995.7932065122
 30
0.0
 11
9701.2871177048
 21
2995.7932065122
 31
0.0
  0
LINE
  5
261
330
1F
100
AcDbEntity
  8
0
  6
SLD-Plná
 62
     7
370
    25
100
AcDbLine
 10
9701.2871177048
 20
3010.0432065122
 30
0.0
 11
9703.0371177048
 21
3010.0432065122
 31
0.0
  0
LINE
  5
262
330
1F
100
AcDbEntity
  8
0
  6
SLD-Plná
 62
     7
370
    25
100
AcDbLine
 10
9703.0371177048
 20
3010.0432065122
 30
0.0
 11
9703.0371177048
 21
2995.7932065122
 31
0.0
  0
LINE
  5
263
330
1F
100
AcDbEntity
  8
0
  6
SLD-Plná
 62
     7
370
    25
100
AcDbLine
 10
9504.7871177048
 20
2995.7932065122
 30
0.0
 11
9504.2871177048
 21
2995.7932065122
 31
0.0
  0
LINE
  5
264
330
1F
100
AcDbEntity
  8
0
  6
SLD-Plná
 62
     7
370
    25
100
AcDbLine
 10
9504.2871177048
 20
3010.0432065122
 30
0.0
 11
9504.2871177048
 21
2995.7932065122
 31
0.0
  0
LINE
  5
265
330
1F
100
AcDbEntity
  8
0
  6
SLD-Plná
 62
     7
370
    25
100
AcDbLine
 10
9504.2871177048
 20
3010.0432065122
 30
0.0
 11
9504.7871177048
 21
3010.0432065122
 31
0.0
  0
LINE
  5
266
330
1F
100
AcDbEntity
  8
0
  6
SLD-Plná
 62
     7
370
    25
100
AcDbLine
 10
9502.5371177048
 20
2995.7932065122
 30
0.0
 11
9502.5371177048
 21
3010.0432065122
 31
0.0
  0
LINE
  5
267
330
1F
100
AcDbEntity
  8
0
  6
SLD-Plná
 62
     7
370
    25
100
AcDbLine
 10
9502.5371177048
 20
3010.0432065122
 30
0.0
 11
9504.2871177048
 21
3010.0432065122
 31
0.0
  0
LINE
  5
268
330
1F
100
AcDbEntity
  8
0
  6
SLD-Plná
 62
     7
370
    25
100
AcDbLine
 10
9504.2871177048
 20
2995.7932065122
 30
0.0
 11
9502.5371177048
 21
2995.7932065122
 31
0.0
  0
LINE
  5
269
330
1F
100
AcDbEntity
  8
0
  6
SLD-Plná
 62
     7
370
    25
100
AcDbLine
 10
9701.2871177048
 20
2994.7932065122
 30
0.0
 11
9701.2871177048
 21
2994.0432065122
 31
0.0
  0
ARC
  5
26A
330
1F
100
AcDbEntity
  8
0
  6
SLD-Plná
 62
     7
370
    25
100
AcDbCircle
 10
9701.2871177048
 20
2995.7932065122
 30
0.0
 40
1.000000000000133
100
AcDbArc
 50
270.0
 51
311.4096221093
  0
LINE
  5
26B
330
1F
100
AcDbEntity
  8
0
  6
SLD-Plná
 62
     7
370
    25
100
AcDbLine
 10
9702.7871177048
 20
2995.0432065122
 30
0.0
 11
9701.9485555325
 21
2995.0432065122
 31
0.0
  0
LINE
  5
26C
330
1F
100
AcDbEntity
  8
0
  6
SLD-Plná
 62
     7
370
    25
100
AcDbLine
 10
9702.7871177048
 20
2994.8918186933
 30
0.0
 11
9702.7871177048
 21
2995.0432065122
 31
0.0
  0
ARC
  5
26D
330
1F
100
AcDbEntity
  8
0
  6
SLD-Plná
 62
     7
370
    25
100
AcDbCircle
 10
9701.2871177048
 20
2995.7932065122
 30
0.0
 40
1.75
100
AcDbArc
 50
270.0
 51
328.9972808661
  0
ARC
  5
26E
330
1F
100
AcDbEntity
  8
0
  6
SLD-Plná
 62
     7
370
    25
100
AcDbCircle
 10
9701.2871177048
 20
2995.7932065122
 30
0.0
 40
1.000000000001819
100
AcDbArc
 50
311.4096221093
 51
0.0
  0
ARC
  5
26F
330
1F
100
AcDbEntity
  8
0
  6
SLD-Plná
 62
     7
370
    25
100
AcDbCircle
 10
9701.2871177048
 20
2995.7932065122
 30
0.0
 40
1.750000000001819
100
AcDbArc
 50
328.9972808661
 51
0.0
  0
ARC
  5
270
330
1F
100
AcDbEntity
  8
0
  6
SLD-Plná
 62
     7
370
    25
100
AcDbCircle
 10
9504.2871177048
 20
2995.7932065122
 30
0.0
 40
1.0
100
AcDbArc
 50
228.5903778908
 51
270.0
  0
LINE
  5
271
330
1F
100
AcDbEntity
  8
0
  6
SLD-Plná
 62
     7
370
    25
100
AcDbLine
 10
9504.2871177048
 20
2994.7932065122
 30
0.0
 11
9504.2871177048
 21
2994.0432065122
 31
0.0
  0
LINE
  5
272
330
1F
100
AcDbEntity
  8
0
  6
SLD-Plná
 62
     7
370
    25
100
AcDbLine
 10
9502.7871177048
 20
2995.0432065122
 30
0.0
 11
9502.7871177048
 21
2994.8918186933
 31
0.0
  0
LINE
  5
273
330
1F
100
AcDbEntity
  8
0
  6
SLD-Plná
 62
     7
370
    25
100
AcDbLine
 10
9502.7871177048
 20
2995.0432065122
 30
0.0
 11
9503.625679877
 21
2995.0432065122
 31
0.0
  0
ARC
  5
274
330
1F
100
AcDbEntity
  8
0
  6
SLD-Plná
 62
     7
370
    25
100
AcDbCircle
 10
9504.2871177048
 20
2995.7932065122
 30
0.0
 40
1.750000000000089
100
AcDbArc
 50
211.0027191339
 51
270.0
  0
ARC
  5
275
330
1F
100
AcDbEntity
  8
0
  6
SLD-Plná
 62
     7
370
    25
100
AcDbCircle
 10
9504.2871177048
 20
2995.7932065122
 30
0.0
 40
1.0
100
AcDbArc
 50
180.0
 51
228.5903778908
  0
ARC
  5
276
330
1F
100
AcDbEntity
  8
0
  6
SLD-Plná
 62
     7
370
    25
100
AcDbCircle
 10
9504.2871177048
 20
2995.7932065122
 30
0.0
 40
1.750000000000089
100
AcDbArc
 50
180.0
 51
211.0027191339
  0
LINE
  5
277
330
1F
100
AcDbEntity
  8
0
  6
SLD-Plná
 62
     7
370
    25
100
AcDbLine
 10
9504.7871177048
 20
2994.0432065122
 30
0.0
 11
9504.2871177048
 21
2994.0432065122
 31
0.0
  0
LINE
  5
278
330
1F
100
AcDbEntity
  8
0
  6
SLD-Plná
 62
     7
370
    25
100
AcDbLine
 10
9504.7871177048
 20
2994.7932065122
 30
0.0
 11
9504.2871177048
 21
2994.7932065122
 31
0.0
  0
LINE
  5
279
330
1F
100
AcDbEntity
  8
0
  6
SLD-Plná
 62
     7
370
    25
100
AcDbLine
 10
9701.2871177048
 20
2994.0432065122
 30
0.0
 11
9700.7871177048
 21
2994.0432065122
 31
0.0
  0
LINE
  5
27A
330
1F
100
AcDbEntity
  8
0
  6
SLD-Plná
 62
     7
370
    25
100
AcDbLine
 10
9701.2871177048
 20
2994.7932065122
 30
0.0
 11
9700.7871177048
 21
2994.7932065122
 31
0.0
  0
LINE
  5
27B
330
1F
100
AcDbEntity
  8
0
  6
SLD-Plná
 62
     7
370
    25
100
AcDbLine
 10
9533.7871177048
 20
3096.2432065122
 30
0.0
 11
9671.7871177048
 21
3096.2432065122
 31
0.0
  0
LINE
  5
27C
330
1F
100
AcDbEntity
  8
0
  6
SLD-Plná
 62
     7
370
    25
100
AcDbLine
 10
9671.7871177048
 20
3096.2432065122
 30
0.0
 11
9671.7871177048
 21
3094.7432065122
 31
0.0
  0
LINE
  5
27D
330
1F
100
AcDbEntity
  8
0
  6
SLD-Plná
 62
     7
370
    25
100
AcDbLine
 10
9533.7871177048
 20
3094.7432065122
 30
0.0
 11
9533.7871177048
 21
3096.2432065122
 31
0.0
  0
LINE
  5
27E
330
1F
100
AcDbEntity
  8
0
  6
SLD-Plná
 62
     7
370
    25
100
AcDbLine
 10
9504.2871177048
 20
3094.4932065122
 30
0.0
 11
9504.2871177048
 21
3010.0432065122
 31
0.0
  0
LINE
  5
27F
330
1F
100
AcDbEntity
  8
0
  6
SLD-Plná
 62
     7
370
    25
100
AcDbLine
 10
9505.0371177048
 20
3094.4932065122
 30
0.0
 11
9504.2871177048
 21
3094.4932065122
 31
0.0
  0
LINE
  5
280
330
1F
100
AcDbEntity
  8
0
  6
SLD-Plná
 62
     7
370
    25
100
AcDbLine
 10
9505.0371177048
 20
3094.4932065122
 30
0.0
 11
9505.0371177048
 21
3010.0432065122
 31
0.0
  0
LINE
  5
281
330
1F
100
AcDbEntity
  8
0
  6
SLD-Plná
 62
     7
370
    25
100
AcDbLine
 10
9506.0371177048
 20
3095.4932065122
 30
0.0
 11
9506.0371177048
 21
3096.2432065122
 31
0.0
  0
LINE
  5
282
330
1F
100
AcDbEntity
  8
0
  6
SLD-Plná
 62
     7
370
    25
100
AcDbLine
 10
9533.4121177048
 20
3096.2432065122
 30
0.0
 11
9506.0371177048
 21
3096.2432065122
 31
0.0
  0
LINE
  5
283
330
1F
100
AcDbEntity
  8
0
  6
SLD-Plná
 62
     7
370
    25
100
AcDbLine
 10
9533.4121177048
 20
3095.4932065122
 30
0.0
 11
9506.0371177048
 21
3095.4932065122
 31
0.0
  0
LINE
  5
284
330
1F
100
AcDbEntity
  8
0
  6
SLD-Plná
 62
     7
370
    25
100
AcDbLine
 10
9533.4121177048
 20
3095.4932065122
 30
0.0
 11
9533.4121177048
 21
3096.2432065122
 31
0.0
  0
ARC
  5
285
330
1F
100
AcDbEntity
  8
0
  6
SLD-Plná
 62
     7
370
    25
100
AcDbCircle
 10
9506.0371177048
 20
3094.4932065122
 30
0.0
 40
1.000000000001819
100
AcDbArc
 50
90.0
 51
180.0
  0
ARC
  5
286
330
1F
100
AcDbEntity
  8
0
  6
SLD-Plná
 62
     7
370
    25
100
AcDbCircle
 10
9506.0371177048
 20
3094.4932065122
 30
0.0
 40
1.750000000001819
100
AcDbArc
 50
90.0
 51
180.0
  0
LINE
  5
287
330
1F
100
AcDbEntity
  8
0
  6
SLD-Plná
 62
     7
370
    25
100
AcDbLine
 10
9700.5371177048
 20
3010.0432065122
 30
0.0
 11
9700.5371177048
 21
3094.4932065122
 31
0.0
  0
LINE
  5
288
330
1F
100
AcDbEntity
  8
0
  6
SLD-Plná
 62
     7
370
    25
100
AcDbLine
 10
9700.5371177048
 20
3094.4932065122
 30
0.0
 11
9701.2871177048
 21
3094.4932065122
 31
0.0
  0
LINE
  5
289
330
1F
100
AcDbEntity
  8
0
  6
SLD-Plná
 62
     7
370
    25
100
AcDbLine
 10
9701.2871177048
 20
3010.0432065122
 30
0.0
 11
9701.2871177048
 21
3094.4932065122
 31
0.0
  0
LINE
  5
28A
330
1F
100
AcDbEntity
  8
0
  6
SLD-Plná
 62
     7
370
    25
100
AcDbLine
 10
9699.5371177048
 20
3095.4932065122
 30
0.0
 11
9699.5371177048
 21
3096.2432065122
 31
0.0
  0
ARC
  5
28B
330
1F
100
AcDbEntity
  8
0
  6
SLD-Plná
 62
     7
370
    25
100
AcDbCircle
 10
9699.5371177048
 20
3094.4932065122
 30
0.0
 40
1.0
100
AcDbArc
 50
0.0
 51
90.0
  0
ARC
  5
28C
330
1F
100
AcDbEntity
  8
0
  6
SLD-Plná
 62
     7
370
    25
100
AcDbCircle
 10
9699.5371177048
 20
3094.4932065122
 30
0.0
 40
1.75
100
AcDbArc
 50
0.0
 51
90.0
  0
LINE
  5
28D
330
1F
100
AcDbEntity
  8
0
  6
SLD-Plná
 62
     7
370
    25
100
AcDbLine
 10
9699.5371177048
 20
3095.4932065122
 30
0.0
 11
9672.1621177048
 21
3095.4932065122
 31
0.0
  0
LINE
  5
28E
330
1F
100
AcDbEntity
  8
0
  6
SLD-Plná
 62
     7
370
    25
100
AcDbLine
 10
9672.1621177048
 20
3095.4932065122
 30
0.0
 11
9672.1621177048
 21
3096.2432065122
 31
0.0
  0
LINE
  5
28F
330
1F
100
AcDbEntity
  8
0
  6
SLD-Plná
 62
     7
370
    25
100
AcDbLine
 10
9699.5371177048
 20
3096.2432065122
 30
0.0
 11
9672.1621177048
 21
3096.2432065122
 31
0.0
  0
LINE
  5
290
330
1F
100
AcDbEntity
  8
0
  6
SLD-Plná
 62
     7
370
    25
100
AcDbLine
 10
9533.4121177048
 20
3095.4932065122
 30
0.0
 11
9533.7871177048
 21
3095.4932065122
 31
0.0
  0
LINE
  5
291
330
1F
100
AcDbEntity
  8
0
  6
SLD-Plná
 62
     7
370
    25
100
AcDbLine
 10
9533.7871177048
 20
3096.2432065122
 30
0.0
 11
9533.4121177048
 21
3096.2432065122
 31
0.0
  0
LINE
  5
292
330
1F
100
AcDbEntity
  8
0
  6
SLD-Plná
 62
     7
370
    25
100
AcDbLine
 10
9671.7871177048
 20
3095.4932065122
 30
0.0
 11
9672.1621177048
 21
3095.4932065122
 31
0.0
  0
LINE
  5
293
330
1F
100
AcDbEntity
  8
0
  6
SLD-Plná
 62
     7
370
    25
100
AcDbLine
 10
9672.1621177048
 20
3096.2432065122
 30
0.0
 11
9671.7871177048
 21
3096.2432065122
 31
0.0
  0
LINE
  5
294
330
1F
100
AcDbEntity
  8
0
  6
SLD-Plná
 62
     7
370
    25
100
AcDbLine
 10
9507.2121177048
 20
3095.4932065122
 30
0.0
 11
9507.2121177048
 21
3094.7432065122
 31
0.0
  0
LINE
  5
295
330
1F
100
AcDbEntity
  8
0
  6
SLD-Plná
 62
     7
370
    25
100
AcDbLine
 10
9698.3621177048
 20
3094.7432065122
 30
0.0
 11
9698.3621177048
 21
3095.4932065122
 31
0.0
  0
LINE
  5
296
330
1F
100
AcDbEntity
  8
0
  6
SLD-Plná
 62
     7
370
    25
100
AcDbLine
 10
9698.7371177048
 20
3094.7432065122
 30
0.0
 11
9506.8371177048
 21
3094.7432065122
 31
0.0
  0
LINE
  5
297
330
1F
100
AcDbEntity
  8
0
  6
SLD-Plná
 62
     7
370
    25
100
AcDbLine
 10
9698.7371177048
 20
3094.7432065122
 30
0.0
 11
9700.4871177048
 21
3094.7432065122
 31
0.0
  0
LINE
  5
298
330
1F
100
AcDbEntity
  8
0
  6
SLD-Plná
 62
     7
370
    25
100
AcDbLine
 10
9700.4871177048
 20
3094.7432065122
 30
0.0
 11
9700.4871177048
 21
3010.0432065122
 31
0.0
  0
LINE
  5
299
330
1F
100
AcDbEntity
  8
0
  6
SLD-Plná
 62
     7
370
    25
100
AcDbLine
 10
9505.0871177048
 20
3010.0432065122
 30
0.0
 11
9505.0871177048
 21
3094.7432065122
 31
0.0
  0
LINE
  5
29A
330
1F
100
AcDbEntity
  8
0
  6
SLD-Plná
 62
     7
370
    25
100
AcDbLine
 10
9505.0871177048
 20
3094.7432065122
 30
0.0
 11
9506.8371177048
 21
3094.7432065122
 31
0.0
  0
LINE
  5
29B
330
1F
100
AcDbEntity
  8
0
  6
SLD-Plná
 62
     8
370
    25
100
AcDbLine
 10
9506.8371177048
 20
3094.7432065122
 30
0.0
 11
9506.8371177048
 21
3010.0432065122
 31
0.0
  0
LINE
  5
29C
330
1F
100
AcDbEntity
  8
0
  6
SLD-Plná
 62
     8
370
    25
100
AcDbLine
 10
9698.7371177048
 20
3010.0432065122
 30
0.0
 11
9698.7371177048
 21
3094.7432065122
 31
0.0
  0
ENDSEC
  0
SECTION
  2
OBJECTS
  0
DICTIONARY
  5
C
330
0
100
AcDbDictionary
281
     1
  3
ACAD_GROUP
350
D
  3
ACAD_LAYOUT
350
1A
  3
ACAD_MLINESTYLE
350
17
  3
ACAD_PLOTSETTINGS
350
19
  3
ACAD_PLOTSTYLENAME
350
E
  3
ACAD_SCALELIST
350
47
  3
DWGPROPS
350
29D
  0
DICTIONARY
  5
D
102
{ACAD_REACTORS
330
C
102
}
330
C
100
AcDbDictionary
281
     1
  0
DICTIONARY
  5
1A
102
{ACAD_REACTORS
330
C
102
}
330
C
100
AcDbDictionary
281
     1
  3
Layout1
350
1E
  3
Layout2
350
26
  3
Model
350
22
  0
DICTIONARY
  5
17
102
{ACAD_REACTORS
330
C
102
}
330
C
100
AcDbDictionary
281
     1
  3
Standard
350
18
  0
DICTIONARY
  5
19
102
{ACAD_REACTORS
330
C
102
}
330
C
100
AcDbDictionary
281
     1
  0
ACDBDICTIONARYWDFLT
  5
E
102
{ACAD_REACTORS
330
C
102
}
330
C
100
AcDbDictionary
281
     1
  3
Normal
350
F
100
AcDbDictionaryWithDefault
340
F
  0
DICTIONARY
  5
47
102
{ACAD_REACTORS
330
C
102
}
330
C
100
AcDbDictionary
281
     1
  3
A0
350
48
  3
A1
350
49
  3
A2
350
4A
  3
A3
350
4B
  3
A4
350
4C
  3
A5
350
4D
  3
A6
350
4E
  3
A7
350
4F
  3
A8
350
50
  3
A9
350
51
  3
B0
350
52
  3
B1
350
53
  3
B2
350
54
  3
B3
350
55
  3
B4
350
56
  3
B5
350
57
  3
B6
350
58
  3
B7
350
59
  3
B8
350
5A
  3
B9
350
5B
  3
C0
350
5C
  3
C1
350
5D
  3
C2
350
5E
  3
C3
350
5F
  3
C4
350
60
  3
C5
350
61
  3
C6
350
62
  3
C7
350
63
  3
C8
350
64
  3
C9
350
65
  3
D0
350
66
  3
D1
350
67
  3
D2
350
68
  0
XRECORD
  5
29D
102
{ACAD_REACTORS
330
C
102
}
330
C
100
AcDbXrecord
280
     1
  1
DWGPROPS COOKIE
  2

  3

  4

  6

  7

  8
radek.stransky
  9

300
=
301
=
302
=
303
=
304
=
305
=
306
=
307
=
308
=
309
=
 40
0.0
 41
2460957.215235706
 42
2460957.215236945
  1

 90
        0
  0
LAYOUT
  5
1E
102
{ACAD_REACTORS
330
1A
102
}
330
1A
100
AcDbPlotSettings
  1

  2
none_device
  4

  6

 40
0.0
 41
0.0
 42
0.0
 43
0.0
 44
0.0
 45
0.0
 46
0.0
 47
0.0
 48
0.0
 49
0.0
140
0.0
141
0.0
142
1.0
143
1.0
 70
   688
 72
     1
 73
     0
 74
     5
  7

 75
    16
147
1.0
148
0.0
149
0.0
100
AcDbLayout
  1
Layout1
 70
     1
 71
     1
 10
0.0
 20
0.0
 11
420.0
 21
297.0
 12
0.0
 22
0.0
 32
0.0
 14
1.0000000000E+20
 24
1.0000000000E+20
 34
1.0000000000E+20
 15
-1.0000000000E+20
 25
-1.0000000000E+20
 35
-1.0000000000E+20
146
0.0
 13
0.0
 23
0.0
 33
0.0
 16
1.0
 26
0.0
 36
0.0
 17
0.0
 27
1.0
 37
0.0
 76
     0
330
1B
  0
LAYOUT
  5
26
102
{ACAD_REACTORS
330
1A
102
}
330
1A
100
AcDbPlotSettings
  1

  2
none_device
  4

  6

 40
0.0
 41
0.0
 42
0.0
 43
0.0
 44
0.0
 45
0.0
 46
0.0
 47
0.0
 48
0.0
 49
0.0
140
0.0
141
0.0
142
1.0
143
1.0
 70
   688
 72
     1
 73
     0
 74
     5
  7

 75
    16
147
1.0
148
0.0
149
0.0
100
AcDbLayout
  1
Layout2
 70
     1
 71
     2
 10
0.0
 20
0.0
 11
0.0
 21
0.0
 12
0.0
 22
0.0
 32
0.0
 14
0.0
 24
0.0
 34
0.0
 15
0.0
 25
0.0
 35
0.0
146
0.0
 13
0.0
 23
0.0
 33
0.0
 16
1.0
 26
0.0
 36
0.0
 17
0.0
 27
1.0
 37
0.0
 76
     0
330
23
  0
LAYOUT
  5
22
102
{ACAD_REACTORS
330
1A
102
}
330
1A
100
AcDbPlotSettings
  1

  2
none_device
  4
Letter_(8.50_x_11.00_Inches)
  6

 40
6.35
 41
6.35
 42
6.35000508
 43
6.35000508
 44
215.9
 45
279.4
 46
0.0
 47
0.0
 48
0.0
 49
0.0
140
0.0
141
0.0
142
1.0
143
1.0
 70
  1712
 72
     1
 73
     0
 74
     0
  7

 75
     0
147
1.0
148
0.0
149
0.0
100
AcDbLayout
  1
Model
 70
     1
 71
     0
 10
0.0
 20
0.0
 11
20000.0
 21
10000.0
 12
0.0
 22
0.0
 32
0.0
 14
0.0
 24
0.0
 34
0.0
 15
20000.0
 25
10000.0
 35
0.0
146
0.0
 13
0.0
 23
0.0
 33
0.0
 16
1.0
 26
0.0
 36
0.0
 17
0.0
 27
1.0
 37
0.0
 76
     0
330
1F
331
29
  0
MLINESTYLE
  5
18
102
{ACAD_REACTORS
330
17
102
}
330
17
100
AcDbMlineStyle
  2
Standard
 70
     0
  3

 62
   256
 51
90.0
 52
90.0
 71
     2
 49
0.5
 62
   256
  6
BYLAYER
 49
-0.5
 62
   256
  6
BYLAYER
  0
ACDBPLACEHOLDER
  5
F
102
{ACAD_REACTORS
330
E
102
}
330
E
  0
SCALE
  5
48
102
{ACAD_REACTORS
330
47
102
}
330
47
100
AcDbScale
 70
     0
300
1:1
140
1.0
141
1.0
290
     1
  0
SCALE
  5
49
102
{ACAD_REACTORS
330
47
102
}
330
47
100
AcDbScale
 70
     0
300
1:2
140
1.0
141
2.0
290
     0
  0
SCALE
  5
4A
102
{ACAD_REACTORS
330
47
102
}
330
47
100
AcDbScale
 70
     0
300
1:4
140
1.0
141
4.0
290
     0
  0
SCALE
  5
4B
102
{ACAD_REACTORS
330
47
102
}
330
47
100
AcDbScale
 70
     0
300
1:5
140
1.0
141
5.0
290
     0
  0
SCALE
  5
4C
102
{ACAD_REACTORS
330
47
102
}
330
47
100
AcDbScale
 70
     0
300
1:8
140
1.0
141
8.0
290
     0
  0
SCALE
  5
4D
102
{ACAD_REACTORS
330
47
102
}
330
47
100
AcDbScale
 70
     0
300
1:10
140
1.0
141
10.0
290
     0
  0
SCALE
  5
4E
102
{ACAD_REACTORS
330
47
102
}
330
47
100
AcDbScale
 70
     0
300
1:16
140
1.0
141
16.0
290
     0
  0
SCALE
  5
4F
102
{ACAD_REACTORS
330
47
102
}
330
47
100
AcDbScale
 70
     0
300
1:20
140
1.0
141
20.0
290
     0
  0
SCALE
  5
50
102
{ACAD_REACTORS
330
47
102
}
330
47
100
AcDbScale
 70
     0
300
1:30
140
1.0
141
30.0
290
     0
  0
SCALE
  5
51
102
{ACAD_REACTORS
330
47
102
}
330
47
100
AcDbScale
 70
     0
300
1:40
140
1.0
141
40.0
290
     0
  0
SCALE
  5
52
102
{ACAD_REACTORS
330
47
102
}
330
47
100
AcDbScale
 70
     0
300
1:50
140
1.0
141
50.0
290
     0
  0
SCALE
  5
53
102
{ACAD_REACTORS
330
47
102
}
330
47
100
AcDbScale
 70
     0
300
1:100
140
1.0
141
100.0
290
     0
  0
SCALE
  5
54
102
{ACAD_REACTORS
330
47
102
}
330
47
100
AcDbScale
 70
     0
300
2:1
140
2.0
141
1.0
290
     0
  0
SCALE
  5
55
102
{ACAD_REACTORS
330
47
102
}
330
47
100
AcDbScale
 70
     0
300
4:1
140
4.0
141
1.0
290
     0
  0
SCALE
  5
56
102
{ACAD_REACTORS
330
47
102
}
330
47
100
AcDbScale
 70
     0
300
8:1
140
8.0
141
1.0
290
     0
  0
SCALE
  5
57
102
{ACAD_REACTORS
330
47
102
}
330
47
100
AcDbScale
 70
     0
300
10:1
140
10.0
141
1.0
290
     0
  0
SCALE
  5
58
102
{ACAD_REACTORS
330
47
102
}
330
47
100
AcDbScale
 70
     0
300
100:1
140
100.0
141
1.0
290
     0
  0
SCALE
  5
59
102
{ACAD_REACTORS
330
47
102
}
330
47
100
AcDbScale
 70
     0
300
1/128" = 1'-0"
140
0.0078125
141
12.0
290
     0
  0
SCALE
  5
5A
102
{ACAD_REACTORS
330
47
102
}
330
47
100
AcDbScale
 70
     0
300
1/64" = 1'-0"
140
0.015625
141
12.0
290
     0
  0
SCALE
  5
5B
102
{ACAD_REACTORS
330
47
102
}
330
47
100
AcDbScale
 70
     0
300
1/32" = 1'-0"
140
0.03125
141
12.0
290
     0
  0
SCALE
  5
5C
102
{ACAD_REACTORS
330
47
102
}
330
47
100
AcDbScale
 70
     0
300
1/16" = 1'-0"
140
0.0625
141
12.0
290
     0
  0
SCALE
  5
5D
102
{ACAD_REACTORS
330
47
102
}
330
47
100
AcDbScale
 70
     0
300
3/32" = 1'-0"
140
0.09375
141
12.0
290
     0
  0
SCALE
  5
5E
102
{ACAD_REACTORS
330
47
102
}
330
47
100
AcDbScale
 70
     0
300
1/8" = 1'-0"
140
0.125
141
12.0
290
     0
  0
SCALE
  5
5F
102
{ACAD_REACTORS
330
47
102
}
330
47
100
AcDbScale
 70
     0
300
3/16" = 1'-0"
140
0.1875
141
12.0
290
     0
  0
SCALE
  5
60
102
{ACAD_REACTORS
330
47
102
}
330
47
100
AcDbScale
 70
     0
300
1/4" = 1'-0"
140
0.25
141
12.0
290
     0
  0
SCALE
  5
61
102
{ACAD_REACTORS
330
47
102
}
330
47
100
AcDbScale
 70
     0
300
3/8" = 1'-0"
140
0.375
141
12.0
290
     0
  0
SCALE
  5
62
102
{ACAD_REACTORS
330
47
102
}
330
47
100
AcDbScale
 70
     0
300
1/2" = 1'-0"
140
0.5
141
12.0
290
     0
  0
SCALE
  5
63
102
{ACAD_REACTORS
330
47
102
}
330
47
100
AcDbScale
 70
     0
300
3/4" = 1'-0"
140
0.75
141
12.0
290
     0
  0
SCALE
  5
64
102
{ACAD_REACTORS
330
47
102
}
330
47
100
AcDbScale
 70
     0
300
1" = 1'-0"
140
1.0
141
12.0
290
     0
  0
SCALE
  5
65
102
{ACAD_REACTORS
330
47
102
}
330
47
100
AcDbScale
 70
     0
300
1-1/2" = 1'-0"
140
1.5
141
12.0
290
     0
  0
SCALE
  5
66
102
{ACAD_REACTORS
330
47
102
}
330
47
100
AcDbScale
 70
     0
300
3" = 1'-0"
140
3.0
141
12.0
290
     0
  0
SCALE
  5
67
102
{ACAD_REACTORS
330
47
102
}
330
47
100
AcDbScale
 70
     0
300
6" = 1'-0"
140
6.0
141
12.0
290
     0
  0
SCALE
  5
68
102
{ACAD_REACTORS
330
47
102
}
330
47
100
AcDbScale
 70
     0
300
1'-0" = 1'-0"
140
12.0
141
12.0
290
     0
  0
ENDSEC
  0
EOF
