  0
SECTION
  2
HEADER
  9
$ACADVER
  1
AC1015
  9
$ACADMAINTVER
 70
     6
  9
$DWGCODEPAGE
  3
ANSI_1250
  9
$INSBASE
 10
0.0
 20
0.0
 30
0.0
  9
$EXTMIN
 10
0.0
 20
0.0
 30
0.0
  9
$EXTMAX
 10
20000.0
 20
10000.0
 30
0.0
  9
$LIMMIN
 10
0.0
 20
0.0
  9
$LIMMAX
 10
20000.0
 20
10000.0
  9
$ORTHOMODE
 70
     0
  9
$REGENMODE
 70
     1
  9
$FILLMODE
 70
     1
  9
$QTEXTMODE
 70
     0
  9
$MIRRTEXT
 70
     1
  9
$LTSCALE
 40
1.0
  9
$ATTMODE
 70
     1
  9
$TEXTSIZE
 40
2.0
  9
$TRACEWID
 40
1.0
  9
$TEXTSTYLE
  7
Standard
  9
$CLAYER
  8
0
  9
$CELTYPE
  6
ByLayer
  9
$CECOLOR
 62
   256
  9
$CELTSCALE
 40
1.0
  9
$DISPSILH
 70
     0
  9
$DIMSCALE
 40
1.0
  9
$DIMASZ
 40
2.0
  9
$DIMEXO
 40
1.0
  9
$DIMDLI
 40
3.75
  9
$DIMRND
 40
0.0
  9
$DIMDLE
 40
0.0
  9
$DIMEXE
 40
1.0
  9
$DIMTP
 40
0.0
  9
$DIMTM
 40
0.0
  9
$DIMTXT
 40
2.0
  9
$DIMCEN
 40
2.5
  9
$DIMTSZ
 40
0.0
  9
$DIMTOL
 70
     0
  9
$DIMLIM
 70
     0
  9
$DIMTIH
 70
     1
  9
$DIMTOH
 70
     1
  9
$DIMSE1
 70
     0
  9
$DIMSE2
 70
     0
  9
$DIMTAD
 70
     1
  9
$DIMZIN
 70
     0
  9
$DIMBLK
  1

  9
$DIMASO
 70
     1
  9
$DIMSHO
 70
     1
  9
$DIMPOST
  1

  9
$DIMAPOST
  1

  9
$DIMALT
 70
     0
  9
$DIMALTD
 70
     3
  9
$DIMALTF
 40
0.0393700787
  9
$DIMLFAC
 40
1.0
  9
$DIMTOFL
 70
     1
  9
$DIMTVP
 40
0.0
  9
$DIMTIX
 70
     0
  9
$DIMSOXD
 70
     0
  9
$DIMSAH
 70
     0
  9
$DIMBLK1
  1

  9
$DIMBLK2
  1

  9
$DIMSTYLE
  2
ISO-25
  9
$DIMCLRD
 70
     0
  9
$DIMCLRE
 70
     0
  9
$DIMCLRT
 70
     0
  9
$DIMTFAC
 40
1.0
  9
$DIMGAP
 40
1.524
  9
$DIMJUST
 70
     0
  9
$DIMSD1
 70
     0
  9
$DIMSD2
 70
     0
  9
$DIMTOLJ
 70
     0
  9
$DIMTZIN
 70
     0
  9
$DIMALTZ
 70
     0
  9
$DIMALTTZ
 70
     0
  9
$DIMUPT
 70
     0
  9
$DIMDEC
 70
     2
  9
$DIMTDEC
 70
     0
  9
$DIMALTU
 70
     2
  9
$DIMALTTD
 70
     3
  9
$DIMTXSTY
  7
Standard
  9
$DIMAUNIT
 70
     0
  9
$DIMADEC
 70
     2
  9
$DIMALTRND
 40
0.0
  9
$DIMAZIN
 70
     0
  9
$DIMDSEP
 70
    44
  9
$DIMATFIT
 70
     3
  9
$DIMFRAC
 70
     0
  9
$DIMLDRBLK
  1

  9
$DIMLUNIT
 70
     2
  9
$DIMLWD
 70
    -2
  9
$DIMLWE
 70
    -2
  9
$DIMTMOVE
 70
     0
  9
$LUNITS
 70
     2
  9
$LUPREC
 70
     3
  9
$SKETCHINC
 40
1.0
  9
$FILLETRAD
 40
10.0
  9
$AUNITS
 70
     0
  9
$AUPREC
 70
     2
  9
$MENU
  1
.
  9
$ELEVATION
 40
0.0
  9
$PELEVATION
 40
0.0
  9
$THICKNESS
 40
0.0
  9
$LIMCHECK
 70
     0
  9
$CHAMFERA
 40
0.0
  9
$CHAMFERB
 40
0.0
  9
$CHAMFERC
 40
0.0
  9
$CHAMFERD
 40
0.0
  9
$SKPOLY
 70
     0
  9
$TDCREATE
 40
2459823.393265127
  9
$TDUCREATE
 40
2459823.309931794
  9
$TDUPDATE
 40
2459823.393265602
  9
$TDUUPDATE
 40
2459823.309932269
  9
$TDINDWG
 40
0.0000000116
  9
$TDUSRTIMER
 40
0.0000000116
  9
$USRTIMER
 70
     1
  9
$ANGBASE
 50
0.0
  9
$ANGDIR
 70
     0
  9
$PDMODE
 70
     0
  9
$PDSIZE
 40
-1.0
  9
$PLINEWID
 40
0.0
  9
$SPLFRAME
 70
     0
  9
$SPLINETYPE
 70
     6
  9
$SPLINESEGS
 70
     8
  9
$HANDSEED
  5
191
  9
$SURFTAB1
 70
     6
  9
$SURFTAB2
 70
     6
  9
$SURFTYPE
 70
     6
  9
$SURFU
 70
     6
  9
$SURFV
 70
     6
  9
$UCSBASE
  2

  9
$UCSNAME
  2

  9
$UCSORG
 10
0.0
 20
0.0
 30
0.0
  9
$UCSXDIR
 10
1.0
 20
0.0
 30
0.0
  9
$UCSYDIR
 10
0.0
 20
1.0
 30
0.0
  9
$UCSORTHOREF
  2

  9
$UCSORTHOVIEW
 70
     0
  9
$UCSORGTOP
 10
0.0
 20
0.0
 30
0.0
  9
$UCSORGBOTTOM
 10
0.0
 20
0.0
 30
0.0
  9
$UCSORGLEFT
 10
0.0
 20
0.0
 30
0.0
  9
$UCSORGRIGHT
 10
0.0
 20
0.0
 30
0.0
  9
$UCSORGFRONT
 10
0.0
 20
0.0
 30
0.0
  9
$UCSORGBACK
 10
0.0
 20
0.0
 30
0.0
  9
$PUCSBASE
  2

  9
$PUCSNAME
  2

  9
$PUCSORG
 10
0.0
 20
0.0
 30
0.0
  9
$PUCSXDIR
 10
1.0
 20
0.0
 30
0.0
  9
$PUCSYDIR
 10
0.0
 20
1.0
 30
0.0
  9
$PUCSORTHOREF
  2

  9
$PUCSORTHOVIEW
 70
     0
  9
$PUCSORGTOP
 10
0.0
 20
0.0
 30
0.0
  9
$PUCSORGBOTTOM
 10
0.0
 20
0.0
 30
0.0
  9
$PUCSORGLEFT
 10
0.0
 20
0.0
 30
0.0
  9
$PUCSORGRIGHT
 10
0.0
 20
0.0
 30
0.0
  9
$PUCSORGFRONT
 10
0.0
 20
0.0
 30
0.0
  9
$PUCSORGBACK
 10
0.0
 20
0.0
 30
0.0
  9
$USERI1
 70
     0
  9
$USERI2
 70
     0
  9
$USERI3
 70
     0
  9
$USERI4
 70
     0
  9
$USERI5
 70
     0
  9
$USERR1
 40
0.0
  9
$USERR2
 40
0.0
  9
$USERR3
 40
0.0
  9
$USERR4
 40
0.0
  9
$USERR5
 40
0.0
  9
$WORLDVIEW
 70
     1
  9
$SHADEDGE
 70
     3
  9
$SHADEDIF
 70
    70
  9
$TILEMODE
 70
     1
  9
$MAXACTVP
 70
    64
  9
$PINSBASE
 10
0.0
 20
0.0
 30
0.0
  9
$PLIMCHECK
 70
     0
  9
$PEXTMIN
 10
1.0000000000E+20
 20
1.0000000000E+20
 30
1.0000000000E+20
  9
$PEXTMAX
 10
-1.0000000000E+20
 20
-1.0000000000E+20
 30
-1.0000000000E+20
  9
$PLIMMIN
 10
0.0
 20
0.0
  9
$PLIMMAX
 10
420.0
 20
297.0
  9
$UNITMODE
 70
     0
  9
$VISRETAIN
 70
     1
  9
$PLINEGEN
 70
     0
  9
$PSLTSCALE
 70
     1
  9
$TREEDEPTH
 70
  3020
  9
$CMLSTYLE
  2
Standard
  9
$CMLJUST
 70
     0
  9
$CMLSCALE
 40
20.0
  9
$PROXYGRAPHICS
 70
     1
  9
$MEASUREMENT
 70
     1
  9
$CELWEIGHT
370
    -1
  9
$ENDCAPS
280
     0
  9
$JOINSTYLE
280
     0
  9
$LWDISPLAY
290
     1
  9
$INSUNITS
 70
     4
  9
$HYPERLINKBASE
  1

  9
$STYLESHEET
  1

  9
$XEDIT
290
     1
  9
$CEPSNTYPE
380
     0
  9
$PSTYLEMODE
290
     1
  9
$FINGERPRINTGUID
  2
{f49be4ee-2978-4b02-bbdb-6d2583c659af}
  9
$VERSIONGUID
  2
{FAEB1C32-E019-11D5-929B-00C0DF256EC4}
  9
$EXTNAMES
290
     1
  9
$PSVPSCALE
 40
0.0
  9
$OLESTARTUP
290
     0
  0
ENDSEC
  0
SECTION
  2
CLASSES
  0
CLASS
  1
ACDBDICTIONARYWDFLT
  2
AcDbDictionaryWithDefault
  3
ObjectDBX Classes
 90
        0
280
     0
281
     0
  0
CLASS
  1
VISUALSTYLE
  2
AcDbVisualStyle
  3
ObjectDBX Classes
 90
     4095
280
     0
281
     0
  0
CLASS
  1
MATERIAL
  2
AcDbMaterial
  3
ObjectDBX Classes
 90
     1153
280
     0
281
     0
  0
CLASS
  1
SCALE
  2
AcDbScale
  3
ObjectDBX Classes
 90
     1153
280
     0
281
     0
  0
CLASS
  1
TABLESTYLE
  2
AcDbTableStyle
  3
ObjectDBX Classes
 90
     4095
280
     0
281
     0
  0
CLASS
  1
MLEADERSTYLE
  2
AcDbMLeaderStyle
  3
ACDB_MLEADERSTYLE_CLASS
 90
     4095
280
     0
281
     0
  0
CLASS
  1
SUN
  2
AcDbSun
  3
SCENEOE
 90
     1153
280
     0
281
     0
  0
CLASS
  1
ACDBPLACEHOLDER
  2
AcDbPlaceHolder
  3
ObjectDBX Classes
 90
        0
280
     0
281
     0
  0
CLASS
  1
LAYOUT
  2
AcDbLayout
  3
ObjectDBX Classes
 90
        0
280
     0
281
     0
  0
ENDSEC
  0
SECTION
  2
TABLES
  0
TABLE
  2
VPORT
  5
8
330
0
100
AcDbSymbolTable
 70
     1
  0
VPORT
  5
29
330
8
100
AcDbSymbolTableRecord
100
AcDbViewportTableRecord
  2
*Active
 70
     0
 10
0.0
 20
0.0
 11
1.0
 21
1.0
 12
10000.0
 22
5000.0
 13
0.0
 23
0.0
 14
10.0
 24
10.0
 15
10.0
 25
10.0
 16
0.0
 26
0.0
 36
1.0
 17
0.0
 27
0.0
 37
0.0
 40
10000.0
 41
2.0
 42
50.0
 43
0.0
 44
0.0
 50
0.0
 51
0.0
 71
     0
 72
  2000
 73
     1
 74
     3
 75
     0
 76
     0
 77
     0
 78
     0
281
     0
 65
     1
110
0.0
120
0.0
130
0.0
111
1.0
121
0.0
131
0.0
112
0.0
122
1.0
132
0.0
 79
     0
146
0.0
  0
ENDTAB
  0
TABLE
  2
LTYPE
  5
5
330
0
100
AcDbSymbolTable
 70
     6
  0
LTYPE
  5
14
330
5
100
AcDbSymbolTableRecord
100
AcDbLinetypeTableRecord
  2
ByBlock
 70
     0
  3

 72
    65
 73
     0
 40
0.0
  0
LTYPE
  5
15
330
5
100
AcDbSymbolTableRecord
100
AcDbLinetypeTableRecord
  2
ByLayer
 70
     0
  3

 72
    65
 73
     0
 40
0.0
  0
LTYPE
  5
16
330
5
100
AcDbSymbolTableRecord
100
AcDbLinetypeTableRecord
  2
Continuous
 70
     0
  3
Solid line
 72
    65
 73
     0
 40
0.0
  0
LTYPE
  5
6E
330
5
100
AcDbSymbolTableRecord
100
AcDbLinetypeTableRecord
  2
HIDDEN
 70
     0
  3
Hidden __ __ __ __ __ __ __ __ __ __ __ __ __ __
 72
    65
 73
     2
 40
1.905
 49
1.27
 74
     0
 49
-0.635
 74
     0
  0
LTYPE
  5
6F
330
5
100
AcDbSymbolTableRecord
100
AcDbLinetypeTableRecord
  2
PHANTOM
 70
     0
  3
Phantom ______  __  __  ______  __  __  ______
 72
    65
 73
     6
 40
12.7
 49
6.35
 74
     0
 49
-1.27
 74
     0
 49
1.27
 74
     0
 49
-1.27
 74
     0
 49
1.27
 74
     0
 49
-1.27
 74
     0
  0
LTYPE
  5
70
330
5
100
AcDbSymbolTableRecord
100
AcDbLinetypeTableRecord
  2
CENTER
 70
     0
  3
Center ____ _ ____ _ ____ _ ____ _ ____ _ ____
 72
    65
 73
     4
 40
10.16
 49
6.35
 74
     0
 49
-1.27
 74
     0
 49
1.27
 74
     0
 49
-1.27
 74
     0
  0
LTYPE
  5
71
330
5
100
AcDbSymbolTableRecord
100
AcDbLinetypeTableRecord
  2
CENTERX2
 70
     0
  3
Center (2x) ________  __  ________  __  _____
 72
    65
 73
     4
 40
20.32
 49
12.7
 74
     0
 49
-2.54
 74
     0
 49
2.54
 74
     0
 49
-2.54
 74
     0
  0
LTYPE
  5
72
330
5
100
AcDbSymbolTableRecord
100
AcDbLinetypeTableRecord
  2
DOT2
 70
     0
  3
Dot (.5x) ........................................
 72
    65
 73
     2
 40
0.635
 49
0.0
 74
     0
 49
-0.635
 74
     0
  0
ENDTAB
  0
TABLE
  2
LAYER
  5
2
330
0
100
AcDbSymbolTable
 70
    13
  0
LAYER
  5
10
330
2
100
AcDbSymbolTableRecord
100
AcDbLayerTableRecord
  2
0
 70
     0
 62
     7
  6
Continuous
370
    -3
390
F
  0
LAYER
  5
73
330
2
100
AcDbSymbolTableRecord
100
AcDbLayerTableRecord
  2
FORMAT
 70
     0
 62
     7
  6
Continuous
370
    -3
390
F
  0
LAYER
  5
74
330
2
100
AcDbSymbolTableRecord
100
AcDbLayerTableRecord
  2
OSA
 70
     0
 62
     7
  6
CENTER
370
    -3
390
F
  0
LAYER
  5
75
330
2
100
AcDbSymbolTableRecord
100
AcDbLayerTableRecord
  2
0_35
 70
     0
 62
     7
  6
Continuous
370
    35
390
F
  0
LAYER
  5
76
330
2
100
AcDbSymbolTableRecord
100
AcDbLayerTableRecord
  2
0_5
 70
     0
 62
     7
  6
Continuous
370
    50
390
F
  0
LAYER
  5
77
330
2
100
AcDbSymbolTableRecord
100
AcDbLayerTableRecord
  2
0_25
 70
     0
 62
     7
  6
Continuous
370
    25
390
F
  0
LAYER
  5
78
330
2
100
AcDbSymbolTableRecord
100
AcDbLayerTableRecord
  2
0_18
 70
     0
 62
     7
  6
Continuous
370
    -3
390
F
  0
LAYER
  5
79
330
2
100
AcDbSymbolTableRecord
100
AcDbLayerTableRecord
  2
SLD-0
 70
     0
 62
   179
  6
Continuous
370
    -3
390
F
  0
LAYER
  5
7A
330
2
100
AcDbSymbolTableRecord
100
AcDbLayerTableRecord
  2
KOTY
 70
     0
 62
     7
  6
Continuous
370
    -3
390
F
  0
LAYER
  5
7B
330
2
100
AcDbSymbolTableRecord
100
AcDbLayerTableRecord
  2
SILNA
 70
     0
 62
   179
  6
Continuous
370
    -3
390
F
  0
LAYER
  5
7C
330
2
100
AcDbSymbolTableRecord
100
AcDbLayerTableRecord
  2
0_18_1
 70
     0
 62
   179
  6
Continuous
370
    -3
390
F
  0
LAYER
  5
7D
330
2
100
AcDbSymbolTableRecord
100
AcDbLayerTableRecord
  2
0_35_1
 70
     0
 62
   179
  6
Continuous
370
    35
390
F
  0
LAYER
  5
7E
330
2
100
AcDbSymbolTableRecord
100
AcDbLayerTableRecord
  2
0_5_1
 70
     0
 62
   179
  6
Continuous
370
    50
390
F
  0
ENDTAB
  0
TABLE
  2
STYLE
  5
3
330
0
100
AcDbSymbolTable
 70
     1
  0
STYLE
  5
11
330
3
100
AcDbSymbolTableRecord
100
AcDbTextStyleTableRecord
  2
Standard
 70
     0
 40
0.0
 41
1.0
 50
0.0
 71
     0
 42
2.0
  3
txt
  4

  0
ENDTAB
  0
TABLE
  2
VIEW
  5
6
330
0
100
AcDbSymbolTable
 70
     0
  0
ENDTAB
  0
TABLE
  2
UCS
  5
7
330
0
100
AcDbSymbolTable
 70
     0
  0
ENDTAB
  0
TABLE
  2
APPID
  5
9
330
0
100
AcDbSymbolTable
 70
     1
  0
APPID
  5
12
330
9
100
AcDbSymbolTableRecord
100
AcDbRegAppTableRecord
  2
ACAD
 70
     0
  0
ENDTAB
  0
TABLE
  2
DIMSTYLE
  5
A
330
0
100
AcDbSymbolTable
 70
     1
100
AcDbDimStyleTable
  0
DIMSTYLE
105
27
330
A
100
AcDbSymbolTableRecord
100
AcDbDimStyleTableRecord
  2
ISO-25
 70
     0
 41
2.5
 42
0.625
 43
3.75
 44
1.25
 73
     0
 74
     0
 77
     1
 78
     8
140
2.5
141
2.5
143
0.0393700787
147
0.625
171
     3
172
     1
178
     0
271
     2
272
     2
274
     3
278
    44
283
     0
284
     8
340
11
  0
ENDTAB
  0
TABLE
  2
BLOCK_RECORD
  5
1
330
0
100
AcDbSymbolTable
 70
     1
  0
BLOCK_RECORD
  5
1F
330
1
100
AcDbSymbolTableRecord
100
AcDbBlockTableRecord
  2
*Model_Space
340
22
  0
BLOCK_RECORD
  5
1B
330
1
100
AcDbSymbolTableRecord
100
AcDbBlockTableRecord
  2
*Paper_Space
340
1E
  0
BLOCK_RECORD
  5
23
330
1
100
AcDbSymbolTableRecord
100
AcDbBlockTableRecord
  2
*Paper_Space0
340
26
  0
ENDTAB
  0
ENDSEC
  0
SECTION
  2
BLOCKS
  0
BLOCK
  5
20
330
1F
100
AcDbEntity
  8
0
100
AcDbBlockBegin
  2
*Model_Space
 70
     0
 10
0.0
 20
0.0
 30
0.0
  3
*Model_Space
  1

  0
ENDBLK
  5
21
330
1F
100
AcDbEntity
  8
0
100
AcDbBlockEnd
  0
BLOCK
  5
1C
330
1B
100
AcDbEntity
 67
     1
  8
0
100
AcDbBlockBegin
  2
*Paper_Space
 70
     0
 10
0.0
 20
0.0
 30
0.0
  3
*Paper_Space
  1

  0
ENDBLK
  5
1D
330
1B
100
AcDbEntity
 67
     1
  8
0
100
AcDbBlockEnd
  0
BLOCK
  5
24
330
23
100
AcDbEntity
  8
0
100
AcDbBlockBegin
  2
*Paper_Space0
 70
     0
 10
0.0
 20
0.0
 30
0.0
  3
*Paper_Space0
  1

  0
ENDBLK
  5
25
330
23
100
AcDbEntity
  8
0
100
AcDbBlockEnd
  0
ENDSEC
  0
SECTION
  2
ENTITIES
  0
LWPOLYLINE
  5
7F
330
1F
100
AcDbEntity
  8
0
  6
Continuous
 62
     7
370
    25
100
AcDbPolyline
 90
       25
 70
   128
 43
0.0
 10
6605.051858677
 20
4807.8070585959
 10
6605.1847234189
 20
4807.8142183134
 10
6606.3302851935
 20
4808.1389399914
 10
6607.3189461065
 20
4808.6496926966
 10
6608.1583028382
 20
4809.2967845988
 10
6608.8721907855
 20
4810.0557557006
 10
6609.5060618572
 20
4810.9523619542
 10
6610.1267923842
 20
4812.1096407437
 10
6610.7971855792
 20
4813.7787576384
 10
6611.2992218936
 20
4815.4061111764
 10
6611.7551032981
 20
4817.2692076199
 10
6612.1242172234
 20
4819.175981063
 10
6612.4169655277
 20
4821.1206068414
 10
6612.6339989048
 20
4823.0782920879
 10
6612.7725144863
 20
4825.0166625342
 10
6612.8281292803
 20
4826.9001440612
 10
6612.7946225605
 20
4828.7068271785
 10
6612.6580611603
 20
4830.4362230486
 10
6612.3756372473
 20
4832.1422089004
 10
6611.9483902812
 20
4833.5922916055
 10
6611.4774690525
 20
4834.6174211092
 10
6610.8471920036
 20
4835.5632353871
 10
6610.0301717492
 20
4836.4044509453
 10
6609.0276795694
 20
4837.0852581616
 10
6607.9606621586
 20
4837.5105920698
  0
LWPOLYLINE
  5
80
330
1F
100
AcDbEntity
  8
0
  6
Continuous
 62
     7
370
    25
100
AcDbPolyline
 90
       25
 70
   128
 43
0.0
 10
6249.1449844895
 20
4837.4864901539
 10
6248.5641610862
 20
4837.3234547714
 10
6247.5145509671
 20
4836.7543669433
 10
6246.6603725204
 20
4836.0375187377
 10
6245.9832681597
 20
4835.2203591877
 10
6245.454891503
 20
4834.3226521009
 10
6245.0370177927
 20
4833.3115716202
 10
6244.6919551012
 20
4832.056737275
 10
6244.4130073506
 20
4830.2999025097
 10
6244.2871880258
 20
4828.6023842296
 10
6244.2603676858
 20
4826.684602473
 10
6244.3286233526
 20
4824.7447316187
 10
6244.4801272921
 20
4822.7846708578
 10
6244.7085378987
 20
4820.8278807758
 10
6245.0092487139
 20
4818.9062104923
 10
6245.3783721468
 20
4817.0556796952
 10
6245.816754505
 20
4815.2994928506
 10
6246.3370922438
 20
4813.6423429974
 10
6246.9905477621
 20
4812.0441561556
 10
6247.6802652121
 20
4810.7941661544
 10
6248.2292025934
 20
4810.037431042
 10
6249.0535987766
 20
4809.1851316266
 10
6249.9973129675
 20
4808.5092527969
 10
6251.0938439369
 20
4808.0157748561
 10
6252.0456494458
 20
4807.8143194715
  0
ARC
  5
81
330
1F
100
AcDbEntity
  8
0
  6
Continuous
 62
     7
370
    25
100
AcDbCircle
 10
6422.8851158398
 20
4489.2821515445
 30
0.0
 40
60.57362646774096
100
AcDbArc
 50
251.6984119627
 51
275.3597426183
  0
LWPOLYLINE
  5
82
330
1F
100
AcDbEntity
  8
0
  6
Continuous
 62
     7
370
    25
100
AcDbPolyline
 90
        3
 70
   128
 43
0.0
 10
6432.3289354691
 20
5073.7923602144
 10
6430.3945056298
 20
5073.7395984871
 10
6428.5432246645
 20
5073.6992605493
  0
ARC
  5
83
330
1F
100
AcDbEntity
  8
0
  6
Continuous
 62
     7
370
    25
100
AcDbCircle
 10
6434.2024900035
 20
4489.2935863377
 30
0.0
 40
60.58511929481824
100
AcDbArc
 50
264.640178559
 51
288.2948769495
  0
LWPOLYLINE
  5
84
330
1F
100
AcDbEntity
  8
0
  6
Continuous
 62
     7
370
    25
100
AcDbPolyline
 90
        4
 70
   128
 43
0.0
 10
6606.7001944646
 20
4836.88613013
 10
6607.2443952388
 20
4837.3928899727
 10
6607.762160483
 20
4837.5540216172
 10
6607.9427602508
 20
4837.525559444
  0
LWPOLYLINE
  5
85
330
1F
100
AcDbEntity
  8
0
  6
Continuous
 62
     7
370
    25
100
AcDbPolyline
 90
       16
 70
   128
 43
0.0
 10
6602.7860336147
 20
4811.0968928087
 10
6602.7693316783
 20
4811.2031815112
 10
6602.5838122776
 20
4812.7955562341
 10
6602.4810974615
 20
4814.618843414
 10
6602.4635947782
 20
4816.6303067446
 10
6602.5317144758
 20
4818.7827992305
 10
6602.6838598863
 20
4821.025868272
 10
6602.9164648501
 20
4823.3069382319
 10
6603.2240773042
 20
4825.5725427639
 10
6603.5994870733
 20
4827.7695780178
 10
6604.0338948706
 20
4829.8465473495
 10
6604.5171185455
 20
4831.7547683581
 10
6605.0378317446
 20
4833.4495139606
 10
6605.583829392
 20
4834.8910607564
 10
6606.1423137654
 20
4836.0456201104
 10
6606.7001944646
 20
4836.88613013
  0
LWPOLYLINE
  5
86
330
1F
100
AcDbEntity
  8
0
  6
Continuous
 62
     7
370
    25
100
AcDbPolyline
 90
       34
 70
   128
 43
0.0
 10
6610.6274273729
 20
4831.6676756904
 10
6611.0758415051
 20
4832.0529026975
 10
6611.4939860401
 20
4832.0811168029
 10
6611.8667481451
 20
4831.7512982753
 10
6612.1806552263
 20
4831.0753676157
 10
6612.4243618639
 20
4830.0777547191
 10
6612.589059865
 20
4828.794515915
 10
6612.6687966148
 20
4827.2720307971
 10
6612.6606902194
 20
4825.5653259444
 10
6612.5650336651
 20
4823.736086117
 10
6612.3852842289
 20
4821.8504248084
 10
6612.1279385238
 20
4819.9764947314
 10
6611.802297694
 20
4818.1820246012
 10
6611.4201312477
 20
4816.531871244
 10
6610.995251676
 20
4815.0856755014
 10
6610.5430152335
 20
4813.8957066557
 10
6610.0797669235
 20
4813.0049732813
 10
6609.6222497471
 20
4812.4456688032
 10
6609.1869995669
 20
4812.2380079424
 10
6608.7897474586
 20
4812.3894961036
 10
6608.4448511483
 20
4812.8946581099
 10
6608.1647760874
 20
4813.7352360902
 10
6607.9596449182
 20
4814.8808493662
 10
6607.8368716157
 20
4816.2900924892
 10
6607.8008935269
 20
4817.912031741
 10
6607.8530109937
 20
4819.6880460111
 10
6607.9913403551
 20
4821.5539455165
 10
6608.2108820274
 20
4823.4422917875
 10
6608.5037012027
 20
4825.2848350698
 10
6608.8592146331
 20
4827.0149810484
 10
6609.2645731368
 20
4828.5701977399
 10
6609.7051260014
 20
4829.8942755609
 10
6610.1649504986
 20
4830.9393588892
 10
6610.6274273729
 20
4831.6676756904
  0
LWPOLYLINE
  5
87
330
1F
100
AcDbEntity
  8
0
  6
Continuous
 62
     7
370
    25
100
AcDbPolyline
 90
       18
 70
   128
 43
0.0
 10
6249.1448172628
 20
4837.5258873681
 10
6249.5790923379
 20
4837.5170872161
 10
6250.1116379417
 20
4837.1821587257
 10
6250.6643002996
 20
4836.5065413991
 10
6251.2241254743
 20
4835.5060711336
 10
6251.7779916381
 20
4834.2041981043
 10
6252.3129166377
 20
4832.6314371118
 10
6252.8163622843
 20
4830.8246523405
 10
6253.2765282388
 20
4828.8261932942
 10
6253.6826286012
 20
4826.6829021591
 10
6254.0251447232
 20
4824.4450158628
 10
6254.2960483172
 20
4822.1649885634
 10
6254.4889896325
 20
4819.8962621684
 10
6254.5994462883
 20
4817.6920137015
 10
6254.6248292742
 20
4815.6039088785
 10
6254.5645436345
 20
4813.6808911068
 10
6254.4200024134
 20
4811.968034293
 10
6254.3000404196
 20
4811.094540142
  0
LWPOLYLINE
  5
88
330
1F
100
AcDbEntity
  8
0
  6
Continuous
 62
     7
370
    25
100
AcDbPolyline
 90
       34
 70
   128
 43
0.0
 10
6247.2372045786
 20
4812.6823375016
 10
6246.7747277043
 20
4813.4106543027
 10
6246.3149032071
 20
4814.455737631
 10
6245.8743503425
 20
4815.779815452
 10
6245.4689918388
 20
4817.3350321435
 10
6245.1134784084
 20
4819.0651781222
 10
6244.8206592331
 20
4820.9077214044
 10
6244.6011175608
 20
4822.7960676754
 10
6244.4627881994
 20
4824.6619671808
 10
6244.4106707326
 20
4826.4379814509
 10
6244.4466488214
 20
4828.0599207028
 10
6244.5694221239
 20
4829.4691638258
 10
6244.7745532931
 20
4830.6147771017
 10
6245.054628354
 20
4831.455355082
 10
6245.3995246643
 20
4831.9605170883
 10
6245.7967767726
 20
4832.1120052495
 10
6246.2320269528
 20
4831.9043443888
 10
6246.6895441292
 20
4831.3450399107
 10
6247.1527924392
 20
4830.4543065363
 10
6247.6050288817
 20
4829.2643376905
 10
6248.0299084534
 20
4827.8181419479
 10
6248.4120748997
 20
4826.1679885907
 10
6248.7377157295
 20
4824.3735184606
 10
6248.9950614346
 20
4822.4995883835
 10
6249.1748108708
 20
4820.6139270749
 10
6249.2704674251
 20
4818.7846872475
 10
6249.2785738205
 20
4817.0779823948
 10
6249.1988370707
 20
4815.5554972769
 10
6249.0341390696
 20
4814.2722584728
 10
6248.790432432
 20
4813.2746455762
 10
6248.4765253508
 20
4812.5987149166
 10
6248.1037632458
 20
4812.268896389
 10
6247.6856187108
 20
4812.2971104944
 10
6247.2372045786
 20
4812.6823375016
  0
LWPOLYLINE
  5
89
330
1F
100
AcDbEntity
  8
0
  6
Continuous
 62
     7
370
    25
100
AcDbPolyline
 90
       20
 70
   128
 43
0.0
 10
6428.5420458946
 20
5059.4273348731
 10
6461.302240667
 20
5059.1905185964
 10
6492.4689193119
 20
5054.221463791
 10
6508.4482401257
 20
5049.7537097513
 10
6522.6837283404
 20
5044.4905253898
 10
6545.923206973
 20
5031.5778657015
 10
6563.8724789303
 20
5015.0826013345
 10
6575.3277955909
 20
4996.7251133014
 10
6580.2891569547
 20
4976.505401602
 10
6578.7565630217
 20
4954.4234662364
 10
6575.3621219848
 20
4942.7695216656
 10
6569.9682067198
 20
4930.868095551
 10
6562.5748172268
 20
4918.7191878925
 10
6547.7357188097
 20
4900.03179851
 10
6528.3978033794
 20
4880.7875756539
 10
6511.026046707
 20
4866.2751157599
 10
6493.9460207892
 20
4854.4220914715
 10
6477.1577256261
 20
4845.2285027886
 10
6452.5222780463
 20
4836.4245615246
 10
6428.5432246645
 20
4833.604350373
  0
LWPOLYLINE
  5
8A
330
1F
100
AcDbEntity
  8
0
  6
Continuous
 62
     7
370
    25
100
AcDbPolyline
 90
       21
 70
   128
 43
0.0
 10
6428.5432246645
 20
4833.604350373
 10
6404.336055119
 20
4836.3253860347
 10
6379.6180212196
 20
4845.0337381537
 10
6354.3891229664
 20
4859.7294067302
 10
6328.6493603593
 20
4880.4123917642
 10
6314.9355642152
 20
4893.66861098
 10
6303.3529223172
 20
4906.5149122921
 10
6293.9014346654
 20
4918.9512957003
 10
6283.7201173992
 20
4936.8372747432
 10
6278.3338971868
 20
4953.8009385025
 10
6276.9396492268
 20
4965.5392582418
 10
6277.1160411957
 20
4976.6844387811
 10
6278.8630730934
 20
4987.2364801204
 10
6282.18074492
 20
4997.1953822598
 10
6293.5280083597
 20
5015.3337689385
 10
6311.1578315149
 20
5031.0995988174
 10
6323.1339195237
 20
5038.6610146294
 10
6335.8805614721
 20
5045.0737307828
 10
6363.6855071877
 20
5054.4530641139
 10
6394.5726686619
 20
5059.2375988107
 10
6428.5420458946
 20
5059.4273348731
  0
LWPOLYLINE
  5
8B
330
1F
100
AcDbEntity
  8
0
  6
Continuous
 62
     7
370
    25
100
AcDbPolyline
 90
       51
 70
   128
 43
0.0
 10
6428.5420510777
 20
5053.102348973
 10
6422.4282032674
 20
5053.4406086342
 10
6416.3287166444
 20
5053.5797744595
 10
6410.2513104668
 20
5053.526363162
 10
6404.1861352968
 20
5053.2875391762
 10
6398.1354496757
 20
5052.8676468956
 10
6388.1006046959
 20
5051.7750190068
 10
6378.1739544825
 20
5050.2007012061
 10
6368.5186326771
 20
5048.1766447971
 10
6359.1554538183
 20
5045.7132514965
 10
6350.0873217001
 20
5042.8017824315
 10
6341.3606884578
 20
5039.433934756
 10
6333.1439394468
 20
5035.6494781591
 10
6325.5232118393
 20
5031.4657762766
 10
6318.546549251
 20
5026.8759156587
 10
6312.2216046528
 20
5021.8408984386
 10
6306.6201029591
 20
5016.4346019514
 10
6301.7994013606
 20
5010.7819115722
 10
6297.7106086595
 20
5004.9185279498
 10
6294.2966435022
 20
4998.8355864633
 10
6291.5705478744
 20
4992.6376545408
 10
6289.1729274917
 20
4985.1354962177
 10
6287.6630055156
 20
4977.5518838176
 10
6287.0107387547
 20
4969.8788367329
 10
6287.2152331942
 20
4962.1612462728
 10
6288.2738374099
 20
4954.5130382854
 10
6290.7852780219
 20
4945.0901157329
 10
6294.5560424807
 20
4935.8122587293
 10
6299.4864068396
 20
4926.6982997744
 10
6305.370310137
 20
4917.8800212071
 10
6312.0595472084
 20
4909.336751662
 10
6319.4351932047
 20
4901.0278801435
 10
6327.3869059626
 20
4892.9157265101
 10
6335.816465457
 20
4884.9667501431
 10
6344.6529491451
 20
4877.1665745422
 10
6353.9661360038
 20
4869.601272046
 10
6363.9220836739
 20
4862.3625973769
 10
6374.6531358879
 20
4855.5828418641
 10
6380.3202360957
 20
4852.4255710373
 10
6386.2304003319
 20
4849.4576079982
 10
6392.4471381631
 20
4846.7284164856
 10
6399.0519974034
 20
4844.3021608339
 10
6406.0067228528
 20
4842.3014926704
 10
6413.2682762318
 20
4840.8419293793
 10
6420.8491736402
 20
4840.0138061112
 10
6424.6871500416
 20
4839.8654389742
 10
6426.6129641512
 20
4839.858944096
 10
6427.5775784061
 20
4839.8726259986
 10
6428.0603226927
 20
4839.8838020106
 10
6428.301770732
 20
4839.8901426342
 10
6428.5432350057
 20
4839.8966442451
  0
LWPOLYLINE
  5
8C
330
1F
100
AcDbEntity
  8
0
  6
Continuous
 62
     7
370
    25
100
AcDbPolyline
 90
       46
 70
   128
 43
0.0
 10
6428.5432350057
 20
4839.8966442451
 10
6428.785165761
 20
4839.8911231217
 10
6429.0270560984
 20
4839.8857650337
 10
6433.9842804633
 20
4839.9273435293
 10
6438.8720879289
 20
4840.2640974477
 10
6443.6938361603
 20
4840.8863972816
 10
6451.0116098829
 20
4842.3803774845
 10
6457.9668827958
 20
4844.4044057634
 10
6466.6538355734
 20
4847.727183638
 10
6474.8258130402
 20
4851.6062801048
 10
6482.4936025133
 20
4855.8414450757
 10
6493.1707371143
 20
4862.6318942711
 10
6503.0630390808
 20
4869.8615386483
 10
6512.3436836916
 20
4877.4334686946
 10
6521.1702834168
 20
4885.2571688954
 10
6529.5992931664
 20
4893.2365393058
 10
6537.5476803178
 20
4901.3725173216
 10
6544.9182476888
 20
4909.6967739839
 10
6551.6025493652
 20
4918.2446456562
 10
6557.4841260098
 20
4927.0540798219
 10
6562.4296019132
 20
4936.166145999
 10
6566.2354208423
 20
4945.4696258136
 10
6568.7749471736
 20
4954.8836371894
 10
6569.8570006303
 20
4962.4951711382
 10
6570.0923918029
 20
4970.1856949942
 10
6569.468708969
 20
4977.8836052416
 10
6567.9860851073
 20
4985.4677366301
 10
6565.6296078533
 20
4992.9282723426
 10
6562.9574912333
 20
4999.0661467517
 10
6559.604862244
 20
5005.0977342301
 10
6555.5215619767
 20
5011.0007015601
 10
6550.7312391366
 20
5016.6511454364
 10
6545.2194457154
 20
5022.002277233
 10
6538.920579347
 20
5027.0449536239
 10
6531.855272109
 20
5031.7053922446
 10
6524.2029729952
 20
5035.9023600517
 10
6515.9936322166
 20
5039.6715260722
 10
6507.27242434
 20
5043.0211221413
 10
6498.1521008138
 20
5045.9282369121
 10
6488.7422764904
 20
5048.377509688
 10
6479.0587202898
 20
5050.377335259
 10
6469.1261611248
 20
5051.9201735643
 10
6459.0458433122
 20
5052.983309657
 10
6448.9144087731
 20
5053.5481342409
 10
6438.7393658537
 20
5053.597208536
 10
6428.5420510777
 20
5053.102348973
  0
LINE
  5
8D
330
1F
100
AcDbEntity
  8
0
  6
Continuous
 62
     7
370
    25
100
AcDbLine
 10
6428.5432246645
 20
4833.604350373
 30
0.0
 11
6428.5432246644
 21
4429.038849892
 31
0.0
  0
LWPOLYLINE
  5
8E
330
1F
100
AcDbEntity
  8
0
  6
Continuous
 62
     7
370
    25
100
AcDbPolyline
 90
       14
 70
   128
 43
0.0
 10
6428.5432246645
 20
5073.6043039164
 10
6389.3655884782
 20
5074.1149898586
 10
6355.553634805
 20
5071.2055636984
 10
6322.2638650929
 20
5063.3410221202
 10
6297.3331212455
 20
5052.0545475979
 10
6277.1500228799
 20
5036.796929983
 10
6261.7145699963
 20
5017.5681692757
 10
6251.0267625947
 20
4994.3682654758
 10
6246.4903488468
 20
4977.39244791
 10
6243.2296438833
 20
4957.8137185975
 10
6241.2446477043
 20
4935.6320775383
 10
6240.5353603096
 20
4910.8475247324
 10
6242.9439118734
 20
4853.4696838806
 10
6245.1478177462
 20
4833.5796613984
  0
LWPOLYLINE
  5
8F
330
1F
100
AcDbEntity
  8
0
  6
Continuous
 62
     7
370
    25
100
AcDbPolyline
 90
       17
 70
   128
 43
0.0
 10
6247.8135057456
 20
4809.5221030008
 10
6250.4552985748
 20
4785.680196042
 10
6256.1526743601
 20
4749.0533403956
 10
6262.9965135743
 20
4713.5135797975
 10
6270.9868162176
 20
4679.0609142478
 10
6280.1235822898
 20
4645.6953437463
 10
6290.4068117911
 20
4613.4168682932
 10
6301.8365047214
 20
4582.2254878885
 10
6312.1169274882
 20
4557.1557397501
 10
6322.4479812662
 20
4534.3165339404
 10
6332.8296660555
 20
4513.7078704592
 10
6343.261981856
 20
4495.3297493067
 10
6353.7449286677
 20
4479.1821704828
 10
6364.2785064907
 20
4465.2651339875
 10
6380.1738063712
 20
4448.5718461106
 10
6396.183026027
 20
4436.8972784732
 10
6404.5721654047
 20
4433.4341296405
  0
LINE
  5
90
330
1F
100
AcDbEntity
  8
0
  6
Continuous
 62
     7
370
    25
100
AcDbLine
 10
6428.5432246645
 20
5073.5811054135
 30
0.0
 11
6428.5432246645
 21
5059.0799450581
 31
0.0
  0
LWPOLYLINE
  5
91
330
1F
100
AcDbEntity
  8
0
  6
Continuous
 62
     7
370
    25
100
AcDbPolyline
 90
       51
 70
   128
 43
0.0
 10
6338.1141756898
 20
4561.2919291301
 10
6337.1281534915
 20
4575.5959766432
 10
6335.89247742
 20
4590.0683690986
 10
6334.2168757595
 20
4604.6505026628
 10
6332.1984463608
 20
4619.2123150167
 10
6327.2570667839
 20
4650.8943778339
 10
6324.6414661348
 20
4666.5959637546
 10
6321.9701708792
 20
4682.1499210682
 10
6319.2596448369
 20
4697.5049541049
 10
6316.5136119899
 20
4712.6273033775
 10
6313.7557487505
 20
4727.5497841169
 10
6311.0859043735
 20
4742.1386979183
 10
6308.5474836268
 20
4756.3099057193
 10
6306.0779509651
 20
4770.2421484307
 10
6301.2424560615
 20
4797.8599397387
 10
6298.9062699176
 20
4811.7190105113
 10
6296.6705182848
 20
4825.7711767214
 10
6295.5725678498
 20
4833.0247789316
 10
6294.4390117923
 20
4840.4717946889
 10
6293.2175123757
 20
4848.1385658388
 10
6291.8557318631
 20
4856.0514342271
 10
6290.3864684866
 20
4863.7357159465
 10
6289.5441036718
 20
4867.7270017247
 10
6288.6363119931
 20
4871.7204143944
 10
6287.6848938376
 20
4875.5969050206
 10
6286.6844652091
 20
4879.4105747954
 10
6285.6198435145
 20
4883.2534735834
 10
6284.5391342825
 20
4886.9919952061
 10
6283.0462895633
 20
4891.9729492992
 10
6281.581774343
 20
4896.7305280985
 10
6280.1339253446
 20
4901.3803931957
 10
6278.7615671802
 20
4905.7917623158
 10
6277.1324744526
 20
4911.1115886396
 10
6275.6718507983
 20
4916.0188164215
 10
6274.3553051759
 20
4920.6027145555
 10
6273.2197882115
 20
4924.7038098674
 10
6272.099970718
 20
4928.9151951101
 10
6271.1636680751
 20
4932.6253532203
 10
6270.3720487187
 20
4935.9768618408
 10
6269.374533625
 20
4940.7629265506
 10
6268.5822507719
 20
4945.6626268909
 10
6267.9638877045
 20
4950.8911116566
 10
6267.4513344132
 20
4956.5226230457
 10
6266.9951102918
 20
4962.6067205195
 10
6266.6049137887
 20
4969.1426356611
 10
6266.3193670422
 20
4976.1213471894
 10
6266.2072144404
 20
4983.6244464955
 10
6266.3732459441
 20
4991.6564448371
 10
6266.9523426423
 20
5000.2625450199
 10
6267.6034117648
 20
5005.9800465058
 10
6268.5572449761
 20
5011.9456349002
  0
LINE
  5
92
330
1F
100
AcDbEntity
  8
0
  6
Continuous
 62
     7
370
    25
100
AcDbLine
 10
6428.5432246644
 20
4428.6043039164
 30
0.0
 11
6431.0510198017
 21
4428.8518779283
 31
0.0
  0
LWPOLYLINE
  5
93
330
1F
100
AcDbEntity
  8
0
  6
Continuous
 62
     7
370
    25
100
AcDbPolyline
 90
       15
 70
   128
 43
0.0
 10
6452.5695230248
 20
4433.3177174199
 10
6461.287758788
 20
4436.8768200509
 10
6477.393078565
 20
4448.5466005305
 10
6493.3204334854
 20
4465.2387292849
 10
6514.2800724913
 20
4495.3074427184
 10
6534.92332953
 20
4534.3047753072
 10
6555.2502046014
 20
4582.2307270514
 10
6561.9630501138
 20
4600.2778733941
 10
6568.2811844047
 20
4618.5193755648
 10
6574.2046074741
 20
4636.9552335636
 10
6579.7333193221
 20
4655.5854473905
 10
6584.8673199486
 20
4674.4100170455
 10
6589.6066093536
 20
4693.4289425286
 10
6606.6324551985
 20
4785.7074452452
 10
6609.8442527055
 20
4811.5828788669
  0
LWPOLYLINE
  5
94
330
1F
100
AcDbEntity
  8
0
  6
Continuous
 62
     7
370
    25
100
AcDbPolyline
 90
       16
 70
   128
 43
0.0
 10
6612.1191102045
 20
4833.0128655876
 10
6613.0924877474
 20
4842.4911310774
 10
6615.0897370884
 20
4868.0602421234
 10
6616.2651418071
 20
4891.7475319226
 10
6616.6187019036
 20
4913.553000475
 10
6613.9070319222
 20
4959.8337039015
 10
6606.0588330516
 20
4994.3530245358
 10
6602.6917205743
 20
5002.7277644221
 10
6598.8546434291
 20
5010.6292643949
 10
6594.5476016159
 20
5018.0575244541
 10
6578.8066881686
 20
5037.5028651507
 10
6558.8360927097
 20
5052.6890466255
 10
6534.6358152392
 20
5063.6160688784
 10
6499.5392285842
 20
5071.292317099
 10
6465.6122757427
 20
5074.0512560227
 10
6428.5432246645
 20
5073.6043039164
  0
LWPOLYLINE
  5
95
330
1F
100
AcDbEntity
  8
0
  6
Continuous
 62
     7
370
    25
100
AcDbPolyline
 90
       50
 70
   128
 43
0.0
 10
6588.5196821309
 20
5011.9456349002
 10
6589.3475887957
 20
5006.8976376427
 10
6589.9543532036
 20
5002.0035198373
 10
6590.6679375631
 20
4992.7347383178
 10
6590.8835204298
 20
4984.1212658981
 10
6590.7675109368
 20
4976.0989559868
 10
6590.454481218
 20
4968.6772661319
 10
6590.0269269553
 20
4961.7943891332
 10
6589.5355232929
 20
4955.373855911
 10
6588.9645041363
 20
4949.4351903255
 10
6588.3714809361
 20
4944.7331679722
 10
6587.6366553337
 20
4940.3286869635
 10
6586.7325696006
 20
4936.0186455513
 10
6585.6147365937
 20
4931.3605481454
 10
6584.7117158076
 20
4927.8416500495
 10
6583.6449330123
 20
4923.8701563909
 10
6582.3507527867
 20
4919.2478129906
 10
6580.8368038563
 20
4914.0518946926
 10
6579.5137296311
 20
4909.6623093579
 10
6578.0664099672
 20
4904.9658116691
 10
6576.4689386878
 20
4899.8436769335
 10
6574.7811836101
 20
4894.4092491661
 10
6572.547494333
 20
4887.0165719047
 10
6571.4013090184
 20
4883.0496825548
 10
6570.2743725974
 20
4878.9662451857
 10
6569.2067234699
 20
4874.8568125835
 10
6568.1987622962
 20
4870.6814133839
 10
6567.2273556285
 20
4866.3076806789
 10
6566.3333965034
 20
4861.9492136986
 10
6565.3017102298
 20
4856.4912648691
 10
6564.3662540291
 20
4851.1434290815
 10
6563.486160058
 20
4845.7960271094
 10
6562.6638507446
 20
4840.5724825923
 10
6560.945212867
 20
4829.3047182849
 10
6559.2535729207
 20
4818.3652510382
 10
6555.6522675768
 20
4796.7819591835
 10
6551.9441585907
 20
4775.5359002806
 10
6548.1367429573
 20
4754.0803105659
 10
6545.4809112516
 20
4739.3710734433
 10
6542.7186606138
 20
4724.3144216849
 10
6539.8916536189
 20
4708.9293438901
 10
6537.073240276
 20
4693.2990174585
 10
6534.2960263282
 20
4677.4317490232
 10
6531.5679922129
 20
4661.3840751954
 10
6527.5753241898
 20
4636.907732057
 10
6523.8822433775
 20
4612.1980967784
 10
6522.2222751371
 20
4599.4259677074
 10
6520.8687369961
 20
4586.654575234
 10
6519.8324989545
 20
4573.9033073856
 10
6518.9729519392
 20
4561.2939404577
  0
LWPOLYLINE
  5
96
330
1F
100
AcDbEntity
  8
0
  6
Continuous
 62
     7
370
    25
100
AcDbPolyline
 90
       24
 70
   128
 43
0.0
 10
6428.5339681131
 20
4969.6275091907
 10
6432.4979954556
 20
4969.8129369264
 10
6436.4512755092
 20
4969.9281549891
 10
6440.3969360931
 20
4969.9738198905
 10
6444.3469936632
 20
4969.9520582962
 10
6448.285867827
 20
4969.8646088624
 10
6452.2105826172
 20
4969.7129427475
 10
6456.1408211028
 20
4969.4972398874
 10
6465.2636252647
 20
4968.7515296778
 10
6474.252955525
 20
4967.6767995547
 10
6483.0171645842
 20
4966.2887690545
 10
6491.5332255155
 20
4964.5927765507
 10
6499.7875105814
 20
4962.5829650493
 10
6507.6807991583
 20
4960.2700312143
 10
6515.110468933
 20
4957.6700637154
 10
6522.0360394844
 20
4954.7773759593
 10
6528.4308666891
 20
4951.5672834017
 10
6534.1315910214
 20
4948.0963047705
 10
6539.12015405
 20
4944.4147862374
 10
6543.4558793721
 20
4940.5288840059
 10
6547.1515326027
 20
4936.4709865232
 10
6550.1860147966
 20
4932.3258691119
 10
6552.6046682025
 20
4928.1087835136
 10
6554.6831845731
 20
4922.8588256103
  0
LINE
  5
97
330
1F
100
AcDbEntity
  8
0
  6
Continuous
 62
     7
370
    25
100
AcDbLine
 10
6428.5339681131
 20
4969.6275091796
 30
0.0
 11
6428.5420510777
 21
5053.102348973
 31
0.0
  0
LWPOLYLINE
  5
98
330
1F
100
AcDbEntity
  8
0
  6
Continuous
 62
     7
370
    25
100
AcDbPolyline
 90
       18
 70
   128
 43
0.0
 10
6302.2700934139
 20
4922.5263543131
 10
6303.1188164484
 20
4925.1329382439
 10
6305.4250777519
 20
4929.9436254128
 10
6308.5067699744
 20
4934.6941551188
 10
6312.3660168776
 20
4939.2914619005
 10
6317.0356770777
 20
4943.7003549693
 10
6322.5877980493
 20
4947.9040126132
 10
6328.9857556455
 20
4951.8021333788
 10
6336.1068227495
 20
4955.3031256244
 10
6343.9352941531
 20
4958.446621378
 10
6352.4381738137
 20
4961.249159423
 10
6361.442619024
 20
4963.6755947609
 10
6370.791394314
 20
4965.7086692816
 10
6380.4728923384
 20
4967.3616251273
 10
6392.2960519754
 20
4968.8167407908
 10
6404.2952531748
 20
4969.6965335277
 10
6416.372872135
 20
4969.9796221233
 10
6428.5339681131
 20
4969.6275091796
  0
LINE
  5
99
330
1F
100
AcDbEntity
  8
0
  6
Continuous
 62
     7
370
    25
100
AcDbLine
 10
6428.5432246644
 20
4839.8966439666
 30
0.0
 11
6428.5432246645
 21
4969.6319447194
 31
0.0
  0
LWPOLYLINE
  5
9A
330
1F
100
AcDbEntity
  8
0
  6
Continuous
 62
     7
370
    25
100
AcDbPolyline
 90
       46
 70
   128
 43
0.0
 10
6338.1141756898
 20
4561.2919291301
 10
6332.441823865
 20
4577.5647138684
 10
6326.4268664082
 20
4594.1537657694
 10
6320.3095905352
 20
4610.9388104983
 10
6314.3200400098
 20
4627.8022900107
 10
6308.575514061
 20
4644.6565431082
 10
6303.2179971677
 20
4661.1339448403
 10
6298.1865899955
 20
4677.4705100701
 10
6293.5252699178
 20
4693.6009966361
 10
6289.2780143077
 20
4709.4601623768
 10
6285.4032827459
 20
4725.3531014142
 10
6282.054794394
 20
4740.8261537247
 10
6279.2226089051
 20
4755.9369936838
 10
6276.8245681447
 20
4770.904647743
 10
6274.7737067325
 20
4785.9588829074
 10
6272.9830592887
 20
4801.3294661822
 10
6272.1130039654
 20
4809.6508499958
 10
6271.2784464507
 20
4818.1583031983
 10
6270.4649436966
 20
4826.8811192709
 10
6269.6397089072
 20
4835.7980071165
 10
6268.7584643894
 20
4844.8559884296
 10
6267.9978069413
 20
4852.0371266199
 10
6267.1535653626
 20
4859.2464278686
 10
6266.2041767072
 20
4866.4579583282
 10
6265.1280781122
 20
4873.6457840589
 10
6263.9129366469
 20
4880.7737545197
 10
6262.6304246126
 20
4887.5201839462
 10
6261.2666559781
 20
4894.0668919244
 10
6259.8489027206
 20
4900.3390505656
 10
6258.4044368174
 20
4906.2618319808
 10
6256.9605302459
 20
4911.7604082808
 10
6255.1160413467
 20
4918.1946184361
 10
6253.3765048101
 20
4923.6523424674
 10
6251.7779541188
 20
4928.2624803684
 10
6249.7642232239
 20
4933.8886538815
 10
6248.1997303778
 20
4938.8170256541
 10
6247.1737120443
 20
4943.6951536311
 10
6246.7492859596
 20
4948.9675738165
 10
6246.9386250825
 20
4954.6828263729
 10
6247.7480185572
 20
4960.8437163286
 10
6249.1837555277
 20
4967.4530487116
 10
6251.4939990263
 20
4975.2446131375
 10
6254.5780988697
 20
4983.5859204769
 10
6258.4444259087
 20
4992.4807042222
 10
6263.1013509939
 20
5001.9326978658
 10
6268.5572449761
 20
5011.9456349002
  0
LWPOLYLINE
  5
9B
330
1F
100
AcDbEntity
  8
0
  6
Continuous
 62
     7
370
    25
100
AcDbPolyline
 90
       46
 70
   128
 43
0.0
 10
6518.9729519388
 20
4561.293940458
 10
6524.6452792084
 20
4577.5665417491
 10
6530.66017581
 20
4594.1553879752
 10
6536.7773646295
 20
4610.940209858
 10
6542.7668151183
 20
4627.8034552352
 10
6548.5112439061
 20
4644.6574694914
 10
6553.8686708541
 20
4661.134635078
 10
6558.8999953722
 20
4677.4709653669
 10
6563.561241936
 20
4693.6012209394
 10
6567.8084350212
 20
4709.4601623768
 10
6571.6831665829
 20
4725.3531014141
 10
6575.0316549348
 20
4740.8261537247
 10
6577.8638404237
 20
4755.9369936838
 10
6580.2618811842
 20
4770.9046477429
 10
6582.3127425963
 20
4785.9588829073
 10
6584.1033900402
 20
4801.3294661822
 10
6584.9734453635
 20
4809.6508499957
 10
6585.8080028782
 20
4818.1583031983
 10
6586.6215056323
 20
4826.8811192709
 10
6587.4467404218
 20
4835.7980071164
 10
6588.3279849395
 20
4844.8559884296
 10
6589.0886423876
 20
4852.0371266199
 10
6589.9328839663
 20
4859.2464278685
 10
6590.8822726218
 20
4866.4579583282
 10
6591.9583712167
 20
4873.6457840588
 10
6593.173512682
 20
4880.7737545197
 10
6594.4560247163
 20
4887.5201839461
 10
6595.8197933508
 20
4894.0668919244
 10
6597.2375466083
 20
4900.3390505656
 10
6598.6820125115
 20
4906.2618319807
 10
6600.1259190831
 20
4911.7604082808
 10
6601.9704079822
 20
4918.1946184361
 10
6603.7099445189
 20
4923.6523424674
 10
6605.3084952101
 20
4928.2624803683
 10
6607.322226105
 20
4933.8886538815
 10
6608.8867189511
 20
4938.8170256541
 10
6609.9127372846
 20
4943.695153631
 10
6610.3371633693
 20
4948.9675738164
 10
6610.1478242464
 20
4954.6828263729
 10
6609.3384307717
 20
4960.8437163286
 10
6607.9026938012
 20
4967.4530487116
 10
6605.5924503026
 20
4975.2446131375
 10
6602.5083504592
 20
4983.5859204768
 10
6598.6420234202
 20
4992.4807042221
 10
6593.985098335
 20
5001.9326978657
 10
6588.5292043528
 20
5011.9456349001
  0
ARC
  5
9C
330
1F
100
AcDbEntity
  8
SLD-0
100
AcDbCircle
 10
6607.8702429013
 20
4812.1133519123
 30
0.0
 40
5.189033597756336
100
AcDbArc
 50
184.2261256021
 51
236.496966441
  0
ARC
  5
9D
330
1F
100
AcDbEntity
  8
SLD-0
100
AcDbCircle
 10
6249.9933498381
 20
4811.6577195807
 30
0.0
 40
4.396360255249439
100
AcDbArc
 50
298.3002619506
 51
0.7686472057
  0
ARC
  5
9E
330
1F
100
AcDbEntity
  8
0
  6
Continuous
 62
     7
370
    25
100
AcDbCircle
 10
6849.7253647083
 20
4512.44492432
 30
0.0
 40
15.00000000000004
100
AcDbArc
 50
180.0
 51
215.6139098235
  0
LINE
  5
9F
330
1F
100
AcDbEntity
  8
0
  6
Continuous
 62
     7
370
    25
100
AcDbLine
 10
6835.1020868572
 20
4509.1043038855
 30
0.0
 11
6731.7253647083
 21
4509.1043038855
 31
0.0
  0
LINE
  5
A0
330
1F
100
AcDbEntity
  8
0
  6
Continuous
 62
     7
370
    25
100
AcDbLine
 10
6731.7253647083
 20
4459.1043038855
 30
0.0
 11
6834.7253647083
 21
4459.1043038855
 31
0.0
  0
LWPOLYLINE
  5
A1
330
1F
100
AcDbEntity
  8
0
  6
Continuous
 62
     7
370
    25
100
AcDbPolyline
 90
        3
 70
   128
 43
0.0
 10
6833.4843654681
 20
4623.7114028634
 10
6833.2825715485
 20
4624.0607049908
 10
6833.0807777556
 20
4624.410020046
  0
LWPOLYLINE
  5
A2
330
1F
100
AcDbEntity
  8
0
  6
Continuous
 62
     7
370
    25
100
AcDbPolyline
 90
        3
 70
   128
 43
0.0
 10
6832.2144745213
 20
4623.7112230292
 10
6832.0126837312
 20
4624.0605198663
 10
6831.8108930643
 20
4624.4098301083
  0
LWPOLYLINE
  5
A3
330
1F
100
AcDbEntity
  8
0
  6
Continuous
 62
     7
370
    25
100
AcDbPolyline
 90
        3
 70
   128
 43
0.0
 10
6830.9445846653
 20
4623.7110384878
 10
6830.7427921412
 20
4624.0603379789
 10
6830.5409997419
 20
4624.4096513213
  0
LWPOLYLINE
  5
A4
330
1F
100
AcDbEntity
  8
0
  6
Continuous
 62
     7
370
    25
100
AcDbPolyline
 90
        3
 70
   128
 43
0.0
 10
6829.6746628805
 20
4623.7109056679
 10
6829.4728691264
 20
4624.0602070325
 10
6829.2710754982
 20
4624.4095225685
  0
LWPOLYLINE
  5
A5
330
1F
100
AcDbEntity
  8
0
  6
Continuous
 62
     7
370
    25
100
AcDbPolyline
 90
        3
 70
   128
 43
0.0
 10
6828.4047135982
 20
4623.7108187554
 10
6828.2029190375
 20
4624.0601213463
 10
6828.0011246035
 20
4624.4094383175
  0
LWPOLYLINE
  5
A6
330
1F
100
AcDbEntity
  8
0
  6
Continuous
 62
     7
370
    25
100
AcDbPolyline
 90
        3
 70
   128
 43
0.0
 10
6827.1347411315
 20
4623.7107713135
 10
6826.9329461698
 20
4624.0600745053
 10
6826.7311513351
 20
4624.4093921913
  0
LWPOLYLINE
  5
A7
330
1F
100
AcDbEntity
  8
0
  6
Continuous
 62
     7
370
    25
100
AcDbPolyline
 90
        3
 70
   128
 43
0.0
 10
6825.864749749
 20
4623.7107564274
 10
6825.6629547682
 20
4624.0600596226
 10
6825.4611599144
 20
4624.4093773482
  0
LWPOLYLINE
  5
A8
330
1F
100
AcDbEntity
  8
0
  6
Continuous
 62
     7
370
    25
100
AcDbPolyline
 90
        3
 70
   128
 43
0.0
 10
6826.0959024243
 20
4603.7987932597
 10
6826.2977094474
 20
4604.1481308128
 10
6826.4961986768
 20
4604.4917116669
  0
LWPOLYLINE
  5
A9
330
1F
100
AcDbEntity
  8
0
  6
Continuous
 62
     7
370
    25
100
AcDbPolyline
 90
        3
 70
   128
 43
0.0
 10
6827.3659692148
 20
4603.7989050145
 10
6827.5677757806
 20
4604.1482421824
 10
6827.7662006656
 20
4604.4917117665
  0
LWPOLYLINE
  5
AA
330
1F
100
AcDbEntity
  8
0
  6
Continuous
 62
     7
370
    25
100
AcDbPolyline
 90
        3
 70
   128
 43
0.0
 10
6828.6360327925
 20
4603.7990124665
 10
6828.8378385928
 20
4604.1483486538
 10
6829.036202023
 20
4604.4917119239
  0
LWPOLYLINE
  5
AB
330
1F
100
AcDbEntity
  8
0
  6
Continuous
 62
     7
370
    25
100
AcDbPolyline
 90
        3
 70
   128
 43
0.0
 10
6829.9060900766
 20
4603.7991101777
 10
6830.1078948433
 20
4604.1484448388
 10
6830.3062028237
 20
4604.4917121391
  0
LWPOLYLINE
  5
AC
330
1F
100
AcDbEntity
  8
0
  6
Continuous
 62
     7
370
    25
100
AcDbPolyline
 90
        3
 70
   128
 43
0.0
 10
6831.1761383737
 20
4603.7991932191
 10
6831.3779418807
 20
4604.1485258767
 10
6831.5762032203
 20
4604.4917124117
  0
LWPOLYLINE
  5
AD
330
1F
100
AcDbEntity
  8
0
  6
Continuous
 62
     7
370
    25
100
AcDbPolyline
 90
        3
 70
   128
 43
0.0
 10
6832.4461753924
 20
4603.7992572772
 10
6832.6479774568
 20
4604.1485875354
 10
6832.8462033993
 20
4604.4917127419
  0
LWPOLYLINE
  5
AE
330
1F
100
AcDbEntity
  8
0
  6
Continuous
 62
     7
370
    25
100
AcDbPolyline
 90
        3
 70
   128
 43
0.0
 10
6833.7161992496
 20
4603.7992987481
 10
6833.917999732
 20
4604.1486263024
 10
6834.116203537
 20
4604.4917131294
  0
LINE
  5
AF
330
1F
100
AcDbEntity
  8
0
  6
Continuous
 62
     7
370
    25
100
AcDbLine
 10
6833.5571035253
 20
4603.8043038994
 30
0.0
 11
6833.7157536753
 21
4603.8043038994
 31
0.0
  0
LINE
  5
B0
330
1F
100
AcDbEntity
  8
0
  6
Continuous
 62
     7
370
    25
100
AcDbLine
 10
6832.2871035253
 20
4603.8043038994
 30
0.0
 11
6832.446558507
 21
4603.8043038994
 31
0.0
  0
LINE
  5
B1
330
1F
100
AcDbEntity
  8
0
  6
Continuous
 62
     7
370
    25
100
AcDbLine
 10
6831.0171035253
 20
4603.8043038994
 30
0.0
 11
6831.1777100051
 21
4603.8043038994
 31
0.0
  0
LINE
  5
B2
330
1F
100
AcDbEntity
  8
0
  6
Continuous
 62
     7
370
    25
100
AcDbLine
 10
6829.7471035253
 20
4603.8043038994
 30
0.0
 11
6829.9060230261
 21
4603.8043038994
 31
0.0
  0
LINE
  5
B3
330
1F
100
AcDbEntity
  8
0
  6
Continuous
 62
     7
370
    25
100
AcDbLine
 10
6828.4771035253
 20
4603.8043038994
 30
0.0
 11
6828.6360170232
 21
4603.8043038994
 31
0.0
  0
LINE
  5
B4
330
1F
100
AcDbEntity
  8
0
  6
Continuous
 62
     7
370
    25
100
AcDbLine
 10
6827.2071035253
 20
4603.8043038994
 30
0.0
 11
6827.3685944152
 21
4603.8043038994
 31
0.0
  0
LINE
  5
B5
330
1F
100
AcDbEntity
  8
0
  6
Continuous
 62
     7
370
    25
100
AcDbLine
 10
6825.9371035253
 20
4603.8043038994
 30
0.0
 11
6826.0967533805
 21
4603.8043038994
 31
0.0
  0
LINE
  5
B6
330
1F
100
AcDbEntity
  8
0
  6
Continuous
 62
     7
370
    25
100
AcDbLine
 10
6825.4622495309
 20
4624.4043038994
 30
0.0
 11
6825.1915304884
 21
4624.4043038994
 31
0.0
  0
LINE
  5
B7
330
1F
100
AcDbEntity
  8
0
  6
Continuous
 62
     7
370
    25
100
AcDbLine
 10
6826.7322001938
 20
4624.4043038994
 30
0.0
 11
6826.5723059188
 21
4624.4043038994
 31
0.0
  0
LINE
  5
B8
330
1F
100
AcDbEntity
  8
0
  6
Continuous
 62
     7
370
    25
100
AcDbLine
 10
6828.0003640109
 20
4624.4043038994
 30
0.0
 11
6827.8423059188
 21
4624.4043038994
 31
0.0
  0
LINE
  5
B9
330
1F
100
AcDbEntity
  8
0
  6
Continuous
 62
     7
370
    25
100
AcDbLine
 10
6829.2689085196
 20
4624.4043038994
 30
0.0
 11
6829.1123059188
 21
4624.4043038994
 31
0.0
  0
LINE
  5
BA
330
1F
100
AcDbEntity
  8
0
  6
Continuous
 62
     7
370
    25
100
AcDbLine
 10
6830.5407965213
 20
4624.4043038994
 30
0.0
 11
6830.3823059188
 21
4624.4043038994
 31
0.0
  0
LINE
  5
BB
330
1F
100
AcDbEntity
  8
0
  6
Continuous
 62
     7
370
    25
100
AcDbLine
 10
6831.8116375198
 20
4624.4043038994
 30
0.0
 11
6831.6523059188
 21
4624.4043038994
 31
0.0
  0
LINE
  5
BC
330
1F
100
AcDbEntity
  8
0
  6
Continuous
 62
     7
370
    25
100
AcDbLine
 10
6833.0820908948
 20
4624.4043038994
 30
0.0
 11
6832.9223059188
 21
4624.4043038994
 31
0.0
  0
LINE
  5
BD
330
1F
100
AcDbEntity
  8
0
  6
Continuous
 62
     7
370
    25
100
AcDbLine
 10
6834.3508013041
 20
4624.4043038994
 30
0.0
 11
6834.1923059188
 21
4624.4043038994
 31
0.0
  0
LWPOLYLINE
  5
BE
330
1F
100
AcDbEntity
  8
0
  6
Continuous
 62
     7
370
    25
100
AcDbPolyline
 90
        3
 70
   128
 43
0.0
 10
6826.8026217513
 20
4604.4989305361
 10
6827.0014042238
 20
4604.1548139856
 10
6827.1999852374
 20
4603.8110661364
  0
LWPOLYLINE
  5
BF
330
1F
100
AcDbEntity
  8
0
  6
Continuous
 62
     7
370
    25
100
AcDbPolyline
 90
        3
 70
   128
 43
0.0
 10
6828.0726217513
 20
4604.4989305361
 10
6828.2715050695
 20
4604.1546239152
 10
6828.4699852374
 20
4603.8110661364
  0
LWPOLYLINE
  5
C0
330
1F
100
AcDbEntity
  8
0
  6
Continuous
 62
     7
370
    25
100
AcDbPolyline
 90
        3
 70
   128
 43
0.0
 10
6829.3426217513
 20
4604.4989305361
 10
6829.5416059448
 20
4604.1544365179
 10
6829.7399852374
 20
4603.8110661364
  0
LWPOLYLINE
  5
C1
330
1F
100
AcDbEntity
  8
0
  6
Continuous
 62
     7
370
    25
100
AcDbPolyline
 90
        3
 70
   128
 43
0.0
 10
6830.6126217513
 20
4604.4989305361
 10
6830.8117068495
 20
4604.1542517944
 10
6831.0099852374
 20
4603.8110661364
  0
LWPOLYLINE
  5
C2
330
1F
100
AcDbEntity
  8
0
  6
Continuous
 62
     7
370
    25
100
AcDbPolyline
 90
        3
 70
   128
 43
0.0
 10
6831.8826217513
 20
4604.4989305361
 10
6832.0818077837
 20
4604.1540697456
 10
6832.2799852374
 20
4603.8110661364
  0
LWPOLYLINE
  5
C3
330
1F
100
AcDbEntity
  8
0
  6
Continuous
 62
     7
370
    25
100
AcDbPolyline
 90
        3
 70
   128
 43
0.0
 10
6833.1526217513
 20
4604.4989305361
 10
6833.3519087472
 20
4604.1538903725
 10
6833.5499852374
 20
4603.8110661364
  0
LWPOLYLINE
  5
C4
330
1F
100
AcDbEntity
  8
0
  6
Continuous
 62
     7
370
    25
100
AcDbPolyline
 90
        3
 70
   128
 43
0.0
 10
6826.5680780203
 20
4624.4021734411
 10
6826.3695858336
 20
4624.0584835487
 10
6826.1708902587
 20
4623.7145821088
  0
LWPOLYLINE
  5
C5
330
1F
100
AcDbEntity
  8
0
  6
Continuous
 62
     7
370
    25
100
AcDbPolyline
 90
        3
 70
   128
 43
0.0
 10
6827.8380780203
 20
4624.4021734411
 10
6827.6396875897
 20
4624.0585892625
 10
6827.4408902587
 20
4623.7145821088
  0
LWPOLYLINE
  5
C6
330
1F
100
AcDbEntity
  8
0
  6
Continuous
 62
     7
370
    25
100
AcDbPolyline
 90
        3
 70
   128
 43
0.0
 10
6829.1080780204
 20
4624.4021734411
 10
6828.9097893743
 20
4624.0586922778
 10
6828.7108902587
 20
4623.7145821088
  0
LWPOLYLINE
  5
C7
330
1F
100
AcDbEntity
  8
0
  6
Continuous
 62
     7
370
    25
100
AcDbPolyline
 90
        3
 70
   128
 43
0.0
 10
6830.3780780203
 20
4624.4021734411
 10
6830.1798911872
 20
4624.0587925938
 10
6829.9808902587
 20
4623.7145821088
  0
LWPOLYLINE
  5
C8
330
1F
100
AcDbEntity
  8
0
  6
Continuous
 62
     7
370
    25
100
AcDbPolyline
 90
        3
 70
   128
 43
0.0
 10
6831.6480780204
 20
4624.4021734411
 10
6831.4499930285
 20
4624.0588902096
 10
6831.2508902587
 20
4623.7145821088
  0
LWPOLYLINE
  5
C9
330
1F
100
AcDbEntity
  8
0
  6
Continuous
 62
     7
370
    25
100
AcDbPolyline
 90
        3
 70
   128
 43
0.0
 10
6832.9180780204
 20
4624.4021734411
 10
6832.7200948981
 20
4624.0589851245
 10
6832.5208902587
 20
4623.7145821088
  0
LWPOLYLINE
  5
CA
330
1F
100
AcDbEntity
  8
0
  6
Continuous
 62
     7
370
    25
100
AcDbPolyline
 90
        3
 70
   128
 43
0.0
 10
6834.1880780204
 20
4624.4021734411
 10
6833.9901967961
 20
4624.0590773377
 10
6833.7908902587
 20
4623.7145821088
  0
LINE
  5
CB
330
1F
100
AcDbEntity
  8
0
  6
Continuous
 62
     7
370
    25
100
AcDbLine
 10
6825.2980780203
 20
4624.4021734411
 30
0.0
 11
6825.1644608779
 21
4624.1708604773
 31
0.0
  0
LWPOLYLINE
  5
CC
330
1F
100
AcDbEntity
  8
0
  6
Continuous
 62
     7
370
    25
100
AcDbPolyline
 90
        3
 70
   128
 43
0.0
 10
6825.5326217513
 20
4604.4989305361
 10
6825.7313034075
 20
4604.1550067282
 10
6825.9299852374
 20
4603.8110661364
  0
LWPOLYLINE
  5
CD
330
1F
100
AcDbEntity
  8
0
  6
Continuous
 62
     7
370
    25
100
AcDbPolyline
 90
        3
 70
   128
 43
0.0
 10
6826.4927083135
 20
4604.4917116252
 10
6826.6515611704
 20
4604.4917135248
 10
6826.8067918059
 20
4604.4917116661
  0
LWPOLYLINE
  5
CE
330
1F
100
AcDbEntity
  8
0
  6
Continuous
 62
     7
370
    25
100
AcDbPolyline
 90
        3
 70
   128
 43
0.0
 10
6827.7627083135
 20
4604.4917116252
 10
6827.9216640543
 20
4604.4917180583
 10
6828.0767915618
 20
4604.4917117638
  0
LWPOLYLINE
  5
CF
330
1F
100
AcDbEntity
  8
0
  6
Continuous
 62
     7
370
    25
100
AcDbPolyline
 90
        3
 70
   128
 43
0.0
 10
6829.0327083135
 20
4604.4917116252
 10
6829.1917669652
 20
4604.4917252263
 10
6829.346791318
 20
4604.4917119185
  0
LWPOLYLINE
  5
D0
330
1F
100
AcDbEntity
  8
0
  6
Continuous
 62
     7
370
    25
100
AcDbPolyline
 90
        3
 70
   128
 43
0.0
 10
6830.3027083135
 20
4604.4917116252
 10
6830.461869903
 20
4604.4917350295
 10
6830.6167910743
 20
4604.4917121303
  0
LWPOLYLINE
  5
D1
330
1F
100
AcDbEntity
  8
0
  6
Continuous
 62
     7
370
    25
100
AcDbPolyline
 90
        3
 70
   128
 43
0.0
 10
6831.5727083135
 20
4604.4917116252
 10
6831.7319728677
 20
4604.4917474685
 10
6831.8867908307
 20
4604.4917123993
  0
LWPOLYLINE
  5
D2
330
1F
100
AcDbEntity
  8
0
  6
Continuous
 62
     7
370
    25
100
AcDbPolyline
 90
        3
 70
   128
 43
0.0
 10
6832.8427083135
 20
4604.4917116252
 10
6833.0020758593
 20
4604.4917625442
 10
6833.156790587
 20
4604.4917127257
  0
LWPOLYLINE
  5
D3
330
1F
100
AcDbEntity
  8
0
  6
Continuous
 62
     7
370
    25
100
AcDbPolyline
 90
        3
 70
   128
 43
0.0
 10
6834.1127083135
 20
4604.4917116252
 10
6834.2721788777
 20
4604.491780257
 10
6834.426790343
 20
4604.4917131096
  0
LWPOLYLINE
  5
D4
330
1F
100
AcDbEntity
  8
0
  6
Continuous
 62
     7
370
    25
100
AcDbPolyline
 90
        3
 70
   128
 43
0.0
 10
6827.4452083507
 20
4623.7168961734
 10
6827.2865612076
 20
4623.7168942729
 10
6827.1312027801
 20
4623.7168961316
  0
LWPOLYLINE
  5
D5
330
1F
100
AcDbEntity
  8
0
  6
Continuous
 62
     7
370
    25
100
AcDbPolyline
 90
        3
 70
   128
 43
0.0
 10
6828.7152083507
 20
4623.7168961734
 10
6828.5566640916
 20
4623.7168897385
 10
6828.4012027128
 20
4623.716896032
  0
LWPOLYLINE
  5
D6
330
1F
100
AcDbEntity
  8
0
  6
Continuous
 62
     7
370
    25
100
AcDbPolyline
 90
        3
 70
   128
 43
0.0
 10
6829.9852083507
 20
4623.7168961734
 10
6829.8267670025
 20
4623.7168825695
 10
6829.6712022976
 20
4623.7168958746
  0
LWPOLYLINE
  5
D7
330
1F
100
AcDbEntity
  8
0
  6
Continuous
 62
     7
370
    25
100
AcDbPolyline
 90
        3
 70
   128
 43
0.0
 10
6831.2552083507
 20
4623.7168961734
 10
6831.0968699403
 20
4623.7168727654
 10
6830.94120094
 20
4623.7168956598
  0
LWPOLYLINE
  5
D8
330
1F
100
AcDbEntity
  8
0
  6
Continuous
 62
     7
370
    25
100
AcDbPolyline
 90
        3
 70
   128
 43
0.0
 10
6832.5252083507
 20
4623.7168961734
 10
6832.366972905
 20
4623.7168603253
 10
6832.2111975669
 20
4623.7168953881
  0
LWPOLYLINE
  5
D9
330
1F
100
AcDbEntity
  8
0
  6
Continuous
 62
     7
370
    25
100
AcDbPolyline
 90
        3
 70
   128
 43
0.0
 10
6833.7952083507
 20
4623.7168961734
 10
6833.6370758966
 20
4623.7168452487
 10
6833.4811925934
 20
4623.7168950601
  0
LINE
  5
DA
330
1F
100
AcDbEntity
  8
0
  6
Continuous
 62
     7
370
    25
100
AcDbLine
 10
6826.1752083507
 20
4623.7168961734
 30
0.0
 11
6825.8612027734
 21
4623.7168961734
 31
0.0
  0
LINE
  5
DB
330
1F
100
AcDbEntity
  8
0
  6
Continuous
 62
     7
370
    25
100
AcDbLine
 10
6825.2227083135
 20
4604.4917116252
 30
0.0
 11
6825.5367920504
 21
4604.4917116252
 31
0.0
  0
LWPOLYLINE
  5
DC
330
1F
100
AcDbEntity
  8
0
  6
Continuous
 62
     7
370
    25
100
AcDbPolyline
 90
       43
 70
   128
 43
0.0
 10
6834.7253647083
 20
4429.2278181136
 10
6843.2392167736
 20
4429.3806721623
 10
6850.8521977269
 20
4429.9763729718
 10
6857.6571717852
 20
4430.9392646387
 10
6863.7379196666
 20
4432.2009168502
 10
6870.8481418366
 20
4434.242072622
 10
6876.9613730931
 20
4436.5759574994
 10
6882.2130145475
 20
4439.0908222402
 10
6887.5394126866
 20
4442.2134251564
 10
6891.9581476032
 20
4445.3197218783
 10
6895.6053345465
 20
4448.2954826785
 10
6898.596242541
 20
4451.0538169505
 10
6901.3155016407
 20
4453.8423403613
 10
6907.7498931647
 20
4461.6861158889
 10
6913.6801632911
 20
4470.7756889933
 10
6919.1726796254
 20
4481.0745409605
 10
6924.3569744778
 20
4492.4978377552
 10
6930.1373049912
 20
4506.6672097719
 10
6936.0516770512
 20
4521.3975750014
 10
6942.5245726863
 20
4536.318550837
 10
6949.73052358
 20
4551.2806301535
 10
6957.7821705765
 20
4566.1742398206
 10
6966.8028657679
 20
4580.8773920065
 10
6976.9272311258
 20
4595.2550041225
 10
6986.7399766713
 20
4607.375165217
 10
6997.028343295
 20
4618.5166483878
 10
7007.5415020106
 20
4628.709666005
 10
7018.102687511
 20
4638.08369112
 10
7028.5631898752
 20
4646.7486638427
 10
7038.7996925522
 20
4654.7968084294
 10
7048.7117331745
 20
4662.3043667054
 10
7058.2192859075
 20
4669.3332487136
 10
7071.0288418762
 20
4678.6769400913
 10
7084.6508371759
 20
4688.6436596533
 10
7098.8965938311
 20
4699.3459302912
 10
7104.3494095318
 20
4703.5796047531
 10
7109.8381483792
 20
4707.9486100287
 10
7115.0030401835
 20
4712.1293358844
 10
7119.5217192431
 20
4715.8015950546
 10
7123.4123538226
 20
4718.9721462039
 10
7126.6864420328
 20
4721.6574281856
 10
7129.3468404979
 20
4723.8853822966
 10
7131.3860068032
 20
4725.697909167
  0
ARC
  5
DD
330
1F
100
AcDbEntity
  8
0
  6
Continuous
 62
     7
370
    25
100
AcDbCircle
 10
7020.4161805548
 20
4839.1673949164
 30
0.0
 40
164.1080424219291
100
AcDbArc
 50
346.2360026838
 51
358.1030231822
  0
LWPOLYLINE
  5
DE
330
1F
100
AcDbEntity
  8
0
  6
Continuous
 62
     7
370
    25
100
AcDbPolyline
 90
       18
 70
   128
 43
0.0
 10
6904.7751801652
 20
5059.36151484
 10
6899.4674780307
 20
5061.8885702533
 10
6894.0081935424
 20
5064.1887535337
 10
6888.8244364941
 20
5066.1445154877
 10
6884.1745985994
 20
5067.7210704922
 10
6880.2041299034
 20
5068.9325763132
 10
6876.9859751441
 20
5069.8182506825
 10
6874.0751808293
 20
5070.5403443456
 10
6869.8180457195
 20
5071.4555069488
 10
6864.6865795903
 20
5072.300469943
 10
6858.822165089
 20
5072.8791084822
 10
6856.1052948216
 20
5073.0137053536
 10
6853.2719232115
 20
5073.072011937
 10
6850.3001571537
 20
5073.0694981948
 10
6847.1045703861
 20
5073.0697848072
 10
6843.5607501139
 20
5073.167530063
 10
6839.5044721473
 20
5073.4895579254
 10
6834.7253647084
 20
5074.1999842371
  0
LWPOLYLINE
  5
DF
330
1F
100
AcDbEntity
  8
0
  6
Continuous
 62
     7
370
    25
100
AcDbPolyline
 90
       33
 70
   128
 43
0.0
 10
6859.4555589828
 20
4812.6339018597
 10
6858.7333857999
 20
4813.5394846188
 10
6857.5505938651
 20
4815.4477056274
 10
6856.6723583842
 20
4817.524674959
 10
6856.1192644526
 20
4819.721710213
 10
6855.9042761233
 20
4821.9873147449
 10
6856.0324325405
 20
4824.2683847049
 10
6856.5007298263
 20
4826.5114537464
 10
6857.2981914894
 20
4828.6639462323
 10
6858.4061257042
 20
4830.6754095629
 10
6859.7985634318
 20
4832.4986967428
 10
6861.442867112
 20
4834.0910714657
 10
6863.3004956602
 20
4835.4152098177
 10
6865.3279078377
 20
4836.4400751183
 10
6867.4775828214
 20
4837.1416453933
 10
6869.6991340516
 20
4837.5034764302
 10
6871.9404902505
 20
4837.5170872161
 10
6874.1491159284
 20
4837.1821587257
 10
6876.2732427713
 20
4836.5065413991
 10
6878.2630830464
 20
4835.5060711336
 10
6880.0719965842
 20
4834.2041981043
 10
6881.6575839845
 20
4832.6314371118
 10
6882.9826804225
 20
4830.8246523405
 10
6884.0162267608
 20
4828.8261932942
 10
6884.7339975492
 20
4826.6829021591
 10
6885.1191688488
 20
4824.4450158628
 10
6885.1627125708
 20
4822.1649885634
 10
6884.8636080872
 20
4819.8962621684
 10
6884.2288661537
 20
4817.6920137015
 10
6883.2733645832
 20
4815.6039088785
 10
6882.0194995227
 20
4813.6808911068
 10
6880.4966605063
 20
4811.968034293
 10
6879.5133596888
 20
4811.094540142
  0
LWPOLYLINE
  5
E0
330
1F
100
AcDbEntity
  8
0
  6
Continuous
 62
     7
370
    25
100
AcDbPolyline
 90
       34
 70
   128
 43
0.0
 10
6868.3457864375
 20
4812.6823375016
 10
6866.6516995668
 20
4813.4106543027
 10
6865.1316262738
 20
4814.455737631
 10
6863.8405059677
 20
4815.779815452
 10
6862.8250031005
 20
4817.3350321435
 10
6862.1218205915
 20
4819.0651781222
 10
6861.7563732889
 20
4820.9077214044
 10
6861.7418694102
 20
4822.7960676754
 10
6862.0788331635
 20
4824.6619671808
 10
6862.7550858007
 20
4826.4379814509
 10
6863.7461857896
 20
4828.0599207028
 10
6865.0163121943
 20
4829.4691638258
 10
6866.5195593373
 20
4830.6147771017
 10
6868.2015959501
 20
4831.455355082
 10
6870.001628847
 20
4831.9605170883
 10
6871.8546001492
 20
4832.1120052495
 10
6873.693538646
 20
4831.9043443888
 10
6875.4519803088
 20
4831.3450399107
 10
6877.0663704744
 20
4830.4543065363
 10
6878.4783608758
 20
4829.2643376905
 10
6879.6369185011
 20
4827.8181419479
 10
6880.5001700591
 20
4826.1679885907
 10
6881.0369153893
 20
4824.3735184606
 10
6881.227755117
 20
4822.4995883835
 10
6881.0657917972
 20
4820.6139270749
 10
6880.5568792064
 20
4818.7846872475
 10
6879.7194107714
 20
4817.0779823948
 10
6878.5836547835
 20
4815.5554972769
 10
6877.1906604234
 20
4814.2722584728
 10
6875.5907741365
 20
4813.2746455762
 10
6873.8418199819
 20
4812.5987149166
 10
6872.0070097193
 20
4812.268896389
 10
6870.1526581724
 20
4812.2971104944
 10
6868.3457864375
 20
4812.6823375016
  0
LINE
  5
E1
330
1F
100
AcDbEntity
  8
0
  6
Continuous
 62
     7
370
    25
100
AcDbLine
 10
6731.7253647083
 20
4484.104303887
 30
0.0
 11
6731.7253647083
 21
4509.1043038855
 31
0.0
  0
LINE
  5
E2
330
1F
100
AcDbEntity
  8
0
  6
Continuous
 62
     7
370
    25
100
AcDbLine
 10
6731.7253647083
 20
4459.1043038855
 30
0.0
 11
6731.7253647083
 21
4484.104303887
 31
0.0
  0
LWPOLYLINE
  5
E3
330
1F
100
AcDbEntity
  8
0
  6
Continuous
 62
     7
370
    25
100
AcDbPolyline
 90
       12
 70
   128
 43
0.0
 10
6825.8652989529
 20
4623.6021990155
 10
6825.8977711283
 20
4623.5278322832
 10
6825.9613193324
 20
4622.5106640504
 10
6826.0207599414
 20
4620.7507599147
 10
6826.0832613295
 20
4618.3500138834
 10
6826.1457083161
 20
4615.5556606443
 10
6826.2051845315
 20
4612.6729489015
 10
6826.2687416325
 20
4609.8611739565
 10
6826.3288035514
 20
4607.4878334964
 10
6826.3905020438
 20
4605.7007062545
 10
6826.4448139311
 20
4604.7750757434
 10
6826.4927242512
 20
4604.5073557746
  0
LWPOLYLINE
  5
E4
330
1F
100
AcDbEntity
  8
0
  6
Continuous
 62
     7
370
    25
100
AcDbPolyline
 90
       12
 70
   128
 43
0.0
 10
6827.1352902612
 20
4623.6022189211
 10
6827.1677711283
 20
4623.5278322832
 10
6827.2313193324
 20
4622.5106640504
 10
6827.2907599414
 20
4620.7507599147
 10
6827.3532613295
 20
4618.3500138834
 10
6827.4157083161
 20
4615.5556606443
 10
6827.4751845315
 20
4612.6729489015
 10
6827.5387416325
 20
4609.8611739565
 10
6827.5988035514
 20
4607.4878334964
 10
6827.6605020438
 20
4605.7007062545
 10
6827.7148139311
 20
4604.7750757434
 10
6827.7627243973
 20
4604.5073549579
  0
LWPOLYLINE
  5
E5
330
1F
100
AcDbEntity
  8
0
  6
Continuous
 62
     7
370
    25
100
AcDbPolyline
 90
       12
 70
   128
 43
0.0
 10
6828.4052625218
 20
4623.6022824489
 10
6828.4377711283
 20
4623.5278322832
 10
6828.5013193324
 20
4622.5106640504
 10
6828.5607599414
 20
4620.7507599147
 10
6828.6232613295
 20
4618.3500138834
 10
6828.6857083161
 20
4615.5556606443
 10
6828.7451845315
 20
4612.6729489015
 10
6828.8087416325
 20
4609.8611739565
 10
6828.8688035514
 20
4607.4878334964
 10
6828.9305020438
 20
4605.7007062545
 10
6828.9848139311
 20
4604.7750757434
 10
6829.0327246186
 20
4604.5073537213
  0
LWPOLYLINE
  5
E6
330
1F
100
AcDbEntity
  8
0
  6
Continuous
 62
     7
370
    25
100
AcDbPolyline
 90
       12
 70
   128
 43
0.0
 10
6829.6752114278
 20
4623.6023994628
 10
6829.7077711283
 20
4623.5278322832
 10
6829.7713193324
 20
4622.5106640504
 10
6829.8307599414
 20
4620.7507599147
 10
6829.8932613295
 20
4618.3500138834
 10
6829.9557083161
 20
4615.5556606443
 10
6830.0151845315
 20
4612.6729489015
 10
6830.0787416325
 20
4609.8611739565
 10
6830.1388035514
 20
4607.4878334964
 10
6830.2005020438
 20
4605.7007062545
 10
6830.2548139311
 20
4604.7750757434
 10
6830.3027249155
 20
4604.5073520621
  0
LWPOLYLINE
  5
E7
330
1F
100
AcDbEntity
  8
0
  6
Continuous
 62
     7
370
    25
100
AcDbPolyline
 90
       12
 70
   128
 43
0.0
 10
6830.9451326228
 20
4623.6025799395
 10
6830.9777711283
 20
4623.5278322832
 10
6831.0413193324
 20
4622.5106640504
 10
6831.1007599414
 20
4620.7507599147
 10
6831.1632613295
 20
4618.3500138834
 10
6831.2257083161
 20
4615.5556606443
 10
6831.2851845315
 20
4612.6729489015
 10
6831.3487416325
 20
4609.8611739565
 10
6831.4088035514
 20
4607.4878334964
 10
6831.4705020438
 20
4605.7007062545
 10
6831.5248139311
 20
4604.7750757434
 10
6831.5727252885
 20
4604.5073499779
  0
LWPOLYLINE
  5
E8
330
1F
100
AcDbEntity
  8
0
  6
Continuous
 62
     7
370
    25
100
AcDbPolyline
 90
       12
 70
   128
 43
0.0
 10
6832.2150216316
 20
4623.6028341279
 10
6832.2477711283
 20
4623.5278322832
 10
6832.3113193324
 20
4622.5106640504
 10
6832.3707599414
 20
4620.7507599147
 10
6832.4332613295
 20
4618.3500138834
 10
6832.4957083161
 20
4615.5556606443
 10
6832.5551845315
 20
4612.6729489015
 10
6832.6187416325
 20
4609.8611739565
 10
6832.6788035514
 20
4607.4878334964
 10
6832.7405020438
 20
4605.7007062545
 10
6832.7948139311
 20
4604.7750757434
 10
6832.8427257381
 20
4604.5073474659
  0
LWPOLYLINE
  5
E9
330
1F
100
AcDbEntity
  8
0
  6
Continuous
 62
     7
370
    25
100
AcDbPolyline
 90
       16
 70
   128
 43
0.0
 10
6825.4622495309
 20
4624.3663524437
 10
6825.4685029892
 20
4624.399365998
 10
6825.5226203218
 20
4623.9387811872
 10
6825.576223662
 20
4622.7637487826
 10
6825.6300696437
 20
4620.9601626515
 10
6825.6841889925
 20
4618.6587301184
 10
6825.7385817082
 20
4616.026572466
 10
6825.7932477909
 20
4613.2548269779
 10
6825.8481872406
 20
4610.5447672752
 10
6825.9034000573
 20
4608.0931875919
 10
6825.9311089783
 20
4607.0210607023
 10
6825.9526837957
 20
4606.2761811618
 10
6825.9825773904
 20
4605.385223486
 10
6826.020526616
 20
4604.5208577564
 10
6826.0665314725
 20
4603.9182723112
 10
6826.0967533805
 20
4603.8942834752
  0
LWPOLYLINE
  5
EA
330
1F
100
AcDbEntity
  8
0
  6
Continuous
 62
     7
370
    25
100
AcDbPolyline
 90
       16
 70
   128
 43
0.0
 10
6826.738995438
 20
4624.3313513
 10
6826.7806647255
 20
4624.1051118755
 10
6826.8343160581
 20
4623.0825105177
 10
6826.8881548487
 20
4621.4077314809
 10
6826.9422927425
 20
4619.2021163305
 10
6826.9967297395
 20
4616.6259761212
 10
6827.0514658397
 20
4613.8665528352
 10
6827.1065010431
 20
4611.1244100457
 10
6827.1618353497
 20
4608.598855325
 10
6827.180346586
 20
4607.8375809186
 10
6827.1988910559
 20
4607.1271910497
 10
6827.2250796383
 20
4606.2223463751
 10
6827.264704279
 20
4605.0984278871
 10
6827.3026924239
 20
4604.3325485675
 10
6827.373759226
 20
4603.8076332426
 10
6827.3752128289
 20
4603.8209859516
  0
LWPOLYLINE
  5
EB
330
1F
100
AcDbEntity
  8
0
  6
Continuous
 62
     7
370
    25
100
AcDbPolyline
 90
       15
 70
   128
 43
0.0
 10
6828.0071399007
 20
4624.383479284
 10
6828.0197684226
 20
4624.3575903543
 10
6828.0369306989
 20
4624.2387686505
 10
6828.0920589946
 20
4623.3770436546
 10
6828.1470952123
 20
4621.8390171591
 10
6828.2020393522
 20
4619.7368641684
 10
6828.2568914141
 20
4617.2239039019
 10
6828.3116513982
 20
4614.4834175516
 10
6828.3663193043
 20
4611.715280783
 10
6828.4208751933
 20
4609.1232427663
 10
6828.4754235953
 20
4606.8949983299
 10
6828.5300037175
 20
4605.1912145312
 10
6828.5846155597
 20
4604.1358377791
 10
6828.639259122
 20
4603.8056443398
 10
6828.6426536398
 20
4603.831658641
  0
LWPOLYLINE
  5
EC
330
1F
100
AcDbEntity
  8
0
  6
Continuous
 62
     7
370
    25
100
AcDbPolyline
 90
       16
 70
   128
 43
0.0
 10
6829.275738944
 20
4624.3012098335
 10
6829.3157171397
 20
4624.1315527446
 10
6829.3824401732
 20
4622.8416767668
 10
6829.418512912
 20
4621.748571604
 10
6829.4563931321
 20
4620.3486626705
 10
6829.477319083
 20
4619.4814224836
 10
6829.4958120507
 20
4618.6672100277
 10
6829.5142831882
 20
4617.8158080471
 10
6829.5695656198
 20
4615.1090318432
 10
6829.6246515799
 20
4612.3289551134
 10
6829.6795410684
 20
4609.6784000113
 10
6829.7342340853
 20
4607.350739363
 10
6829.7887306307
 20
4605.5157890376
 10
6829.8430176007
 20
4604.3079019709
 10
6829.8972967
 20
4603.8140611085
 10
6829.9127887515
 20
4603.8864785525
  0
LWPOLYLINE
  5
ED
330
1F
100
AcDbEntity
  8
0
  6
Continuous
 62
     7
370
    25
100
AcDbPolyline
 90
       18
 70
   128
 43
0.0
 10
6830.5407965213
 20
4624.3864620823
 10
6830.5461869236
 20
4624.400475443
 10
6830.5721938211
 20
4624.2762393087
 10
6830.6074643729
 20
4623.8371779396
 10
6830.6519985789
 20
4622.864462515
 10
6830.7057964393
 20
4621.1366589657
 10
6830.7688579539
 20
4618.5023800443
 10
6830.8038625815
 20
4616.8431014071
 10
6830.8411831227
 20
4614.987731657
 10
6830.8808195775
 20
4612.9876652077
 10
6830.9227719459
 20
4610.9194581469
 10
6830.9520268101
 20
4609.5523310057
 10
6830.9741941583
 20
4608.5772564654
 10
6830.9925471136
 20
4607.8180347499
 10
6831.0474846314
 20
4605.8685194809
 10
6831.1022401271
 20
4604.5164232423
 10
6831.1568136008
 20
4603.8598263122
 10
6831.1777100051
 20
4603.8930704707
  0
LWPOLYLINE
  5
EE
330
1F
100
AcDbEntity
  8
0
  6
Continuous
 62
     7
370
    25
100
AcDbPolyline
 90
       15
 70
   128
 43
0.0
 10
6831.8179561386
 20
4624.3817894209
 10
6831.838121019
 20
4624.3110792258
 10
6831.8595772869
 20
4624.0994238767
 10
6831.9016587916
 20
4623.3507736708
 10
6831.9488824625
 20
4622.0349206921
 10
6832.0012482994
 20
4620.0852806385
 10
6832.0587563025
 20
4617.5089988115
 10
6832.1214064716
 20
4614.4211806147
 10
6832.1891988068
 20
4611.0722671336
 10
6832.2225660939
 20
4609.5268308981
 10
6832.2503263829
 20
4608.3266468874
 10
6832.3054157993
 20
4606.2616045989
 10
6832.3599303338
 20
4604.7648045998
 10
6832.4138699862
 20
4603.9446974419
 10
6832.446558507
 20
4603.8932473311
  0
LINE
  5
EF
330
1F
100
AcDbEntity
  8
0
  6
Continuous
 62
     7
370
    25
100
AcDbLine
 10
6834.3508013041
 20
4624.3859902792
 30
0.0
 11
6834.3568869586
 21
4624.3761678537
 31
0.0
  0
LWPOLYLINE
  5
F0
330
1F
100
AcDbEntity
  8
0
  6
Continuous
 62
     7
370
    25
100
AcDbPolyline
 90
       13
 70
   128
 43
0.0
 10
6825.2981758327
 20
4624.294495006
 10
6825.319827711
 20
4624.3633577668
 10
6825.3830803947
 20
4623.605545993
 10
6825.4443372223
 20
4621.9797027696
 10
6825.5048023443
 20
4619.6431816487
 10
6825.5682858713
 20
4616.7540038346
 10
6825.6275804388
 20
4613.6867669194
 10
6825.690333145
 20
4610.6019307753
 10
6825.7524902388
 20
4607.8513063505
 10
6825.8121746431
 20
4605.7036787965
 10
6825.875755577
 20
4604.2930333145
 10
6825.9355375403
 20
4603.8046141189
 10
6825.9371035253
 20
4603.8160259917
  0
LWPOLYLINE
  5
F1
330
1F
100
AcDbEntity
  8
0
  6
Continuous
 62
     7
370
    25
100
AcDbPolyline
 90
       13
 70
   128
 43
0.0
 10
6826.568199223
 20
4624.2945693977
 10
6826.589827711
 20
4624.3633577668
 10
6826.6530803947
 20
4623.605545993
 10
6826.7143372223
 20
4621.9797027696
 10
6826.7748023443
 20
4619.6431816487
 10
6826.8382858713
 20
4616.7540038346
 10
6826.8975804388
 20
4613.6867669194
 10
6826.960333145
 20
4610.6019307753
 10
6827.0224902388
 20
4607.8513063505
 10
6827.0821746431
 20
4605.7036787965
 10
6827.145755577
 20
4604.2930333145
 10
6827.2055375403
 20
4603.8046141189
 10
6827.2071035253
 20
4603.8160259917
  0
LWPOLYLINE
  5
F2
330
1F
100
AcDbEntity
  8
0
  6
Continuous
 62
     7
370
    25
100
AcDbPolyline
 90
       13
 70
   128
 43
0.0
 10
6827.8382226012
 20
4624.2946437512
 10
6827.859827711
 20
4624.3633577668
 10
6827.9230803947
 20
4623.605545993
 10
6827.9843372223
 20
4621.9797027696
 10
6828.0448023443
 20
4619.6431816487
 10
6828.1082858713
 20
4616.7540038346
 10
6828.1675804388
 20
4613.6867669194
 10
6828.230333145
 20
4610.6019307753
 10
6828.2924902388
 20
4607.8513063505
 10
6828.3521746431
 20
4605.7036787965
 10
6828.415755577
 20
4604.2930333145
 10
6828.4755375403
 20
4603.8046141189
 10
6828.4771035253
 20
4603.8160259917
  0
LWPOLYLINE
  5
F3
330
1F
100
AcDbEntity
  8
0
  6
Continuous
 62
     7
370
    25
100
AcDbPolyline
 90
       13
 70
   128
 43
0.0
 10
6829.1082459672
 20
4624.2947180656
 10
6829.129827711
 20
4624.3633577668
 10
6829.1930803947
 20
4623.605545993
 10
6829.2543372223
 20
4621.9797027696
 10
6829.3148023443
 20
4619.6431816487
 10
6829.3782858713
 20
4616.7540038346
 10
6829.4375804388
 20
4613.6867669194
 10
6829.500333145
 20
4610.6019307753
 10
6829.5624902388
 20
4607.8513063505
 10
6829.6221746431
 20
4605.7036787965
 10
6829.685755577
 20
4604.2930333145
 10
6829.7455375403
 20
4603.8046141189
 10
6829.7471035253
 20
4603.8160259917
  0
LWPOLYLINE
  5
F4
330
1F
100
AcDbEntity
  8
0
  6
Continuous
 62
     7
370
    25
100
AcDbPolyline
 90
       13
 70
   128
 43
0.0
 10
6830.3782693207
 20
4624.2947923401
 10
6830.399827711
 20
4624.3633577668
 10
6830.4630803947
 20
4623.605545993
 10
6830.5243372223
 20
4621.9797027696
 10
6830.5848023443
 20
4619.6431816487
 10
6830.6482858713
 20
4616.7540038346
 10
6830.7075804388
 20
4613.6867669194
 10
6830.770333145
 20
4610.6019307753
 10
6830.8324902388
 20
4607.8513063505
 10
6830.8921746431
 20
4605.7036787965
 10
6830.955755577
 20
4604.2930333145
 10
6831.0155375403
 20
4603.8046141189
 10
6831.0171035253
 20
4603.8160259917
  0
LWPOLYLINE
  5
F5
330
1F
100
AcDbEntity
  8
0
  6
Continuous
 62
     7
370
    25
100
AcDbPolyline
 90
       13
 70
   128
 43
0.0
 10
6831.6482926613
 20
4624.2948665737
 10
6831.669827711
 20
4624.3633577668
 10
6831.7330803947
 20
4623.605545993
 10
6831.7943372223
 20
4621.9797027696
 10
6831.8548023443
 20
4619.6431816487
 10
6831.9182858713
 20
4616.7540038346
 10
6831.9775804388
 20
4613.6867669194
 10
6832.040333145
 20
4610.6019307753
 10
6832.1024902388
 20
4607.8513063505
 10
6832.1621746431
 20
4605.7036787965
 10
6832.225755577
 20
4604.2930333145
 10
6832.2855375403
 20
4603.8046141189
 10
6832.2871035253
 20
4603.8160259917
  0
LINE
  5
F6
330
1F
100
AcDbEntity
  8
0
  6
Continuous
 62
     7
370
    25
100
AcDbLine
 10
6832.9183159887
 20
4624.2949407656
 30
0.0
 11
6832.939827711
 21
4624.3633577668
 31
0.0
  0
LWPOLYLINE
  5
F7
330
1F
100
AcDbEntity
  8
0
  6
Continuous
 62
     7
370
    25
100
AcDbPolyline
 90
        3
 70
   128
 43
0.0
 10
6833.5498768988
 20
4603.8508616125
 10
6833.5555375403
 20
4603.8046141189
 10
6833.5571035253
 20
4603.8160259917
  0
LINE
  5
F8
330
1F
100
AcDbEntity
  8
0
  6
Continuous
 62
     7
370
    25
100
AcDbLine
 10
6834.1883393028
 20
4624.2950149148
 30
0.0
 11
6834.1923059188
 21
4624.3076305468
 31
0.0
  0
ARC
  5
F9
330
1F
100
AcDbEntity
  8
0
  6
Continuous
 62
     7
370
    25
100
AcDbCircle
 10
7032.7132833984
 20
4616.0092119703
 30
0.0
 40
207.4979045077062
100
AcDbArc
 50
180.5621139058
 51
183.1694056037
  0
LWPOLYLINE
  5
FA
330
1F
100
AcDbEntity
  8
0
  6
Continuous
 62
     7
370
    25
100
AcDbPolyline
 90
       13
 70
   128
 43
0.0
 10
6826.175691236
 20
4623.6184768654
 10
6826.2152711208
 20
4623.5278323524
 10
6826.2788193248
 20
4622.5106642243
 10
6826.338259934
 20
4620.7507601765
 10
6826.3912643395
 20
4618.7404183708
 10
6826.4451823674
 20
4616.4041031603
 10
6826.4953647083
 20
4613.973536961
 10
6826.5007054405
 20
4613.7146327562
 10
6826.5634581467
 20
4610.8356742819
 10
6826.6256152405
 20
4608.268622702
 10
6826.6852996448
 20
4606.2643248213
 10
6826.7488805787
 20
4604.947823855
 10
6826.8027808608
 20
4604.5368474503
  0
LWPOLYLINE
  5
FB
330
1F
100
AcDbEntity
  8
0
  6
Continuous
 62
     7
370
    25
100
AcDbPolyline
 90
       13
 70
   128
 43
0.0
 10
6827.4457386312
 20
4623.6183683226
 10
6827.4852711208
 20
4623.5278323524
 10
6827.5488193248
 20
4622.5106642243
 10
6827.608259934
 20
4620.7507601765
 10
6827.6612643395
 20
4618.7404183708
 10
6827.7151823674
 20
4616.4041031603
 10
6827.7653647083
 20
4613.973536961
 10
6827.7707054405
 20
4613.7146327562
 10
6827.8334581467
 20
4610.8356742819
 10
6827.8956152405
 20
4608.268622702
 10
6827.9552996448
 20
4606.2643248213
 10
6828.0188805787
 20
4604.947823855
 10
6828.0728001152
 20
4604.5367006404
  0
LWPOLYLINE
  5
FC
330
1F
100
AcDbEntity
  8
0
  6
Continuous
 62
     7
370
    25
100
AcDbPolyline
 90
       13
 70
   128
 43
0.0
 10
6828.7157859345
 20
4623.6182599902
 10
6828.7552711208
 20
4623.5278323524
 10
6828.8188193248
 20
4622.5106642243
 10
6828.878259934
 20
4620.7507601765
 10
6828.9312643395
 20
4618.7404183708
 10
6828.9851823674
 20
4616.4041031603
 10
6829.0353647083
 20
4613.973536961
 10
6829.0407054405
 20
4613.7146327562
 10
6829.1034581467
 20
4610.8356742819
 10
6829.1656152405
 20
4608.268622702
 10
6829.2252996448
 20
4606.2643248213
 10
6829.2888805787
 20
4604.947823855
 10
6829.3428194291
 20
4604.5365533768
  0
LWPOLYLINE
  5
FD
330
1F
100
AcDbEntity
  8
0
  6
Continuous
 62
     7
370
    25
100
AcDbPolyline
 90
       13
 70
   128
 43
0.0
 10
6829.9858331473
 20
4623.6181518651
 10
6830.0252711208
 20
4623.5278323524
 10
6830.0888193248
 20
4622.5106642243
 10
6830.148259934
 20
4620.7507601765
 10
6830.2012643395
 20
4618.7404183708
 10
6830.2551823674
 20
4616.4041031603
 10
6830.3053647083
 20
4613.973536961
 10
6830.3107054405
 20
4613.7146327562
 10
6830.3734581467
 20
4610.8356742819
 10
6830.4356152405
 20
4608.268622702
 10
6830.4952996448
 20
4606.2643248213
 10
6830.5588805787
 20
4604.947823855
 10
6830.6128388031
 20
4604.5364056548
  0
LWPOLYLINE
  5
FE
330
1F
100
AcDbEntity
  8
0
  6
Continuous
 62
     7
370
    25
100
AcDbPolyline
 90
       13
 70
   128
 43
0.0
 10
6831.255880271
 20
4623.6180439439
 10
6831.2952711208
 20
4623.5278323524
 10
6831.3588193248
 20
4622.5106642243
 10
6831.418259934
 20
4620.7507601765
 10
6831.4712643395
 20
4618.7404183708
 10
6831.5251823674
 20
4616.4041031603
 10
6831.5753647083
 20
4613.973536961
 10
6831.5807054405
 20
4613.7146327562
 10
6831.6434581467
 20
4610.8356742819
 10
6831.7056152405
 20
4608.268622702
 10
6831.7652996448
 20
4606.2643248213
 10
6831.8288805787
 20
4604.947823855
 10
6831.8828582378
 20
4604.5362574699
  0
LWPOLYLINE
  5
FF
330
1F
100
AcDbEntity
  8
0
  6
Continuous
 62
     7
370
    25
100
AcDbPolyline
 90
       13
 70
   128
 43
0.0
 10
6832.5259273071
 20
4623.6179362233
 10
6832.5652711208
 20
4623.5278323524
 10
6832.6288193248
 20
4622.5106642243
 10
6832.688259934
 20
4620.7507601765
 10
6832.7412643395
 20
4618.7404183708
 10
6832.7951823674
 20
4616.4041031603
 10
6832.8453647083
 20
4613.973536961
 10
6832.8507054405
 20
4613.7146327562
 10
6832.9134581467
 20
4610.8356742819
 10
6832.9756152405
 20
4608.268622702
 10
6833.0352996448
 20
4606.2643248213
 10
6833.0988805787
 20
4604.947823855
 10
6833.1528777338
 20
4604.5361088174
  0
LINE
  5
100
330
1F
100
AcDbEntity
  8
0
  6
Continuous
 62
     7
370
    25
100
AcDbLine
 10
6825.2253647083
 20
4613.973536961
 30
0.0
 11
6825.2253647083
 21
4624.1598353739
 31
0.0
  0
LINE
  5
101
330
1F
100
AcDbEntity
  8
0
  6
Continuous
 62
     7
370
    25
100
AcDbLine
 10
6825.2253647083
 20
4613.973536961
 30
0.0
 11
6825.2253647083
 21
4604.4926010597
 31
0.0
  0
LWPOLYLINE
  5
102
330
1F
100
AcDbEntity
  8
0
  6
Continuous
 62
     7
370
    25
100
AcDbPolyline
 90
       43
 70
   128
 43
0.0
 10
7184.7253647084
 20
4833.604350373
 10
7183.9342150179
 20
4821.788019465
 10
7182.2523655232
 20
4810.5396722805
 10
7179.7290352787
 20
4799.8256867482
 10
7176.4134433388
 20
4789.6124407968
 10
7172.3548087582
 20
4779.8663123551
 10
7167.6023505912
 20
4770.5536793516
 10
7162.2052878924
 20
4761.6409197152
 10
7153.8222195178
 20
4749.9770325917
 10
7144.4414507906
 20
4738.9181850725
 10
7134.1909320262
 20
4728.3769729058
 10
7123.1986135402
 20
4718.2659918398
 10
7108.0256208338
 20
4705.6335825808
 10
7092.0975595404
 20
4693.3879414678
 10
7075.6946948663
 20
4681.337616291
 10
7059.0972920181
 20
4669.2911548402
 10
7042.5856162022
 20
4657.0571049058
 10
7026.439932625
 20
4644.4440142777
 10
7010.9405064929
 20
4631.2604307461
 10
6998.1289673627
 20
4619.1063058317
 10
6986.2145525589
 20
4606.2405589831
 10
6975.3366388324
 20
4592.5761929246
 10
6965.4524198199
 20
4578.1815878179
 10
6956.4762122223
 20
4563.1616920241
 10
6948.3223327405
 20
4547.621453904
 10
6940.9050980754
 20
4531.6658218188
 10
6934.1354401005
 20
4515.4021720285
 10
6930.4593724874
 20
4506.0577105374
 10
6926.774426224
 20
4496.7930286206
 10
6922.9511035861
 20
4487.7091280681
 10
6918.8599068494
 20
4478.9070106695
 10
6914.3713382897
 20
4470.4876782148
 10
6909.3559001826
 20
4462.5521324938
 10
6903.6840948039
 20
4455.2013752962
 10
6898.6943424109
 20
4449.9128884183
 10
6893.1591496852
 20
4445.0945984543
 10
6887.0161129291
 20
4440.7951771876
 10
6880.202828445
 20
4437.0632964013
 10
6872.656892535
 20
4433.9476278786
 10
6864.4721812741
 20
4431.5344949558
 10
6855.4614362057
 20
4429.8088228878
 10
6845.5655373453
 20
4428.8167223246
 10
6834.7253647083
 20
4428.6043039164
  0
LWPOLYLINE
  5
103
330
1F
100
AcDbEntity
  8
0
  6
Continuous
 62
     7
370
    25
100
AcDbPolyline
 90
       21
 70
   128
 43
0.0
 10
7183.4712332006
 20
4834.5886586636
 10
7181.2584259558
 20
4836.3253860347
 10
7170.3842926366
 20
4845.0337381537
 10
7152.1029647509
 20
4859.7294067302
 10
7126.4144422987
 20
4880.4123917642
 10
7109.9617357989
 20
4893.66861098
 10
7094.024955304
 20
4906.5149122921
 10
7078.6041008141
 20
4918.9512957003
 10
7056.4401803386
 20
4936.8372747432
 10
7035.4370933743
 20
4953.8009385025
 10
7020.913410564
 20
4965.5392582418
 10
7007.1299076396
 20
4976.6844387811
 10
6994.086584601
 20
4987.2364801204
 10
6981.7834414483
 20
4997.1953822598
 10
6959.3976948004
 20
5015.3337689385
 10
6939.972667696
 20
5031.0995988174
 10
6930.6710474198
 20
5038.6610146294
 10
6922.7933606976
 20
5045.0737307828
 10
6911.309787915
 20
5054.4530641139
 10
6905.5219493481
 20
5059.2375988107
 10
6905.491392212
 20
5059.3005468757
  0
LWPOLYLINE
  5
104
330
1F
100
AcDbEntity
  8
0
  6
Continuous
 62
     7
370
    25
100
AcDbPolyline
 90
       43
 70
   128
 43
0.0
 10
6857.802317496
 20
5011.9456349002
 10
6857.8584668496
 20
5011.8578403651
 10
6863.3929892574
 20
5003.2596044227
 10
6869.077245365
 20
4994.6097991155
 10
6874.9302562394
 20
4985.9867447853
 10
6883.9120473995
 20
4973.4254233545
 10
6893.4048357105
 20
4961.1862930752
 10
6902.717037999
 20
4950.5379729536
 10
6912.7958232659
 20
4940.5565444848
 10
6923.5845864918
 20
4931.3781391854
 10
6935.0267226579
 20
4923.1388885719
 10
6943.9282804374
 20
4917.4852648756
 10
6952.8576277639
 20
4911.8720500589
 10
6961.5453393152
 20
4905.9698779701
 10
6969.7219897692
 20
4899.4493824579
 10
6974.50433916
 20
4894.8322527542
 10
6978.8191782672
 20
4889.7783327115
 10
6982.5006422514
 20
4884.2962584224
 10
6984.8415391335
 20
4879.7004294612
 10
6986.6552269939
 20
4874.8626949534
 10
6987.8834975946
 20
4869.8663409752
 10
6988.4904021247
 20
4864.7690233166
 10
6988.506254711
 20
4859.6122528636
 10
6987.9660582057
 20
4854.4891674899
 10
6986.5585059897
 20
4847.9792930434
 10
6984.5407004242
 20
4841.5972258251
 10
6982.0888435358
 20
4835.3621707439
 10
6976.7356420376
 20
4823.8570026655
 10
6970.8635433327
 20
4812.5762848417
 10
6964.8978758238
 20
4801.3395392225
 10
6956.8880214125
 20
4785.3672495321
 10
6949.4881589898
 20
4769.109223431
 10
6942.9007779474
 20
4752.5353901299
 10
6936.7859678871
 20
4733.9859198407
 10
6931.7625001937
 20
4715.1340984204
 10
6927.7028846982
 20
4696.1079855118
 10
6924.4796312315
 20
4677.0356407576
 10
6921.8837076313
 20
4657.3680243033
 10
6919.8427328437
 20
4637.7385475789
 10
6918.1568279549
 20
4618.1931255261
 10
6916.6261140511
 20
4598.7776730863
 10
6914.9981339829
 20
4579.9947493159
 10
6912.8243016067
 20
4561.2919291301
  0
LINE
  5
105
330
1F
100
AcDbEntity
  8
0
  6
Continuous
 62
     7
370
    25
100
AcDbLine
 10
6834.7253647083
 20
4430.1517677059
 30
0.0
 11
6834.7253647083
 21
5074.1149898586
 31
0.0
  0
LWPOLYLINE
  5
106
330
1F
100
AcDbEntity
  8
0
  6
Continuous
 62
     7
370
    25
100
AcDbPolyline
 90
       46
 70
   128
 43
0.0
 10
6912.8243016067
 20
4561.2919291301
 10
6918.7331747643
 20
4577.5647138684
 10
6924.0263783566
 20
4594.1537657694
 10
6929.0548066194
 20
4610.9388104983
 10
6934.1549549882
 20
4627.8022900107
 10
6939.5048385302
 20
4644.6565431082
 10
6945.0795394474
 20
4661.1339448403
 10
6951.0464138922
 20
4677.4705100701
 10
6957.4797203759
 20
4693.6009966361
 10
6964.4537174098
 20
4709.4601623768
 10
6972.2342500757
 20
4725.3531014142
 10
6980.7370071504
 20
4740.8261537247
 10
6989.9398088173
 20
4755.9369936838
 10
6999.6917176804
 20
4770.904647743
 10
7009.8332254737
 20
4785.9588829074
 10
7020.2048239309
 20
4801.3294661822
 10
7025.7196238033
 20
4809.6508499958
 10
7031.2306216289
 20
4818.1583031983
 10
7036.6967379146
 20
4826.8811192709
 10
7041.8802616118
 20
4835.7980071165
 10
7046.4203076673
 20
4844.8559884296
 10
7049.299745768
 20
4852.0371266199
 10
7051.3820059216
 20
4859.2464278686
 10
7052.49111937
 20
4866.4579583282
 10
7052.4511178804
 20
4873.6457840589
 10
7051.1438690798
 20
4880.7737545197
 10
7048.7754062057
 20
4887.5201839462
 10
7045.455048661
 20
4894.0668919244
 10
7041.3170670107
 20
4900.3390505656
 10
7036.4957318199
 20
4906.2618319808
 10
7031.1253136536
 20
4911.7604082808
 10
7023.4862975774
 20
4918.1946184361
 10
7015.4083797
 20
4923.6523424674
 10
7007.0105791189
 20
4928.2624803684
 10
6994.3655970049
 20
4933.8886538815
 10
6981.4000547694
 20
4938.8170256541
 10
6968.3246551427
 20
4943.6951536311
 10
6955.3069789456
 20
4948.9675738165
 10
6942.4304973865
 20
4954.6828263729
 10
6929.7689675202
 20
4960.8437163286
 10
6917.3961464014
 20
4967.4530487116
 10
6904.2075308191
 20
4975.2446131375
 10
6891.5556694975
 20
4983.5859204769
 10
6879.5387330765
 20
4992.4807042222
 10
6868.254892196
 20
5001.9326978658
 10
6857.802317496
 20
5011.9456349002
  0
LINE
  5
107
330
1F
100
AcDbEntity
  8
0
  6
Continuous
 62
     7
370
    25
100
AcDbLine
 10
6905.4298449971
 20
5059.4273348731
 30
0.0
 11
6905.7276763317
 21
5059.2634520932
 31
0.0
  0
LWPOLYLINE
  5
108
330
1F
100
AcDbEntity
  8
0
  6
Continuous
 62
     7
370
    25
100
AcDbPolyline
 90
       18
 70
   128
 43
0.0
 10
6905.8602215614
 20
5059.1905185964
 10
6912.136693934
 20
5054.221463791
 10
6917.7294259801
 20
5049.7537097513
 10
6924.2986196223
 20
5044.4905253898
 10
6940.3663916949
 20
5031.5778657015
 10
6960.8428905105
 20
5015.0826013345
 10
6983.5953149847
 20
4996.7251133014
 10
7008.6236651175
 20
4976.505401602
 10
7035.927940909
 20
4954.4234662364
 10
7050.3271727059
 20
4942.7695216656
 10
7065.0240959076
 20
4930.868095551
 10
7080.0187105143
 20
4918.7191878925
 10
7103.0688038083
 20
4900.03179851
 10
7126.7887027634
 20
4880.7875756539
 10
7144.6646579544
 20
4866.2751157599
 10
7159.2526751987
 20
4854.4220914715
 10
7170.5527544963
 20
4845.2285027886
 10
7181.3379897924
 20
4836.4245615246
  0
LINE
  5
109
330
1F
100
AcDbEntity
  8
0
  6
Continuous
 62
     7
370
    25
100
AcDbLine
 10
7183.489163616
 20
4834.6335686299
 30
0.0
 11
7184.7253647084
 21
4833.604350373
 31
0.0
  0
LWPOLYLINE
  5
10A
330
1F
100
AcDbEntity
  8
0
  6
Continuous
 62
     7
370
    25
100
AcDbPolyline
 90
       45
 70
   128
 43
0.0
 10
6912.6236295057
 20
5053.56286559
 10
6912.6513446353
 20
5053.526363162
 10
6912.9212659414
 20
5053.2875391762
 10
6913.4151914368
 20
5052.8676468956
 10
6914.7244290085
 20
5051.7750190068
 10
6916.6298697062
 20
5050.2007012061
 10
6919.0926811132
 20
5048.1766447971
 10
6922.1000858468
 20
5045.7132514965
 10
6925.6629042403
 20
5042.8017824315
 10
6929.7916001128
 20
5039.433934756
 10
6934.4376933898
 20
5035.6494781591
 10
6939.5800703991
 20
5031.4657762766
 10
6945.227483248
 20
5026.8759156587
 10
6951.428196209
 20
5021.8408984386
 10
6958.0911395716
 20
5016.4346019514
 10
6965.0620971156
 20
5010.7819115722
 10
6972.2967094691
 20
5004.9185279498
 10
6979.8057007492
 20
4998.8355864633
 10
6987.4597977838
 20
4992.6376545408
 10
6996.7283269559
 20
4985.1354962177
 10
7006.1013230842
 20
4977.5518838176
 10
7015.5885304192
 20
4969.8788367329
 10
7025.1344241054
 20
4962.1612462728
 10
7034.5980907132
 20
4954.5130382854
 10
7046.2628029238
 20
4945.0901157329
 10
7057.7533845772
 20
4935.8122587293
 10
7069.0461253224
 20
4926.6982997744
 10
7079.97717336
 20
4917.8800212071
 10
7090.5714728468
 20
4909.336751662
 10
7100.8787519474
 20
4901.0278801435
 10
7110.9451499955
 20
4892.9157265101
 10
7120.811737479
 20
4884.9667501431
 10
7130.4959974632
 20
4877.1665745422
 10
7139.8917694178
 20
4869.601272046
 10
7148.8862689518
 20
4862.3625973769
 10
7157.316434934
 20
4855.5828418641
 10
7161.2450977133
 20
4852.4255710373
 10
7164.9406466592
 20
4849.4576079982
 10
7168.3421720656
 20
4846.7284164856
 10
7171.3706583834
 20
4844.3021608339
 10
7173.8742508124
 20
4842.3014926704
 10
7175.7098980362
 20
4840.8419293793
 10
7176.7659270082
 20
4840.0138061112
 10
7176.9655327675
 20
4839.8654389742
 10
7176.9767927533
 20
4839.8609007876
  0
ARC
  5
10B
330
1F
100
AcDbEntity
  8
0
  6
Continuous
 62
     7
370
    25
100
AcDbCircle
 10
7176.5286833908
 20
4839.4345881212
 30
0.0
 40
0.620688804480876
100
AcDbArc
 50
43.1323216074
 51
48.1097152537
  0
LWPOLYLINE
  5
10C
330
1F
100
AcDbEntity
  8
0
  6
Continuous
 62
     7
370
    25
100
AcDbPolyline
 90
        4
 70
   128
 43
0.0
 10
7176.9431212395
 20
4839.8966442451
 10
7176.9509650178
 20
4839.8911231217
 10
7176.9586069861
 20
4839.8857650337
 10
7176.9458536471
 20
4839.9030826962
  0
LWPOLYLINE
  5
10D
330
1F
100
AcDbEntity
  8
0
  6
Continuous
 62
     7
370
    25
100
AcDbPolyline
 90
       41
 70
   128
 43
0.0
 10
7176.9279871119
 20
4839.9273435293
 10
7176.5320060279
 20
4840.2640974477
 10
7175.7825874996
 20
4840.8863972816
 10
7173.9655588378
 20
4842.3803774845
 10
7171.4914509308
 20
4844.4044057634
 10
7167.4183303916
 20
4847.727183638
 10
7162.6549996167
 20
4851.6062801048
 10
7157.4491711003
 20
4855.8414450757
 10
7149.0956229882
 20
4862.6318942711
 10
7140.1955891447
 20
4869.8615386483
 10
7130.8696530098
 20
4877.4334686946
 10
7121.2304246811
 20
4885.2571688954
 10
7111.3969964936
 20
4893.2365393058
 10
7101.367860623
 20
4901.3725173216
 10
7091.1034387484
 20
4909.6967739839
 10
7080.5595721085
 20
4918.2446456562
 10
7069.6888389068
 20
4927.0540798219
 10
7058.4398850534
 20
4936.166145999
 10
7046.9494100104
 20
4945.4696258136
 10
7035.3169164357
 20
4954.8836371894
 10
7025.9075915916
 20
4962.4951711382
 10
7016.3970196668
 20
4970.1856949942
 10
7006.8737070554
 20
4977.8836052416
 10
6997.4875102349
 20
4985.4677366301
 10
6988.2505079597
 20
4992.9282723426
 10
6980.6480347628
 20
4999.0661467517
 10
6973.1741602293
 20
5005.0977342301
 10
6965.8562953485
 20
5011.0007015601
 10
6958.847781684
 20
5016.6511454364
 10
6952.2064262871
 20
5022.002277233
 10
6945.9432622149
 20
5027.0449536239
 10
6940.1496293136
 20
5031.7053922446
 10
6934.9267488587
 20
5035.9023600517
 10
6930.2306314609
 20
5039.6715260722
 10
6926.0512856564
 20
5043.0211221413
 10
6922.4175211442
 20
5045.9282369121
 10
6919.3487958941
 20
5048.377509688
 10
6916.8347934949
 20
5050.377335259
 10
6914.8849431949
 20
5051.9201735643
 10
6913.5277634959
 20
5052.983309657
 10
6912.7866757583
 20
5053.5481342409
  0
LWPOLYLINE
  5
10E
330
1F
100
AcDbEntity
  8
0
  6
Continuous
 62
     7
370
    25
100
AcDbPolyline
 90
        3
 70
   128
 43
0.0
 10
6912.7191134668
 20
5053.580200922
 10
6912.6832795941
 20
5053.597208536
 10
6913.2525216908
 20
5053.102348973
  0
ARC
  5
10F
330
1F
100
AcDbEntity
  8
SLD-0
100
AcDbCircle
 10
6870.2674175372
 20
4821.996703614
 30
0.0
 40
14.30238764059513
100
AcDbArc
 50
220.6286483024
 51
311.7313148731
  0
LWPOLYLINE
  5
110
330
1F
100
AcDbEntity
  8
0
  6
Continuous
 62
     7
370
    25
100
AcDbPolyline
 90
       25
 70
   128
 43
0.0
 10
6604.1315237452
 20
4154.7623023306
 10
6605.0100826025
 20
4154.9922976686
 10
6605.9070983651
 20
4155.4301208529
 10
6606.6429573258
 20
4155.9680203133
 10
6607.2278979866
 20
4156.5530065009
 10
6607.6976384366
 20
4157.1636930779
 10
6608.1079957869
 20
4157.8344883176
 10
6608.5517441766
 20
4158.7324324507
 10
6609.0942230931
 20
4160.0777713537
 10
6609.5710770957
 20
4161.4632806511
 10
6610.0735558932
 20
4163.1070001604
 10
6610.5177265266
 20
4164.7102413852
 10
6610.6170373564
 20
4165.0882689785
 10
6610.852941833
 20
4166.0161852331
 10
6611.2852786014
 20
4167.835326772
 10
6611.6824135141
 20
4169.6673558666
 10
6612.0344285587
 20
4171.466628836
 10
6612.3324408228
 20
4173.1914867418
 10
6612.5688739621
 20
4174.8098649536
 10
6612.7364794078
 20
4176.3075807966
 10
6612.8235279394
 20
4177.7193301823
 10
6612.7657307457
 20
4179.3037014927
 10
6612.5738269712
 20
4180.3126752662
 10
6612.2670281682
 20
4181.1740124616
 10
6612.1901774303
 20
4181.3099825127
  0
LWPOLYLINE
  5
111
330
1F
100
AcDbEntity
  8
0
  6
Continuous
 62
     7
370
    25
100
AcDbPolyline
 90
       24
 70
   128
 43
0.0
 10
6244.8908142955
 20
4181.3241418241
 10
6244.883144833
 20
4181.311150782
 10
6244.5748694713
 20
4180.5262979156
 10
6244.3900107753
 20
4179.7693618783
 10
6244.2909788287
 20
4179.0032528215
 10
6244.2575244265
 20
4178.0728314745
 10
6244.3341747609
 20
4176.4885696471
 10
6244.4884066949
 20
4175.0378112395
 10
6244.730532308
 20
4173.3391654115
 10
6245.0311284757
 20
4171.580290228
 10
6245.3833921303
 20
4169.7676972086
 10
6245.7791429902
 20
4167.9325427489
 10
6246.2090330033
 20
4166.1149499956
 10
6246.6629445207
 20
4164.3582961041
 10
6247.1317595791
 20
4162.7018093088
 10
6247.6099651549
 20
4161.1744731219
 10
6248.1020250976
 20
4159.7846390654
 10
6248.6496670116
 20
4158.4818759867
 10
6249.121402779
 20
4157.5843549636
 10
6249.6580946459
 20
4156.7956802205
 10
6250.2504789798
 20
4156.143072442
 10
6251.0290171049
 20
4155.5252240856
 10
6251.9977610403
 20
4155.0225938672
 10
6252.9533484772
 20
4154.7630075283
  0
LINE
  5
112
330
1F
100
AcDbEntity
  8
0
  6
Continuous
 62
     7
370
    25
100
AcDbLine
 10
6453.5461155453
 20
4205.1260950649
 30
0.0
 11
6453.5461155453
 21
4308.1260950649
 31
0.0
  0
LINE
  5
113
330
1F
100
AcDbEntity
  8
0
  6
Continuous
 62
     7
370
    25
100
AcDbLine
 10
6403.5461155453
 20
4308.1260950649
 30
0.0
 11
6403.5461155453
 21
4205.1260950649
 31
0.0
  0
LINE
  5
114
330
1F
100
AcDbEntity
  8
0
  6
Continuous
 62
     7
370
    25
100
AcDbLine
 10
6348.246115557
 20
4205.3418362117
 30
0.0
 11
6348.246115557
 21
4205.1810355571
 31
0.0
  0
LINE
  5
115
330
1F
100
AcDbEntity
  8
0
  6
Continuous
 62
     7
370
    25
100
AcDbLine
 10
6348.246115557
 20
4206.6118362117
 30
0.0
 11
6348.246115557
 21
4206.452592477
 31
0.0
  0
LINE
  5
116
330
1F
100
AcDbEntity
  8
0
  6
Continuous
 62
     7
370
    25
100
AcDbLine
 10
6348.246115557
 20
4207.8818362117
 30
0.0
 11
6348.246115557
 21
4207.7237663256
 31
0.0
  0
LINE
  5
117
330
1F
100
AcDbEntity
  8
0
  6
Continuous
 62
     7
370
    25
100
AcDbLine
 10
6348.246115557
 20
4209.1518362117
 30
0.0
 11
6348.246115557
 21
4208.9927800805
 31
0.0
  0
LINE
  5
118
330
1F
100
AcDbEntity
  8
0
  6
Continuous
 62
     7
370
    25
100
AcDbLine
 10
6348.246115557
 20
4210.4218362117
 30
0.0
 11
6348.246115557
 21
4210.262051023
 31
0.0
  0
LINE
  5
119
330
1F
100
AcDbEntity
  8
0
  6
Continuous
 62
     7
370
    25
100
AcDbLine
 10
6348.246115557
 20
4211.6918362117
 30
0.0
 11
6348.246115557
 21
4211.5324073681
 31
0.0
  0
LINE
  5
11A
330
1F
100
AcDbEntity
  8
0
  6
Continuous
 62
     7
370
    25
100
AcDbLine
 10
6348.246115557
 20
4212.9618362117
 30
0.0
 11
6348.246115557
 21
4212.8046448832
 31
0.0
  0
LINE
  5
11B
330
1F
100
AcDbEntity
  8
0
  6
Continuous
 62
     7
370
    25
100
AcDbLine
 10
6348.246115557
 20
4214.2318362117
 30
0.0
 11
6348.246115557
 21
4214.0748832936
 31
0.0
  0
LINE
  5
11C
330
1F
100
AcDbEntity
  8
0
  6
Continuous
 62
     7
370
    25
100
AcDbLine
 10
6368.846115557
 20
4213.4382098985
 30
0.0
 11
6368.846115557
 21
4213.5965738106
 31
0.0
  0
LINE
  5
11D
330
1F
100
AcDbEntity
  8
0
  6
Continuous
 62
     7
370
    25
100
AcDbLine
 10
6368.846115557
 20
4212.1681373697
 30
0.0
 11
6368.846115557
 21
4212.3265738106
 31
0.0
  0
LINE
  5
11E
330
1F
100
AcDbEntity
  8
0
  6
Continuous
 62
     7
370
    25
100
AcDbLine
 10
6368.846115557
 20
4210.8975791034
 30
0.0
 11
6368.846115557
 21
4211.0565738106
 31
0.0
  0
LINE
  5
11F
330
1F
100
AcDbEntity
  8
0
  6
Continuous
 62
     7
370
    25
100
AcDbLine
 10
6368.846115557
 20
4209.627511214
 30
0.0
 11
6368.846115557
 21
4209.7865738106
 31
0.0
  0
LINE
  5
120
330
1F
100
AcDbEntity
  8
0
  6
Continuous
 62
     7
370
    25
100
AcDbLine
 10
6368.846115557
 20
4208.3573403704
 30
0.0
 11
6368.846115557
 21
4208.5165738106
 31
0.0
  0
LINE
  5
121
330
1F
100
AcDbEntity
  8
0
  6
Continuous
 62
     7
370
    25
100
AcDbLine
 10
6368.846115557
 20
4207.0873784892
 30
0.0
 11
6368.846115557
 21
4207.2465738106
 31
0.0
  0
LINE
  5
122
330
1F
100
AcDbEntity
  8
0
  6
Continuous
 62
     7
370
    25
100
AcDbLine
 10
6368.846115557
 20
4205.8174751046
 30
0.0
 11
6368.846115557
 21
4205.9765738106
 31
0.0
  0
LWPOLYLINE
  5
123
330
1F
100
AcDbEntity
  8
0
  6
Continuous
 62
     7
370
    25
100
AcDbPolyline
 90
        3
 70
   128
 43
0.0
 10
6368.1525530861
 20
4205.4142013518
 10
6368.5018656552
 20
4205.616001758
 10
6368.8511927661
 20
4205.8178020312
  0
LWPOLYLINE
  5
124
330
1F
100
AcDbEntity
  8
0
  6
Continuous
 62
     7
370
    25
100
AcDbPolyline
 90
        3
 70
   128
 43
0.0
 10
6368.1525532882
 20
4206.6842014686
 10
6368.5018658413
 20
4206.8860018653
 10
6368.8511929357
 20
4207.0878021293
  0
LWPOLYLINE
  5
125
330
1F
100
AcDbEntity
  8
0
  6
Continuous
 62
     7
370
    25
100
AcDbPolyline
 90
        3
 70
   128
 43
0.0
 10
6368.1525531225
 20
4207.9542013729
 10
6368.5018656761
 20
4208.15600177
 10
6368.8511927714
 20
4208.3578020343
  0
LWPOLYLINE
  5
126
330
1F
100
AcDbEntity
  8
0
  6
Continuous
 62
     7
370
    25
100
AcDbPolyline
 90
        3
 70
   128
 43
0.0
 10
6368.1525526588
 20
4209.2242011049
 10
6368.5018652249
 20
4209.4260015096
 10
6368.8511923337
 20
4209.6278017814
  0
LWPOLYLINE
  5
127
330
1F
100
AcDbEntity
  8
0
  6
Continuous
 62
     7
370
    25
100
AcDbPolyline
 90
        3
 70
   128
 43
0.0
 10
6368.1525524017
 20
4210.4942009564
 10
6368.5018649362
 20
4210.696001343
 10
6368.8511920143
 20
4210.8978015969
  0
LWPOLYLINE
  5
128
330
1F
100
AcDbEntity
  8
0
  6
Continuous
 62
     7
370
    25
100
AcDbPolyline
 90
        3
 70
   128
 43
0.0
 10
6368.1525519532
 20
4211.7642006972
 10
6368.5018644627
 20
4211.9660010698
 10
6368.851191517
 20
4212.1678013095
  0
LWPOLYLINE
  5
129
330
1F
100
AcDbEntity
  8
0
  6
Continuous
 62
     7
370
    25
100
AcDbPolyline
 90
        3
 70
   128
 43
0.0
 10
6368.1525513933
 20
4213.0342003737
 10
6368.501863887
 20
4213.2360007376
 10
6368.851190927
 20
4213.4378009686
  0
LWPOLYLINE
  5
12A
330
1F
100
AcDbEntity
  8
0
  6
Continuous
 62
     7
370
    25
100
AcDbPolyline
 90
        3
 70
   128
 43
0.0
 10
6368.1525508277
 20
4214.3042000469
 10
6368.5018633173
 20
4214.5060004088
 10
6368.6338311932
 20
4214.5822359839
  0
LWPOLYLINE
  5
12B
330
1F
100
AcDbEntity
  8
0
  6
Continuous
 62
     7
370
    25
100
AcDbPolyline
 90
        3
 70
   128
 43
0.0
 10
6348.2410344765
 20
4214.0728042686
 10
6348.5903613568
 20
4213.8710041257
 10
6348.9340058953
 20
4213.672478185
  0
LWPOLYLINE
  5
12C
330
1F
100
AcDbEntity
  8
0
  6
Continuous
 62
     7
370
    25
100
AcDbPolyline
 90
        3
 70
   128
 43
0.0
 10
6348.2410345568
 20
4212.8028042222
 10
6348.5903614866
 20
4212.6010040508
 10
6348.9340065201
 20
4212.402477824
  0
LWPOLYLINE
  5
12D
330
1F
100
AcDbEntity
  8
0
  6
Continuous
 62
     7
370
    25
100
AcDbPolyline
 90
        3
 70
   128
 43
0.0
 10
6348.2410349783
 20
4211.5328039786
 10
6348.5903619542
 20
4211.3310037808
 10
6348.9340071747
 20
4211.1324774457
  0
LWPOLYLINE
  5
12E
330
1F
100
AcDbEntity
  8
0
  6
Continuous
 62
     7
370
    25
100
AcDbPolyline
 90
        3
 70
   128
 43
0.0
 10
6348.2410356523
 20
4210.262803589
 10
6348.5903626687
 20
4210.0610033684
 10
6348.9340078592
 20
4209.86247705
  0
LWPOLYLINE
  5
12F
330
1F
100
AcDbEntity
  8
0
  6
Continuous
 62
     7
370
    25
100
AcDbPolyline
 90
        3
 70
   128
 43
0.0
 10
6348.2410364909
 20
4208.9928031043
 10
6348.5903635406
 20
4208.7910028651
 10
6348.9340085734
 20
4208.5924766372
  0
LWPOLYLINE
  5
130
330
1F
100
AcDbEntity
  8
0
  6
Continuous
 62
     7
370
    25
100
AcDbPolyline
 90
        3
 70
   128
 43
0.0
 10
6348.2410374111
 20
4207.7228025726
 10
6348.590364486
 20
4207.5210023194
 10
6348.9340093175
 20
4207.3224762072
  0
LWPOLYLINE
  5
131
330
1F
100
AcDbEntity
  8
0
  6
Continuous
 62
     7
370
    25
100
AcDbPolyline
 90
        3
 70
   128
 43
0.0
 10
6348.2410383376
 20
4206.4528020372
 10
6348.5903654295
 20
4206.2510017749
 10
6348.9340100913
 20
4206.05247576
  0
LWPOLYLINE
  5
132
330
1F
100
AcDbEntity
  8
0
  6
Continuous
 62
     7
370
    25
100
AcDbPolyline
 90
        3
 70
   128
 43
0.0
 10
6348.9407380772
 20
4213.3663358801
 10
6348.5966215828
 20
4213.1675534102
 10
6348.2528736859
 20
4212.9689724003
  0
LWPOLYLINE
  5
133
330
1F
100
AcDbEntity
  8
0
  6
Continuous
 62
     7
370
    25
100
AcDbPolyline
 90
        3
 70
   128
 43
0.0
 10
6348.9407380772
 20
4212.0963358801
 10
6348.5964315691
 20
4211.8974525638
 10
6348.2528736859
 20
4211.6989724003
  0
LWPOLYLINE
  5
134
330
1F
100
AcDbEntity
  8
0
  6
Continuous
 62
     7
370
    25
100
AcDbPolyline
 90
        3
 70
   128
 43
0.0
 10
6348.9407380772
 20
4210.8263358801
 10
6348.5962442284
 20
4210.6273516879
 10
6348.2528736859
 20
4210.4289724003
  0
LWPOLYLINE
  5
135
330
1F
100
AcDbEntity
  8
0
  6
Continuous
 62
     7
370
    25
100
AcDbPolyline
 90
        3
 70
   128
 43
0.0
 10
6348.9407380772
 20
4209.5563358801
 10
6348.5960595617
 20
4209.3572507826
 10
6348.2528736859
 20
4209.1589724003
  0
LWPOLYLINE
  5
136
330
1F
100
AcDbEntity
  8
0
  6
Continuous
 62
     7
370
    25
100
AcDbPolyline
 90
        3
 70
   128
 43
0.0
 10
6348.9407380772
 20
4208.2863358801
 10
6348.5958775697
 20
4208.0871498478
 10
6348.2528736859
 20
4207.8889724003
  0
LWPOLYLINE
  5
137
330
1F
100
AcDbEntity
  8
0
  6
Continuous
 62
     7
370
    25
100
AcDbPolyline
 90
        3
 70
   128
 43
0.0
 10
6348.9407380772
 20
4207.0163358801
 10
6348.5956982533
 20
4206.8170488836
 10
6348.2528736859
 20
4206.6189724003
  0
LWPOLYLINE
  5
138
330
1F
100
AcDbEntity
  8
0
  6
Continuous
 62
     7
370
    25
100
AcDbPolyline
 90
        3
 70
   128
 43
0.0
 10
6348.9407380772
 20
4205.7463358801
 10
6348.5955216133
 20
4205.54694789
 10
6348.2528736859
 20
4205.3489724003
  0
LWPOLYLINE
  5
139
330
1F
100
AcDbEntity
  8
0
  6
Continuous
 62
     7
370
    25
100
AcDbPolyline
 90
        3
 70
   128
 43
0.0
 10
6368.843556515
 20
4212.3312625003
 10
6368.499849381
 20
4212.5297772284
 10
6368.1587077937
 20
4212.7268788057
  0
LWPOLYLINE
  5
13A
330
1F
100
AcDbEntity
  8
0
  6
Continuous
 62
     7
370
    25
100
AcDbPolyline
 90
        3
 70
   128
 43
0.0
 10
6368.843556515
 20
4211.0612625003
 10
6368.4999657898
 20
4211.2596755853
 10
6368.1587077042
 20
4211.4568785778
  0
LWPOLYLINE
  5
13B
330
1F
100
AcDbEntity
  8
0
  6
Continuous
 62
     7
370
    25
100
AcDbPolyline
 90
        3
 70
   128
 43
0.0
 10
6368.843556515
 20
4209.7912625003
 10
6368.5000795031
 20
4209.9895739136
 10
6368.1587075627
 20
4210.1868783673
  0
LWPOLYLINE
  5
13C
330
1F
100
AcDbEntity
  8
0
  6
Continuous
 62
     7
370
    25
100
AcDbPolyline
 90
        3
 70
   128
 43
0.0
 10
6368.843556515
 20
4208.5212625003
 10
6368.5001905202
 20
4208.7194722135
 10
6368.1587073689
 20
4208.9168781743
  0
LWPOLYLINE
  5
13D
330
1F
100
AcDbEntity
  8
0
  6
Continuous
 62
     7
370
    25
100
AcDbPolyline
 90
        3
 70
   128
 43
0.0
 10
6368.843556515
 20
4207.2512625003
 10
6368.5002988403
 20
4207.4493704848
 10
6368.1587071229
 20
4207.646877999
  0
LWPOLYLINE
  5
13E
330
1F
100
AcDbEntity
  8
0
  6
Continuous
 62
     7
370
    25
100
AcDbPolyline
 90
        3
 70
   128
 43
0.0
 10
6368.843556515
 20
4205.9812625003
 10
6368.5004044625
 20
4206.1792687277
 10
6368.1587068244
 20
4206.3768778413
  0
LWPOLYLINE
  5
13F
330
1F
100
AcDbEntity
  8
0
  6
Continuous
 62
     7
370
    25
100
AcDbPolyline
 90
        3
 70
   128
 43
0.0
 10
6368.843556515
 20
4213.6012625003
 10
6368.4997302775
 20
4213.7998788428
 10
6368.1587078311
 20
4213.9968790509
  0
LWPOLYLINE
  5
140
330
1F
100
AcDbEntity
  8
0
  6
Continuous
 62
     7
370
    25
100
AcDbPolyline
 90
        3
 70
   128
 43
0.0
 10
6348.9407380772
 20
4214.6363358801
 10
6348.5968142687
 20
4214.437654227
 10
6348.2528736859
 20
4214.2389724003
  0
LWPOLYLINE
  5
141
330
1F
100
AcDbEntity
  8
0
  6
Continuous
 62
     7
370
    25
100
AcDbPolyline
 90
        3
 70
   128
 43
0.0
 10
6348.9340053004
 20
4213.6743030372
 10
6348.9340570897
 20
4213.5154496761
 10
6348.9340071431
 20
4213.3624476861
  0
LWPOLYLINE
  5
142
330
1F
100
AcDbEntity
  8
0
  6
Continuous
 62
     7
370
    25
100
AcDbPolyline
 90
        3
 70
   128
 43
0.0
 10
6348.9340053004
 20
4212.4043030372
 10
6348.9341115253
 20
4212.2453462887
 10
6348.9340090832
 20
4212.0924489811
  0
LWPOLYLINE
  5
143
330
1F
100
AcDbEntity
  8
0
  6
Continuous
 62
     7
370
    25
100
AcDbPolyline
 90
        3
 70
   128
 43
0.0
 10
6348.9340053004
 20
4211.1343030372
 10
6348.9341686078
 20
4210.9752428751
 10
6348.9340111212
 20
4210.8224503016
  0
LWPOLYLINE
  5
144
330
1F
100
AcDbEntity
  8
0
  6
Continuous
 62
     7
370
    25
100
AcDbPolyline
 90
        3
 70
   128
 43
0.0
 10
6348.9340053004
 20
4209.8643030372
 10
6348.9342283379
 20
4209.7051394352
 10
6348.9340132572
 20
4209.5524516478
  0
LWPOLYLINE
  5
145
330
1F
100
AcDbEntity
  8
0
  6
Continuous
 62
     7
370
    25
100
AcDbPolyline
 90
        3
 70
   128
 43
0.0
 10
6348.9340053004
 20
4208.5943030372
 10
6348.9342907162
 20
4208.4350359692
 10
6348.9340154917
 20
4208.28245302
  0
LWPOLYLINE
  5
146
330
1F
100
AcDbEntity
  8
0
  6
Continuous
 62
     7
370
    25
100
AcDbPolyline
 90
        3
 70
   128
 43
0.0
 10
6348.9340053004
 20
4207.3243030372
 10
6348.9343557433
 20
4207.164932477
 10
6348.9340178249
 20
4207.0124544183
  0
LWPOLYLINE
  5
147
330
1F
100
AcDbEntity
  8
0
  6
Continuous
 62
     7
370
    25
100
AcDbPolyline
 90
        3
 70
   128
 43
0.0
 10
6348.9340053004
 20
4206.0543030372
 10
6348.93442342
 20
4205.8948289586
 10
6348.9340202571
 20
4205.7424558432
  0
LWPOLYLINE
  5
148
330
1F
100
AcDbEntity
  8
0
  6
Continuous
 62
     7
370
    25
100
AcDbPolyline
 90
        3
 70
   128
 43
0.0
 10
6368.1587078311
 20
4212.7237514408
 10
6368.158705931
 20
4212.8823985839
 10
6368.1587077893
 20
4213.0377569684
  0
LWPOLYLINE
  5
149
330
1F
100
AcDbEntity
  8
0
  6
Continuous
 62
     7
370
    25
100
AcDbPolyline
 90
        3
 70
   128
 43
0.0
 10
6368.1587078311
 20
4211.4537514408
 10
6368.1587013971
 20
4211.6122956999
 10
6368.1587076897
 20
4211.7677569109
  0
LWPOLYLINE
  5
14A
330
1F
100
AcDbEntity
  8
0
  6
Continuous
 62
     7
370
    25
100
AcDbPolyline
 90
        3
 70
   128
 43
0.0
 10
6368.1587078311
 20
4210.1837514408
 10
6368.1586942286
 20
4210.342192789
 10
6368.1587075323
 20
4210.49775682
  0
LWPOLYLINE
  5
14B
330
1F
100
AcDbEntity
  8
0
  6
Continuous
 62
     7
370
    25
100
AcDbPolyline
 90
        3
 70
   128
 43
0.0
 10
6368.1587078311
 20
4208.9137514408
 10
6368.1586844249
 20
4209.0720898512
 10
6368.1587073172
 20
4209.2277566957
  0
LWPOLYLINE
  5
14C
330
1F
100
AcDbEntity
  8
0
  6
Continuous
 62
     7
370
    25
100
AcDbPolyline
 90
        3
 70
   128
 43
0.0
 10
6368.1587078311
 20
4207.6437514408
 10
6368.1586719854
 20
4207.8019868865
 10
6368.1587070445
 20
4207.9577565383
  0
LWPOLYLINE
  5
14D
330
1F
100
AcDbEntity
  8
0
  6
Continuous
 62
     7
370
    25
100
AcDbPolyline
 90
        3
 70
   128
 43
0.0
 10
6368.1587078311
 20
4206.3737514408
 10
6368.1586569092
 20
4206.5318838949
 10
6368.1587067144
 20
4206.6877563476
  0
LINE
  5
14E
330
1F
100
AcDbEntity
  8
0
  6
Continuous
 62
     7
370
    25
100
AcDbLine
 10
6368.1587078311
 20
4213.9937514408
 30
0.0
 11
6368.1587078311
 21
4214.3077569925
 31
0.0
  0
LWPOLYLINE
  5
14F
330
1F
100
AcDbEntity
  8
0
  6
Continuous
 62
     7
370
    25
100
AcDbPolyline
 90
       25
 70
   128
 43
0.0
 10
6602.4251470986
 20
4148.554394756
 10
6602.7495983217
 20
4149.8191611146
 10
6603.581074838
 20
4152.8715918487
 10
6604.4736183144
 20
4155.9373465163
 10
6605.3596560857
 20
4158.7884152353
 10
6606.001211189
 20
4160.7647306022
 10
6606.3458514407
 20
4161.809724343
 10
6606.6885357455
 20
4162.8480898151
 10
6607.0413426799
 20
4163.9198886401
 10
6607.403930497
 20
4165.0271661587
 10
6607.9015744021
 20
4166.5614772619
 10
6608.4122253436
 20
4168.1597471866
 10
6608.9258771384
 20
4169.7974499518
 10
6609.6998134457
 20
4172.3350085878
 10
6610.4792011037
 20
4174.9910464883
 10
6610.8916773644
 20
4176.4429581616
 10
6611.405251293
 20
4178.3049729021
 10
6612.0313530572
 20
4180.6731961666
 10
6612.7733661967
 20
4183.6482045141
 10
6613.334083804
 20
4186.0351945683
 10
6613.9487650264
 20
4188.8044413163
 10
6614.6183317306
 20
4192.0181632729
 10
6615.3436362193
 20
4195.7499578039
 10
6616.1254312939
 20
4200.0859775335
 10
6616.9643359197
 20
4205.126095065
  0
ARC
  5
150
330
1F
100
AcDbEntity
  8
0
  6
Continuous
 62
     7
370
    25
100
AcDbCircle
 10
6364.9437444993
 20
4071.5980437574
 30
0.0
 40
227.0227349213069
100
AcDbArc
 50
325.8691290563
 51
330.4104013872
  0
LWPOLYLINE
  5
151
330
1F
100
AcDbEntity
  8
0
  6
Continuous
 62
     7
370
    25
100
AcDbPolyline
 90
       19
 70
   128
 43
0.0
 10
6562.7777370686
 20
3960.2442932236
 10
6563.746793591
 20
3961.9726342607
 10
6566.439387709
 20
3967.0849592608
 10
6569.0752851382
 20
3972.545238149
 10
6570.9704705951
 20
3976.8317093122
 10
6572.5894957859
 20
3980.8038038145
 10
6573.9434336089
 20
3984.3993921588
 10
6575.0673788404
 20
3987.6156793914
 10
6576.0244621746
 20
3990.5517510769
 10
6576.9616094242
 20
3993.6323068127
 10
6577.851268044
 20
3996.7761525104
 10
6578.7992985613
 20
4000.4003122932
 10
6579.7961698832
 20
4004.563622621
 10
6580.8023571318
 20
4009.1832236494
 10
6581.5606503055
 20
4012.9687580643
 10
6582.2038937952
 20
4016.3956378221
 10
6582.767416231
 20
4019.562873085
 10
6583.454920226
 20
4023.6336077213
 10
6583.7562908924
 20
4025.5129356265
  0
LWPOLYLINE
  5
152
330
1F
100
AcDbEntity
  8
0
  6
Continuous
 62
     7
370
    25
100
AcDbPolyline
 90
       17
 70
   128
 43
0.0
 10
6273.3506208106
 20
4025.4818516168
 10
6274.6664125441
 20
4017.6206160648
 10
6275.9832430963
 20
4010.6729115759
 10
6276.9449395427
 20
4006.1136678446
 10
6277.9644879425
 20
4001.7141820663
 10
6278.938929944
 20
3997.8797472771
 10
6279.8541562623
 20
3994.5640432285
 10
6280.746959143
 20
3991.5591020304
 10
6281.6446789895
 20
3988.7342132793
 10
6282.6278337397
 20
3985.8358272524
 10
6283.7835176808
 20
3982.6520639781
 10
6285.6352988627
 20
3977.9635505958
 10
6287.9126615744
 20
3972.7430059791
 10
6290.7987901091
 20
3966.751784833
 10
6294.4104812241
 20
3959.9710502557
 10
6298.8417469332
 20
3952.4537540353
 10
6304.1817903655
 20
3944.2672013307
  0
LWPOLYLINE
  5
153
330
1F
100
AcDbEntity
  8
0
  6
Continuous
 62
     7
370
    25
100
AcDbPolyline
 90
       24
 70
   128
 43
0.0
 10
6240.1187780003
 20
4205.1260950649
 10
6241.0752944749
 20
4199.4102006669
 10
6241.9569499142
 20
4194.5992255978
 10
6242.7647119164
 20
4190.5475095345
 10
6243.4997635064
 20
4187.1324538236
 10
6244.16343784
 20
4184.2522148285
 10
6245.1216924826
 20
4180.3947356246
 10
6245.889532374
 20
4177.5208547104
 10
6246.4745790812
 20
4175.4334200716
 10
6246.9761974316
 20
4173.6996340056
 10
6247.4752214145
 20
4172.0198147567
 10
6248.1254297461
 20
4169.8917866772
 10
6248.7726571699
 20
4167.8318373381
 10
6249.4117727256
 20
4165.8431519673
 10
6249.7648000615
 20
4164.7596971873
 10
6250.1094722405
 20
4163.7092105414
 10
6250.4453345283
 20
4162.6901698421
 10
6250.8523917412
 20
4161.4577089214
 10
6251.31110187
 20
4160.0621854606
 10
6251.9631022009
 20
4158.0328363276
 10
6252.7969141334
 20
4155.3113003481
 10
6253.8638210851
 20
4151.5718566503
 10
6254.6378951325
 20
4148.6553656575
 10
6254.6623229515
 20
4148.5575672611
  0
LINE
  5
154
330
1F
100
AcDbEntity
  8
0
  6
Continuous
 62
     7
370
    25
100
AcDbLine
 10
6265.694047413
 20
3987.2252720055
 30
0.0
 11
6282.1565234324
 21
3987.2252720055
 31
0.0
  0
LINE
  5
155
330
1F
100
AcDbEntity
  8
0
  6
Continuous
 62
     7
370
    25
100
AcDbLine
 10
6574.9309493216
 20
3987.2252720055
 30
0.0
 11
6591.3924019159
 21
3987.2252720055
 31
0.0
  0
LINE
  5
156
330
1F
100
AcDbEntity
  8
0
  6
Continuous
 62
     7
370
    25
100
AcDbLine
 10
6420.9470043229
 20
4203.1260950649
 30
0.0
 11
6436.1452267842
 21
4203.1260950649
 31
0.0
  0
LINE
  5
157
330
1F
100
AcDbEntity
  8
0
  6
Continuous
 62
     7
370
    25
100
AcDbLine
 10
6420.9470043229
 20
4205.1260950649
 30
0.0
 11
6436.1452267842
 21
4205.1260950649
 31
0.0
  0
LINE
  5
158
330
1F
100
AcDbEntity
  8
0
  6
Continuous
 62
     7
370
    25
100
AcDbLine
 10
6403.5461155453
 20
4308.1260950649
 30
0.0
 11
6453.5461155453
 21
4308.1260950649
 31
0.0
  0
ARC
  5
159
330
1F
100
AcDbEntity
  8
0
  6
Continuous
 62
     7
370
    25
100
AcDbCircle
 10
6363.4837423632
 20
3923.5274119572
 30
0.0
 40
291.1006860170864
100
AcDbArc
 50
90.212359994
 51
92.9898980292
  0
LWPOLYLINE
  5
15A
330
1F
100
AcDbEntity
  8
0
  6
Continuous
 62
     7
370
    25
100
AcDbPolyline
 90
       12
 70
   128
 43
0.0
 10
6368.7755134073
 20
4213.5965738106
 10
6368.5309455484
 20
4213.5466312852
 10
6367.2982996366
 20
4213.4833217229
 10
6365.204035096
 20
4213.4217227669
 10
6362.4048147544
 20
4213.3560985135
 10
6360.7064224508
 20
4213.3207907967
 10
6357.6286114718
 20
4213.2616320622
 10
6354.5691319413
 20
4213.1983793786
 10
6351.9077352851
 20
4213.137122551
 10
6349.8621744426
 20
4213.076657429
 10
6348.5927698756
 20
4213.0131739019
 10
6348.2999642288
 20
4212.9618362117
  0
LWPOLYLINE
  5
15B
330
1F
100
AcDbEntity
  8
0
  6
Continuous
 62
     7
370
    25
100
AcDbPolyline
 90
       12
 70
   128
 43
0.0
 10
6368.7755134073
 20
4212.3265738106
 10
6368.5309455484
 20
4212.2766312852
 10
6367.2982996366
 20
4212.2133217229
 10
6365.204035096
 20
4212.1517227669
 10
6362.4048147544
 20
4212.0860985135
 10
6360.7064224508
 20
4212.0507907967
 10
6357.6286114718
 20
4211.9916320622
 10
6354.5691319413
 20
4211.9283793786
 10
6351.9077352851
 20
4211.867122551
 10
6349.8621744426
 20
4211.806657429
 10
6348.5927698756
 20
4211.7431739019
 10
6348.2999642288
 20
4211.6918362117
  0
LWPOLYLINE
  5
15C
330
1F
100
AcDbEntity
  8
0
  6
Continuous
 62
     7
370
    25
100
AcDbPolyline
 90
       12
 70
   128
 43
0.0
 10
6368.7755134073
 20
4211.0565738106
 10
6368.5309455484
 20
4211.0066312852
 10
6367.2982996366
 20
4210.9433217229
 10
6365.204035096
 20
4210.8817227669
 10
6362.4048147544
 20
4210.8160985135
 10
6360.7064224508
 20
4210.7807907967
 10
6357.6286114718
 20
4210.7216320622
 10
6354.5691319413
 20
4210.6583793786
 10
6351.9077352851
 20
4210.597122551
 10
6349.8621744426
 20
4210.536657429
 10
6348.5927698756
 20
4210.4731739019
 10
6348.2999642288
 20
4210.4218362117
  0
LWPOLYLINE
  5
15D
330
1F
100
AcDbEntity
  8
0
  6
Continuous
 62
     7
370
    25
100
AcDbPolyline
 90
       12
 70
   128
 43
0.0
 10
6368.7755134073
 20
4209.7865738106
 10
6368.5309455484
 20
4209.7366312852
 10
6367.2982996366
 20
4209.6733217229
 10
6365.204035096
 20
4209.6117227669
 10
6362.4048147544
 20
4209.5460985135
 10
6360.7064224508
 20
4209.5107907967
 10
6357.6286114718
 20
4209.4516320622
 10
6354.5691319413
 20
4209.3883793786
 10
6351.9077352851
 20
4209.327122551
 10
6349.8621744426
 20
4209.266657429
 10
6348.5927698756
 20
4209.2031739019
 10
6348.2999642288
 20
4209.1518362117
  0
LWPOLYLINE
  5
15E
330
1F
100
AcDbEntity
  8
0
  6
Continuous
 62
     7
370
    25
100
AcDbPolyline
 90
       12
 70
   128
 43
0.0
 10
6368.7755134073
 20
4208.5165738106
 10
6368.5309455484
 20
4208.4666312852
 10
6367.2982996366
 20
4208.4033217229
 10
6365.204035096
 20
4208.3417227669
 10
6362.4048147544
 20
4208.2760985135
 10
6360.7064224508
 20
4208.2407907967
 10
6357.6286114718
 20
4208.1816320622
 10
6354.5691319413
 20
4208.1183793786
 10
6351.9077352851
 20
4208.057122551
 10
6349.8621744426
 20
4207.996657429
 10
6348.5927698756
 20
4207.9331739019
 10
6348.2999642288
 20
4207.8818362117
  0
LWPOLYLINE
  5
15F
330
1F
100
AcDbEntity
  8
0
  6
Continuous
 62
     7
370
    25
100
AcDbPolyline
 90
       12
 70
   128
 43
0.0
 10
6368.7755134073
 20
4207.2465738106
 10
6368.5309455484
 20
4207.1966312852
 10
6367.2982996366
 20
4207.1333217229
 10
6365.204035096
 20
4207.0717227669
 10
6362.4048147544
 20
4207.0060985135
 10
6360.7064224508
 20
4206.9707907967
 10
6357.6286114718
 20
4206.9116320622
 10
6354.5691319413
 20
4206.8483793786
 10
6351.9077352851
 20
4206.787122551
 10
6349.8621744426
 20
4206.726657429
 10
6348.5927698756
 20
4206.6631739019
 10
6348.2999642288
 20
4206.6118362117
  0
LWPOLYLINE
  5
160
330
1F
100
AcDbEntity
  8
0
  6
Continuous
 62
     7
370
    25
100
AcDbPolyline
 90
       12
 70
   128
 43
0.0
 10
6368.7755134073
 20
4205.9765738106
 10
6368.5309455484
 20
4205.9266312852
 10
6367.2982996366
 20
4205.8633217229
 10
6365.204035096
 20
4205.8017227669
 10
6362.4048147544
 20
4205.7360985135
 10
6360.7064224508
 20
4205.7007907967
 10
6357.6286114718
 20
4205.6416320622
 10
6354.5691319413
 20
4205.5783793786
 10
6351.9077352851
 20
4205.517122551
 10
6349.8621744426
 20
4205.456657429
 10
6348.5927698756
 20
4205.3931739019
 10
6348.2999642288
 20
4205.3418362117
  0
LWPOLYLINE
  5
161
330
1F
100
AcDbEntity
  8
0
  6
Continuous
 62
     7
370
    25
100
AcDbPolyline
 90
       14
 70
   128
 43
0.0
 10
6367.9509485447
 20
4214.6248015926
 10
6367.9153131813
 20
4214.6231027212
 10
6366.2717824281
 20
4214.5631752207
 10
6363.5959917947
 20
4214.4939633515
 10
6362.7500033628
 20
4214.4749430255
 10
6361.8851547642
 20
4214.4563667085
 10
6360.9931114947
 20
4214.4378799259
 10
6358.2272168476
 20
4214.3829567841
 10
6355.4845707711
 20
4214.3288394515
 10
6352.969018255
 20
4214.2752361113
 10
6350.8592956182
 20
4214.2213901295
 10
6349.3077606268
 20
4214.1672707808
 10
6348.4270798541
 20
4214.1128780651
 10
6348.3256919026
 20
4214.0748832936
  0
LWPOLYLINE
  5
162
330
1F
100
AcDbEntity
  8
0
  6
Continuous
 62
     7
370
    25
100
AcDbPolyline
 90
       15
 70
   128
 43
0.0
 10
6368.8382662099
 20
4213.4382098985
 10
6368.8442610125
 20
4213.4345483999
 10
6368.7655526891
 20
4213.41374021
 10
6368.1541101097
 20
4213.3651601576
 10
6366.7229020258
 20
4213.3072952083
 10
6364.2818133422
 20
4213.240145362
 10
6362.8909608087
 20
4213.2080468596
 10
6361.5904300451
 20
4213.1801935849
 10
6358.8469817026
 20
4213.1250914039
 10
6356.0815994128
 20
4213.0707950478
 10
6353.4981648917
 20
4213.0171437151
 10
6351.2831997815
 20
4212.9633049245
 10
6349.59612626
 20
4212.9091670307
 10
6348.5595661426
 20
4212.8547300337
 10
6348.2752607252
 20
4212.8046448832
  0
LWPOLYLINE
  5
163
330
1F
100
AcDbEntity
  8
0
  6
Continuous
 62
     7
370
    25
100
AcDbPolyline
 90
       16
 70
   128
 43
0.0
 10
6368.8260687231
 20
4212.1615576701
 10
6368.6960332662
 20
4212.1343341739
 10
6368.0988997114
 20
4212.0918040778
 10
6366.7444529239
 20
4212.037975751
 10
6364.3533040223
 20
4211.9728491936
 10
6362.7243894117
 20
4211.9360490784
 10
6360.8215405384
 20
4211.8964244055
 10
6358.6918390912
 20
4211.853975175
 10
6357.5662600199
 20
4211.8316913506
 10
6356.7069243736
 20
4211.8145290743
 10
6354.062110937
 20
4211.7594007787
 10
6351.7443355847
 20
4211.7043645609
 10
6349.922643819
 20
4211.6494204211
 10
6348.7298995944
 20
4211.5945683591
 10
6348.2530949684
 20
4211.5398083751
 10
6348.2901772912
 20
4211.5324073681
  0
LWPOLYLINE
  5
164
330
1F
100
AcDbEntity
  8
0
  6
Continuous
 62
     7
370
    25
100
AcDbPolyline
 90
       19
 70
   128
 43
0.0
 10
6368.8263494797
 20
4210.8908034833
 10
6368.7224035854
 20
4210.8661554163
 10
6368.2466004768
 20
4210.8281716886
 10
6367.6024974169
 20
4210.797142111
 10
6366.7565263873
 20
4210.7665869074
 10
6366.1562559458
 20
4210.7483946372
 10
6365.4832942623
 20
4210.7303355141
 10
6363.9083237895
 20
4210.692532182
 10
6361.8072593585
 20
4210.6474989246
 10
6359.1921127221
 20
4210.5952357417
 10
6356.1914859477
 20
4210.5357426335
 10
6353.0919139311
 20
4210.4690196
 10
6351.6428430532
 20
4210.4329468612
 10
6350.3547796746
 20
4210.3950666411
 10
6349.7610944568
 20
4210.3741406903
 10
6349.3119459861
 20
4210.3556477226
 10
6348.9380597203
 20
4210.337176585
 10
6348.2952364845
 20
4210.2818941534
 10
6348.3330725888
 20
4210.262051023
  0
LWPOLYLINE
  5
165
330
1F
100
AcDbEntity
  8
0
  6
Continuous
 62
     7
370
    25
100
AcDbPolyline
 90
       17
 70
   128
 43
0.0
 10
6368.8348696821
 20
4209.6207234423
 10
6368.8378507413
 20
4209.6193622398
 10
6368.5875812145
 20
4209.581840246
 10
6368.0363060241
 20
4209.5463565209
 10
6366.2958930085
 20
4209.4815038768
 10
6364.1131825008
 20
4209.4248043076
 10
6361.879431975
 20
4209.3762578132
 10
6359.8538632007
 20
4209.3358643937
 10
6358.2653103831
 20
4209.3052728497
 10
6356.9269398318
 20
4209.2792659522
 10
6355.175483136
 20
4209.2439954004
 10
6353.128586505
 20
4209.1994611943
 10
6351.0204274009
 20
4209.145663334
 10
6349.2323125624
 20
4209.0826018194
 10
6348.6169167871
 20
4209.0475971917
 10
6348.2840711507
 20
4209.0102766505
 10
6348.2941142848
 20
4208.9927800805
  0
LWPOLYLINE
  5
166
330
1F
100
AcDbEntity
  8
0
  6
Continuous
 62
     7
370
    25
100
AcDbPolyline
 90
       15
 70
   128
 43
0.0
 10
6368.7591606557
 20
4208.3503224518
 10
6368.6008680554
 20
4208.3121451982
 10
6367.6390752491
 20
4208.2567743084
 10
6366.0168487083
 20
4208.2018667277
 10
6363.8520128997
 20
4208.1474224561
 10
6361.3018027219
 20
4208.0934414936
 10
6358.5514433255
 20
4208.0399238401
 10
6357.1634596213
 20
4208.0133387543
 10
6356.058631559
 20
4207.9918824864
 10
6354.0081868702
 20
4207.9498009816
 10
6351.9738011027
 20
4207.9025773108
 10
6350.1605376254
 20
4207.8502114738
 10
6348.8251046757
 20
4207.7927034708
 10
6348.2509910242
 20
4207.7300533017
 10
6348.2928634668
 20
4207.7237663256
  0
LWPOLYLINE
  5
167
330
1F
100
AcDbEntity
  8
0
  6
Continuous
 62
     7
370
    25
100
AcDbPolyline
 90
       17
 70
   128
 43
0.0
 10
6368.8185679353
 20
4207.0805601184
 10
6368.7132075231
 20
4207.0546414899
 10
6367.9961594962
 20
4207.004288316
 10
6367.2392524001
 20
4206.9724900198
 10
6366.117263697
 20
4206.9362772507
 10
6364.571926247
 20
4206.8956500088
 10
6362.5776049766
 20
4206.8506082941
 10
6361.0092541398
 20
4206.8181279994
 10
6360.0592799839
 20
4206.7991231076
 10
6359.1363221478
 20
4206.7809160344
 10
6356.3688038002
 20
4206.7263192204
 10
6353.7594323593
 20
4206.6717590146
 10
6351.4977369639
 20
4206.617235417
 10
6349.7479936438
 20
4206.5627484276
 10
6348.6372961425
 20
4206.5082923312
 10
6348.2463107411
 20
4206.4538262149
 10
6348.2543973274
 20
4206.452592477
  0
LWPOLYLINE
  5
168
330
1F
100
AcDbEntity
  8
0
  6
Continuous
 62
     7
370
    25
100
AcDbPolyline
 90
       18
 70
   128
 43
0.0
 10
6368.8292617149
 20
4205.8106582551
 10
6368.832117313
 20
4205.8068290924
 10
6368.6627744973
 20
4205.7789102974
 10
6368.1019229527
 20
4205.7394710677
 10
6367.2624818165
 20
4205.7029585933
 10
6365.1204648314
 20
4205.6387139101
 10
6362.8579394449
 20
4205.586176248
 10
6360.8730475567
 20
4205.5453456069
 10
6359.811119643
 20
4205.5246290801
 10
6358.9213589662
 20
4205.5077686427
 10
6357.5416345602
 20
4205.4815862607
 10
6355.1948941618
 20
4205.4350548933
 10
6352.6949980588
 20
4205.3798141725
 10
6350.3766228855
 20
4205.3158640984
 10
6349.4304849679
 20
4205.2806230539
 10
6348.7866810968
 20
4205.2477344784
 10
6348.2518714263
 20
4205.1877837465
 10
6348.2875230108
 20
4205.1810355571
  0
LINE
  5
169
330
1F
100
AcDbEntity
  8
0
  6
Continuous
 62
     7
370
    25
100
AcDbLine
 10
6367.9509433725
 20
4214.6260950649
 30
0.0
 11
6362.4055925169
 21
4214.6260950649
 31
0.0
  0
LWPOLYLINE
  5
16A
330
1F
100
AcDbEntity
  8
0
  6
Continuous
 62
     7
370
    25
100
AcDbPolyline
 90
       12
 70
   128
 43
0.0
 10
6368.0602787458
 20
4214.3038289603
 10
6367.8645718202
 20
4214.261006277
 10
6366.7141908919
 20
4214.1976967146
 10
6364.8479032935
 20
4214.1385275385
 10
6362.3601004965
 20
4214.0754406136
 10
6359.5385585789
 20
4214.0138129611
 10
6356.6490008343
 20
4213.9536886449
 10
6353.884030135
 20
4213.8901404409
 10
6351.601581454
 20
4213.8306998318
 10
6349.9219704862
 20
4213.7681984437
 10
6349.0437213813
 20
4213.7057514572
 10
6349.0420926908
 20
4213.6738180617
  0
LWPOLYLINE
  5
16B
330
1F
100
AcDbEntity
  8
0
  6
Continuous
 62
     7
370
    25
100
AcDbPolyline
 90
       12
 70
   128
 43
0.0
 10
6368.0602802721
 20
4213.0338292943
 10
6367.8645718202
 20
4212.991006277
 10
6366.7141908919
 20
4212.9276967146
 10
6364.8479032935
 20
4212.8685275385
 10
6362.3601004965
 20
4212.8054406136
 10
6359.5385585789
 20
4212.7438129611
 10
6356.6490008343
 20
4212.6836886449
 10
6353.884030135
 20
4212.6201404409
 10
6351.601581454
 20
4212.5606998318
 10
6349.9219704862
 20
4212.4981984437
 10
6349.0437213813
 20
4212.4357514572
 10
6349.0420926697
 20
4212.4038176482
  0
LWPOLYLINE
  5
16C
330
1F
100
AcDbEntity
  8
0
  6
Continuous
 62
     7
370
    25
100
AcDbPolyline
 90
       12
 70
   128
 43
0.0
 10
6368.0602817867
 20
4211.7638296257
 10
6367.8645718202
 20
4211.721006277
 10
6366.7141908919
 20
4211.6576967146
 10
6364.8479032935
 20
4211.5985275385
 10
6362.3601004965
 20
4211.5354406136
 10
6359.5385585789
 20
4211.4738129611
 10
6356.6490008343
 20
4211.4136886449
 10
6353.884030135
 20
4211.3501404409
 10
6351.601581454
 20
4211.2906998318
 10
6349.9219704862
 20
4211.2281984437
 10
6349.0437213813
 20
4211.1657514572
 10
6349.0420926457
 20
4211.1338171771
  0
LWPOLYLINE
  5
16D
330
1F
100
AcDbEntity
  8
0
  6
Continuous
 62
     7
370
    25
100
AcDbPolyline
 90
       12
 70
   128
 43
0.0
 10
6368.060283004
 20
4210.493829892
 10
6367.8645718202
 20
4210.451006277
 10
6366.7141908919
 20
4210.3876967146
 10
6364.8479032935
 20
4210.3285275385
 10
6362.3601004965
 20
4210.2654406136
 10
6359.5385585789
 20
4210.2038129611
 10
6356.6490008343
 20
4210.1436886449
 10
6353.884030135
 20
4210.0801404409
 10
6351.601581454
 20
4210.0206998318
 10
6349.9219704862
 20
4209.9581984437
 10
6349.0437213813
 20
4209.8957514572
 10
6349.0420926185
 20
4209.8638166448
  0
LWPOLYLINE
  5
16E
330
1F
100
AcDbEntity
  8
0
  6
Continuous
 62
     7
370
    25
100
AcDbPolyline
 90
       12
 70
   128
 43
0.0
 10
6368.0602837069
 20
4209.2238300458
 10
6367.8645718202
 20
4209.181006277
 10
6366.7141908919
 20
4209.1176967146
 10
6364.8479032935
 20
4209.0585275385
 10
6362.3601004965
 20
4208.9954406136
 10
6359.5385585789
 20
4208.9338129611
 10
6356.6490008343
 20
4208.8736886449
 10
6353.884030135
 20
4208.8101404409
 10
6351.601581454
 20
4208.7506998318
 10
6349.9219704862
 20
4208.6881984437
 10
6349.0437213813
 20
4208.6257514572
 10
6349.0420925881
 20
4208.5938160477
  0
LWPOLYLINE
  5
16F
330
1F
100
AcDbEntity
  8
0
  6
Continuous
 62
     7
370
    25
100
AcDbPolyline
 90
       12
 70
   128
 43
0.0
 10
6368.0602849537
 20
4207.9538303186
 10
6367.8645718202
 20
4207.911006277
 10
6366.7141908919
 20
4207.8476967146
 10
6364.8479032935
 20
4207.7885275385
 10
6362.3601004965
 20
4207.7254406136
 10
6359.5385585789
 20
4207.6638129611
 10
6356.6490008343
 20
4207.6036886449
 10
6353.884030135
 20
4207.5401404409
 10
6351.601581454
 20
4207.4806998318
 10
6349.9219704862
 20
4207.4181984437
 10
6349.0437213813
 20
4207.3557514572
 10
6349.0420925542
 20
4207.3238153823
  0
LWPOLYLINE
  5
170
330
1F
100
AcDbEntity
  8
0
  6
Continuous
 62
     7
370
    25
100
AcDbPolyline
 90
       12
 70
   128
 43
0.0
 10
6368.0602854003
 20
4206.6838304164
 10
6367.8645718202
 20
4206.641006277
 10
6366.7141908919
 20
4206.5776967146
 10
6364.8479032935
 20
4206.5185275385
 10
6362.3601004965
 20
4206.4554406136
 10
6359.5385585789
 20
4206.3938129611
 10
6356.6490008343
 20
4206.3336886449
 10
6353.884030135
 20
4206.2701404409
 10
6351.601581454
 20
4206.2106998318
 10
6349.9219704862
 20
4206.1481984437
 10
6349.0437213813
 20
4206.0857514572
 10
6349.0420925166
 20
4206.0538146451
  0
LINE
  5
171
330
1F
100
AcDbEntity
  8
0
  6
Continuous
 62
     7
370
    25
100
AcDbLine
 10
6368.6084912299
 20
4214.6260950649
 30
0.0
 11
6368.2039566106
 21
4214.6260950649
 31
0.0
  0
LWPOLYLINE
  5
172
330
1F
100
AcDbEntity
  8
0
  6
Continuous
 62
     7
370
    25
100
AcDbPolyline
 90
       12
 70
   128
 43
0.0
 10
6368.0928718162
 20
4213.9934606642
 10
6367.8645718948
 20
4213.9435062835
 10
6366.7141910551
 20
4213.8801967211
 10
6364.8479035337
 20
4213.8210275452
 10
6362.3601008019
 20
4213.7579406208
 10
6359.5385589088
 20
4213.6963129679
 10
6356.6490011779
 20
4213.6361886524
 10
6353.8840304485
 20
4213.5726404485
 10
6351.6015817045
 20
4213.5131998393
 10
6350.1254045372
 20
4213.4601954338
 10
6349.2126888106
 20
4213.4062774059
 10
6348.9904666081
 20
4213.3662034268
  0
LWPOLYLINE
  5
173
330
1F
100
AcDbEntity
  8
0
  6
Continuous
 62
     7
370
    25
100
AcDbPolyline
 90
       12
 70
   128
 43
0.0
 10
6368.0926313763
 20
4212.7234080535
 10
6367.8645718948
 20
4212.6735062835
 10
6366.7141910551
 20
4212.6101967211
 10
6364.8479035337
 20
4212.5510275452
 10
6362.3601008019
 20
4212.4879406208
 10
6359.5385589088
 20
4212.4263129679
 10
6356.6490011779
 20
4212.3661886524
 10
6353.8840304485
 20
4212.3026404485
 10
6351.6015817045
 20
4212.2431998393
 10
6350.1254045372
 20
4212.1901954338
 10
6349.2126888106
 20
4212.1362774059
 10
6348.9903694924
 20
4212.0961859137
  0
LWPOLYLINE
  5
174
330
1F
100
AcDbEntity
  8
0
  6
Continuous
 62
     7
370
    25
100
AcDbPolyline
 90
       12
 70
   128
 43
0.0
 10
6368.0923909036
 20
4211.4533554356
 10
6367.8645718948
 20
4211.4035062835
 10
6366.7141910551
 20
4211.3401967211
 10
6364.8479035337
 20
4211.2810275452
 10
6362.3601008019
 20
4211.2179406208
 10
6359.5385589088
 20
4211.1563129679
 10
6356.6490011779
 20
4211.0961886524
 10
6353.8840304485
 20
4211.0326404485
 10
6351.6015817045
 20
4210.9731998393
 10
6350.1254045372
 20
4210.9201954338
 10
6349.2126888106
 20
4210.8662774059
 10
6348.9902721786
 20
4210.8261683648
  0
LWPOLYLINE
  5
175
330
1F
100
AcDbEntity
  8
0
  6
Continuous
 62
     7
370
    25
100
AcDbPolyline
 90
       12
 70
   128
 43
0.0
 10
6368.0921503983
 20
4210.1833028105
 10
6367.8645718948
 20
4210.1335062835
 10
6366.7141910551
 20
4210.0701967211
 10
6364.8479035337
 20
4210.0110275452
 10
6362.3601008019
 20
4209.9479406208
 10
6359.5385589088
 20
4209.8863129679
 10
6356.6490011779
 20
4209.8261886524
 10
6353.8840304485
 20
4209.7626404485
 10
6351.6015817045
 20
4209.7031998393
 10
6350.1254045372
 20
4209.6501954338
 10
6349.2126888106
 20
4209.5962774059
 10
6348.9901746642
 20
4209.5561507797
  0
LWPOLYLINE
  5
176
330
1F
100
AcDbEntity
  8
0
  6
Continuous
 62
     7
370
    25
100
AcDbPolyline
 90
       12
 70
   128
 43
0.0
 10
6368.0919098604
 20
4208.9132501783
 10
6367.8645718948
 20
4208.8635062835
 10
6366.7141910551
 20
4208.8001967211
 10
6364.8479035337
 20
4208.7410275452
 10
6362.3601008019
 20
4208.6779406208
 10
6359.5385589088
 20
4208.6163129679
 10
6356.6490011779
 20
4208.5561886524
 10
6353.8840304485
 20
4208.4926404485
 10
6351.6015817045
 20
4208.4331998393
 10
6350.1254045372
 20
4208.3801954338
 10
6349.2126888106
 20
4208.3262774059
 10
6348.9900769469
 20
4208.2861331581
  0
LWPOLYLINE
  5
177
330
1F
100
AcDbEntity
  8
0
  6
Continuous
 62
     7
370
    25
100
AcDbPolyline
 90
       12
 70
   128
 43
0.0
 10
6368.0916692901
 20
4207.6431975391
 10
6367.8645718948
 20
4207.5935062835
 10
6366.7141910551
 20
4207.5301967211
 10
6364.8479035337
 20
4207.4710275452
 10
6362.3601008019
 20
4207.4079406208
 10
6359.5385589088
 20
4207.3463129679
 10
6356.6490011779
 20
4207.2861886524
 10
6353.8840304485
 20
4207.2226404485
 10
6351.6015817045
 20
4207.1631998393
 10
6350.1254045372
 20
4207.1101954338
 10
6349.2126888106
 20
4207.0562774059
 10
6348.9899790243
 20
4207.0161154994
  0
LWPOLYLINE
  5
178
330
1F
100
AcDbEntity
  8
0
  6
Continuous
 62
     7
370
    25
100
AcDbPolyline
 90
       12
 70
   128
 43
0.0
 10
6368.0914286875
 20
4206.3731448927
 10
6367.8645718948
 20
4206.3235062835
 10
6366.7141910551
 20
4206.2601967211
 10
6364.8479035337
 20
4206.2010275452
 10
6362.3601008019
 20
4206.1379406208
 10
6359.5385589088
 20
4206.0763129679
 10
6356.6490011779
 20
4206.0161886524
 10
6353.8840304485
 20
4205.9526404485
 10
6351.6015817045
 20
4205.8931998393
 10
6350.1254045372
 20
4205.8401954338
 10
6349.2126888106
 20
4205.7862774059
 10
6348.9898808939
 20
4205.7460978033
  0
LINE
  5
179
330
1F
100
AcDbEntity
  8
0
  6
Continuous
 62
     7
370
    25
100
AcDbLine
 10
6362.40465552
 20
4214.6260950649
 30
0.0
 11
6348.9357966406
 21
4214.6260950649
 31
0.0
  0
LINE
  5
17A
330
1F
100
AcDbEntity
  8
0
  6
Continuous
 62
     7
370
    25
100
AcDbLine
 10
6428.5432246645
 20
4205.1260950649
 30
0.0
 11
6428.5432246645
 21
4134.7024950648
 31
0.0
  0
LWPOLYLINE
  5
17B
330
1F
100
AcDbEntity
  8
0
  6
Continuous
 62
     7
370
    25
100
AcDbPolyline
 90
       20
 70
   128
 43
0.0
 10
6428.5420458946
 20
4134.4216147762
 10
6461.302240667
 20
4133.9912382118
 10
6492.4689193119
 20
4127.7147658393
 10
6508.4482401257
 20
4122.1220337932
 10
6522.6837283404
 20
4115.552840151
 10
6545.923206973
 20
4099.4850680784
 10
6563.8724789303
 20
4079.0085692628
 10
6575.3277955909
 20
4056.2561447885
 10
6580.2891569547
 20
4031.2277946557
 10
6578.7565630217
 20
4003.9235188643
 10
6575.3621219848
 20
3989.5242870674
 10
6569.9682067198
 20
3974.8273638656
 10
6562.5748172268
 20
3959.832749259
 10
6547.7357188097
 20
3936.7826559649
 10
6528.3978033794
 20
3913.0627570099
 10
6511.026046707
 20
3895.1868018188
 10
6493.9460207892
 20
3880.5987845745
 10
6477.1577256261
 20
3869.298705277
 10
6452.5222780463
 20
3858.5134699808
 10
6428.5432246645
 20
3855.1260950649
  0
LWPOLYLINE
  5
17C
330
1F
100
AcDbEntity
  8
0
  6
Continuous
 62
     7
370
    25
100
AcDbPolyline
 90
       16
 70
   128
 43
0.0
 10
6588.5196821309
 20
4182.0491422773
 10
6589.3475887957
 20
4176.9629930615
 10
6589.9543532036
 20
4171.6757397207
 10
6590.6679375631
 20
4160.6352777846
 10
6590.8835204298
 20
4149.0603149852
 10
6590.7675109368
 20
4137.0062720279
 10
6590.454481218
 20
4124.6233612772
 10
6590.0269269553
 20
4111.9352634219
 10
6589.5355232929
 20
4098.9011762025
 10
6588.9645041363
 20
4085.6433565603
 10
6588.3714809361
 20
4074.1607148813
 10
6587.6366553337
 20
4062.5681840156
 10
6586.7325696006
 20
4050.9374844935
 10
6585.6147365937
 20
4039.4664088815
 10
6584.7117158076
 20
4032.0070505748
 10
6583.7500495312
 20
4025.5139106185
  0
LINE
  5
17D
330
1F
100
AcDbEntity
  8
0
  6
Continuous
 62
     7
370
    25
100
AcDbLine
 10
6428.5432246645
 20
4205.1260950649
 30
0.0
 11
6616.6187019036
 21
4205.1260950649
 31
0.0
  0
LWPOLYLINE
  5
17E
330
1F
100
AcDbEntity
  8
0
  6
Continuous
 62
     7
370
    25
100
AcDbPolyline
 90
       21
 70
   128
 43
0.0
 10
6428.5432246645
 20
3855.1260950649
 10
6404.336055119
 20
3858.5930338175
 10
6379.6180212196
 20
3869.4671671366
 10
6354.3891229664
 20
3887.7484950223
 10
6328.6493603593
 20
3913.4370174746
 10
6314.9355642152
 20
3929.8897239744
 10
6303.3529223172
 20
3945.8265044693
 10
6293.9014346654
 20
3961.2473589592
 10
6283.7201173992
 20
3983.4112794347
 10
6278.3338971868
 20
4004.414366399
 10
6276.9396492268
 20
4018.9380492092
 10
6277.1160411957
 20
4032.7215521337
 10
6278.8630730934
 20
4045.7648751722
 10
6282.18074492
 20
4058.0680183249
 10
6293.5280083597
 20
4080.4537649728
 10
6311.1578315149
 20
4099.8787920773
 10
6323.1339195237
 20
4109.1804123534
 10
6335.8805614721
 20
4117.0580990757
 10
6363.6855071877
 20
4128.5416718583
 10
6394.5726686619
 20
4134.3295104251
 10
6428.5420458946
 20
4134.4216147762
  0
LWPOLYLINE
  5
17F
330
1F
100
AcDbEntity
  8
0
  6
Continuous
 62
     7
370
    25
100
AcDbPolyline
 90
       17
 70
   128
 43
0.0
 10
6273.3483301447
 20
4025.4814628626
 10
6273.2197882115
 20
4026.2170052993
 10
6272.099970718
 20
4034.1760953542
 10
6271.1636680751
 20
4042.4194447816
 10
6270.3720487187
 20
4050.8276587011
 10
6269.374533625
 20
4063.6913976907
 10
6268.5822507719
 20
4076.5252611434
 10
6267.9638877045
 20
4089.0114566066
 10
6267.4513344132
 20
4101.3258360462
 10
6266.9951102918
 20
4113.4987989301
 10
6266.6049137887
 20
4125.4369732978
 10
6266.3193670422
 20
4137.0417652182
 10
6266.2072144404
 20
4148.3509927007
 10
6266.3732459441
 20
4159.2585188613
 10
6266.9523426423
 20
4169.7069788641
 10
6267.6034117648
 20
4175.9989289975
 10
6268.5572449761
 20
4182.0491422772
  0
LINE
  5
180
330
1F
100
AcDbEntity
  8
0
  6
Continuous
 62
     7
370
    25
100
AcDbLine
 10
6428.5432246645
 20
4205.1260950649
 30
0.0
 11
6240.5659150477
 21
4205.1260950649
 31
0.0
  0
LWPOLYLINE
  5
181
330
1F
100
AcDbEntity
  8
0
  6
Continuous
 62
     7
370
    25
100
AcDbPolyline
 90
       51
 70
   128
 43
0.0
 10
6428.5420510777
 20
4126.5989380825
 10
6422.4282032674
 20
4127.0429520836
 10
6416.3287166444
 20
4127.240668633
 10
6410.2513104668
 20
4127.200115138
 10
6404.1861352968
 20
4126.9301938318
 10
6398.1354496757
 20
4126.4362683365
 10
6388.1006046959
 20
4125.1270307647
 10
6378.1739544825
 20
4123.2215900671
 10
6368.5186326771
 20
4120.7587786601
 10
6359.1554538183
 20
4117.7513739265
 10
6350.0873217001
 20
4114.188555533
 10
6341.3606884578
 20
4110.0598596604
 10
6333.1439394468
 20
4105.4137663834
 10
6325.5232118393
 20
4100.2713893741
 10
6318.546549251
 20
4094.6239765253
 10
6312.2216046528
 20
4088.4232635642
 10
6306.6201029591
 20
4081.7603202016
 10
6301.7994013606
 20
4074.7893626576
 10
6297.7106086595
 20
4067.5547503042
 10
6294.2966435022
 20
4060.045759024
 10
6291.5705478744
 20
4052.3916619894
 10
6289.1729274917
 20
4043.1231328174
 10
6287.6630055156
 20
4033.750136689
 10
6287.0107387547
 20
4024.2629293541
 10
6287.2152331942
 20
4014.7170356679
 10
6288.2738374099
 20
4005.2533690601
 10
6290.7852780219
 20
3993.5886568494
 10
6294.5560424807
 20
3982.098075196
 10
6299.4864068396
 20
3970.8053344508
 10
6305.370310137
 20
3959.8742864132
 10
6312.0595472084
 20
3949.2799869265
 10
6319.4351932047
 20
3938.9727078259
 10
6327.3869059626
 20
3928.9063097778
 10
6335.816465457
 20
3919.0397222942
 10
6344.6529491451
 20
3909.35546231
 10
6353.9661360038
 20
3899.9596903554
 10
6363.9220836739
 20
3890.9651908214
 10
6374.6531358879
 20
3882.5350248393
 10
6380.3202360957
 20
3878.6063620599
 10
6386.2304003319
 20
3874.910813114
 10
6392.4471381631
 20
3871.5092877077
 10
6399.0519974034
 20
3868.4808013899
 10
6406.0067228528
 20
3865.9772089609
 10
6413.2682762318
 20
3864.141561737
 10
6420.8491736402
 20
3863.085532765
 10
6424.6871500416
 20
3862.8859270058
 10
6426.6129641512
 20
3862.8698121469
 10
6427.5775784061
 20
3862.8826855863
 10
6428.0603226927
 20
3862.8944820293
 10
6428.301770732
 20
3862.9013107619
 10
6428.5432350057
 20
3862.9083385337
  0
LWPOLYLINE
  5
182
330
1F
100
AcDbEntity
  8
0
  6
Continuous
 62
     7
370
    25
100
AcDbPolyline
 90
       46
 70
   128
 43
0.0
 10
6428.5432350057
 20
3862.9083385337
 10
6428.785165761
 20
3862.9004947555
 10
6429.0270560984
 20
3862.8928527872
 10
6433.9842804633
 20
3862.9234726614
 10
6438.8720879289
 20
3863.3194537453
 10
6443.6938361603
 20
3864.0688722736
 10
6451.0116098829
 20
3865.8859009354
 10
6457.9668827958
 20
3868.3600088424
 10
6466.6538355734
 20
3872.4331293817
 10
6474.8258130402
 20
3877.1964601566
 10
6482.4936025133
 20
3882.402288673
 10
6493.1707371143
 20
3890.755836785
 10
6503.0630390808
 20
3899.6558706286
 10
6512.3436836916
 20
3908.9818067635
 10
6521.1702834168
 20
3918.6210350921
 10
6529.5992931664
 20
3928.4544632796
 10
6537.5476803178
 20
3938.4835991503
 10
6544.9182476888
 20
3948.7480210249
 10
6551.6025493652
 20
3959.2918876647
 10
6557.4841260098
 20
3970.1626208664
 10
6562.4296019132
 20
3981.4115747199
 10
6566.2354208423
 20
3992.9020497629
 10
6568.7749471736
 20
4004.5345433376
 10
6569.8570006303
 20
4013.9438681816
 10
6570.0923918029
 20
4023.4544401064
 10
6569.468708969
 20
4032.9777527178
 10
6567.9860851073
 20
4042.3639495384
 10
6565.6296078533
 20
4051.6009518135
 10
6562.9574912333
 20
4059.2034250104
 10
6559.604862244
 20
4066.6772995439
 10
6555.5215619767
 20
4073.9951644248
 10
6550.7312391366
 20
4081.0036780893
 10
6545.2194457154
 20
4087.6450334862
 10
6538.920579347
 20
4093.9081975583
 10
6531.855272109
 20
4099.7018304596
 10
6524.2029729952
 20
4104.9247109145
 10
6515.9936322166
 20
4109.6208283124
 10
6507.27242434
 20
4113.8001741169
 10
6498.1521008138
 20
4117.4339386291
 10
6488.7422764904
 20
4120.5026638791
 10
6479.0587202898
 20
4123.0166662783
 10
6469.1261611248
 20
4124.9665165783
 10
6459.0458433122
 20
4126.3236962773
 10
6448.9144087731
 20
4127.064784015
 10
6438.7393658537
 20
4127.1681801792
 10
6428.5420510777
 20
4126.5989380825
  0
LINE
  5
183
330
1F
100
AcDbEntity
  8
0
  6
Continuous
 62
     7
370
    25
100
AcDbLine
 10
6428.5432350057
 20
3862.9083385337
 30
0.0
 11
6428.5433407691
 21
3872.0956103998
 31
0.0
  0
LWPOLYLINE
  5
184
330
1F
100
AcDbEntity
  8
0
  6
Continuous
 62
     7
370
    25
100
AcDbPolyline
 90
       35
 70
   128
 43
0.0
 10
6533.4054966711
 20
4098.4306285536
 10
6534.1315910214
 20
4097.6316876369
 10
6539.12015405
 20
4090.9785592738
 10
6543.4558793721
 20
4083.9560856086
 10
6547.1515326027
 20
4076.6227974058
 10
6550.1860147966
 20
4069.1318969719
 10
6552.6046682025
 20
4061.5109460305
 10
6555.1474454686
 20
4049.9042943932
 10
6556.4594168217
 20
4038.0781286277
 10
6556.557171616
 20
4026.129424836
 10
6555.4527760466
 20
4014.3135934036
 10
6553.1547949599
 20
4002.6443550721
 10
6549.7107767272
 20
3991.1158700727
 10
6545.235327243
 20
3979.828093969
 10
6539.912666683
 20
3968.918387515
 10
6533.8635056702
 20
3958.3354254118
 10
6527.1932448808
 20
3948.031803593
 10
6520.0000325009
 20
3937.9633798077
 10
6512.3718361335
 20
3928.090590533
 10
6504.3838028328
 20
3918.4120333076
 10
6495.9848354677
 20
3909.0470677285
 10
6487.0322864938
 20
3900.1084189135
 10
6477.3694233078
 20
3891.7167876503
 10
6470.4301813842
 20
3886.4860098906
 10
6463.0344619151
 20
3881.6981964957
 10
6455.1724504428
 20
3877.6017996021
 10
6448.8777983147
 20
3875.1114016833
 10
6442.2550514262
 20
3873.2794902033
 10
6440.012922724
 20
3872.8453598627
 10
6437.7583593329
 20
3872.5040800663
 10
6435.4905637849
 20
3872.2570629552
 10
6433.1984910618
 20
3872.1052238199
 10
6430.8943747752
 20
3872.051080662
 10
6428.5556993642
 20
3872.095184242
 10
6428.5433407691
 20
3872.0956104075
  0
LWPOLYLINE
  5
185
330
1F
100
AcDbEntity
  8
0
  6
Continuous
 62
     7
370
    25
100
AcDbPolyline
 90
       29
 70
   128
 43
0.0
 10
6428.5433407691
 20
3872.0956103998
 10
6420.748680995
 20
3872.3432327838
 10
6413.1141074168
 20
3873.6850282703
 10
6405.8513327686
 20
3875.9722978608
 10
6398.9342118135
 20
3879.0459613263
 10
6392.4621033107
 20
3882.6759730487
 10
6386.3729067903
 20
3886.7134816069
 10
6377.3759609144
 20
3893.6666616524
 10
6368.9408464811
 20
3901.2033571942
 10
6361.0476692072
 20
3909.1547934914
 10
6350.9886010903
 20
3920.4862371653
 10
6341.5230054886
 20
3932.1975839353
 10
6332.6161994367
 20
3944.1735585295
 10
6324.4081071025
 20
3956.4743086421
 10
6317.065107168
 20
3969.1771702716
 10
6311.7396545822
 20
3980.1318217777
 10
6307.2771718693
 20
3991.4504638763
 10
6303.8641555209
 20
4002.9690466671
 10
6301.5908594378
 20
4014.6639234822
 10
6300.5133730737
 20
4026.5437703414
 10
6300.645087806
 20
4038.4890223964
 10
6301.5365805344
 20
4047.3544565008
 10
6303.1188164484
 20
4056.136007433
 10
6305.4250777519
 20
4064.8296334348
 10
6308.5067699744
 20
4073.41453671
 10
6312.3660168776
 20
4081.722533614
 10
6317.0356770777
 20
4089.6900285939
 10
6322.5877980493
 20
4097.2866213963
 10
6324.6752185255
 20
4099.584962551
  0
LWPOLYLINE
  5
186
330
1F
100
AcDbEntity
  8
0
  6
Continuous
 62
     7
370
    25
100
AcDbPolyline
 90
       23
 70
   128
 43
0.0
 10
6265.694047413
 20
3987.3793032861
 10
6265.1280781122
 20
3987.4003418928
 10
6263.9129366469
 20
3988.7075906934
 10
6262.6304246126
 20
3991.0760535676
 10
6261.2666559781
 20
3994.3964111123
 10
6259.8489027206
 20
3998.5343927626
 10
6258.4044368174
 20
4003.3557279534
 10
6256.9605302459
 20
4008.7261461196
 10
6255.1160413467
 20
4016.3651621959
 10
6253.3765048101
 20
4024.4430800733
 10
6251.7779541188
 20
4032.8408806543
 10
6249.7642232239
 20
4045.4858627683
 10
6248.1997303778
 20
4058.4514050038
 10
6247.1737120443
 20
4071.5268046305
 10
6246.7492859596
 20
4084.5444808276
 10
6246.9386250825
 20
4097.4209623867
 10
6247.7480185572
 20
4110.0824922531
 10
6249.1837555277
 20
4122.4553133718
 10
6251.4939990263
 20
4135.6439289542
 10
6254.5780988697
 20
4148.2957902758
 10
6258.4444259087
 20
4160.3127266967
 10
6263.1013509939
 20
4171.5965675772
 10
6268.5572449761
 20
4182.0491422772
  0
LWPOLYLINE
  5
187
330
1F
100
AcDbEntity
  8
0
  6
Continuous
 62
     7
370
    25
100
AcDbPolyline
 90
       23
 70
   128
 43
0.0
 10
6591.3924019159
 20
3987.3793032862
 10
6591.9583712167
 20
3987.4003418929
 10
6593.173512682
 20
3988.7075906935
 10
6594.4560247163
 20
3991.0760535676
 10
6595.8197933508
 20
3994.3964111123
 10
6597.2375466083
 20
3998.5343927626
 10
6598.6820125115
 20
4003.3557279534
 10
6600.1259190831
 20
4008.7261461197
 10
6601.9704079822
 20
4016.3651621959
 10
6603.7099445189
 20
4024.4430800733
 10
6605.3084952101
 20
4032.8408806544
 10
6607.322226105
 20
4045.4858627684
 10
6608.8867189511
 20
4058.4514050038
 10
6609.9127372846
 20
4071.5268046306
 10
6610.3371633693
 20
4084.5444808277
 10
6610.1478242464
 20
4097.4209623868
 10
6609.3384307717
 20
4110.0824922531
 10
6607.9026938012
 20
4122.4553133719
 10
6605.5924503026
 20
4135.6439289542
 10
6602.5083504592
 20
4148.2957902758
 10
6598.6420234202
 20
4160.3127266968
 10
6593.985098335
 20
4171.5965675772
 10
6588.5292043528
 20
4182.0491422773
  0
LINE
  5
188
330
1F
100
AcDbEntity
  8
0
  6
Continuous
 62
     7
370
    25
100
AcDbLine
 10
6428.5432246644
 20
4057.8452068377
 30
0.0
 11
6428.5432246644
 21
4126.5990035953
 31
0.0
  0
LINE
  5
189
330
1F
100
AcDbEntity
  8
0
  6
Continuous
 62
     7
370
    25
100
AcDbLine
 10
6428.5432246644
 20
4057.8452068377
 30
0.0
 11
6422.4424077119
 21
4057.8452068377
 31
0.0
  0
ARC
  5
18A
330
1F
100
AcDbEntity
  8
0
  6
Continuous
 62
     7
370
    25
100
AcDbCircle
 10
6422.4421604236
 20
4051.7197215736
 30
0.0
 40
6.125485269072019
100
AcDbArc
 50
89.997686946
 51
270.0023130518
  0
LINE
  5
18B
330
1F
100
AcDbEntity
  8
0
  6
Continuous
 62
     7
370
    25
100
AcDbLine
 10
6422.4424077117
 20
4045.5942363095
 30
0.0
 11
6428.5432246647
 21
4045.5942363095
 31
0.0
  0
LINE
  5
18C
330
1F
100
AcDbEntity
  8
0
  6
Continuous
 62
     7
370
    25
100
AcDbLine
 10
6428.5432246645
 20
3872.0956140883
 30
0.0
 11
6428.5432246644
 21
4045.5942363095
 31
0.0
  0
LINE
  5
18D
330
1F
100
AcDbEntity
  8
0
  6
Continuous
 62
     7
370
    25
100
AcDbLine
 10
6428.5432246647
 20
4045.5942363095
 30
0.0
 11
6434.6440416171
 21
4045.5942363095
 31
0.0
  0
ARC
  5
18E
330
1F
100
AcDbEntity
  8
0
  6
Continuous
 62
     7
370
    25
100
AcDbCircle
 10
6434.6442889053
 20
4051.7197215736
 30
0.0
 40
6.125485269072922
100
AcDbArc
 50
269.9976869475
 51
90.002313054
  0
LINE
  5
18F
330
1F
100
AcDbEntity
  8
0
  6
Continuous
 62
     7
370
    25
100
AcDbLine
 10
6434.6440416169
 20
4057.8452068377
 30
0.0
 11
6428.5432246644
 21
4057.8452068377
 31
0.0
  0
ENDSEC
  0
SECTION
  2
OBJECTS
  0
DICTIONARY
  5
C
330
0
100
AcDbDictionary
281
     1
  3
ACAD_GROUP
350
D
  3
ACAD_LAYOUT
350
1A
  3
ACAD_MLINESTYLE
350
17
  3
ACAD_PLOTSETTINGS
350
19
  3
ACAD_PLOTSTYLENAME
350
E
  3
ACAD_SCALELIST
350
47
  3
DWGPROPS
350
190
  0
DICTIONARY
  5
D
102
{ACAD_REACTORS
330
C
102
}
330
C
100
AcDbDictionary
281
     1
  0
DICTIONARY
  5
1A
102
{ACAD_REACTORS
330
C
102
}
330
C
100
AcDbDictionary
281
     1
  3
Layout1
350
1E
  3
Layout2
350
26
  3
Model
350
22
  0
DICTIONARY
  5
17
102
{ACAD_REACTORS
330
C
102
}
330
C
100
AcDbDictionary
281
     1
  3
Standard
350
18
  0
DICTIONARY
  5
19
102
{ACAD_REACTORS
330
C
102
}
330
C
100
AcDbDictionary
281
     1
  0
ACDBDICTIONARYWDFLT
  5
E
102
{ACAD_REACTORS
330
C
102
}
330
C
100
AcDbDictionary
281
     1
  3
Normal
350
F
100
AcDbDictionaryWithDefault
340
F
  0
DICTIONARY
  5
47
102
{ACAD_REACTORS
330
C
102
}
330
C
100
AcDbDictionary
281
     1
  3
A0
350
48
  3
A1
350
49
  3
A2
350
4A
  3
A3
350
4B
  3
A4
350
4C
  3
A5
350
4D
  3
A6
350
4E
  3
A7
350
4F
  3
A8
350
50
  3
A9
350
51
  3
B0
350
52
  3
B1
350
53
  3
B2
350
54
  3
B3
350
55
  3
B4
350
56
  3
B5
350
57
  3
B6
350
58
  3
B7
350
59
  3
B8
350
5A
  3
B9
350
5B
  3
C0
350
5C
  3
C1
350
5D
  3
C2
350
5E
  3
C3
350
5F
  3
C4
350
60
  3
C5
350
61
  3
C6
350
62
  3
C7
350
63
  3
C8
350
64
  3
C9
350
65
  3
D0
350
66
  3
D1
350
67
  3
D2
350
68
  0
XRECORD
  5
190
102
{ACAD_REACTORS
330
C
102
}
330
C
100
AcDbXrecord
280
     1
  1
DWGPROPS COOKIE
  2

  3

  4

  6

  7

  8
radek.stransky
  9

300
=
301
=
302
=
303
=
304
=
305
=
306
=
307
=
308
=
309
=
 40
0.0
 41
2459823.309931794
 42
2459823.309932269
  1

 90
        0
  0
LAYOUT
  5
1E
102
{ACAD_REACTORS
330
1A
102
}
330
1A
100
AcDbPlotSettings
  1

  2
none_device
  4

  6

 40
0.0
 41
0.0
 42
0.0
 43
0.0
 44
0.0
 45
0.0
 46
0.0
 47
0.0
 48
0.0
 49
0.0
140
0.0
141
0.0
142
1.0
143
1.0
 70
   688
 72
     1
 73
     0
 74
     5
  7

 75
    16
147
1.0
148
0.0
149
0.0
100
AcDbLayout
  1
Layout1
 70
     1
 71
     1
 10
0.0
 20
0.0
 11
420.0
 21
297.0
 12
0.0
 22
0.0
 32
0.0
 14
1.0000000000E+20
 24
1.0000000000E+20
 34
1.0000000000E+20
 15
-1.0000000000E+20
 25
-1.0000000000E+20
 35
-1.0000000000E+20
146
0.0
 13
0.0
 23
0.0
 33
0.0
 16
1.0
 26
0.0
 36
0.0
 17
0.0
 27
1.0
 37
0.0
 76
     0
330
1B
  0
LAYOUT
  5
26
102
{ACAD_REACTORS
330
1A
102
}
330
1A
100
AcDbPlotSettings
  1

  2
none_device
  4

  6

 40
0.0
 41
0.0
 42
0.0
 43
0.0
 44
0.0
 45
0.0
 46
0.0
 47
0.0
 48
0.0
 49
0.0
140
0.0
141
0.0
142
1.0
143
1.0
 70
   688
 72
     1
 73
     0
 74
     5
  7

 75
    16
147
1.0
148
0.0
149
0.0
100
AcDbLayout
  1
Layout2
 70
     1
 71
     2
 10
0.0
 20
0.0
 11
0.0
 21
0.0
 12
0.0
 22
0.0
 32
0.0
 14
0.0
 24
0.0
 34
0.0
 15
0.0
 25
0.0
 35
0.0
146
0.0
 13
0.0
 23
0.0
 33
0.0
 16
1.0
 26
0.0
 36
0.0
 17
0.0
 27
1.0
 37
0.0
 76
     0
330
23
  0
LAYOUT
  5
22
102
{ACAD_REACTORS
330
1A
102
}
330
1A
100
AcDbPlotSettings
  1

  2
none_device
  4
Letter_(8.50_x_11.00_Inches)
  6

 40
6.35
 41
6.35
 42
6.35000508
 43
6.35000508
 44
215.9
 45
279.4
 46
0.0
 47
0.0
 48
0.0
 49
0.0
140
0.0
141
0.0
142
1.0
143
1.0
 70
  1712
 72
     1
 73
     0
 74
     0
  7

 75
     0
147
1.0
148
0.0
149
0.0
100
AcDbLayout
  1
Model
 70
     1
 71
     0
 10
0.0
 20
0.0
 11
20000.0
 21
10000.0
 12
0.0
 22
0.0
 32
0.0
 14
0.0
 24
0.0
 34
0.0
 15
20000.0
 25
10000.0
 35
0.0
146
0.0
 13
0.0
 23
0.0
 33
0.0
 16
1.0
 26
0.0
 36
0.0
 17
0.0
 27
1.0
 37
0.0
 76
     0
330
1F
331
29
  0
MLINESTYLE
  5
18
102
{ACAD_REACTORS
330
17
102
}
330
17
100
AcDbMlineStyle
  2
Standard
 70
     0
  3

 62
   256
 51
90.0
 52
90.0
 71
     2
 49
0.5
 62
   256
  6
BYLAYER
 49
-0.5
 62
   256
  6
BYLAYER
  0
ACDBPLACEHOLDER
  5
F
102
{ACAD_REACTORS
330
E
102
}
330
E
  0
SCALE
  5
48
102
{ACAD_REACTORS
330
47
102
}
330
47
100
AcDbScale
 70
     0
300
1:1
140
1.0
141
1.0
290
     1
  0
SCALE
  5
49
102
{ACAD_REACTORS
330
47
102
}
330
47
100
AcDbScale
 70
     0
300
1:2
140
1.0
141
2.0
290
     0
  0
SCALE
  5
4A
102
{ACAD_REACTORS
330
47
102
}
330
47
100
AcDbScale
 70
     0
300
1:4
140
1.0
141
4.0
290
     0
  0
SCALE
  5
4B
102
{ACAD_REACTORS
330
47
102
}
330
47
100
AcDbScale
 70
     0
300
1:5
140
1.0
141
5.0
290
     0
  0
SCALE
  5
4C
102
{ACAD_REACTORS
330
47
102
}
330
47
100
AcDbScale
 70
     0
300
1:8
140
1.0
141
8.0
290
     0
  0
SCALE
  5
4D
102
{ACAD_REACTORS
330
47
102
}
330
47
100
AcDbScale
 70
     0
300
1:10
140
1.0
141
10.0
290
     0
  0
SCALE
  5
4E
102
{ACAD_REACTORS
330
47
102
}
330
47
100
AcDbScale
 70
     0
300
1:16
140
1.0
141
16.0
290
     0
  0
SCALE
  5
4F
102
{ACAD_REACTORS
330
47
102
}
330
47
100
AcDbScale
 70
     0
300
1:20
140
1.0
141
20.0
290
     0
  0
SCALE
  5
50
102
{ACAD_REACTORS
330
47
102
}
330
47
100
AcDbScale
 70
     0
300
1:30
140
1.0
141
30.0
290
     0
  0
SCALE
  5
51
102
{ACAD_REACTORS
330
47
102
}
330
47
100
AcDbScale
 70
     0
300
1:40
140
1.0
141
40.0
290
     0
  0
SCALE
  5
52
102
{ACAD_REACTORS
330
47
102
}
330
47
100
AcDbScale
 70
     0
300
1:50
140
1.0
141
50.0
290
     0
  0
SCALE
  5
53
102
{ACAD_REACTORS
330
47
102
}
330
47
100
AcDbScale
 70
     0
300
1:100
140
1.0
141
100.0
290
     0
  0
SCALE
  5
54
102
{ACAD_REACTORS
330
47
102
}
330
47
100
AcDbScale
 70
     0
300
2:1
140
2.0
141
1.0
290
     0
  0
SCALE
  5
55
102
{ACAD_REACTORS
330
47
102
}
330
47
100
AcDbScale
 70
     0
300
4:1
140
4.0
141
1.0
290
     0
  0
SCALE
  5
56
102
{ACAD_REACTORS
330
47
102
}
330
47
100
AcDbScale
 70
     0
300
8:1
140
8.0
141
1.0
290
     0
  0
SCALE
  5
57
102
{ACAD_REACTORS
330
47
102
}
330
47
100
AcDbScale
 70
     0
300
10:1
140
10.0
141
1.0
290
     0
  0
SCALE
  5
58
102
{ACAD_REACTORS
330
47
102
}
330
47
100
AcDbScale
 70
     0
300
100:1
140
100.0
141
1.0
290
     0
  0
SCALE
  5
59
102
{ACAD_REACTORS
330
47
102
}
330
47
100
AcDbScale
 70
     0
300
1/128" = 1'-0"
140
0.0078125
141
12.0
290
     0
  0
SCALE
  5
5A
102
{ACAD_REACTORS
330
47
102
}
330
47
100
AcDbScale
 70
     0
300
1/64" = 1'-0"
140
0.015625
141
12.0
290
     0
  0
SCALE
  5
5B
102
{ACAD_REACTORS
330
47
102
}
330
47
100
AcDbScale
 70
     0
300
1/32" = 1'-0"
140
0.03125
141
12.0
290
     0
  0
SCALE
  5
5C
102
{ACAD_REACTORS
330
47
102
}
330
47
100
AcDbScale
 70
     0
300
1/16" = 1'-0"
140
0.0625
141
12.0
290
     0
  0
SCALE
  5
5D
102
{ACAD_REACTORS
330
47
102
}
330
47
100
AcDbScale
 70
     0
300
3/32" = 1'-0"
140
0.09375
141
12.0
290
     0
  0
SCALE
  5
5E
102
{ACAD_REACTORS
330
47
102
}
330
47
100
AcDbScale
 70
     0
300
1/8" = 1'-0"
140
0.125
141
12.0
290
     0
  0
SCALE
  5
5F
102
{ACAD_REACTORS
330
47
102
}
330
47
100
AcDbScale
 70
     0
300
3/16" = 1'-0"
140
0.1875
141
12.0
290
     0
  0
SCALE
  5
60
102
{ACAD_REACTORS
330
47
102
}
330
47
100
AcDbScale
 70
     0
300
1/4" = 1'-0"
140
0.25
141
12.0
290
     0
  0
SCALE
  5
61
102
{ACAD_REACTORS
330
47
102
}
330
47
100
AcDbScale
 70
     0
300
3/8" = 1'-0"
140
0.375
141
12.0
290
     0
  0
SCALE
  5
62
102
{ACAD_REACTORS
330
47
102
}
330
47
100
AcDbScale
 70
     0
300
1/2" = 1'-0"
140
0.5
141
12.0
290
     0
  0
SCALE
  5
63
102
{ACAD_REACTORS
330
47
102
}
330
47
100
AcDbScale
 70
     0
300
3/4" = 1'-0"
140
0.75
141
12.0
290
     0
  0
SCALE
  5
64
102
{ACAD_REACTORS
330
47
102
}
330
47
100
AcDbScale
 70
     0
300
1" = 1'-0"
140
1.0
141
12.0
290
     0
  0
SCALE
  5
65
102
{ACAD_REACTORS
330
47
102
}
330
47
100
AcDbScale
 70
     0
300
1-1/2" = 1'-0"
140
1.5
141
12.0
290
     0
  0
SCALE
  5
66
102
{ACAD_REACTORS
330
47
102
}
330
47
100
AcDbScale
 70
     0
300
3" = 1'-0"
140
3.0
141
12.0
290
     0
  0
SCALE
  5
67
102
{ACAD_REACTORS
330
47
102
}
330
47
100
AcDbScale
 70
     0
300
6" = 1'-0"
140
6.0
141
12.0
290
     0
  0
SCALE
  5
68
102
{ACAD_REACTORS
330
47
102
}
330
47
100
AcDbScale
 70
     0
300
1'-0" = 1'-0"
140
12.0
141
12.0
290
     0
  0
ENDSEC
  0
EOF
