  0
SECTION
  2
HEADER
  9
$ACADVER
  1
AC1015
  9
$ACADMAINTVER
 70
     6
  9
$DWGCODEPAGE
  3
ANSI_1250
  9
$INSBASE
 10
0.0
 20
0.0
 30
0.0
  9
$EXTMIN
 10
0.0
 20
0.0
 30
0.0
  9
$EXTMAX
 10
20000.0
 20
10000.0
 30
0.0
  9
$LIMMIN
 10
0.0
 20
0.0
  9
$LIMMAX
 10
20000.0
 20
10000.0
  9
$ORTHOMODE
 70
     0
  9
$REGENMODE
 70
     1
  9
$FILLMODE
 70
     1
  9
$QTEXTMODE
 70
     0
  9
$MIRRTEXT
 70
     1
  9
$LTSCALE
 40
1.0
  9
$ATTMODE
 70
     1
  9
$TEXTSIZE
 40
2.0
  9
$TRACEWID
 40
1.0
  9
$TEXTSTYLE
  7
STANDARD
  9
$CLAYER
  8
0
  9
$CELTYPE
  6
ByLayer
  9
$CECOLOR
 62
   256
  9
$CELTSCALE
 40
1.0
  9
$DISPSILH
 70
     0
  9
$DIMSCALE
 40
1.0
  9
$DIMASZ
 40
2.0
  9
$DIMEXO
 40
1.0
  9
$DIMDLI
 40
3.75
  9
$DIMRND
 40
0.0
  9
$DIMDLE
 40
0.0
  9
$DIMEXE
 40
1.0
  9
$DIMTP
 40
0.0
  9
$DIMTM
 40
0.0
  9
$DIMTXT
 40
2.0
  9
$DIMCEN
 40
2.5
  9
$DIMTSZ
 40
0.0
  9
$DIMTOL
 70
     0
  9
$DIMLIM
 70
     0
  9
$DIMTIH
 70
     1
  9
$DIMTOH
 70
     1
  9
$DIMSE1
 70
     0
  9
$DIMSE2
 70
     0
  9
$DIMTAD
 70
     1
  9
$DIMZIN
 70
     0
  9
$DIMBLK
  1

  9
$DIMASO
 70
     1
  9
$DIMSHO
 70
     1
  9
$DIMPOST
  1

  9
$DIMAPOST
  1

  9
$DIMALT
 70
     0
  9
$DIMALTD
 70
     3
  9
$DIMALTF
 40
0.0393700787
  9
$DIMLFAC
 40
1.0
  9
$DIMTOFL
 70
     1
  9
$DIMTVP
 40
0.0
  9
$DIMTIX
 70
     0
  9
$DIMSOXD
 70
     0
  9
$DIMSAH
 70
     0
  9
$DIMBLK1
  1

  9
$DIMBLK2
  1

  9
$DIMSTYLE
  2
ISO-25
  9
$DIMCLRD
 70
     0
  9
$DIMCLRE
 70
     0
  9
$DIMCLRT
 70
     0
  9
$DIMTFAC
 40
1.0
  9
$DIMGAP
 40
1.524
  9
$DIMJUST
 70
     0
  9
$DIMSD1
 70
     0
  9
$DIMSD2
 70
     0
  9
$DIMTOLJ
 70
     0
  9
$DIMTZIN
 70
     0
  9
$DIMALTZ
 70
     0
  9
$DIMALTTZ
 70
     0
  9
$DIMUPT
 70
     0
  9
$DIMDEC
 70
     2
  9
$DIMTDEC
 70
     0
  9
$DIMALTU
 70
     2
  9
$DIMALTTD
 70
     3
  9
$DIMTXSTY
  7
STANDARD
  9
$DIMAUNIT
 70
     0
  9
$DIMADEC
 70
     2
  9
$DIMALTRND
 40
0.0
  9
$DIMAZIN
 70
     0
  9
$DIMDSEP
 70
    44
  9
$DIMATFIT
 70
     3
  9
$DIMFRAC
 70
     0
  9
$DIMLDRBLK
  1

  9
$DIMLUNIT
 70
     2
  9
$DIMLWD
 70
    -2
  9
$DIMLWE
 70
    -2
  9
$DIMTMOVE
 70
     0
  9
$LUNITS
 70
     2
  9
$LUPREC
 70
     3
  9
$SKETCHINC
 40
1.0
  9
$FILLETRAD
 40
10.0
  9
$AUNITS
 70
     0
  9
$AUPREC
 70
     2
  9
$MENU
  1
.
  9
$ELEVATION
 40
0.0
  9
$PELEVATION
 40
0.0
  9
$THICKNESS
 40
0.0
  9
$LIMCHECK
 70
     0
  9
$CHAMFERA
 40
0.0
  9
$CHAMFERB
 40
0.0
  9
$CHAMFERC
 40
0.0
  9
$CHAMFERD
 40
0.0
  9
$SKPOLY
 70
     0
  9
$TDCREATE
 40
2460859.378113461
  9
$TDUCREATE
 40
2460859.294780127
  9
$TDUPDATE
 40
2460859.378114074
  9
$TDUUPDATE
 40
2460859.294780741
  9
$TDINDWG
 40
0.0000000116
  9
$TDUSRTIMER
 40
0.0000000116
  9
$USRTIMER
 70
     1
  9
$ANGBASE
 50
0.0
  9
$ANGDIR
 70
     0
  9
$PDMODE
 70
     0
  9
$PDSIZE
 40
-1.0
  9
$PLINEWID
 40
0.0
  9
$SPLFRAME
 70
     0
  9
$SPLINETYPE
 70
     6
  9
$SPLINESEGS
 70
     8
  9
$HANDSEED
  5
117
  9
$SURFTAB1
 70
     6
  9
$SURFTAB2
 70
     6
  9
$SURFTYPE
 70
     6
  9
$SURFU
 70
     6
  9
$SURFV
 70
     6
  9
$UCSBASE
  2

  9
$UCSNAME
  2

  9
$UCSORG
 10
0.0
 20
0.0
 30
0.0
  9
$UCSXDIR
 10
1.0
 20
0.0
 30
0.0
  9
$UCSYDIR
 10
0.0
 20
1.0
 30
0.0
  9
$UCSORTHOREF
  2

  9
$UCSORTHOVIEW
 70
     0
  9
$UCSORGTOP
 10
0.0
 20
0.0
 30
0.0
  9
$UCSORGBOTTOM
 10
0.0
 20
0.0
 30
0.0
  9
$UCSORGLEFT
 10
0.0
 20
0.0
 30
0.0
  9
$UCSORGRIGHT
 10
0.0
 20
0.0
 30
0.0
  9
$UCSORGFRONT
 10
0.0
 20
0.0
 30
0.0
  9
$UCSORGBACK
 10
0.0
 20
0.0
 30
0.0
  9
$PUCSBASE
  2

  9
$PUCSNAME
  2

  9
$PUCSORG
 10
0.0
 20
0.0
 30
0.0
  9
$PUCSXDIR
 10
1.0
 20
0.0
 30
0.0
  9
$PUCSYDIR
 10
0.0
 20
1.0
 30
0.0
  9
$PUCSORTHOREF
  2

  9
$PUCSORTHOVIEW
 70
     0
  9
$PUCSORGTOP
 10
0.0
 20
0.0
 30
0.0
  9
$PUCSORGBOTTOM
 10
0.0
 20
0.0
 30
0.0
  9
$PUCSORGLEFT
 10
0.0
 20
0.0
 30
0.0
  9
$PUCSORGRIGHT
 10
0.0
 20
0.0
 30
0.0
  9
$PUCSORGFRONT
 10
0.0
 20
0.0
 30
0.0
  9
$PUCSORGBACK
 10
0.0
 20
0.0
 30
0.0
  9
$USERI1
 70
     0
  9
$USERI2
 70
     0
  9
$USERI3
 70
     0
  9
$USERI4
 70
     0
  9
$USERI5
 70
     0
  9
$USERR1
 40
0.0
  9
$USERR2
 40
0.0
  9
$USERR3
 40
0.0
  9
$USERR4
 40
0.0
  9
$USERR5
 40
0.0
  9
$WORLDVIEW
 70
     1
  9
$SHADEDGE
 70
     3
  9
$SHADEDIF
 70
    70
  9
$TILEMODE
 70
     1
  9
$MAXACTVP
 70
    64
  9
$PINSBASE
 10
0.0
 20
0.0
 30
0.0
  9
$PLIMCHECK
 70
     0
  9
$PEXTMIN
 10
1.0000000000E+20
 20
1.0000000000E+20
 30
1.0000000000E+20
  9
$PEXTMAX
 10
-1.0000000000E+20
 20
-1.0000000000E+20
 30
-1.0000000000E+20
  9
$PLIMMIN
 10
0.0
 20
0.0
  9
$PLIMMAX
 10
420.0
 20
297.0
  9
$UNITMODE
 70
     0
  9
$VISRETAIN
 70
     1
  9
$PLINEGEN
 70
     0
  9
$PSLTSCALE
 70
     1
  9
$TREEDEPTH
 70
  3020
  9
$CMLSTYLE
  2
Standard
  9
$CMLJUST
 70
     0
  9
$CMLSCALE
 40
20.0
  9
$PROXYGRAPHICS
 70
     1
  9
$MEASUREMENT
 70
     1
  9
$CELWEIGHT
370
    -1
  9
$ENDCAPS
280
     0
  9
$JOINSTYLE
280
     0
  9
$LWDISPLAY
290
     1
  9
$INSUNITS
 70
     4
  9
$HYPERLINKBASE
  1

  9
$STYLESHEET
  1

  9
$XEDIT
290
     1
  9
$CEPSNTYPE
380
     0
  9
$PSTYLEMODE
290
     1
  9
$FINGERPRINTGUID
  2
{cf295b54-78aa-464a-b43a-5cf968249d57}
  9
$VERSIONGUID
  2
{FAEB1C32-E019-11D5-929B-00C0DF256EC4}
  9
$EXTNAMES
290
     1
  9
$PSVPSCALE
 40
0.0
  9
$OLESTARTUP
290
     0
  0
ENDSEC
  0
SECTION
  2
CLASSES
  0
CLASS
  1
ACDBDICTIONARYWDFLT
  2
AcDbDictionaryWithDefault
  3
ObjectDBX Classes
 90
        0
280
     0
281
     0
  0
CLASS
  1
VISUALSTYLE
  2
AcDbVisualStyle
  3
ObjectDBX Classes
 90
     4095
280
     0
281
     0
  0
CLASS
  1
MATERIAL
  2
AcDbMaterial
  3
ObjectDBX Classes
 90
     1153
280
     0
281
     0
  0
CLASS
  1
SCALE
  2
AcDbScale
  3
ObjectDBX Classes
 90
     1153
280
     0
281
     0
  0
CLASS
  1
TABLESTYLE
  2
AcDbTableStyle
  3
ObjectDBX Classes
 90
     4095
280
     0
281
     0
  0
CLASS
  1
MLEADERSTYLE
  2
AcDbMLeaderStyle
  3
ACDB_MLEADERSTYLE_CLASS
 90
     4095
280
     0
281
     0
  0
CLASS
  1
SUN
  2
AcDbSun
  3
SCENEOE
 90
     1153
280
     0
281
     0
  0
CLASS
  1
ACDBPLACEHOLDER
  2
AcDbPlaceHolder
  3
ObjectDBX Classes
 90
        0
280
     0
281
     0
  0
CLASS
  1
LAYOUT
  2
AcDbLayout
  3
ObjectDBX Classes
 90
        0
280
     0
281
     0
  0
ENDSEC
  0
SECTION
  2
TABLES
  0
TABLE
  2
VPORT
  5
8
330
0
100
AcDbSymbolTable
 70
     1
  0
VPORT
  5
29
330
8
100
AcDbSymbolTableRecord
100
AcDbViewportTableRecord
  2
*Active
 70
     0
 10
0.0
 20
0.0
 11
1.0
 21
1.0
 12
10000.0
 22
5000.0
 13
0.0
 23
0.0
 14
10.0
 24
10.0
 15
10.0
 25
10.0
 16
0.0
 26
0.0
 36
1.0
 17
0.0
 27
0.0
 37
0.0
 40
10000.0
 41
2.0
 42
50.0
 43
0.0
 44
0.0
 50
0.0
 51
0.0
 71
     0
 72
  2000
 73
     1
 74
     3
 75
     0
 76
     0
 77
     0
 78
     0
281
     0
 65
     1
110
0.0
120
0.0
130
0.0
111
1.0
121
0.0
131
0.0
112
0.0
122
1.0
132
0.0
 79
     0
146
0.0
  0
ENDTAB
  0
TABLE
  2
LTYPE
  5
5
330
0
100
AcDbSymbolTable
 70
    10
  0
LTYPE
  5
14
330
5
100
AcDbSymbolTableRecord
100
AcDbLinetypeTableRecord
  2
ByBlock
 70
     0
  3

 72
    65
 73
     0
 40
0.0
  0
LTYPE
  5
15
330
5
100
AcDbSymbolTableRecord
100
AcDbLinetypeTableRecord
  2
ByLayer
 70
     0
  3

 72
    65
 73
     0
 40
0.0
  0
LTYPE
  5
16
330
5
100
AcDbSymbolTableRecord
100
AcDbLinetypeTableRecord
  2
Continuous
 70
     0
  3
Solid line
 72
    65
 73
     0
 40
0.0
  0
LTYPE
  5
6E
330
5
100
AcDbSymbolTableRecord
100
AcDbLinetypeTableRecord
  2
SLD-Plná
 70
     0
  3
SolidWorks Line Style
 72
    65
 73
     0
 40
0.0
  0
LTYPE
  5
6F
330
5
100
AcDbSymbolTableRecord
100
AcDbLinetypeTableRecord
  2
SLD-Čárkovaná
 70
     0
  3
SolidWorks Line Style
 72
    65
 73
     2
 40
1.905
 49
1.27
 74
     0
 49
-0.635
 74
     0
  0
LTYPE
  5
70
330
5
100
AcDbSymbolTableRecord
100
AcDbLinetypeTableRecord
  2
SLD-Dvojitě-čerchovaná
 70
     0
  3
SolidWorks Line Style
 72
    65
 73
     6
 40
12.7
 49
6.35
 74
     0
 49
-1.27
 74
     0
 49
1.27
 74
     0
 49
-1.27
 74
     0
 49
1.27
 74
     0
 49
-1.27
 74
     0
  0
LTYPE
  5
71
330
5
100
AcDbSymbolTableRecord
100
AcDbLinetypeTableRecord
  2
SLD-Čerchovaná
 70
     0
  3
SolidWorks Line Style
 72
    65
 73
     4
 40
10.16
 49
6.35
 74
     0
 49
-1.27
 74
     0
 49
1.27
 74
     0
 49
-1.27
 74
     0
  0
LTYPE
  5
72
330
5
100
AcDbSymbolTableRecord
100
AcDbLinetypeTableRecord
  2
SLD-Osa
 70
     0
  3
SolidWorks Line Style
 72
    65
 73
     4
 40
19.05
 49
15.24
 74
     0
 49
-1.27
 74
     0
 49
1.27
 74
     0
 49
-1.27
 74
     0
  0
LTYPE
  5
73
330
5
100
AcDbSymbolTableRecord
100
AcDbLinetypeTableRecord
  2
SLD-Tečkovaná
 70
     0
  3
SolidWorks Line Style
 72
    65
 73
     2
 40
0.635
 49
0.0
 74
     0
 49
-0.635
 74
     0
  0
LTYPE
  5
74
330
5
100
AcDbSymbolTableRecord
100
AcDbLinetypeTableRecord
  2
SLD-Hrubá-tenká-čerchovaná
 70
     0
  3
SolidWorks Line Style
 72
    65
 73
     4
 40
10.16
 49
6.35
 74
     0
 49
-1.27
 74
     0
 49
1.27
 74
     0
 49
-1.27
 74
     0
  0
LTYPE
  5
75
330
5
100
AcDbSymbolTableRecord
100
AcDbLinetypeTableRecord
  2
SLD-Řez-1
 70
     0
  3
SolidWorks Line Style
 72
    65
 73
     4
 40
8.128
 49
5.08
 74
     0
 49
-1.016
 74
     0
 49
1.016
 74
     0
 49
-1.016
 74
     0
  0
LTYPE
  5
76
330
5
100
AcDbSymbolTableRecord
100
AcDbLinetypeTableRecord
  2
SLD-Řez-2
 70
     0
  3
SolidWorks Line Style
 72
    65
 73
     2
 40
5080.0
 49
0.0
 74
     0
 49
-5080.0
 74
     0
  0
ENDTAB
  0
TABLE
  2
LAYER
  5
2
330
0
100
AcDbSymbolTable
 70
    13
  0
LAYER
  5
10
330
2
100
AcDbSymbolTableRecord
100
AcDbLayerTableRecord
  2
0
 70
     0
 62
     7
  6
Continuous
370
    -3
390
F
  0
LAYER
  5
77
330
2
100
AcDbSymbolTableRecord
100
AcDbLayerTableRecord
  2
FORMAT
 70
     0
 62
     7
  6
SLD-Plná
370
    -3
390
F
  0
LAYER
  5
78
330
2
100
AcDbSymbolTableRecord
100
AcDbLayerTableRecord
  2
OSA
 70
     0
 62
     7
  6
SLD-Hrubá-tenká-čerchovaná
370
    -3
390
F
  0
LAYER
  5
79
330
2
100
AcDbSymbolTableRecord
100
AcDbLayerTableRecord
  2
0_35
 70
     0
 62
     7
  6
SLD-Plná
370
    35
390
F
  0
LAYER
  5
7A
330
2
100
AcDbSymbolTableRecord
100
AcDbLayerTableRecord
  2
0_5
 70
     0
 62
     7
  6
SLD-Plná
370
    50
390
F
  0
LAYER
  5
7B
330
2
100
AcDbSymbolTableRecord
100
AcDbLayerTableRecord
  2
0_25
 70
     0
 62
     7
  6
SLD-Plná
370
    25
390
F
  0
LAYER
  5
7C
330
2
100
AcDbSymbolTableRecord
100
AcDbLayerTableRecord
  2
0_18
 70
     0
 62
     7
  6
SLD-Plná
370
    -3
390
F
  0
LAYER
  5
7D
330
2
100
AcDbSymbolTableRecord
100
AcDbLayerTableRecord
  2
SLD-0
 70
     0
 62
   179
  6
SLD-Plná
370
    -3
390
F
  0
LAYER
  5
7E
330
2
100
AcDbSymbolTableRecord
100
AcDbLayerTableRecord
  2
KOTY
 70
     0
 62
     7
  6
SLD-Plná
370
    -3
390
F
  0
LAYER
  5
7F
330
2
100
AcDbSymbolTableRecord
100
AcDbLayerTableRecord
  2
SILNA
 70
     0
 62
   179
  6
SLD-Plná
370
    -3
390
F
  0
LAYER
  5
80
330
2
100
AcDbSymbolTableRecord
100
AcDbLayerTableRecord
  2
0_18_1
 70
     0
 62
   179
  6
SLD-Plná
370
    -3
390
F
  0
LAYER
  5
81
330
2
100
AcDbSymbolTableRecord
100
AcDbLayerTableRecord
  2
0_35_1
 70
     0
 62
   179
  6
SLD-Plná
370
    35
390
F
  0
LAYER
  5
82
330
2
100
AcDbSymbolTableRecord
100
AcDbLayerTableRecord
  2
0_5_1
 70
     0
 62
   179
  6
SLD-Plná
370
    50
390
F
  0
ENDTAB
  0
TABLE
  2
STYLE
  5
3
330
0
100
AcDbSymbolTable
 70
     1
  0
STYLE
  5
11
330
3
100
AcDbSymbolTableRecord
100
AcDbTextStyleTableRecord
  2
STANDARD
 70
     0
 40
0.0
 41
1.0
 50
0.0
 71
     0
 42
2.0
  3
SWISOP1.TTF
  4

1001
ACAD
1000
SWISOP1
1071
        2
  0
ENDTAB
  0
TABLE
  2
VIEW
  5
6
330
0
100
AcDbSymbolTable
 70
     0
  0
ENDTAB
  0
TABLE
  2
UCS
  5
7
330
0
100
AcDbSymbolTable
 70
     0
  0
ENDTAB
  0
TABLE
  2
APPID
  5
9
330
0
100
AcDbSymbolTable
 70
     1
  0
APPID
  5
12
330
9
100
AcDbSymbolTableRecord
100
AcDbRegAppTableRecord
  2
ACAD
 70
     0
  0
ENDTAB
  0
TABLE
  2
DIMSTYLE
  5
A
330
0
100
AcDbSymbolTable
 70
     1
100
AcDbDimStyleTable
  0
DIMSTYLE
105
27
330
A
100
AcDbSymbolTableRecord
100
AcDbDimStyleTableRecord
  2
ISO-25
 70
     0
 41
2.5
 42
0.625
 43
3.75
 44
1.25
 73
     0
 74
     0
 77
     1
 78
     8
140
2.5
141
2.5
143
0.0393700787
147
0.625
171
     3
172
     1
178
     0
271
     2
272
     2
274
     3
278
    44
283
     0
284
     8
340
11
  0
ENDTAB
  0
TABLE
  2
BLOCK_RECORD
  5
1
330
0
100
AcDbSymbolTable
 70
     1
  0
BLOCK_RECORD
  5
1F
330
1
100
AcDbSymbolTableRecord
100
AcDbBlockTableRecord
  2
*Model_Space
340
22
  0
BLOCK_RECORD
  5
1B
330
1
100
AcDbSymbolTableRecord
100
AcDbBlockTableRecord
  2
*Paper_Space
340
1E
  0
BLOCK_RECORD
  5
23
330
1
100
AcDbSymbolTableRecord
100
AcDbBlockTableRecord
  2
*Paper_Space0
340
26
  0
ENDTAB
  0
ENDSEC
  0
SECTION
  2
BLOCKS
  0
BLOCK
  5
20
330
1F
100
AcDbEntity
  8
0
100
AcDbBlockBegin
  2
*Model_Space
 70
     0
 10
0.0
 20
0.0
 30
0.0
  3
*Model_Space
  1

  0
ENDBLK
  5
21
330
1F
100
AcDbEntity
  8
0
100
AcDbBlockEnd
  0
BLOCK
  5
1C
330
1B
100
AcDbEntity
 67
     1
  8
0
100
AcDbBlockBegin
  2
*Paper_Space
 70
     0
 10
0.0
 20
0.0
 30
0.0
  3
*Paper_Space
  1

  0
ENDBLK
  5
1D
330
1B
100
AcDbEntity
 67
     1
  8
0
100
AcDbBlockEnd
  0
BLOCK
  5
24
330
23
100
AcDbEntity
  8
0
100
AcDbBlockBegin
  2
*Paper_Space0
 70
     0
 10
0.0
 20
0.0
 30
0.0
  3
*Paper_Space0
  1

  0
ENDBLK
  5
25
330
23
100
AcDbEntity
  8
0
100
AcDbBlockEnd
  0
ENDSEC
  0
SECTION
  2
ENTITIES
  0
LINE
  5
83
330
1F
100
AcDbEntity
  8
0
  6
SLD-Plná
 62
     7
370
    25
100
AcDbLine
 10
6389.5521954524
 20
5291.6452711032
 30
0.0
 11
6389.5521954524
 21
5290.6452711032
 31
0.0
  0
LINE
  5
84
330
1F
100
AcDbEntity
  8
0
  6
SLD-Plná
 62
     7
370
    25
100
AcDbLine
 10
6421.5521954524
 20
5290.6452711032
 30
0.0
 11
6421.5521954524
 21
5291.6452711032
 31
0.0
  0
LINE
  5
85
330
1F
100
AcDbEntity
  8
0
  6
SLD-Plná
 62
     7
370
    25
100
AcDbLine
 10
6421.5015484681
 20
5291.6452711032
 30
0.0
 11
6416.3748958552
 21
5332.7630945112
 31
0.0
  0
LINE
  5
86
330
1F
100
AcDbEntity
  8
0
  6
SLD-Plná
 62
     7
370
    25
100
AcDbLine
 10
6385.605875802
 20
5320.902919717
 30
0.0
 11
6389.2537780566
 21
5291.6452711032
 31
0.0
  0
LINE
  5
87
330
1F
100
AcDbEntity
  8
0
  6
SLD-Plná
 62
     7
370
    25
100
AcDbLine
 10
6416.7789743857
 20
5291.6452711032
 30
0.0
 11
6421.5521954524
 21
5291.6452711032
 31
0.0
  0
LINE
  5
88
330
1F
100
AcDbEntity
  8
0
  6
SLD-Plná
 62
     7
370
    25
100
AcDbLine
 10
6400.3431595437
 20
5332.9873851959
 30
0.0
 11
6416.3464329437
 21
5332.9873851959
 31
0.0
  0
ELLIPSE
  5
89
330
1F
100
AcDbEntity
  8
0
  6
SLD-Plná
 62
     7
370
    25
100
AcDbEllipse
 10
6400.9734650624
 20
5326.9687184895
 30
0.0
 11
15.20903517241732
 21
6.649061119456748
 31
0.0
210
0.0
220
0.0
230
1.0
 40
0.3495815594
 41
1.460118934100532
 42
6.172098697619202
  0
LWPOLYLINE
  5
8A
330
1F
100
AcDbEntity
  8
0
  6
SLD-Plná
 62
     7
370
    25
100
AcDbPolyline
 90
       17
 70
   128
 43
0.0
 10
6402.5272581046
 20
5328.2373851959
 10
6402.1912821436
 20
5328.2944755465
 10
6402.0462977053
 20
5328.45705511
 10
6402.1143773561
 20
5328.7003726216
 10
6402.3851565863
 20
5328.9873851959
 10
6402.8174117128
 20
5329.2743977702
 10
6403.345335811
 20
5329.5177152818
 10
6403.8885572224
 20
5329.6802948453
 10
6404.3643754117
 20
5329.7373851959
 10
6404.7003513727
 20
5329.6802948453
 10
6404.845335811
 20
5329.5177152818
 10
6404.7772561602
 20
5329.2743977702
 10
6404.5064769299
 20
5328.9873851959
 10
6404.0742218034
 20
5328.7003726216
 10
6403.5462977053
 20
5328.45705511
 10
6403.0030762938
 20
5328.2944755465
 10
6402.5272581046
 20
5328.2373851959
  0
LWPOLYLINE
  5
8B
330
1F
100
AcDbEntity
  8
0
  6
SLD-Plná
 62
     7
370
    25
100
AcDbPolyline
 90
       22
 70
   128
 43
0.0
 10
6408.3955642264
 20
5328.9873851959
 10
6407.4530467394
 20
5328.8985308075
 10
6406.3766281543
 20
5328.6398627445
 10
6405.261952986
 20
5328.2343647996
 10
6404.2080650151
 20
5327.7180672446
 10
6403.3086068125
 20
5327.1368453831
 10
6402.6434991869
 20
5326.542343328
 10
6402.2718398695
 20
5325.9873851959
 10
6402.2266524217
 20
5325.5212814523
 10
6402.5119519465
 20
5325.1854474601
 10
6403.1023883291
 20
5325.0097235435
 10
6403.9454987059
 20
5325.0097235435
 10
6404.9663690199
 20
5325.1854474601
 10
6406.0742904637
 20
5325.5212814523
 10
6407.170819355
 20
5325.9873851959
 10
6408.1585242899
 20
5326.542343328
 10
6408.9496433502
 20
5327.1368453831
 10
6409.4738821358
 20
5327.7180672446
 10
6409.68465973
 20
5328.2343647996
 10
6409.5632476186
 20
5328.6398627445
 10
6409.1204338004
 20
5328.8985308075
 10
6408.3955642264
 20
5328.9873851959
  0
LWPOLYLINE
  5
8C
330
1F
100
AcDbEntity
  8
0
  6
SLD-Plná
 62
     7
370
    25
100
AcDbPolyline
 90
       22
 70
   128
 43
0.0
 10
6398.5158783927
 20
5328.9873851959
 10
6397.5733609057
 20
5328.8985308075
 10
6396.4969423205
 20
5328.6398627445
 10
6395.3822671523
 20
5328.2343647996
 10
6394.3283791813
 20
5327.7180672446
 10
6393.4289209788
 20
5327.1368453831
 10
6392.7638133531
 20
5326.542343328
 10
6392.3921540357
 20
5325.9873851959
 10
6392.3469665879
 20
5325.5212814523
 10
6392.6322661127
 20
5325.1854474601
 10
6393.2227024953
 20
5325.0097235435
 10
6394.0658128721
 20
5325.0097235435
 10
6395.0866831861
 20
5325.1854474601
 10
6396.1946046299
 20
5325.5212814523
 10
6397.2911335213
 20
5325.9873851959
 10
6398.2788384561
 20
5326.542343328
 10
6399.0699575165
 20
5327.1368453831
 10
6399.5941963021
 20
5327.7180672446
 10
6399.8049738963
 20
5328.2343647996
 10
6399.6835617848
 20
5328.6398627445
 10
6399.2407479666
 20
5328.8985308075
 10
6398.5158783927
 20
5328.9873851959
  0
LWPOLYLINE
  5
8D
330
1F
100
AcDbEntity
  8
0
  6
SLD-Plná
 62
     7
370
    25
100
AcDbPolyline
 90
       17
 70
   128
 43
0.0
 10
6395.7911613119
 20
5322.7373851959
 10
6394.9981309965
 20
5322.6422346116
 10
6394.0927619774
 20
5322.3712686724
 10
6393.2128884805
 20
5321.9657394864
 10
6392.4924632697
 20
5321.4873851959
 10
6392.0411645527
 20
5321.0090309055
 10
6391.927698468
 20
5320.6035017194
 10
6392.1693391985
 20
5320.3325357803
 10
6392.7292991335
 20
5320.2373851959
 10
6393.5223294488
 20
5320.3325357803
 10
6394.427698468
 20
5320.6035017194
 10
6395.3075719648
 20
5321.0090309055
 10
6396.0279971757
 20
5321.4873851959
 10
6396.4792958927
 20
5321.9657394864
 10
6396.5927619774
 20
5322.3712686724
 10
6396.3511212469
 20
5322.6422346116
 10
6395.7911613119
 20
5322.7373851959
  0
ELLIPSE
  5
8E
330
1F
100
AcDbEntity
  8
0
  6
SLD-Plná
 62
     7
370
    25
100
AcDbEllipse
 10
6396.651971828
 20
5361.6288386664
 30
0.0
 11
-17.61730808387711
 21
40.29775835673263
 31
0.0
210
0.0
220
0.0
230
1.0
 40
0.236965339
 41
3.8161088158599
 42
3.82396754106156
  0
LINE
  5
8F
330
1F
100
AcDbEntity
  8
0
  6
SLD-Plná
 62
     7
370
    25
100
AcDbLine
 10
6416.7789743857
 20
5291.6452711032
 30
0.0
 11
6389.2537780566
 21
5291.6452711032
 31
0.0
  0
LWPOLYLINE
  5
90
330
1F
100
AcDbEntity
  8
0
  6
SLD-Plná
 62
     7
370
    25
100
AcDbPolyline
 90
       22
 70
   128
 43
0.0
 10
6393.6168989075
 20
5324.9873851949
 10
6394.5594163945
 20
5325.0762395834
 10
6395.6358349796
 20
5325.3349076465
 10
6396.7505101478
 20
5325.7404055916
 10
6397.8043981186
 20
5326.2567031468
 10
6398.7038563211
 20
5326.8379250087
 10
6399.3689639466
 20
5327.432427064
 10
6399.7406232639
 20
5327.9873851964
 10
6399.7858107116
 20
5328.4534889403
 10
6399.5005111867
 20
5328.7893229326
 10
6398.9100748041
 20
5328.9650468494
 10
6398.0669644273
 20
5328.9650468494
 10
6397.0460941133
 20
5328.7893229326
 10
6395.9381726696
 20
5328.4534889403
 10
6394.8416437783
 20
5327.9873851964
 10
6393.8539388436
 20
5327.432427064
 10
6393.0628197834
 20
5326.8379250087
 10
6392.5385809979
 20
5326.2567031468
 10
6392.3278034038
 20
5325.7404055916
 10
6392.4492155153
 20
5325.3349076465
 10
6392.8920293336
 20
5325.0762395834
 10
6393.6168989075
 20
5324.9873851949
  0
LWPOLYLINE
  5
91
330
1F
100
AcDbEntity
  8
0
  6
SLD-Plná
 62
     7
370
    25
100
AcDbPolyline
 90
       22
 70
   128
 43
0.0
 10
6403.4965847413
 20
5324.9873851949
 10
6404.4391022282
 20
5325.0762395834
 10
6405.5155208134
 20
5325.3349076465
 10
6406.6301959815
 20
5325.7404055916
 10
6407.6840839524
 20
5326.2567031468
 10
6408.5835421548
 20
5326.8379250087
 10
6409.2486497803
 20
5327.432427064
 10
6409.6203090976
 20
5327.9873851964
 10
6409.6654965453
 20
5328.4534889403
 10
6409.3801970205
 20
5328.7893229326
 10
6408.7897606378
 20
5328.9650468494
 10
6407.946650261
 20
5328.9650468494
 10
6406.9257799471
 20
5328.7893229326
 10
6405.8178585033
 20
5328.4534889403
 10
6404.7213296121
 20
5327.9873851964
 10
6403.7336246774
 20
5327.432427064
 10
6402.9425056171
 20
5326.8379250087
 10
6402.4182668316
 20
5326.2567031468
 10
6402.2074892375
 20
5325.7404055916
 10
6402.3289013491
 20
5325.3349076465
 10
6402.7717151673
 20
5325.0762395834
 10
6403.4965847413
 20
5324.9873851949
  0
LWPOLYLINE
  5
92
330
1F
100
AcDbEntity
  8
0
  6
SLD-Plná
 62
     7
370
    25
100
AcDbPolyline
 90
       17
 70
   128
 43
0.0
 10
6404.3643754117
 20
5329.7373851958
 10
6404.7003513727
 20
5329.6802948452
 10
6404.845335811
 20
5329.5177152817
 10
6404.7772561602
 20
5329.2743977701
 10
6404.5064769299
 20
5328.9873851959
 10
6404.0742218034
 20
5328.7003726217
 10
6403.5462977053
 20
5328.4570551101
 10
6403.0030762938
 20
5328.2944755466
 10
6402.5272581045
 20
5328.237385196
 10
6402.1912821436
 20
5328.2944755466
 10
6402.0462977053
 20
5328.4570551101
 10
6402.1143773561
 20
5328.7003726217
 10
6402.3851565863
 20
5328.9873851959
 10
6402.8174117129
 20
5329.2743977701
 10
6403.345335811
 20
5329.5177152817
 10
6403.8885572225
 20
5329.6802948452
 10
6404.3643754117
 20
5329.7373851958
  0
LINE
  5
93
330
1F
100
AcDbEntity
  8
0
  6
SLD-Plná
 62
     7
370
    25
100
AcDbLine
 10
6441.1704193611
 20
5130.6452711033
 30
0.0
 11
6094.1704193611
 21
5130.6452711033
 31
0.0
  0
ARC
  5
94
330
1F
100
AcDbEntity
  8
0
  6
SLD-Plná
 62
     7
370
    25
100
AcDbCircle
 10
6094.1704193611
 20
5132.1452711033
 30
0.0
 40
1.5
100
AcDbArc
 50
180.0
 51
270.0
  0
LINE
  5
95
330
1F
100
AcDbEntity
  8
0
  6
SLD-Plná
 62
     7
370
    25
100
AcDbLine
 10
6092.6704193611
 20
5132.1452711033
 30
0.0
 11
6442.6704193611
 21
5132.1452711033
 31
0.0
  0
ARC
  5
96
330
1F
100
AcDbEntity
  8
0
  6
SLD-Plná
 62
     7
370
    25
100
AcDbCircle
 10
6441.1704193611
 20
5132.1452711033
 30
0.0
 40
1.5
100
AcDbArc
 50
270.0
 51
0.0
  0
LINE
  5
97
330
1F
100
AcDbEntity
  8
0
  6
SLD-Plná
 62
     7
370
    25
100
AcDbLine
 10
6442.6704193611
 20
5289.1452711033
 30
0.0
 11
6092.6704193611
 21
5289.1452711033
 31
0.0
  0
ARC
  5
98
330
1F
100
AcDbEntity
  8
0
  6
SLD-Plná
 62
     7
370
    25
100
AcDbCircle
 10
6094.1704193611
 20
5289.1452711033
 30
0.0
 40
1.5
100
AcDbArc
 50
90.0
 51
180.0
  0
LINE
  5
99
330
1F
100
AcDbEntity
  8
0
  6
SLD-Plná
 62
     7
370
    25
100
AcDbLine
 10
6094.1704193611
 20
5290.6452711033
 30
0.0
 11
6441.1704193611
 21
5290.6452711033
 31
0.0
  0
ARC
  5
9A
330
1F
100
AcDbEntity
  8
0
  6
SLD-Plná
 62
     7
370
    25
100
AcDbCircle
 10
6441.1704193611
 20
5289.1452711033
 30
0.0
 40
1.5
100
AcDbArc
 50
0.0
 51
90.0
  0
LINE
  5
9B
330
1F
100
AcDbEntity
  8
0
  6
SLD-Plná
 62
     7
370
    25
100
AcDbLine
 10
6092.6704193611
 20
5289.1452711033
 30
0.0
 11
6092.6704193611
 21
5132.1452711033
 31
0.0
  0
LINE
  5
9C
330
1F
100
AcDbEntity
  8
0
  6
SLD-Plná
 62
     7
370
    25
100
AcDbLine
 10
6442.6704193611
 20
5289.1452711033
 30
0.0
 11
6442.6704193611
 21
5132.1452711033
 31
0.0
  0
LINE
  5
9D
330
1F
100
AcDbEntity
  8
0
  6
SLD-Plná
 62
     7
370
    25
100
AcDbLine
 10
6441.0704193611
 20
5292.1452711033
 30
0.0
 11
6441.0704193611
 21
5290.6452711033
 31
0.0
  0
LINE
  5
9E
330
1F
100
AcDbEntity
  8
0
  6
SLD-Plná
 62
     7
370
    25
100
AcDbLine
 10
6094.2704193611
 20
5292.1452711033
 30
0.0
 11
6094.2704193611
 21
5290.6452711033
 31
0.0
  0
LINE
  5
9F
330
1F
100
AcDbEntity
  8
0
  6
SLD-Plná
 62
     7
370
    25
100
AcDbLine
 10
6442.6704193611
 20
5333.0922355392
 30
0.0
 11
6092.6704193611
 21
5333.0922355392
 31
0.0
  0
LINE
  5
A0
330
1F
100
AcDbEntity
  8
0
  6
SLD-Plná
 62
     7
370
    25
100
AcDbLine
 10
6442.6704193611
 20
5331.5952711033
 30
0.0
 11
6442.6704193611
 21
5333.0922355392
 31
0.0
  0
LINE
  5
A1
330
1F
100
AcDbEntity
  8
0
  6
SLD-Plná
 62
     7
370
    25
100
AcDbLine
 10
6092.6704193611
 20
5331.5952711033
 30
0.0
 11
6092.6704193611
 21
5333.0922355392
 31
0.0
  0
LINE
  5
A2
330
1F
100
AcDbEntity
  8
0
  6
SLD-Plná
 62
     7
370
    25
100
AcDbLine
 10
6092.6704193611
 20
5290.6452711033
 30
0.0
 11
6092.6704193611
 21
5331.5952711033
 31
0.0
  0
LINE
  5
A3
330
1F
100
AcDbEntity
  8
0
  6
SLD-Plná
 62
     7
370
    25
100
AcDbLine
 10
6442.6704193611
 20
5290.6452711033
 30
0.0
 11
6442.6704193611
 21
5331.5952711033
 31
0.0
  0
LINE
  5
A4
330
1F
100
AcDbEntity
  8
0
  6
SLD-Plná
 62
     7
370
    25
100
AcDbLine
 10
6442.6704193611
 20
5290.6452711033
 30
0.0
 11
6441.1704193611
 21
5290.6452711033
 31
0.0
  0
LINE
  5
A5
330
1F
100
AcDbEntity
  8
0
  6
SLD-Plná
 62
     7
370
    25
100
AcDbLine
 10
6094.1704193611
 20
5290.6452711033
 30
0.0
 11
6092.6704193611
 21
5290.6452711033
 31
0.0
  0
LINE
  5
A6
330
1F
100
AcDbEntity
  8
0
  6
SLD-Plná
 62
     8
370
    25
100
AcDbLine
 10
6094.2704193611
 20
5292.1452711033
 30
0.0
 11
6389.1914370548
 21
5292.1452711033
 31
0.0
  0
LINE
  5
A7
330
1F
100
AcDbEntity
  8
0
  6
SLD-Plná
 62
     8
370
    25
100
AcDbLine
 10
6421.4392074662
 20
5292.1452711033
 30
0.0
 11
6441.0704193611
 21
5292.1452711033
 31
0.0
  0
LINE
  5
A8
330
1F
100
AcDbEntity
  8
0
  6
SLD-Plná
 62
     8
370
    25
100
AcDbLine
 10
6442.6704193611
 20
5331.5952711033
 30
0.0
 11
6416.5205024177
 21
5331.5952711033
 31
0.0
  0
LINE
  5
A9
330
1F
100
AcDbEntity
  8
0
  6
SLD-Plná
 62
     8
370
    25
100
AcDbLine
 10
6397.1425574154
 20
5331.5952711033
 30
0.0
 11
6092.6704193611
 21
5331.5952711033
 31
0.0
  0
LINE
  5
AA
330
1F
100
AcDbEntity
  8
0
  6
SLD-Plná
 62
     7
370
    25
100
AcDbLine
 10
6701.2492699771
 20
5291.6452711032
 30
0.0
 11
6701.2492699771
 21
5290.6452711032
 31
0.0
  0
LINE
  5
AB
330
1F
100
AcDbEntity
  8
0
  6
SLD-Plná
 62
     7
370
    25
100
AcDbLine
 10
6733.2492699771
 20
5290.6452711032
 30
0.0
 11
6733.2492699771
 21
5291.6452711032
 31
0.0
  0
LINE
  5
AC
330
1F
100
AcDbEntity
  8
0
  6
SLD-Plná
 62
     7
370
    25
100
AcDbLine
 10
6733.5476873728
 20
5291.6452711032
 30
0.0
 11
6737.1955896275
 21
5320.902919717
 31
0.0
  0
LINE
  5
AD
330
1F
100
AcDbEntity
  8
0
  6
SLD-Plná
 62
     7
370
    25
100
AcDbLine
 10
6706.4265695743
 20
5332.7630945112
 30
0.0
 11
6701.2999169614
 21
5291.6452711032
 31
0.0
  0
ARC
  5
AE
330
1F
100
AcDbEntity
  8
0
  6
SLD-Plná
 62
     7
370
    25
100
AcDbCircle
 10
6999.7922801531
 20
5289.1452711033
 30
0.0
 40
1.5
100
AcDbArc
 50
0.0
 51
90.0
  0
ARC
  5
AF
330
1F
100
AcDbEntity
  8
0
  6
SLD-Plná
 62
     7
370
    25
100
AcDbCircle
 10
6999.7922801531
 20
5132.1452711033
 30
0.0
 40
1.5
100
AcDbArc
 50
270.0
 51
0.0
  0
LINE
  5
B0
330
1F
100
AcDbEntity
  8
0
  6
SLD-Plná
 62
     7
370
    25
100
AcDbLine
 10
7001.2922801531
 20
5132.1452711033
 30
0.0
 11
7001.2922801531
 21
5289.1452711033
 31
0.0
  0
LINE
  5
B1
330
1F
100
AcDbEntity
  8
0
  6
SLD-Plná
 62
     7
370
    25
100
AcDbLine
 10
6701.2492699771
 20
5291.6452711032
 30
0.0
 11
6706.0224910429
 21
5291.6452711032
 31
0.0
  0
ELLIPSE
  5
B2
330
1F
100
AcDbEntity
  8
0
  6
SLD-Plná
 62
     7
370
    25
100
AcDbEllipse
 10
6726.1494936015
 20
5361.6288386664
 30
0.0
 11
17.61730808387802
 21
40.29775835673263
 31
0.0
210
0.0
220
0.0
230
1.0
 40
0.236965339
 41
2.459217766118092
 42
2.467076491319714
  0
ELLIPSE
  5
B3
330
1F
100
AcDbEntity
  8
0
  6
SLD-Plná
 62
     7
370
    25
100
AcDbEllipse
 10
6721.8280003671
 20
5326.9687184895
 30
0.0
 11
15.20903517241732
 21
-6.649061119456748
 31
0.0
210
0.0
220
0.0
230
1.0
 40
0.3495815594
 41
3.252679263150319
 42
7.964659026668784
  0
LINE
  5
B4
330
1F
100
AcDbEntity
  8
0
  6
SLD-Plná
 62
     7
370
    25
100
AcDbLine
 10
6733.5476873728
 20
5291.6452711032
 30
0.0
 11
6706.0224910429
 21
5291.6452711032
 31
0.0
  0
LINE
  5
B5
330
1F
100
AcDbEntity
  8
0
  6
SLD-Plná
 62
     7
370
    25
100
AcDbLine
 10
6706.4550324858
 20
5332.9873851959
 30
0.0
 11
6722.4583058858
 21
5332.9873851959
 31
0.0
  0
LWPOLYLINE
  5
B6
330
1F
100
AcDbEntity
  8
0
  6
SLD-Plná
 62
     7
370
    25
100
AcDbPolyline
 90
       17
 70
   128
 43
0.0
 10
6720.2742073249
 20
5328.2373851959
 10
6719.7983891357
 20
5328.2944755465
 10
6719.2551677242
 20
5328.45705511
 10
6718.7272436261
 20
5328.7003726216
 10
6718.2949884996
 20
5328.9873851959
 10
6718.0242092693
 20
5329.2743977702
 10
6717.9561296185
 20
5329.5177152818
 10
6718.1011140568
 20
5329.6802948453
 10
6718.4370900178
 20
5329.7373851959
 10
6718.912908207
 20
5329.6802948453
 10
6719.4561296185
 20
5329.5177152818
 10
6719.9840537167
 20
5329.2743977702
 10
6720.4163088431
 20
5328.9873851959
 10
6720.6870880734
 20
5328.7003726216
 10
6720.7551677242
 20
5328.45705511
 10
6720.6101832859
 20
5328.2944755465
 10
6720.2742073249
 20
5328.2373851959
  0
LWPOLYLINE
  5
B7
330
1F
100
AcDbEntity
  8
0
  6
SLD-Plná
 62
     7
370
    25
100
AcDbPolyline
 90
       22
 70
   128
 43
0.0
 10
6724.3053961397
 20
5328.9873851959
 10
6723.5805265657
 20
5328.8985308075
 10
6723.1377127475
 20
5328.6398627445
 10
6723.0163006361
 20
5328.2343647996
 10
6723.2270782303
 20
5327.7180672446
 10
6723.7513170159
 20
5327.1368453831
 10
6724.5424360762
 20
5326.542343328
 10
6725.5301410111
 20
5325.9873851959
 10
6726.6266699024
 20
5325.5212814523
 10
6727.7345913462
 20
5325.1854474601
 10
6728.7554616602
 20
5325.0097235435
 10
6729.598572037
 20
5325.0097235435
 10
6730.1890084196
 20
5325.1854474601
 10
6730.4743079444
 20
5325.5212814523
 10
6730.4291204966
 20
5325.9873851959
 10
6730.0574611792
 20
5326.542343328
 10
6729.3923535536
 20
5327.1368453831
 10
6728.492895351
 20
5327.7180672446
 10
6727.4390073801
 20
5328.2343647996
 10
6726.3243322118
 20
5328.6398627445
 10
6725.2479136267
 20
5328.8985308075
 10
6724.3053961397
 20
5328.9873851959
  0
LWPOLYLINE
  5
B8
330
1F
100
AcDbEntity
  8
0
  6
SLD-Plná
 62
     7
370
    25
100
AcDbPolyline
 90
       22
 70
   128
 43
0.0
 10
6714.4257103059
 20
5328.9873851959
 10
6713.700840732
 20
5328.8985308075
 10
6713.2580269138
 20
5328.6398627445
 10
6713.1366148023
 20
5328.2343647996
 10
6713.3473923965
 20
5327.7180672446
 10
6713.8716311821
 20
5327.1368453831
 10
6714.6627502425
 20
5326.542343328
 10
6715.6504551773
 20
5325.9873851959
 10
6716.7469840686
 20
5325.5212814523
 10
6717.8549055125
 20
5325.1854474601
 10
6718.8757758265
 20
5325.0097235435
 10
6719.7188862033
 20
5325.0097235435
 10
6720.3093225859
 20
5325.1854474601
 10
6720.5946221107
 20
5325.5212814523
 10
6720.5494346629
 20
5325.9873851959
 10
6720.1777753455
 20
5326.542343328
 10
6719.5126677198
 20
5327.1368453831
 10
6718.6132095173
 20
5327.7180672446
 10
6717.5593215463
 20
5328.2343647996
 10
6716.4446463781
 20
5328.6398627445
 10
6715.3682277929
 20
5328.8985308075
 10
6714.4257103059
 20
5328.9873851959
  0
LWPOLYLINE
  5
B9
330
1F
100
AcDbEntity
  8
0
  6
SLD-Plná
 62
     7
370
    25
100
AcDbPolyline
 90
       17
 70
   128
 43
0.0
 10
6727.0103041176
 20
5322.7373851959
 10
6726.4503441826
 20
5322.6422346116
 10
6726.2087034521
 20
5322.3712686724
 10
6726.3221695368
 20
5321.9657394864
 10
6726.7734682538
 20
5321.4873851959
 10
6727.4938934646
 20
5321.0090309055
 10
6728.3737669615
 20
5320.6035017194
 10
6729.2791359806
 20
5320.3325357803
 10
6730.072166296
 20
5320.2373851959
 10
6730.632126231
 20
5320.3325357803
 10
6730.8737669615
 20
5320.6035017194
 10
6730.7603008768
 20
5321.0090309055
 10
6730.3090021598
 20
5321.4873851959
 10
6729.5885769489
 20
5321.9657394864
 10
6728.7087034521
 20
5322.3712686724
 10
6727.8033344329
 20
5322.6422346116
 10
6727.0103041176
 20
5322.7373851959
  0
LWPOLYLINE
  5
BA
330
1F
100
AcDbEntity
  8
0
  6
SLD-Plná
 62
     7
370
    25
100
AcDbPolyline
 90
       22
 70
   128
 43
0.0
 10
6719.3246897911
 20
5324.9873851949
 10
6720.049559365
 20
5325.0762395834
 10
6720.4923731833
 20
5325.3349076465
 10
6720.6137852948
 20
5325.7404055916
 10
6720.4030077007
 20
5326.2567031468
 10
6719.8787689152
 20
5326.8379250087
 10
6719.087649855
 20
5327.432427064
 10
6718.0999449203
 20
5327.9873851964
 10
6717.003416029
 20
5328.4534889403
 10
6715.8954945853
 20
5328.7893229326
 10
6714.8746242713
 20
5328.9650468494
 10
6714.0315138945
 20
5328.9650468494
 10
6713.4410775119
 20
5328.7893229326
 10
6713.155777987
 20
5328.4534889403
 10
6713.2009654347
 20
5327.9873851964
 10
6713.572624752
 20
5327.432427064
 10
6714.2377323775
 20
5326.8379250087
 10
6715.13719058
 20
5326.2567031468
 10
6716.1910785508
 20
5325.7404055916
 10
6717.305753719
 20
5325.3349076465
 10
6718.3821723041
 20
5325.0762395834
 10
6719.3246897911
 20
5324.9873851949
  0
LWPOLYLINE
  5
BB
330
1F
100
AcDbEntity
  8
0
  6
SLD-Plná
 62
     7
370
    25
100
AcDbPolyline
 90
       22
 70
   128
 43
0.0
 10
6729.2043756248
 20
5324.9873851949
 10
6729.9292451988
 20
5325.0762395834
 10
6730.372059017
 20
5325.3349076465
 10
6730.4934711286
 20
5325.7404055916
 10
6730.2826935345
 20
5326.2567031468
 10
6729.758454749
 20
5326.8379250087
 10
6728.9673356887
 20
5327.432427064
 10
6727.979630754
 20
5327.9873851964
 10
6726.8831018628
 20
5328.4534889403
 10
6725.775180419
 20
5328.7893229326
 10
6724.7543101051
 20
5328.9650468494
 10
6723.9111997283
 20
5328.9650468494
 10
6723.3207633456
 20
5328.7893229326
 10
6723.0354638207
 20
5328.4534889403
 10
6723.0806512685
 20
5327.9873851964
 10
6723.4523105858
 20
5327.432427064
 10
6724.1174182113
 20
5326.8379250087
 10
6725.0168764137
 20
5326.2567031468
 10
6726.0707643846
 20
5325.7404055916
 10
6727.1854395527
 20
5325.3349076465
 10
6728.2618581379
 20
5325.0762395834
 10
6729.2043756248
 20
5324.9873851949
  0
LWPOLYLINE
  5
BC
330
1F
100
AcDbEntity
  8
0
  6
SLD-Plná
 62
     7
370
    25
100
AcDbPolyline
 90
       17
 70
   128
 43
0.0
 10
6718.4370900178
 20
5329.7373851958
 10
6718.912908207
 20
5329.6802948452
 10
6719.4561296185
 20
5329.5177152817
 10
6719.9840537166
 20
5329.2743977701
 10
6720.4163088431
 20
5328.9873851959
 10
6720.6870880734
 20
5328.7003726217
 10
6720.7551677242
 20
5328.4570551101
 10
6720.6101832859
 20
5328.2944755466
 10
6720.274207325
 20
5328.237385196
 10
6719.7983891357
 20
5328.2944755466
 10
6719.2551677242
 20
5328.4570551101
 10
6718.7272436261
 20
5328.7003726217
 10
6718.2949884996
 20
5328.9873851959
 10
6718.0242092693
 20
5329.2743977701
 10
6717.9561296185
 20
5329.5177152817
 10
6718.1011140568
 20
5329.6802948452
 10
6718.4370900178
 20
5329.7373851958
  0
LINE
  5
BD
330
1F
100
AcDbEntity
  8
0
  6
SLD-Plná
 62
     7
370
    25
100
AcDbLine
 10
6826.2922801531
 20
5130.6452711033
 30
0.0
 11
6654.2922801531
 21
5130.6452711033
 31
0.0
  0
LINE
  5
BE
330
1F
100
AcDbEntity
  8
0
  6
SLD-Plná
 62
     7
370
    25
100
AcDbLine
 10
6654.2922801531
 20
5130.6452711033
 30
0.0
 11
6655.7922801531
 21
5132.1452711033
 31
0.0
  0
LINE
  5
BF
330
1F
100
AcDbEntity
  8
0
  6
SLD-Plná
 62
     7
370
    25
100
AcDbLine
 10
6655.7922801531
 20
5132.1452711033
 30
0.0
 11
6826.2922801531
 21
5132.1452711033
 31
0.0
  0
LINE
  5
C0
330
1F
100
AcDbEntity
  8
0
  6
SLD-Plná
 62
     7
370
    25
100
AcDbLine
 10
6826.2922801531
 20
5130.6452711033
 30
0.0
 11
6826.2922801531
 21
5132.1452711033
 31
0.0
  0
LINE
  5
C1
330
1F
100
AcDbEntity
  8
0
  6
SLD-Plná
 62
     7
370
    25
100
AcDbLine
 10
6653.863149859
 20
5332.0952711033
 30
0.0
 11
6653.8922801531
 21
5332.0952711033
 31
0.0
  0
ARC
  5
C2
330
1F
100
AcDbEntity
  8
0
  6
SLD-Plná
 62
     7
370
    25
100
AcDbCircle
 10
6653.863149859
 20
5331.6952711033
 30
0.0
 40
0.4000000000006457
100
AcDbArc
 50
90.0
 51
186.8427734127
  0
LINE
  5
C3
330
1F
100
AcDbEntity
  8
0
  6
SLD-Plná
 62
     7
370
    25
100
AcDbLine
 10
6654.1922801531
 20
5325.5952711033
 30
0.0
 11
6653.4659991237
 21
5331.647613015
 31
0.0
  0
LINE
  5
C4
330
1F
100
AcDbEntity
  8
0
  6
SLD-Plná
 62
     7
370
    25
100
AcDbLine
 10
6655.2922801531
 20
5290.6452711033
 30
0.0
 11
6654.2922801531
 21
5290.6452711033
 31
0.0
  0
LINE
  5
C5
330
1F
100
AcDbEntity
  8
0
  6
SLD-Plná
 62
     7
370
    25
100
AcDbLine
 10
6654.2922801531
 20
5331.6952711033
 30
0.0
 11
6654.2922801531
 21
5290.6452711033
 31
0.0
  0
ARC
  5
C6
330
1F
100
AcDbEntity
  8
0
  6
SLD-Plná
 62
     7
370
    25
100
AcDbCircle
 10
6653.8922801531
 20
5331.6952711033
 30
0.0
 40
0.3999999999996362
100
AcDbArc
 50
0.0
 51
90.0
  0
LINE
  5
C7
330
1F
100
AcDbEntity
  8
0
  6
SLD-Plná
 62
     7
370
    25
100
AcDbLine
 10
6655.2922801531
 20
5290.6452711033
 30
0.0
 11
6655.2922801531
 21
5331.5952711033
 31
0.0
  0
ARC
  5
C8
330
1F
100
AcDbEntity
  8
0
  6
SLD-Plná
 62
     7
370
    25
100
AcDbCircle
 10
6653.7922801531
 20
5331.5952711033
 30
0.0
 40
1.5
100
AcDbArc
 50
0.0
 51
86.3542660436
  0
ARC
  5
C9
330
1F
100
AcDbEntity
  8
0
  6
SLD-Plná
 62
     7
370
    25
100
AcDbCircle
 10
6653.9830415505
 20
5331.5952711033
 30
0.0
 40
1.500000000000335
100
AcDbArc
 50
93.6457339565
 51
186.8427734127
  0
LINE
  5
CA
330
1F
100
AcDbEntity
  8
0
  6
SLD-Plná
 62
     7
370
    25
100
AcDbLine
 10
6652.4937262928
 20
5331.4165532724
 30
0.0
 11
6653.1922801531
 21
5325.5952711033
 31
0.0
  0
LINE
  5
CB
330
1F
100
AcDbEntity
  8
0
  6
SLD-Plná
 62
     7
370
    25
100
AcDbLine
 10
6653.1922801531
 20
5325.5952711033
 30
0.0
 11
6654.1922801531
 21
5325.5952711033
 31
0.0
  0
LINE
  5
CC
330
1F
100
AcDbEntity
  8
0
  6
SLD-Plná
 62
     7
370
    25
100
AcDbLine
 10
6654.2922801531
 20
5130.6452711033
 30
0.0
 11
6654.2922801531
 21
5290.6452711033
 31
0.0
  0
LINE
  5
CD
330
1F
100
AcDbEntity
  8
0
  6
SLD-Plná
 62
     7
370
    25
100
AcDbLine
 10
6654.2922801531
 20
5290.6452711033
 30
0.0
 11
6655.7922801531
 21
5289.1452711033
 31
0.0
  0
LINE
  5
CE
330
1F
100
AcDbEntity
  8
0
  6
SLD-Plná
 62
     7
370
    25
100
AcDbLine
 10
6655.7922801531
 20
5289.1452711033
 30
0.0
 11
6655.7922801531
 21
5132.1452711033
 31
0.0
  0
LINE
  5
CF
330
1F
100
AcDbEntity
  8
0
  6
SLD-Plná
 62
     7
370
    25
100
AcDbLine
 10
6826.2922801531
 20
5289.1452711033
 30
0.0
 11
6655.7922801531
 21
5289.1452711033
 31
0.0
  0
LINE
  5
D0
330
1F
100
AcDbEntity
  8
0
  6
SLD-Plná
 62
     7
370
    25
100
AcDbLine
 10
6826.2922801531
 20
5289.1452711033
 30
0.0
 11
6826.2922801531
 21
5132.1452711033
 31
0.0
  0
LINE
  5
D1
330
1F
100
AcDbEntity
  8
0
  6
SLD-Plná
 62
     7
370
    25
100
AcDbLine
 10
6655.2922801531
 20
5290.6452711033
 30
0.0
 11
6826.2922801531
 21
5290.6452711033
 31
0.0
  0
LINE
  5
D2
330
1F
100
AcDbEntity
  8
0
  6
SLD-Plná
 62
     7
370
    25
100
AcDbLine
 10
6826.2922801531
 20
5289.1452711033
 30
0.0
 11
6826.2922801531
 21
5290.6452711033
 31
0.0
  0
LINE
  5
D3
330
1F
100
AcDbEntity
  8
0
  6
SLD-Plná
 62
     7
370
    25
100
AcDbLine
 10
6826.2922801531
 20
5290.6452711033
 30
0.0
 11
6999.7922801531
 21
5290.6452711033
 31
0.0
  0
LINE
  5
D4
330
1F
100
AcDbEntity
  8
0
  6
SLD-Plná
 62
     7
370
    25
100
AcDbLine
 10
6999.7922801531
 20
5130.6452711033
 30
0.0
 11
6826.2922801531
 21
5130.6452711033
 31
0.0
  0
ARC
  5
D5
330
1F
100
AcDbEntity
  8
0
  6
SLD-Plná
 62
     7
370
    25
100
AcDbCircle
 10
6656.7922801531
 20
5292.1452711033
 30
0.0
 40
1.5
100
AcDbArc
 50
180.0
 51
270.0
  0
LINE
  5
D6
330
1F
100
AcDbEntity
  8
0
  6
SLD-Plná
 62
     8
370
    25
100
AcDbLine
 10
7001.2922801531
 20
5289.1452711033
 30
0.0
 11
6826.2922801531
 21
5289.1452711033
 31
0.0
  0
LINE
  5
D7
330
1F
100
AcDbEntity
  8
0
  6
SLD-Plná
 62
     8
370
    25
100
AcDbLine
 10
6826.2922801531
 20
5132.1452711033
 30
0.0
 11
7001.2922801531
 21
5132.1452711033
 31
0.0
  0
LINE
  5
D8
330
1F
100
AcDbEntity
  8
0
  6
SLD-Plná
 62
     7
370
    25
100
AcDbLine
 10
6394.0639547634
 20
4842.4200854135
 30
0.0
 11
6389.6597565634
 21
4838.0158872135
 31
0.0
  0
LINE
  5
D9
330
1F
100
AcDbEntity
  8
0
  6
SLD-Plná
 62
     7
370
    25
100
AcDbLine
 10
6412.2871735614
 20
4815.3884702155
 30
0.0
 11
6416.6913717614
 21
4819.7926684155
 31
0.0
  0
LINE
  5
DA
330
1F
100
AcDbEntity
  8
0
  6
SLD-Plná
 62
     7
370
    25
100
AcDbLine
 10
6442.6704193611
 20
4896.0471375311
 30
0.0
 11
6092.6704193611
 21
4896.0471375311
 31
0.0
  0
LINE
  5
DB
330
1F
100
AcDbEntity
  8
0
  6
SLD-Plná
 62
     7
370
    25
100
AcDbLine
 10
6272.4616222372
 20
4721.3378989286
 30
0.0
 11
6262.879216485
 21
4721.3378989286
 31
0.0
  0
ARC
  5
DC
330
1F
100
AcDbEntity
  8
0
  6
SLD-Plná
 62
     7
370
    25
100
AcDbCircle
 10
6267.6704193611
 20
4722.2378989286
 30
0.0
 40
4.875000000000435
100
AcDbArc
 50
190.638709315
 51
349.361290685
  0
ARC
  5
DD
330
1F
100
AcDbEntity
  8
0
  6
SLD-Plná
 62
     7
370
    25
100
AcDbCircle
 10
6267.6704193611
 20
4722.2378989286
 30
0.0
 40
4.875000000000267
100
AcDbArc
 50
10.638709315
 51
169.361290685
  0
LINE
  5
DE
330
1F
100
AcDbEntity
  8
0
  6
SLD-Plná
 62
     7
370
    25
100
AcDbLine
 10
6262.879216485
 20
4723.1378989286
 30
0.0
 11
6272.4616222372
 21
4723.1378989286
 31
0.0
  0
ARC
  5
DF
330
1F
100
AcDbEntity
  8
0
  6
SLD-Plná
 62
     7
370
    25
100
AcDbCircle
 10
6267.6704193611
 20
4722.2378989286
 30
0.0
 40
4.562500000000086
100
AcDbArc
 50
348.6232071507
 51
11.3767928492
  0
ARC
  5
E0
330
1F
100
AcDbEntity
  8
0
  6
SLD-Plná
 62
     7
370
    25
100
AcDbCircle
 10
6267.6704193611
 20
4722.2378989286
 30
0.0
 40
4.562500000000086
100
AcDbArc
 50
168.6232071508
 51
191.3767928493
  0
ARC
  5
E1
330
1F
100
AcDbEntity
  8
0
  6
SLD-Plná
 62
     7
370
    25
100
AcDbCircle
 10
6405.5521954524
 20
4831.2809091045
 30
0.0
 40
16.00000000000063
100
AcDbArc
 50
314.5613567822
 51
135.4386147785
  0
LINE
  5
E2
330
1F
100
AcDbEntity
  8
0
  6
SLD-Plná
 62
     7
370
    25
100
AcDbLine
 10
6400.3431595437
 20
4842.0751465958
 30
0.0
 11
6416.3464329437
 21
4826.0718731958
 31
0.0
  0
ELLIPSE
  5
E3
330
1F
100
AcDbEntity
  8
0
  6
SLD-Plná
 62
     7
370
    25
100
AcDbEllipse
 10
6396.651971828
 20
4822.3806854801
 30
0.0
 11
16.53953534574794
 21
16.53953534574703
 31
0.0
210
0.0
220
0.0
230
1.0
 40
0.6840402867
 41
5.497582535349159
 42
7.068788079010135
  0
ELLIPSE
  5
E4
330
1F
100
AcDbEntity
  8
0
  6
SLD-Plná
 62
     7
370
    25
100
AcDbEllipse
 10
6400.9734650624
 20
4826.7021787145
 30
0.0
 11
11.31370849898485
 21
-11.31370849898485
 31
0.0
210
0.0
220
0.0
230
1.0
 40
0.9216049851
 41
2.356399098625425
 42
7.068378862144014
  0
ELLIPSE
  5
E5
330
1F
100
AcDbEntity
  8
0
  6
SLD-Plná
 62
     7
370
    25
100
AcDbEllipse
 10
6405.3776632624
 20
4831.1063769145
 30
0.0
 11
11.48824068898739
 21
11.48824068898739
 31
0.0
210
0.0
220
0.0
230
1.0
 40
0.984807753
 41
4.712388980384782
 42
6.283185307179586
  0
ELLIPSE
  5
E6
330
1F
100
AcDbEntity
  8
0
  6
SLD-Plná
 62
     7
370
    25
100
AcDbEllipse
 10
6405.3776632624
 20
4831.1063769145
 30
0.0
 11
11.48824068898739
 21
11.48824068898739
 31
0.0
210
0.0
220
0.0
230
1.0
 40
0.984807753
 41
0.0
 42
1.570796326794936
  0
LWPOLYLINE
  5
E7
330
1F
100
AcDbEntity
  8
0
  6
SLD-Plná
 62
     7
370
    25
100
AcDbPolyline
 90
       17
 70
   128
 43
0.0
 10
6402.5272581046
 20
4828.2559717567
 10
6402.1912821436
 20
4828.7317899459
 10
6402.0462977053
 20
4829.2750113574
 10
6402.1143773561
 20
4829.8029354555
 10
6402.3851565863
 20
4830.235190582
 10
6402.8174117128
 20
4830.5059698123
 10
6403.345335811
 20
4830.5740494631
 10
6403.8885572224
 20
4830.4290650248
 10
6404.3643754117
 20
4830.0930890638
 10
6404.7003513727
 20
4829.6172708746
 10
6404.845335811
 20
4829.0740494631
 10
6404.7772561602
 20
4828.546125365
 10
6404.5064769299
 20
4828.1138702385
 10
6404.0742218034
 20
4827.8430910082
 10
6403.5462977053
 20
4827.7750113574
 10
6403.0030762938
 20
4827.9199957957
 10
6402.5272581046
 20
4828.2559717567
  0
LWPOLYLINE
  5
E8
330
1F
100
AcDbEntity
  8
0
  6
SLD-Plná
 62
     7
370
    25
100
AcDbPolyline
 90
       22
 70
   128
 43
0.0
 10
6408.3955642264
 20
4824.2247829419
 10
6407.4530467394
 20
4824.9496525159
 10
6406.3766281543
 20
4825.3924663341
 10
6405.261952986
 20
4825.5138784455
 10
6404.2080650151
 20
4825.3031008513
 10
6403.3086068125
 20
4824.7788620657
 10
6402.6434991869
 20
4823.9877430054
 10
6402.2718398695
 20
4823.0000380706
 10
6402.2266524217
 20
4821.9035091792
 10
6402.5119519464
 20
4820.7955877354
 10
6403.1023883291
 20
4819.7747174214
 10
6403.9454987058
 20
4818.9316070446
 10
6404.9663690199
 20
4818.341170662
 10
6406.0742904637
 20
4818.0558711372
 10
6407.170819355
 20
4818.101058585
 10
6408.1585242899
 20
4818.4727179024
 10
6408.9496433502
 20
4819.137825528
 10
6409.4738821358
 20
4820.0372837306
 10
6409.68465973
 20
4821.0911717016
 10
6409.5632476186
 20
4822.2058468698
 10
6409.1204338004
 20
4823.282265455
 10
6408.3955642264
 20
4824.2247829419
  0
LWPOLYLINE
  5
E9
330
1F
100
AcDbEntity
  8
0
  6
SLD-Plná
 62
     7
370
    25
100
AcDbPolyline
 90
       22
 70
   128
 43
0.0
 10
6398.5158783927
 20
4834.1044687757
 10
6397.5733609057
 20
4834.8293383496
 10
6396.4969423205
 20
4835.2721521678
 10
6395.3822671523
 20
4835.3935642793
 10
6394.3283791813
 20
4835.1827866851
 10
6393.4289209788
 20
4834.6585478995
 10
6392.7638133531
 20
4833.8674288391
 10
6392.3921540357
 20
4832.8797239043
 10
6392.3469665879
 20
4831.783195013
 10
6392.6322661127
 20
4830.6752735691
 10
6393.2227024953
 20
4829.6544032551
 10
6394.0658128721
 20
4828.8112928783
 10
6395.0866831861
 20
4828.2208564957
 10
6396.1946046299
 20
4827.9355569709
 10
6397.2911335213
 20
4827.9807444187
 10
6398.2788384561
 20
4828.3524037361
 10
6399.0699575165
 20
4829.0175113618
 10
6399.5941963021
 20
4829.9169695643
 10
6399.8049738963
 20
4830.9708575353
 10
6399.6835617848
 20
4832.0855327036
 10
6399.2407479666
 20
4833.1619512887
 10
6398.5158783927
 20
4834.1044687757
  0
LWPOLYLINE
  5
EA
330
1F
100
AcDbEntity
  8
0
  6
SLD-Plná
 62
     7
370
    25
100
AcDbPolyline
 90
       17
 70
   128
 43
0.0
 10
6395.7911613119
 20
4821.5198749641
 10
6394.9981309965
 20
4822.079834899
 10
6394.0927619774
 20
4822.3214756295
 10
6393.2128884805
 20
4822.2080095449
 10
6392.4924632697
 20
4821.7567108278
 10
6392.0411645527
 20
4821.036285617
 10
6391.927698468
 20
4820.1564121201
 10
6392.1693391985
 20
4819.251043101
 10
6392.7292991335
 20
4818.4580127856
 10
6393.5223294488
 20
4817.8980528506
 10
6394.427698468
 20
4817.6564121201
 10
6395.3075719648
 20
4817.7698782048
 10
6396.0279971757
 20
4818.2211769219
 10
6396.4792958927
 20
4818.9416021327
 10
6396.5927619774
 20
4819.8214756295
 10
6396.3511212469
 20
4820.7268446487
 10
6395.7911613119
 20
4821.5198749641
  0
LWPOLYLINE
  5
EB
330
1F
100
AcDbEntity
  8
0
  6
SLD-Plná
 62
     7
370
    25
100
AcDbPolyline
 90
       22
 70
   128
 43
0.0
 10
6393.6168989075
 20
4829.2054892905
 10
6394.5594163945
 20
4828.4806197166
 10
6395.6358349796
 20
4828.0378058983
 10
6396.7505101478
 20
4827.9163937868
 10
6397.8043981186
 20
4828.1271713809
 10
6398.7038563211
 20
4828.6514101664
 10
6399.3689639466
 20
4829.4425292266
 10
6399.7406232639
 20
4830.4302341613
 10
6399.7858107116
 20
4831.5267630526
 10
6399.5005111867
 20
4832.6346844963
 10
6398.9100748041
 20
4833.6555548103
 10
6398.0669644273
 20
4834.4986651871
 10
6397.0460941133
 20
4835.0891015697
 10
6395.9381726696
 20
4835.3744010946
 10
6394.8416437783
 20
4835.3292136469
 10
6393.8539388436
 20
4834.9575543296
 10
6393.0628197834
 20
4834.2924467041
 10
6392.5385809979
 20
4833.3929885016
 10
6392.3278034038
 20
4832.3391005308
 10
6392.4492155153
 20
4831.2244253626
 10
6392.8920293336
 20
4830.1480067775
 10
6393.6168989075
 20
4829.2054892905
  0
LWPOLYLINE
  5
EC
330
1F
100
AcDbEntity
  8
0
  6
SLD-Plná
 62
     7
370
    25
100
AcDbPolyline
 90
       22
 70
   128
 43
0.0
 10
6403.4965847413
 20
4819.3258034568
 10
6404.4391022282
 20
4818.6009338828
 10
6405.5155208134
 20
4818.1581200646
 10
6406.6301959815
 20
4818.036707953
 10
6407.6840839524
 20
4818.2474855471
 10
6408.5835421548
 20
4818.7717243326
 10
6409.2486497803
 20
4819.5628433929
 10
6409.6203090976
 20
4820.5505483276
 10
6409.6654965453
 20
4821.6470772188
 10
6409.3801970205
 20
4822.7549986626
 10
6408.7897606378
 20
4823.7758689766
 10
6407.946650261
 20
4824.6189793533
 10
6406.9257799471
 20
4825.209415736
 10
6405.8178585033
 20
4825.4947152609
 10
6404.7213296121
 20
4825.4495278131
 10
6403.7336246774
 20
4825.0778684958
 10
6402.9425056171
 20
4824.4127608703
 10
6402.4182668316
 20
4823.5133026679
 10
6402.2074892375
 20
4822.459414697
 10
6402.3289013491
 20
4821.3447395289
 10
6402.7717151673
 20
4820.2683209438
 10
6403.4965847413
 20
4819.3258034568
  0
LWPOLYLINE
  5
ED
330
1F
100
AcDbEntity
  8
0
  6
SLD-Plná
 62
     7
370
    25
100
AcDbPolyline
 90
       17
 70
   128
 43
0.0
 10
6404.3643754117
 20
4830.0930890638
 10
6404.7003513727
 20
4829.6172708746
 10
6404.845335811
 20
4829.0740494631
 10
6404.7772561602
 20
4828.546125365
 10
6404.5064769299
 20
4828.1138702385
 10
6404.0742218034
 20
4827.8430910082
 10
6403.5462977053
 20
4827.7750113574
 10
6403.0030762938
 20
4827.9199957957
 10
6402.5272581045
 20
4828.2559717567
 10
6402.1912821435
 20
4828.7317899459
 10
6402.0462977053
 20
4829.2750113574
 10
6402.1143773561
 20
4829.8029354555
 10
6402.3851565863
 20
4830.235190582
 10
6402.8174117129
 20
4830.5059698123
 10
6403.345335811
 20
4830.5740494631
 10
6403.8885572225
 20
4830.4290650248
 10
6404.3643754117
 20
4830.0930890638
  0
LINE
  5
EE
330
1F
100
AcDbEntity
  8
0
  6
SLD-Plná
 62
     7
370
    25
100
AcDbLine
 10
6442.6704193611
 20
4894.6425182298
 30
0.0
 11
6092.6704193611
 21
4894.6425182298
 31
0.0
  0
LINE
  5
EF
330
1F
100
AcDbEntity
  8
0
  6
SLD-Plná
 62
     7
370
    25
100
AcDbLine
 10
6442.6704193611
 20
4893.2378989286
 30
0.0
 11
6442.6704193611
 21
4894.6425182298
 31
0.0
  0
LINE
  5
F0
330
1F
100
AcDbEntity
  8
0
  6
SLD-Plná
 62
     7
370
    25
100
AcDbLine
 10
6442.6704193611
 20
4893.2378989286
 30
0.0
 11
6092.6704193611
 21
4893.2378989286
 31
0.0
  0
LINE
  5
F1
330
1F
100
AcDbEntity
  8
0
  6
SLD-Plná
 62
     7
370
    25
100
AcDbLine
 10
6092.6704193611
 20
4893.2378989286
 30
0.0
 11
6092.6704193611
 21
4894.6425182298
 31
0.0
  0
LINE
  5
F2
330
1F
100
AcDbEntity
  8
0
  6
SLD-Plná
 62
     7
370
    25
100
AcDbLine
 10
6442.6704193611
 20
4894.6425182298
 30
0.0
 11
6442.6704193611
 21
4896.0471375311
 31
0.0
  0
LINE
  5
F3
330
1F
100
AcDbEntity
  8
0
  6
SLD-Plná
 62
     7
370
    25
100
AcDbLine
 10
6092.6704193611
 20
4894.6425182298
 30
0.0
 11
6092.6704193611
 21
4896.0471375311
 31
0.0
  0
LINE
  5
F4
330
1F
100
AcDbEntity
  8
0
  6
SLD-Plná
 62
     7
370
    25
100
AcDbLine
 10
6441.0704193611
 20
4891.7378989286
 30
0.0
 11
6094.2704193611
 21
4891.7378989286
 31
0.0
  0
LINE
  5
F5
330
1F
100
AcDbEntity
  8
0
  6
SLD-Plná
 62
     7
370
    25
100
AcDbLine
 10
6094.2704193611
 20
4893.2378989286
 30
0.0
 11
6094.2704193611
 21
4891.7378989286
 31
0.0
  0
LINE
  5
F6
330
1F
100
AcDbEntity
  8
0
  6
SLD-Plná
 62
     7
370
    25
100
AcDbLine
 10
6441.0704193611
 20
4893.2378989286
 30
0.0
 11
6441.0704193611
 21
4891.7378989286
 31
0.0
  0
LINE
  5
F7
330
1F
100
AcDbEntity
  8
0
  6
SLD-Plná
 62
     7
370
    25
100
AcDbLine
 10
6442.6704193611
 20
4892.7378989286
 30
0.0
 11
6442.6704193611
 21
4722.2378989286
 31
0.0
  0
LINE
  5
F8
330
1F
100
AcDbEntity
  8
0
  6
SLD-Plná
 62
     7
370
    25
100
AcDbLine
 10
6442.6704193611
 20
4722.2378989286
 30
0.0
 11
6441.1704193611
 21
4722.2378989286
 31
0.0
  0
LINE
  5
F9
330
1F
100
AcDbEntity
  8
0
  6
SLD-Plná
 62
     7
370
    25
100
AcDbLine
 10
6441.1704193611
 20
4722.2378989286
 30
0.0
 11
6441.1704193611
 21
4893.2378989286
 31
0.0
  0
ARC
  5
FA
330
1F
100
AcDbEntity
  8
0
  6
SLD-Plná
 62
     7
370
    25
100
AcDbCircle
 10
6441.1704193611
 20
4892.7378989286
 30
0.0
 40
1.5
100
AcDbArc
 50
0.0
 51
19.4712206345
  0
CIRCLE
  5
FB
330
1F
100
AcDbEntity
  8
0
  6
SLD-Plná
 62
     7
370
    25
100
AcDbCircle
 10
6267.6704193611
 20
4722.2378989286
 30
0.0
 40
141.8602660434444
  0
CIRCLE
  5
FC
330
1F
100
AcDbEntity
  8
0
  6
SLD-Plná
 62
     7
370
    25
100
AcDbCircle
 10
6267.6704193611
 20
4722.2378989286
 30
0.0
 40
144.3225554097489
  0
ARC
  5
FD
330
1F
100
AcDbEntity
  8
0
  6
SLD-Plná
 62
     7
370
    25
100
AcDbCircle
 10
6267.6704193611
 20
4722.2378989286
 30
0.0
 40
173.5000000000009
100
AcDbArc
 50
180.0
 51
0.0
  0
LINE
  5
FE
330
1F
100
AcDbEntity
  8
0
  6
SLD-Plná
 62
     7
370
    25
100
AcDbLine
 10
6094.1704193611
 20
4893.2378989286
 30
0.0
 11
6094.1704193611
 21
4722.2378989286
 31
0.0
  0
LINE
  5
FF
330
1F
100
AcDbEntity
  8
0
  6
SLD-Plná
 62
     7
370
    25
100
AcDbLine
 10
6092.6704193611
 20
4722.2378989286
 30
0.0
 11
6094.1704193611
 21
4722.2378989286
 31
0.0
  0
LINE
  5
100
330
1F
100
AcDbEntity
  8
0
  6
SLD-Plná
 62
     7
370
    25
100
AcDbLine
 10
6092.6704193611
 20
4722.2378989286
 30
0.0
 11
6092.6704193611
 21
4892.7378989286
 31
0.0
  0
ARC
  5
101
330
1F
100
AcDbEntity
  8
0
  6
SLD-Plná
 62
     7
370
    25
100
AcDbCircle
 10
6094.1704193611
 20
4892.7378989286
 30
0.0
 40
1.500000000000225
100
AcDbArc
 50
160.5287793655
 51
180.0
  0
ARC
  5
102
330
1F
100
AcDbEntity
  8
0
  6
SLD-Plná
 62
     7
370
    25
100
AcDbCircle
 10
6267.6704193611
 20
4722.2378989286
 30
0.0
 40
175.0000000000009
100
AcDbArc
 50
180.0
 51
0.0
  0
ARC
  5
103
330
1F
100
AcDbEntity
  8
0
  6
SLD-Plná
 62
     7
370
    25
100
AcDbCircle
 10
6267.6704193611
 20
4722.2378989286
 30
0.0
 40
4.600000000000771
100
AcDbArc
 50
168.717175712
 51
191.282824288
  0
ARC
  5
104
330
1F
100
AcDbEntity
  8
0
  6
SLD-Plná
 62
     7
370
    25
100
AcDbCircle
 10
6267.6704193611
 20
4722.2378989286
 30
0.0
 40
4.599999999998987
100
AcDbArc
 50
348.717175712
 51
11.282824288
  0
SPLINE
  5
105
330
1F
100
AcDbEntity
  8
0
  6
SLD-Plná
 62
     7
370
    25
100
AcDbSpline
210
0.0
220
0.0
230
1.0
 70
    11
 71
     3
 72
    26
 73
    22
 74
     0
 42
0.00000001
 43
0.00000001
 40
0.0
 40
0.0
 40
0.0
 40
0.0
 40
0.05356966484731
 40
0.1071378406030069
 40
0.1607490568822125
 40
0.2144510879161738
 40
0.2682383244952446
 40
0.3220678250395655
 40
0.3758778495403994
 40
0.4296150357974585
 40
0.483258106446793
 40
0.5368272487212516
 40
0.5903750146117264
 40
0.6439631391414673
 40
0.6976356399715525
 40
0.7513996980887567
 40
0.8052224135027368
 40
0.8590450361222179
 40
0.9128087741867592
 40
0.9664807974787892
 40
0.9999999999999999
 40
0.9999999999999999
 40
0.9999999999999999
 40
0.9999999999999999
 10
6276.933518195459
 20
4712.974800095856
 30
0.0
 10
6277.291062306521
 20
4713.268397547182
 30
0.0
 10
6278.006140589885
 20
4713.855584288619
 30
0.0
 10
6279.371277784156
 20
4714.223942463718
 30
0.0
 10
6280.765149881604
 20
4714.149455531226
 30
0.0
 10
6282.061510524629
 20
4713.610017678645
 30
0.0
 10
6283.106191136252
 20
4712.67288545699
 30
0.0
 10
6283.782173728653
 20
4711.440899582683
 30
0.0
 10
6284.011367271904
 20
4710.054344909739
 30
0.0
 10
6283.768086362488
 20
4708.670932711853
 30
0.0
 10
6283.081028217838
 20
4707.447490026501
 30
0.0
 10
6282.02904810055
 20
4706.521260107881
 30
0.0
 10
6280.730901178412
 20
4705.995135601294
 30
0.0
 10
6279.331719393564
 20
4705.927499595465
 30
0.0
 10
6277.987837112299
 20
4706.326474036179
 30
0.0
 10
6276.850343830714
 20
4707.148708465897
 30
0.0
 10
6276.048994679487
 20
4708.302089592984
 30
0.0
 10
6275.674118885739
 20
4709.657998921347
 30
0.0
 10
6275.774083262019
 20
4711.055433028515
 30
0.0
 10
6276.248166139654
 20
4712.197850653134
 30
0.0
 10
6276.743207758543
 20
4712.759054645536
 30
0.0
 10
6276.933518195459
 20
4712.974800095856
 30
0.0
  0
SPLINE
  5
106
330
1F
100
AcDbEntity
  8
0
  6
SLD-Plná
 62
     7
370
    25
100
AcDbSpline
210
0.0
220
0.0
230
1.0
 70
    11
 71
     3
 72
    26
 73
    22
 74
     0
 42
0.00000001
 43
0.00000001
 40
0.0
 40
0.0
 40
0.0
 40
0.0
 40
0.053758893034157
 40
0.107515433375716
 40
0.161324334794564
 40
0.215154201733805
 40
0.2689430661204341
 40
0.3226469021011008
 40
0.3762591774803749
 40
0.429813632510102
 40
0.4833692252187647
 40
0.5369842572237994
 40
0.59069103248097
 40
0.6444817868912973
 40
0.6983119184869712
 40
0.7521194097438944
 40
0.805852167435657
 40
0.8594910546919452
 40
0.9130581702041461
 40
0.9666068712871008
 40
1.0
 40
1.0
 40
1.0
 40
1.0
 10
6281.994830503752
 20
4725.160395930036
 30
0.0
 10
6282.355699738405
 20
4725.451712404321
 30
0.0
 10
6283.077422414706
 20
4726.034332603779
 30
0.0
 10
6284.449116580299
 20
4726.390804204547
 30
0.0
 10
6285.845577247862
 20
4726.302119488432
 30
0.0
 10
6287.138735513104
 20
4725.747380568095
 30
0.0
 10
6288.173532134946
 20
4724.797410873261
 30
0.0
 10
6288.834792626483
 20
4723.558553589384
 30
0.0
 10
6289.04825726446
 20
4722.172341699912
 30
0.0
 10
6288.791552080496
 20
4720.794850988076
 30
0.0
 10
6288.094346334348
 20
4719.580089061028
 30
0.0
 10
6287.034532173418
 20
4718.663643112621
 30
0.0
 10
6285.73006317013
 20
4718.14872838077
 30
0.0
 10
6284.327096939714
 20
4718.094647513775
 30
0.0
 10
6282.984407376189
 20
4718.50889092853
 30
0.0
 10
6281.85478059643
 20
4719.34515708795
 30
0.0
 10
6281.067004643174
 20
4720.507540029888
 30
0.0
 10
6280.707992519921
 20
4721.865298522024
 30
0.0
 10
6280.822255762995
 20
4723.258262666156
 30
0.0
 10
6281.305712864367
 20
4724.392264486901
 30
0.0
 10
6281.803599341041
 20
4724.947238320086
 30
0.0
 10
6281.994830503752
 20
4725.160395930036
 30
0.0
  0
SPLINE
  5
107
330
1F
100
AcDbEntity
  8
0
  6
SLD-Plná
 62
     7
370
    25
100
AcDbSpline
210
0.0
220
0.0
230
1.0
 70
    11
 71
     3
 72
    26
 73
    22
 74
     0
 42
0.00000001
 43
0.00000001
 40
0.0
 40
0.0
 40
0.0
 40
0.0
 40
0.0538071611491486
 40
0.1076158643463516
 40
0.1613800744004097
 40
0.2150524772032027
 40
0.2686403342244674
 40
0.3221880260003122
 40
0.3757573634640373
 40
0.4294005703084935
 40
0.4831376074843782
 40
0.5369474167064126
 40
0.5907769476910191
 40
0.6445643720043447
 40
0.6982664001994007
 40
0.751877377260376
 40
0.8054315513957294
 40
0.858987813358912
 40
0.912603989652428
 40
0.9663118353837171
 40
1.0
 40
1.0
 40
1.0
 40
1.0
 10
6276.958635543395
 20
4737.324174967828
 30
0.0
 10
6277.319725927809
 20
4737.615367989222
 30
0.0
 10
6278.041917045053
 20
4738.197762377251
 30
0.0
 10
6279.414895068096
 20
4738.553550871583
 30
0.0
 10
6280.811496858703
 20
4738.46337081039
 30
0.0
 10
6282.102618774848
 20
4737.908163946947
 30
0.0
 10
6283.134880865452
 20
4736.96010652219
 30
0.0
 10
6283.795425108117
 20
4735.724560221099
 30
0.0
 10
6284.010490652176
 20
4734.340536354216
 30
0.0
 10
6283.755928478889
 20
4732.962383114792
 30
0.0
 10
6283.059069285048
 20
4731.744749147363
 30
0.0
 10
6281.997130564652
 20
4730.825621353149
 30
0.0
 10
6280.689723919797
 20
4730.310158917579
 30
0.0
 10
6279.285484982335
 20
4730.257393963495
 30
0.0
 10
6277.944189802836
 20
4730.672667260383
 30
0.0
 10
6276.817222353105
 20
4731.50777224066
 30
0.0
 10
6276.030895673429
 20
4732.667048933477
 30
0.0
 10
6275.670901662461
 20
4734.022007552241
 30
0.0
 10
6275.782949331149
 20
4735.414679811061
 30
0.0
 10
6276.265835989923
 20
4736.552024606236
 30
0.0
 10
6276.765884133804
 20
4737.109346494185
 30
0.0
 10
6276.958635543395
 20
4737.324174967828
 30
0.0
  0
SPLINE
  5
108
330
1F
100
AcDbEntity
  8
0
  6
SLD-Plná
 62
     7
370
    25
100
AcDbSpline
210
0.0
220
0.0
230
1.0
 70
    11
 71
     3
 72
    26
 73
    22
 74
     0
 42
0.00000001
 43
0.00000001
 40
0.0
 40
0.0
 40
0.0
 40
0.0
 40
0.0536194288228237
 40
0.1072412225944877
 40
0.1608105154518505
 40
0.2143581249611308
 40
0.267945797008471
 40
0.3216177014171716
 40
0.3753812341546264
 40
0.4292036801532184
 40
0.4830263625805894
 40
0.5367904175851449
 40
0.5904628291857342
 40
0.6440509208438576
 40
0.6975988723948103
 40
0.7511681902631113
 40
0.804810968089391
 40
0.8585473639278267
 40
0.9123567172059125
 40
0.9661862601349677
 40
1.0
 40
1.0
 40
1.0
 40
1.0
 10
6264.784136824906
 20
4742.349835246786
 30
0.0
 10
6265.143048693473
 20
4742.641923171513
 30
0.0
 10
6265.860888260846
 20
4743.226111903852
 30
0.0
 10
6267.228760093635
 20
4743.588479242301
 30
0.0
 10
6268.622514929801
 20
4743.507061720989
 30
0.0
 10
6269.91476735582
 20
4742.962057601885
 30
0.0
 10
6270.95324363008
 20
4742.022696684903
 30
0.0
 10
6271.623637369495
 20
4740.79136087113
 30
0.0
 10
6271.848964077667
 20
4739.406156504742
 30
0.0
 10
6271.602435660867
 20
4738.0231218835
 30
0.0
 10
6270.911006394255
 20
4736.799539494683
 30
0.0
 10
6269.853333431419
 20
4735.874723774045
 30
0.0
 10
6268.550195282613
 20
4735.353080745663
 30
0.0
 10
6267.149433222688
 20
4735.292203107434
 30
0.0
 10
6265.80845251614
 20
4735.697485028159
 30
0.0
 10
6264.67682576817
 20
4736.523066316116
 30
0.0
 10
6263.881489935594
 20
4737.676505285505
 30
0.0
 10
6263.510994128513
 20
4739.031032564338
 30
0.0
 10
6263.614206513786
 20
4740.427694714944
 30
0.0
 10
6264.092123891014
 20
4741.571543688335
 30
0.0
 10
6264.59147982725
 20
4742.133158205636
 30
0.0
 10
6264.784136824906
 20
4742.349835246786
 30
0.0
  0
SPLINE
  5
109
330
1F
100
AcDbEntity
  8
0
  6
SLD-Plná
 62
     7
370
    25
100
AcDbSpline
210
0.0
220
0.0
230
1.0
 70
    11
 71
     3
 72
    26
 73
    22
 74
     0
 42
0.00000001
 43
0.00000001
 40
0.0
 40
0.0
 40
0.0
 40
0.0
 40
0.0536047210207878
 40
0.1072071498641517
 40
0.1608698090471785
 40
0.2146252617456462
 40
0.2684443811852555
 40
0.3222700262376486
 40
0.3760420932417371
 40
0.4297240934865711
 40
0.4833192011578435
 40
0.5368686048876258
 40
0.5904332580329912
 40
0.6440673478508646
 40
0.69779486983486
 40
0.7515991064697828
 40
0.8054296199416021
 40
0.8592241700167917
 40
0.9129362080791238
 40
0.9665555647369113
 40
1.0
 40
1.0
 40
1.0
 40
1.0
 10
6253.230182700856
 20
4737.809052679171
 30
0.0
 10
6253.638350678385
 20
4738.027362579522
 30
0.0
 10
6254.454669179879
 20
4738.463973045132
 30
0.0
 10
6255.866029531198
 20
4738.558684008665
 30
0.0
 10
6257.219189223302
 20
4738.213100707518
 30
0.0
 10
6258.385764353317
 20
4737.429973685945
 30
0.0
 10
6259.227154637964
 20
4736.305762028355
 30
0.0
 10
6259.648658527965
 20
4734.964904011961
 30
0.0
 10
6259.601676990214
 20
4733.56065431905
 30
0.0
 10
6259.092490647405
 20
4732.252427211333
 30
0.0
 10
6258.180012613459
 20
4731.187707069953
 30
0.0
 10
6256.967890466912
 20
4730.485187644858
 30
0.0
 10
6255.592057460218
 20
4730.222720506102
 30
0.0
 10
6254.206095898557
 20
4730.429800638669
 30
0.0
 10
6252.965383420335
 20
4731.084279395484
 30
0.0
 10
6252.010289486921
 20
4732.113939021276
 30
0.0
 10
6251.450306428716
 20
4733.402419412721
 30
0.0
 10
6251.348475206264
 20
4734.805362439387
 30
0.0
 10
6251.720058898791
 20
4736.155488012127
 30
0.0
 10
6252.407778994226
 20
4737.18189573396
 30
0.0
 10
6253.001942453951
 20
4737.634998920817
 30
0.0
 10
6253.230182700856
 20
4737.809052679171
 30
0.0
  0
SPLINE
  5
10A
330
1F
100
AcDbEntity
  8
0
  6
SLD-Plná
 62
     7
370
    25
100
AcDbSpline
210
0.0
220
0.0
230
1.0
 70
    11
 71
     3
 72
    26
 73
    22
 74
     0
 42
0.00000001
 43
0.00000001
 40
0.0
 40
0.0
 40
0.0
 40
0.0
 40
0.0537562068349924
 40
0.1075100238238314
 40
0.1613172360448491
 40
0.2151474167966037
 40
0.2689384891421669
 40
0.3226456009169248
 40
0.3762609071995882
 40
0.429816813231894
 40
0.4833715113559089
 40
0.5369835592148939
 40
0.5906865517167923
 40
0.6444745061411338
 40
0.698304200389341
 40
0.7521138427318979
 40
0.8058502744076995
 40
0.8594925869960599
 40
0.9130613368302134
 40
0.9666092822105808
 40
1.0
 40
1.0
 40
1.0
 40
1.0
 10
6247.558483042832
 20
4725.124181464713
 30
0.0
 10
6247.915666850861
 20
4725.419983085229
 30
0.0
 10
6248.630018587557
 20
4726.011573175776
 30
0.0
 10
6249.997090565524
 20
4726.385190792062
 30
0.0
 10
6251.394512976354
 20
4726.314029852927
 30
0.0
 10
6252.694517991822
 20
4725.775569034841
 30
0.0
 10
6253.741170101787
 20
4724.838645765461
 30
0.0
 10
6254.417937384942
 20
4723.608134270007
 30
0.0
 10
6254.648757288354
 20
4722.224645960908
 30
0.0
 10
6254.409297820645
 20
4720.844007193067
 30
0.0
 10
6253.727329947239
 20
4719.620614416498
 30
0.0
 10
6252.679083082857
 20
4718.691007078244
 30
0.0
 10
6251.381217410971
 20
4718.15982542191
 30
0.0
 10
6249.979099605861
 20
4718.08816559325
 30
0.0
 10
6248.631348612163
 20
4718.485519367111
 30
0.0
 10
6247.491305673992
 20
4719.307548983512
 30
0.0
 10
6246.688985156936
 20
4720.460000379225
 30
0.0
 10
6246.312976754927
 20
4721.813214584149
 30
0.0
 10
6246.409805461512
 20
4723.207543658308
 30
0.0
 10
6246.879047414554
 20
4724.347508862476
 30
0.0
 10
6247.369943526223
 20
4724.908659241716
 30
0.0
 10
6247.558483042832
 20
4725.124181464713
 30
0.0
  0
SPLINE
  5
10B
330
1F
100
AcDbEntity
  8
0
  6
SLD-Plná
 62
     7
370
    25
100
AcDbSpline
210
0.0
220
0.0
230
1.0
 70
    11
 71
     3
 72
    26
 73
    22
 74
     0
 42
0.00000001
 43
0.00000001
 40
0.0
 40
0.0
 40
0.0
 40
0.0
 40
0.053809311984088
 40
0.107620090096778
 40
0.1613880879382184
 40
0.2150651672522182
 40
0.2686566289733301
 40
0.3222052237837725
 40
0.3757722233381203
 40
0.4294107677072249
 40
0.4831428917530598
 40
0.5369498406959954
 40
0.5907799501671049
 40
0.644571120994003
 40
0.6982782670654966
 40
0.7518933516498318
 40
0.8054488387631568
 40
0.8590031964734436
 40
0.9126152254084994
 40
0.9663184957404222
 40
1.0
 40
1.0
 40
1.0
 40
1.0
 10
6252.58414332179
 20
4712.949682746225
 30
0.0
 10
6252.940169860793
 20
4713.247070811298
 30
0.0
 10
6253.652232639358
 20
4713.841855044301
 30
0.0
 10
6255.018907276778
 20
4714.221264681383
 30
0.0
 10
6256.416905665706
 20
4714.155159945633
 30
0.0
 10
6257.717464922043
 20
4713.622231114737
 30
0.0
 10
6258.765932775607
 20
4712.692009247496
 30
0.0
 10
6259.447623466801
 20
4711.467950023954
 30
0.0
 10
6259.686420053096
 20
4710.087830165222
 30
0.0
 10
6259.455581013252
 20
4708.705565783304
 30
0.0
 10
6258.779808697428
 20
4707.476201467491
 30
0.0
 10
6257.733909864408
 20
4706.538970366022
 30
0.0
 10
6256.435604204039
 20
4706.001061328307
 30
0.0
 10
6255.03244903081
 20
4705.924102858188
 30
0.0
 10
6253.684129631758
 20
4706.3162418354
 30
0.0
 10
6252.54290236023
 20
4707.131891388288
 30
0.0
 10
6251.736749286392
 20
4708.277529530979
 30
0.0
 10
6251.3535418459
 20
4709.626102642857
 30
0.0
 10
6251.441642565504
 20
4711.020442600407
 30
0.0
 10
6251.904857715122
 20
4712.165817506508
 30
0.0
 10
6252.395161209913
 20
4712.73160583281
 30
0.0
 10
6252.58414332179
 20
4712.949682746225
 30
0.0
  0
SPLINE
  5
10C
330
1F
100
AcDbEntity
  8
0
  6
SLD-Plná
 62
     7
370
    25
100
AcDbSpline
210
0.0
220
0.0
230
1.0
 70
    11
 71
     3
 72
    26
 73
    22
 74
     0
 42
0.00000001
 43
0.00000001
 40
0.0
 40
0.0
 40
0.0
 40
0.0
 40
0.0536224173293964
 40
0.1072472278510955
 40
0.1608186709777135
 40
0.2143662689735132
 40
0.2679516214335327
 40
0.3216198445698493
 40
0.3753800267393305
 40
0.4292010816187938
 40
0.4830250319052717
 40
0.5367923856657685
 40
0.5904685134946966
 40
0.6440590117320942
 40
0.6976070716126717
 40
0.7511743151548275
 40
0.8048138479822103
 40
0.8585471995569695
 40
0.9123548911420899
 40
0.9661847720115831
 40
1.0
 40
1.0
 40
1.0
 40
1.0
 10
6264.747922362239
 20
4707.913487788566
 30
0.0
 10
6265.103164475087
 20
4708.210053739194
 30
0.0
 10
6265.813664555399
 20
4708.80319887632
 30
0.0
 10
6267.176956386356
 20
4709.182646170901
 30
0.0
 10
6268.571669206356
 20
4709.118629395467
 30
0.0
 10
6269.870640544818
 20
4708.589774701096
 30
0.0
 10
6270.920737466514
 20
4707.663447880763
 30
0.0
 10
6271.606420177117
 20
4706.440619443603
 30
0.0
 10
6271.849027250271
 20
4705.058401426255
 30
0.0
 10
6271.619828200655
 20
4703.672435230007
 30
0.0
 10
6270.943771574512
 20
4702.440297816643
 30
0.0
 10
6269.897725547489
 20
4701.502295101614
 30
0.0
 10
6268.601153499699
 20
4700.964381797495
 30
0.0
 10
6267.201206964566
 20
4700.886019900277
 30
0.0
 10
6265.855253860243
 20
4701.274550583862
 30
0.0
 10
6264.713431874818
 20
4702.085943663858
 30
0.0
 10
6263.903788652386
 20
4703.229327546516
 30
0.0
 10
6263.51641204903
 20
4704.57906504852
 30
0.0
 10
6263.602143125227
 20
4705.976865737934
 30
0.0
 10
6264.065699337099
 20
4707.126590591507
 30
0.0
 10
6264.557987707576
 20
4707.694411266857
 30
0.0
 10
6264.747922362239
 20
4707.913487788566
 30
0.0
  0
LWPOLYLINE
  5
10D
330
1F
100
AcDbEntity
  8
0
  6
SLD-Plná
 62
     8
370
    25
100
AcDbPolyline
 90
        3
 70
   128
 43
0.0
 10
6267.6704193611
 20
4739.7378989286
 10
6265.1799096913
 20
4739.5597741615
 10
6263.5818695452
 20
4739.253590522
  0
ARC
  5
10E
330
1F
100
AcDbEntity
  8
0
  6
SLD-Plná
 62
     8
370
    25
100
AcDbCircle
 10
6267.6704193611
 20
4722.2378989286
 30
0.0
 40
17.50000000000017
100
AcDbArc
 50
121.572213477
 51
148.5268634834
  0
ARC
  5
10F
330
1F
100
AcDbEntity
  8
0
  6
SLD-Plná
 62
     8
370
    25
100
AcDbCircle
 10
6267.6704193611
 20
4722.2378989286
 30
0.0
 40
17.50000000000097
100
AcDbArc
 50
166.55502634
 51
193.4538588889
  0
ARC
  5
110
330
1F
100
AcDbEntity
  8
0
  6
SLD-Plná
 62
     8
370
    25
100
AcDbCircle
 10
6267.6704193611
 20
4722.2378989286
 30
0.0
 40
17.50000000000018
100
AcDbArc
 50
211.5253571458
 51
238.5161311439
  0
ARC
  5
111
330
1F
100
AcDbEntity
  8
0
  6
SLD-Plná
 62
     8
370
    25
100
AcDbCircle
 10
6267.6704193611
 20
4722.2378989286
 30
0.0
 40
17.5000000000002
100
AcDbArc
 50
256.5968309033
 51
283.4519032786
  0
ARC
  5
112
330
1F
100
AcDbEntity
  8
0
  6
SLD-Plná
 62
     8
370
    25
100
AcDbCircle
 10
6267.6704193611
 20
4722.2378989286
 30
0.0
 40
17.49999999999985
100
AcDbArc
 50
301.540553429
 51
328.4112293439
  0
ARC
  5
113
330
1F
100
AcDbEntity
  8
0
  6
SLD-Plná
 62
     8
370
    25
100
AcDbCircle
 10
6267.6704193611
 20
4722.2378989286
 30
0.0
 40
17.50000000000046
100
AcDbArc
 50
346.496120365
 51
13.6049175702
  0
ARC
  5
114
330
1F
100
AcDbEntity
  8
0
  6
SLD-Plná
 62
     8
370
    25
100
AcDbCircle
 10
6267.6704193611
 20
4722.2378989286
 30
0.0
 40
17.50000000000083
100
AcDbArc
 50
31.5530411
 51
57.6244933627
  0
LWPOLYLINE
  5
115
330
1F
100
AcDbEntity
  8
0
  6
SLD-Plná
 62
     8
370
    25
100
AcDbPolyline
 90
        3
 70
   128
 43
0.0
 10
6271.7488287567
 20
4739.2560238782
 10
6270.1609290309
 20
4739.5597741615
 10
6267.6704193611
 20
4739.7378989286
  0
ENDSEC
  0
SECTION
  2
OBJECTS
  0
DICTIONARY
  5
C
330
0
100
AcDbDictionary
281
     1
  3
ACAD_GROUP
350
D
  3
ACAD_LAYOUT
350
1A
  3
ACAD_MLINESTYLE
350
17
  3
ACAD_PLOTSETTINGS
350
19
  3
ACAD_PLOTSTYLENAME
350
E
  3
ACAD_SCALELIST
350
47
  3
DWGPROPS
350
116
  0
DICTIONARY
  5
D
102
{ACAD_REACTORS
330
C
102
}
330
C
100
AcDbDictionary
281
     1
  0
DICTIONARY
  5
1A
102
{ACAD_REACTORS
330
C
102
}
330
C
100
AcDbDictionary
281
     1
  3
Layout1
350
1E
  3
Layout2
350
26
  3
Model
350
22
  0
DICTIONARY
  5
17
102
{ACAD_REACTORS
330
C
102
}
330
C
100
AcDbDictionary
281
     1
  3
Standard
350
18
  0
DICTIONARY
  5
19
102
{ACAD_REACTORS
330
C
102
}
330
C
100
AcDbDictionary
281
     1
  0
ACDBDICTIONARYWDFLT
  5
E
102
{ACAD_REACTORS
330
C
102
}
330
C
100
AcDbDictionary
281
     1
  3
Normal
350
F
100
AcDbDictionaryWithDefault
340
F
  0
DICTIONARY
  5
47
102
{ACAD_REACTORS
330
C
102
}
330
C
100
AcDbDictionary
281
     1
  3
A0
350
48
  3
A1
350
49
  3
A2
350
4A
  3
A3
350
4B
  3
A4
350
4C
  3
A5
350
4D
  3
A6
350
4E
  3
A7
350
4F
  3
A8
350
50
  3
A9
350
51
  3
B0
350
52
  3
B1
350
53
  3
B2
350
54
  3
B3
350
55
  3
B4
350
56
  3
B5
350
57
  3
B6
350
58
  3
B7
350
59
  3
B8
350
5A
  3
B9
350
5B
  3
C0
350
5C
  3
C1
350
5D
  3
C2
350
5E
  3
C3
350
5F
  3
C4
350
60
  3
C5
350
61
  3
C6
350
62
  3
C7
350
63
  3
C8
350
64
  3
C9
350
65
  3
D0
350
66
  3
D1
350
67
  3
D2
350
68
  0
XRECORD
  5
116
102
{ACAD_REACTORS
330
C
102
}
330
C
100
AcDbXrecord
280
     1
  1
DWGPROPS COOKIE
  2

  3

  4

  6

  7

  8
radek.stransky
  9

300
=
301
=
302
=
303
=
304
=
305
=
306
=
307
=
308
=
309
=
 40
0.0
 41
2460859.294780127
 42
2460859.294780741
  1

 90
        0
  0
LAYOUT
  5
1E
102
{ACAD_REACTORS
330
1A
102
}
330
1A
100
AcDbPlotSettings
  1

  2
none_device
  4

  6

 40
0.0
 41
0.0
 42
0.0
 43
0.0
 44
0.0
 45
0.0
 46
0.0
 47
0.0
 48
0.0
 49
0.0
140
0.0
141
0.0
142
1.0
143
1.0
 70
   688
 72
     1
 73
     0
 74
     5
  7

 75
    16
147
1.0
148
0.0
149
0.0
100
AcDbLayout
  1
Layout1
 70
     1
 71
     1
 10
0.0
 20
0.0
 11
420.0
 21
297.0
 12
0.0
 22
0.0
 32
0.0
 14
1.0000000000E+20
 24
1.0000000000E+20
 34
1.0000000000E+20
 15
-1.0000000000E+20
 25
-1.0000000000E+20
 35
-1.0000000000E+20
146
0.0
 13
0.0
 23
0.0
 33
0.0
 16
1.0
 26
0.0
 36
0.0
 17
0.0
 27
1.0
 37
0.0
 76
     0
330
1B
  0
LAYOUT
  5
26
102
{ACAD_REACTORS
330
1A
102
}
330
1A
100
AcDbPlotSettings
  1

  2
none_device
  4

  6

 40
0.0
 41
0.0
 42
0.0
 43
0.0
 44
0.0
 45
0.0
 46
0.0
 47
0.0
 48
0.0
 49
0.0
140
0.0
141
0.0
142
1.0
143
1.0
 70
   688
 72
     1
 73
     0
 74
     5
  7

 75
    16
147
1.0
148
0.0
149
0.0
100
AcDbLayout
  1
Layout2
 70
     1
 71
     2
 10
0.0
 20
0.0
 11
0.0
 21
0.0
 12
0.0
 22
0.0
 32
0.0
 14
0.0
 24
0.0
 34
0.0
 15
0.0
 25
0.0
 35
0.0
146
0.0
 13
0.0
 23
0.0
 33
0.0
 16
1.0
 26
0.0
 36
0.0
 17
0.0
 27
1.0
 37
0.0
 76
     0
330
23
  0
LAYOUT
  5
22
102
{ACAD_REACTORS
330
1A
102
}
330
1A
100
AcDbPlotSettings
  1

  2
none_device
  4
Letter_(8.50_x_11.00_Inches)
  6

 40
6.35
 41
6.35
 42
6.35000508
 43
6.35000508
 44
215.9
 45
279.4
 46
0.0
 47
0.0
 48
0.0
 49
0.0
140
0.0
141
0.0
142
1.0
143
1.0
 70
  1712
 72
     1
 73
     0
 74
     0
  7

 75
     0
147
1.0
148
0.0
149
0.0
100
AcDbLayout
  1
Model
 70
     1
 71
     0
 10
0.0
 20
0.0
 11
20000.0
 21
10000.0
 12
0.0
 22
0.0
 32
0.0
 14
0.0
 24
0.0
 34
0.0
 15
20000.0
 25
10000.0
 35
0.0
146
0.0
 13
0.0
 23
0.0
 33
0.0
 16
1.0
 26
0.0
 36
0.0
 17
0.0
 27
1.0
 37
0.0
 76
     0
330
1F
331
29
  0
MLINESTYLE
  5
18
102
{ACAD_REACTORS
330
17
102
}
330
17
100
AcDbMlineStyle
  2
Standard
 70
     0
  3

 62
   256
 51
90.0
 52
90.0
 71
     2
 49
0.5
 62
   256
  6
BYLAYER
 49
-0.5
 62
   256
  6
BYLAYER
  0
ACDBPLACEHOLDER
  5
F
102
{ACAD_REACTORS
330
E
102
}
330
E
  0
SCALE
  5
48
102
{ACAD_REACTORS
330
47
102
}
330
47
100
AcDbScale
 70
     0
300
1:1
140
1.0
141
1.0
290
     1
  0
SCALE
  5
49
102
{ACAD_REACTORS
330
47
102
}
330
47
100
AcDbScale
 70
     0
300
1:2
140
1.0
141
2.0
290
     0
  0
SCALE
  5
4A
102
{ACAD_REACTORS
330
47
102
}
330
47
100
AcDbScale
 70
     0
300
1:4
140
1.0
141
4.0
290
     0
  0
SCALE
  5
4B
102
{ACAD_REACTORS
330
47
102
}
330
47
100
AcDbScale
 70
     0
300
1:5
140
1.0
141
5.0
290
     0
  0
SCALE
  5
4C
102
{ACAD_REACTORS
330
47
102
}
330
47
100
AcDbScale
 70
     0
300
1:8
140
1.0
141
8.0
290
     0
  0
SCALE
  5
4D
102
{ACAD_REACTORS
330
47
102
}
330
47
100
AcDbScale
 70
     0
300
1:10
140
1.0
141
10.0
290
     0
  0
SCALE
  5
4E
102
{ACAD_REACTORS
330
47
102
}
330
47
100
AcDbScale
 70
     0
300
1:16
140
1.0
141
16.0
290
     0
  0
SCALE
  5
4F
102
{ACAD_REACTORS
330
47
102
}
330
47
100
AcDbScale
 70
     0
300
1:20
140
1.0
141
20.0
290
     0
  0
SCALE
  5
50
102
{ACAD_REACTORS
330
47
102
}
330
47
100
AcDbScale
 70
     0
300
1:30
140
1.0
141
30.0
290
     0
  0
SCALE
  5
51
102
{ACAD_REACTORS
330
47
102
}
330
47
100
AcDbScale
 70
     0
300
1:40
140
1.0
141
40.0
290
     0
  0
SCALE
  5
52
102
{ACAD_REACTORS
330
47
102
}
330
47
100
AcDbScale
 70
     0
300
1:50
140
1.0
141
50.0
290
     0
  0
SCALE
  5
53
102
{ACAD_REACTORS
330
47
102
}
330
47
100
AcDbScale
 70
     0
300
1:100
140
1.0
141
100.0
290
     0
  0
SCALE
  5
54
102
{ACAD_REACTORS
330
47
102
}
330
47
100
AcDbScale
 70
     0
300
2:1
140
2.0
141
1.0
290
     0
  0
SCALE
  5
55
102
{ACAD_REACTORS
330
47
102
}
330
47
100
AcDbScale
 70
     0
300
4:1
140
4.0
141
1.0
290
     0
  0
SCALE
  5
56
102
{ACAD_REACTORS
330
47
102
}
330
47
100
AcDbScale
 70
     0
300
8:1
140
8.0
141
1.0
290
     0
  0
SCALE
  5
57
102
{ACAD_REACTORS
330
47
102
}
330
47
100
AcDbScale
 70
     0
300
10:1
140
10.0
141
1.0
290
     0
  0
SCALE
  5
58
102
{ACAD_REACTORS
330
47
102
}
330
47
100
AcDbScale
 70
     0
300
100:1
140
100.0
141
1.0
290
     0
  0
SCALE
  5
59
102
{ACAD_REACTORS
330
47
102
}
330
47
100
AcDbScale
 70
     0
300
1/128" = 1'-0"
140
0.0078125
141
12.0
290
     0
  0
SCALE
  5
5A
102
{ACAD_REACTORS
330
47
102
}
330
47
100
AcDbScale
 70
     0
300
1/64" = 1'-0"
140
0.015625
141
12.0
290
     0
  0
SCALE
  5
5B
102
{ACAD_REACTORS
330
47
102
}
330
47
100
AcDbScale
 70
     0
300
1/32" = 1'-0"
140
0.03125
141
12.0
290
     0
  0
SCALE
  5
5C
102
{ACAD_REACTORS
330
47
102
}
330
47
100
AcDbScale
 70
     0
300
1/16" = 1'-0"
140
0.0625
141
12.0
290
     0
  0
SCALE
  5
5D
102
{ACAD_REACTORS
330
47
102
}
330
47
100
AcDbScale
 70
     0
300
3/32" = 1'-0"
140
0.09375
141
12.0
290
     0
  0
SCALE
  5
5E
102
{ACAD_REACTORS
330
47
102
}
330
47
100
AcDbScale
 70
     0
300
1/8" = 1'-0"
140
0.125
141
12.0
290
     0
  0
SCALE
  5
5F
102
{ACAD_REACTORS
330
47
102
}
330
47
100
AcDbScale
 70
     0
300
3/16" = 1'-0"
140
0.1875
141
12.0
290
     0
  0
SCALE
  5
60
102
{ACAD_REACTORS
330
47
102
}
330
47
100
AcDbScale
 70
     0
300
1/4" = 1'-0"
140
0.25
141
12.0
290
     0
  0
SCALE
  5
61
102
{ACAD_REACTORS
330
47
102
}
330
47
100
AcDbScale
 70
     0
300
3/8" = 1'-0"
140
0.375
141
12.0
290
     0
  0
SCALE
  5
62
102
{ACAD_REACTORS
330
47
102
}
330
47
100
AcDbScale
 70
     0
300
1/2" = 1'-0"
140
0.5
141
12.0
290
     0
  0
SCALE
  5
63
102
{ACAD_REACTORS
330
47
102
}
330
47
100
AcDbScale
 70
     0
300
3/4" = 1'-0"
140
0.75
141
12.0
290
     0
  0
SCALE
  5
64
102
{ACAD_REACTORS
330
47
102
}
330
47
100
AcDbScale
 70
     0
300
1" = 1'-0"
140
1.0
141
12.0
290
     0
  0
SCALE
  5
65
102
{ACAD_REACTORS
330
47
102
}
330
47
100
AcDbScale
 70
     0
300
1-1/2" = 1'-0"
140
1.5
141
12.0
290
     0
  0
SCALE
  5
66
102
{ACAD_REACTORS
330
47
102
}
330
47
100
AcDbScale
 70
     0
300
3" = 1'-0"
140
3.0
141
12.0
290
     0
  0
SCALE
  5
67
102
{ACAD_REACTORS
330
47
102
}
330
47
100
AcDbScale
 70
     0
300
6" = 1'-0"
140
6.0
141
12.0
290
     0
  0
SCALE
  5
68
102
{ACAD_REACTORS
330
47
102
}
330
47
100
AcDbScale
 70
     0
300
1'-0" = 1'-0"
140
12.0
141
12.0
290
     0
  0
ENDSEC
  0
EOF
