  0
SECTION
  2
HEADER
  9
$ACADVER
  1
AC1015
  9
$ACADMAINTVER
 70
     6
  9
$DWGCODEPAGE
  3
ANSI_1250
  9
$INSBASE
 10
0.0
 20
0.0
 30
0.0
  9
$EXTMIN
 10
0.0
 20
0.0
 30
0.0
  9
$EXTMAX
 10
20000.0
 20
10000.0
 30
0.0
  9
$LIMMIN
 10
0.0
 20
0.0
  9
$LIMMAX
 10
20000.0
 20
10000.0
  9
$ORTHOMODE
 70
     0
  9
$REGENMODE
 70
     1
  9
$FILLMODE
 70
     1
  9
$QTEXTMODE
 70
     0
  9
$MIRRTEXT
 70
     1
  9
$LTSCALE
 40
1.0
  9
$ATTMODE
 70
     1
  9
$TEXTSIZE
 40
2.0
  9
$TRACEWID
 40
1.0
  9
$TEXTSTYLE
  7
Standard
  9
$CLAYER
  8
0
  9
$CELTYPE
  6
ByLayer
  9
$CECOLOR
 62
   256
  9
$CELTSCALE
 40
1.0
  9
$DISPSILH
 70
     0
  9
$DIMSCALE
 40
1.0
  9
$DIMASZ
 40
2.0
  9
$DIMEXO
 40
1.0
  9
$DIMDLI
 40
3.75
  9
$DIMRND
 40
0.0
  9
$DIMDLE
 40
0.0
  9
$DIMEXE
 40
1.0
  9
$DIMTP
 40
0.0
  9
$DIMTM
 40
0.0
  9
$DIMTXT
 40
2.0
  9
$DIMCEN
 40
2.5
  9
$DIMTSZ
 40
0.0
  9
$DIMTOL
 70
     0
  9
$DIMLIM
 70
     0
  9
$DIMTIH
 70
     1
  9
$DIMTOH
 70
     1
  9
$DIMSE1
 70
     0
  9
$DIMSE2
 70
     0
  9
$DIMTAD
 70
     1
  9
$DIMZIN
 70
     0
  9
$DIMBLK
  1

  9
$DIMASO
 70
     1
  9
$DIMSHO
 70
     1
  9
$DIMPOST
  1

  9
$DIMAPOST
  1

  9
$DIMALT
 70
     0
  9
$DIMALTD
 70
     3
  9
$DIMALTF
 40
0.0393700787
  9
$DIMLFAC
 40
1.0
  9
$DIMTOFL
 70
     1
  9
$DIMTVP
 40
0.0
  9
$DIMTIX
 70
     0
  9
$DIMSOXD
 70
     0
  9
$DIMSAH
 70
     0
  9
$DIMBLK1
  1

  9
$DIMBLK2
  1

  9
$DIMSTYLE
  2
ISO-25
  9
$DIMCLRD
 70
     0
  9
$DIMCLRE
 70
     0
  9
$DIMCLRT
 70
     0
  9
$DIMTFAC
 40
1.0
  9
$DIMGAP
 40
1.524
  9
$DIMJUST
 70
     0
  9
$DIMSD1
 70
     0
  9
$DIMSD2
 70
     0
  9
$DIMTOLJ
 70
     0
  9
$DIMTZIN
 70
     0
  9
$DIMALTZ
 70
     0
  9
$DIMALTTZ
 70
     0
  9
$DIMUPT
 70
     0
  9
$DIMDEC
 70
     2
  9
$DIMTDEC
 70
     0
  9
$DIMALTU
 70
     2
  9
$DIMALTTD
 70
     3
  9
$DIMTXSTY
  7
Standard
  9
$DIMAUNIT
 70
     0
  9
$DIMADEC
 70
     2
  9
$DIMALTRND
 40
0.0
  9
$DIMAZIN
 70
     0
  9
$DIMDSEP
 70
    44
  9
$DIMATFIT
 70
     3
  9
$DIMFRAC
 70
     0
  9
$DIMLDRBLK
  1

  9
$DIMLUNIT
 70
     2
  9
$DIMLWD
 70
    -2
  9
$DIMLWE
 70
    -2
  9
$DIMTMOVE
 70
     0
  9
$LUNITS
 70
     2
  9
$LUPREC
 70
     3
  9
$SKETCHINC
 40
1.0
  9
$FILLETRAD
 40
10.0
  9
$AUNITS
 70
     0
  9
$AUPREC
 70
     2
  9
$MENU
  1
.
  9
$ELEVATION
 40
0.0
  9
$PELEVATION
 40
0.0
  9
$THICKNESS
 40
0.0
  9
$LIMCHECK
 70
     0
  9
$CHAMFERA
 40
0.0
  9
$CHAMFERB
 40
0.0
  9
$CHAMFERC
 40
0.0
  9
$CHAMFERD
 40
0.0
  9
$SKPOLY
 70
     0
  9
$TDCREATE
 40
2459108.343876539
  9
$TDUCREATE
 40
2459108.260543206
  9
$TDUPDATE
 40
2459108.343876968
  9
$TDUUPDATE
 40
2459108.260543634
  9
$TDINDWG
 40
0.0000000116
  9
$TDUSRTIMER
 40
0.0000000116
  9
$USRTIMER
 70
     1
  9
$ANGBASE
 50
0.0
  9
$ANGDIR
 70
     0
  9
$PDMODE
 70
     0
  9
$PDSIZE
 40
-1.0
  9
$PLINEWID
 40
0.0
  9
$SPLFRAME
 70
     0
  9
$SPLINETYPE
 70
     6
  9
$SPLINESEGS
 70
     8
  9
$HANDSEED
  5
49A
  9
$SURFTAB1
 70
     6
  9
$SURFTAB2
 70
     6
  9
$SURFTYPE
 70
     6
  9
$SURFU
 70
     6
  9
$SURFV
 70
     6
  9
$UCSBASE
  2

  9
$UCSNAME
  2

  9
$UCSORG
 10
0.0
 20
0.0
 30
0.0
  9
$UCSXDIR
 10
1.0
 20
0.0
 30
0.0
  9
$UCSYDIR
 10
0.0
 20
1.0
 30
0.0
  9
$UCSORTHOREF
  2

  9
$UCSORTHOVIEW
 70
     0
  9
$UCSORGTOP
 10
0.0
 20
0.0
 30
0.0
  9
$UCSORGBOTTOM
 10
0.0
 20
0.0
 30
0.0
  9
$UCSORGLEFT
 10
0.0
 20
0.0
 30
0.0
  9
$UCSORGRIGHT
 10
0.0
 20
0.0
 30
0.0
  9
$UCSORGFRONT
 10
0.0
 20
0.0
 30
0.0
  9
$UCSORGBACK
 10
0.0
 20
0.0
 30
0.0
  9
$PUCSBASE
  2

  9
$PUCSNAME
  2

  9
$PUCSORG
 10
0.0
 20
0.0
 30
0.0
  9
$PUCSXDIR
 10
1.0
 20
0.0
 30
0.0
  9
$PUCSYDIR
 10
0.0
 20
1.0
 30
0.0
  9
$PUCSORTHOREF
  2

  9
$PUCSORTHOVIEW
 70
     0
  9
$PUCSORGTOP
 10
0.0
 20
0.0
 30
0.0
  9
$PUCSORGBOTTOM
 10
0.0
 20
0.0
 30
0.0
  9
$PUCSORGLEFT
 10
0.0
 20
0.0
 30
0.0
  9
$PUCSORGRIGHT
 10
0.0
 20
0.0
 30
0.0
  9
$PUCSORGFRONT
 10
0.0
 20
0.0
 30
0.0
  9
$PUCSORGBACK
 10
0.0
 20
0.0
 30
0.0
  9
$USERI1
 70
     0
  9
$USERI2
 70
     0
  9
$USERI3
 70
     0
  9
$USERI4
 70
     0
  9
$USERI5
 70
     0
  9
$USERR1
 40
0.0
  9
$USERR2
 40
0.0
  9
$USERR3
 40
0.0
  9
$USERR4
 40
0.0
  9
$USERR5
 40
0.0
  9
$WORLDVIEW
 70
     1
  9
$SHADEDGE
 70
     3
  9
$SHADEDIF
 70
    70
  9
$TILEMODE
 70
     1
  9
$MAXACTVP
 70
    64
  9
$PINSBASE
 10
0.0
 20
0.0
 30
0.0
  9
$PLIMCHECK
 70
     0
  9
$PEXTMIN
 10
1.0000000000E+20
 20
1.0000000000E+20
 30
1.0000000000E+20
  9
$PEXTMAX
 10
-1.0000000000E+20
 20
-1.0000000000E+20
 30
-1.0000000000E+20
  9
$PLIMMIN
 10
0.0
 20
0.0
  9
$PLIMMAX
 10
420.0
 20
297.0
  9
$UNITMODE
 70
     0
  9
$VISRETAIN
 70
     1
  9
$PLINEGEN
 70
     0
  9
$PSLTSCALE
 70
     1
  9
$TREEDEPTH
 70
  3020
  9
$CMLSTYLE
  2
Standard
  9
$CMLJUST
 70
     0
  9
$CMLSCALE
 40
20.0
  9
$PROXYGRAPHICS
 70
     1
  9
$MEASUREMENT
 70
     1
  9
$CELWEIGHT
370
    -1
  9
$ENDCAPS
280
     0
  9
$JOINSTYLE
280
     0
  9
$LWDISPLAY
290
     1
  9
$INSUNITS
 70
     4
  9
$HYPERLINKBASE
  1

  9
$STYLESHEET
  1

  9
$XEDIT
290
     1
  9
$CEPSNTYPE
380
     0
  9
$PSTYLEMODE
290
     1
  9
$FINGERPRINTGUID
  2
{7cc42642-43e8-489c-adbb-0923266ea91d}
  9
$VERSIONGUID
  2
{FAEB1C32-E019-11D5-929B-00C0DF256EC4}
  9
$EXTNAMES
290
     1
  9
$PSVPSCALE
 40
0.0
  9
$OLESTARTUP
290
     0
  0
ENDSEC
  0
SECTION
  2
CLASSES
  0
CLASS
  1
ACDBDICTIONARYWDFLT
  2
AcDbDictionaryWithDefault
  3
ObjectDBX Classes
 90
        0
280
     0
281
     0
  0
CLASS
  1
VISUALSTYLE
  2
AcDbVisualStyle
  3
ObjectDBX Classes
 90
     4095
280
     0
281
     0
  0
CLASS
  1
MATERIAL
  2
AcDbMaterial
  3
ObjectDBX Classes
 90
     1153
280
     0
281
     0
  0
CLASS
  1
SCALE
  2
AcDbScale
  3
ObjectDBX Classes
 90
     1153
280
     0
281
     0
  0
CLASS
  1
TABLESTYLE
  2
AcDbTableStyle
  3
ObjectDBX Classes
 90
     4095
280
     0
281
     0
  0
CLASS
  1
MLEADERSTYLE
  2
AcDbMLeaderStyle
  3
ACDB_MLEADERSTYLE_CLASS
 90
     4095
280
     0
281
     0
  0
CLASS
  1
SUN
  2
AcDbSun
  3
SCENEOE
 90
     1153
280
     0
281
     0
  0
CLASS
  1
ACDBPLACEHOLDER
  2
AcDbPlaceHolder
  3
ObjectDBX Classes
 90
        0
280
     0
281
     0
  0
CLASS
  1
LAYOUT
  2
AcDbLayout
  3
ObjectDBX Classes
 90
        0
280
     0
281
     0
  0
ENDSEC
  0
SECTION
  2
TABLES
  0
TABLE
  2
VPORT
  5
8
330
0
100
AcDbSymbolTable
 70
     1
  0
VPORT
  5
29
330
8
100
AcDbSymbolTableRecord
100
AcDbViewportTableRecord
  2
*Active
 70
     0
 10
0.0
 20
0.0
 11
1.0
 21
1.0
 12
10000.0
 22
5000.0
 13
0.0
 23
0.0
 14
10.0
 24
10.0
 15
10.0
 25
10.0
 16
0.0
 26
0.0
 36
1.0
 17
0.0
 27
0.0
 37
0.0
 40
10000.0
 41
2.0
 42
50.0
 43
0.0
 44
0.0
 50
0.0
 51
0.0
 71
     0
 72
  2000
 73
     1
 74
     3
 75
     0
 76
     0
 77
     0
 78
     0
281
     0
 65
     1
110
0.0
120
0.0
130
0.0
111
1.0
121
0.0
131
0.0
112
0.0
122
1.0
132
0.0
 79
     0
146
0.0
  0
ENDTAB
  0
TABLE
  2
LTYPE
  5
5
330
0
100
AcDbSymbolTable
 70
     6
  0
LTYPE
  5
14
330
5
100
AcDbSymbolTableRecord
100
AcDbLinetypeTableRecord
  2
ByBlock
 70
     0
  3

 72
    65
 73
     0
 40
0.0
  0
LTYPE
  5
15
330
5
100
AcDbSymbolTableRecord
100
AcDbLinetypeTableRecord
  2
ByLayer
 70
     0
  3

 72
    65
 73
     0
 40
0.0
  0
LTYPE
  5
16
330
5
100
AcDbSymbolTableRecord
100
AcDbLinetypeTableRecord
  2
Continuous
 70
     0
  3
Solid line
 72
    65
 73
     0
 40
0.0
  0
LTYPE
  5
6E
330
5
100
AcDbSymbolTableRecord
100
AcDbLinetypeTableRecord
  2
HIDDEN
 70
     0
  3
Hidden __ __ __ __ __ __ __ __ __ __ __ __ __ __
 72
    65
 73
     2
 40
1.905
 49
1.27
 74
     0
 49
-0.635
 74
     0
  0
LTYPE
  5
6F
330
5
100
AcDbSymbolTableRecord
100
AcDbLinetypeTableRecord
  2
PHANTOM
 70
     0
  3
Phantom ______  __  __  ______  __  __  ______
 72
    65
 73
     6
 40
12.7
 49
6.35
 74
     0
 49
-1.27
 74
     0
 49
1.27
 74
     0
 49
-1.27
 74
     0
 49
1.27
 74
     0
 49
-1.27
 74
     0
  0
LTYPE
  5
70
330
5
100
AcDbSymbolTableRecord
100
AcDbLinetypeTableRecord
  2
CENTER
 70
     0
  3
Center ____ _ ____ _ ____ _ ____ _ ____ _ ____
 72
    65
 73
     4
 40
10.16
 49
6.35
 74
     0
 49
-1.27
 74
     0
 49
1.27
 74
     0
 49
-1.27
 74
     0
  0
LTYPE
  5
71
330
5
100
AcDbSymbolTableRecord
100
AcDbLinetypeTableRecord
  2
CENTERX2
 70
     0
  3
Center (2x) ________  __  ________  __  _____
 72
    65
 73
     4
 40
20.32
 49
12.7
 74
     0
 49
-2.54
 74
     0
 49
2.54
 74
     0
 49
-2.54
 74
     0
  0
LTYPE
  5
72
330
5
100
AcDbSymbolTableRecord
100
AcDbLinetypeTableRecord
  2
DOT2
 70
     0
  3
Dot (.5x) ........................................
 72
    65
 73
     2
 40
0.635
 49
0.0
 74
     0
 49
-0.635
 74
     0
  0
ENDTAB
  0
TABLE
  2
LAYER
  5
2
330
0
100
AcDbSymbolTable
 70
    13
  0
LAYER
  5
10
330
2
100
AcDbSymbolTableRecord
100
AcDbLayerTableRecord
  2
0
 70
     0
 62
     7
  6
Continuous
370
    -3
390
F
  0
LAYER
  5
73
330
2
100
AcDbSymbolTableRecord
100
AcDbLayerTableRecord
  2
FORMAT
 70
     0
 62
     7
  6
Continuous
370
    -3
390
F
  0
LAYER
  5
74
330
2
100
AcDbSymbolTableRecord
100
AcDbLayerTableRecord
  2
OSA
 70
     0
 62
     7
  6
CENTER
370
    -3
390
F
  0
LAYER
  5
75
330
2
100
AcDbSymbolTableRecord
100
AcDbLayerTableRecord
  2
0_35
 70
     0
 62
     7
  6
Continuous
370
    35
390
F
  0
LAYER
  5
76
330
2
100
AcDbSymbolTableRecord
100
AcDbLayerTableRecord
  2
0_5
 70
     0
 62
     7
  6
Continuous
370
    50
390
F
  0
LAYER
  5
77
330
2
100
AcDbSymbolTableRecord
100
AcDbLayerTableRecord
  2
0_25
 70
     0
 62
     7
  6
Continuous
370
    25
390
F
  0
LAYER
  5
78
330
2
100
AcDbSymbolTableRecord
100
AcDbLayerTableRecord
  2
0_18
 70
     0
 62
     7
  6
Continuous
370
    -3
390
F
  0
LAYER
  5
79
330
2
100
AcDbSymbolTableRecord
100
AcDbLayerTableRecord
  2
SLD-0
 70
     0
 62
   179
  6
Continuous
370
    -3
390
F
  0
LAYER
  5
7A
330
2
100
AcDbSymbolTableRecord
100
AcDbLayerTableRecord
  2
KOTY
 70
     0
 62
     7
  6
Continuous
370
    -3
390
F
  0
LAYER
  5
7B
330
2
100
AcDbSymbolTableRecord
100
AcDbLayerTableRecord
  2
SILNA
 70
     0
 62
   179
  6
Continuous
370
    -3
390
F
  0
LAYER
  5
7C
330
2
100
AcDbSymbolTableRecord
100
AcDbLayerTableRecord
  2
0_18_1
 70
     0
 62
   179
  6
Continuous
370
    -3
390
F
  0
LAYER
  5
7D
330
2
100
AcDbSymbolTableRecord
100
AcDbLayerTableRecord
  2
0_35_1
 70
     0
 62
   179
  6
Continuous
370
    35
390
F
  0
LAYER
  5
7E
330
2
100
AcDbSymbolTableRecord
100
AcDbLayerTableRecord
  2
0_5_1
 70
     0
 62
   179
  6
Continuous
370
    50
390
F
  0
ENDTAB
  0
TABLE
  2
STYLE
  5
3
330
0
100
AcDbSymbolTable
 70
     1
  0
STYLE
  5
11
330
3
100
AcDbSymbolTableRecord
100
AcDbTextStyleTableRecord
  2
Standard
 70
     0
 40
0.0
 41
1.0
 50
0.0
 71
     0
 42
2.0
  3
txt
  4

  0
ENDTAB
  0
TABLE
  2
VIEW
  5
6
330
0
100
AcDbSymbolTable
 70
     0
  0
ENDTAB
  0
TABLE
  2
UCS
  5
7
330
0
100
AcDbSymbolTable
 70
     0
  0
ENDTAB
  0
TABLE
  2
APPID
  5
9
330
0
100
AcDbSymbolTable
 70
     1
  0
APPID
  5
12
330
9
100
AcDbSymbolTableRecord
100
AcDbRegAppTableRecord
  2
ACAD
 70
     0
  0
ENDTAB
  0
TABLE
  2
DIMSTYLE
  5
A
330
0
100
AcDbSymbolTable
 70
     1
100
AcDbDimStyleTable
  0
DIMSTYLE
105
27
330
A
100
AcDbSymbolTableRecord
100
AcDbDimStyleTableRecord
  2
ISO-25
 70
     0
 41
2.5
 42
0.625
 43
3.75
 44
1.25
 73
     0
 74
     0
 77
     1
 78
     8
140
2.5
141
2.5
143
0.0393700787
147
0.625
171
     3
172
     1
178
     0
271
     2
272
     2
274
     3
278
    44
283
     0
284
     8
340
11
  0
ENDTAB
  0
TABLE
  2
BLOCK_RECORD
  5
1
330
0
100
AcDbSymbolTable
 70
     1
  0
BLOCK_RECORD
  5
1F
330
1
100
AcDbSymbolTableRecord
100
AcDbBlockTableRecord
  2
*Model_Space
340
22
  0
BLOCK_RECORD
  5
1B
330
1
100
AcDbSymbolTableRecord
100
AcDbBlockTableRecord
  2
*Paper_Space
340
1E
  0
BLOCK_RECORD
  5
23
330
1
100
AcDbSymbolTableRecord
100
AcDbBlockTableRecord
  2
*Paper_Space0
340
26
  0
ENDTAB
  0
ENDSEC
  0
SECTION
  2
BLOCKS
  0
BLOCK
  5
20
330
1F
100
AcDbEntity
  8
0
100
AcDbBlockBegin
  2
*Model_Space
 70
     0
 10
0.0
 20
0.0
 30
0.0
  3
*Model_Space
  1

  0
ENDBLK
  5
21
330
1F
100
AcDbEntity
  8
0
100
AcDbBlockEnd
  0
BLOCK
  5
1C
330
1B
100
AcDbEntity
 67
     1
  8
0
100
AcDbBlockBegin
  2
*Paper_Space
 70
     0
 10
0.0
 20
0.0
 30
0.0
  3
*Paper_Space
  1

  0
ENDBLK
  5
1D
330
1B
100
AcDbEntity
 67
     1
  8
0
100
AcDbBlockEnd
  0
BLOCK
  5
24
330
23
100
AcDbEntity
  8
0
100
AcDbBlockBegin
  2
*Paper_Space0
 70
     0
 10
0.0
 20
0.0
 30
0.0
  3
*Paper_Space0
  1

  0
ENDBLK
  5
25
330
23
100
AcDbEntity
  8
0
100
AcDbBlockEnd
  0
ENDSEC
  0
SECTION
  2
ENTITIES
  0
LINE
  5
7F
330
1F
100
AcDbEntity
  8
0
  6
Continuous
 62
     7
370
    25
100
AcDbLine
 10
6240.7687553361
 20
5255.4492860395
 30
0.0
 11
6240.7687553361
 21
5254.403793359
 31
0.0
  0
LINE
  5
80
330
1F
100
AcDbEntity
  8
0
  6
Continuous
 62
     7
370
    25
100
AcDbLine
 10
6307.2687553361
 20
5254.403793359
 30
0.0
 11
6307.2687553361
 21
5255.4492860395
 31
0.0
  0
LINE
  5
81
330
1F
100
AcDbEntity
  8
0
  6
Continuous
 62
     7
370
    25
100
AcDbLine
 10
6234.0187553361
 20
5252.895718745
 30
0.0
 11
6234.0187553361
 21
5252.3994295927
 31
0.0
  0
LINE
  5
82
330
1F
100
AcDbEntity
  8
0
  6
Continuous
 62
     7
370
    25
100
AcDbLine
 10
6314.0187553361
 20
5252.3994295927
 30
0.0
 11
6314.0187553361
 21
5252.895718745
 31
0.0
  0
ARC
  5
83
330
1F
100
AcDbEntity
  8
0
  6
Continuous
 62
     7
370
    25
100
AcDbCircle
 10
6234.6690973836
 20
5252.950488293
 30
0.0
 40
0.05476954799542
100
AcDbArc
 50
270.0
 51
330.0000000003
  0
ARC
  5
84
330
1F
100
AcDbEntity
  8
0
  6
Continuous
 62
     7
370
    25
100
AcDbCircle
 10
6313.3684132886
 20
5252.950488293
 30
0.0
 40
0.0547695479950149
100
AcDbArc
 50
209.9999999997
 51
270.0
  0
LINE
  5
85
330
1F
100
AcDbEntity
  8
0
  6
Continuous
 62
     7
370
    25
100
AcDbLine
 10
6313.3209814687
 20
5252.923103519
 30
0.0
 11
6313.0818700835
 21
5253.3372565868
 31
0.0
  0
LINE
  5
86
330
1F
100
AcDbEntity
  8
0
  6
Continuous
 62
     7
370
    25
100
AcDbLine
 10
6234.9556405887
 20
5253.3372565868
 30
0.0
 11
6234.7165292035
 21
5252.923103519
 31
0.0
  0
ARC
  5
87
330
1F
100
AcDbEntity
  8
0
  6
Continuous
 62
     7
370
    25
100
AcDbCircle
 10
6235.0504726402
 20
5253.2825052764
 30
0.0
 40
0.1095026209371498
100
AcDbArc
 50
90.0
 51
150.0000000001
  0
ARC
  5
88
330
1F
100
AcDbEntity
  8
0
  6
Continuous
 62
     7
370
    25
100
AcDbCircle
 10
6312.987038032
 20
5253.2825052764
 30
0.0
 40
0.1095026209377465
100
AcDbArc
 50
29.9999999999
 51
90.0
  0
LINE
  5
89
330
1F
100
AcDbEntity
  8
0
  6
Continuous
 62
     7
370
    25
100
AcDbLine
 10
6312.987038032
 20
5253.3920078973
 30
0.0
 11
6235.0504726402
 21
5253.3920078973
 31
0.0
  0
LINE
  5
8A
330
1F
100
AcDbEntity
  8
0
  6
Continuous
 62
     7
370
    25
100
AcDbLine
 10
6320.940503559
 20
5235.4326640883
 30
0.0
 11
6321.0187553361
 21
5244.3994295927
 31
0.0
  0
ARC
  5
8B
330
1F
100
AcDbEntity
  8
0
  6
Continuous
 62
     7
370
    25
100
AcDbCircle
 10
6314.0573135552
 20
5235.4613588722
 30
0.0
 40
6.853085275294285
100
AcDbArc
 50
305.7382565022
 51
359.7686518055
  0
ARC
  5
8C
330
1F
100
AcDbEntity
  8
0
  6
Continuous
 62
     7
370
    25
100
AcDbCircle
 10
6321.0187553361
 20
5247.3994295927
 30
0.0
 40
2.0
100
AcDbArc
 50
0.0
 51
90.0
  0
LINE
  5
8D
330
1F
100
AcDbEntity
  8
0
  6
Continuous
 62
     7
370
    25
100
AcDbLine
 10
6323.0187553361
 20
5244.3994295927
 30
0.0
 11
6323.0187553361
 21
5247.3994295927
 31
0.0
  0
LINE
  5
8E
330
1F
100
AcDbEntity
  8
0
  6
Continuous
 62
     7
370
    25
100
AcDbLine
 10
6315.7687553361
 20
5249.3994295927
 30
0.0
 11
6315.7687553361
 21
5252.3994295927
 31
0.0
  0
LINE
  5
8F
330
1F
100
AcDbEntity
  8
0
  6
Continuous
 62
     7
370
    25
100
AcDbLine
 10
6232.2687553361
 20
5252.3994295927
 30
0.0
 11
6232.2687553361
 21
5249.3994295927
 31
0.0
  0
LINE
  5
90
330
1F
100
AcDbEntity
  8
0
  6
Continuous
 62
     7
370
    25
100
AcDbLine
 10
6306.2595003184
 20
5177.2161909546
 30
0.0
 11
6307.4613636571
 21
5223.1135001483
 31
0.0
  0
ARC
  5
91
330
1F
100
AcDbEntity
  8
0
  6
Continuous
 62
     7
370
    25
100
AcDbCircle
 10
6299.2618990435
 20
5177.3994295927
 30
0.0
 40
6.999999999999091
100
AcDbArc
 50
270.0
 51
358.5
  0
ARC
  5
92
330
1F
100
AcDbEntity
  8
0
  6
Continuous
 62
     7
370
    25
100
AcDbCircle
 10
6142.4529357327
 20
5217.2502820412
 30
0.0
 40
26.99999999999926
100
AcDbArc
 50
228.2942528904
 51
287.8227912466
  0
ARC
  5
93
330
1F
100
AcDbEntity
  8
0
  6
Continuous
 62
     7
370
    25
100
AcDbCircle
 10
6142.4529357327
 20
5217.2502820412
 30
0.0
 40
27.00000000000122
100
AcDbArc
 50
73.1772087534
 51
132.7057471096
  0
ARC
  5
94
330
1F
100
AcDbEntity
  8
0
  6
Continuous
 62
     7
370
    25
100
AcDbCircle
 10
6207.0187553361
 20
5242.3278084955
 30
0.0
 40
2.000000000000287
100
AcDbArc
 50
0.5
 51
92.0154937467
  0
ARC
  5
95
330
1F
100
AcDbEntity
  8
0
  6
Continuous
 62
     7
370
    25
100
AcDbCircle
 10
6207.4465848332
 20
5193.3034039414
 30
0.0
 40
2.000000000001267
100
AcDbArc
 50
268.9845062533
 51
0.5
  0
LINE
  5
96
330
1F
100
AcDbEntity
  8
0
  6
Continuous
 62
     7
370
    25
100
AcDbLine
 10
6209.4465086793
 20
5193.3208570124
 30
0.0
 11
6209.0186791822
 21
5242.3452615665
 31
0.0
  0
LINE
  5
97
330
1F
100
AcDbEntity
  8
0
  6
Continuous
 62
     7
370
    25
100
AcDbLine
 10
6206.9484158409
 20
5244.3265712016
 30
0.0
 11
6181.9484158409
 21
5243.4467832338
 31
0.0
  0
LINE
  5
98
330
1F
100
AcDbEntity
  8
0
  6
Continuous
 62
     7
370
    25
100
AcDbLine
 10
6182.3995924741
 20
5191.7470618739
 30
0.0
 11
6207.4111392702
 21
5191.303718063
 31
0.0
  0
ARC
  5
99
330
1F
100
AcDbEntity
  8
0
  6
Continuous
 62
     7
370
    25
100
AcDbCircle
 10
6182.0187553361
 20
5241.4480205277
 30
0.0
 40
2.000000000000319
100
AcDbArc
 50
92.0154937468
 51
180.0
  0
ARC
  5
9A
330
1F
100
AcDbEntity
  8
0
  6
Continuous
 62
     7
370
    25
100
AcDbCircle
 10
6182.4350380371
 20
5193.7467477523
 30
0.0
 40
2.000000000000027
100
AcDbArc
 50
181.0
 51
268.9845062532
  0
LINE
  5
9B
330
1F
100
AcDbEntity
  8
0
  6
Continuous
 62
     7
370
    25
100
AcDbLine
 10
6180.0187553361
 20
5241.4480205277
 30
0.0
 11
6180.0187553361
 21
5237.5788755501
 31
0.0
  0
LINE
  5
9C
330
1F
100
AcDbEntity
  8
0
  6
Continuous
 62
     7
370
    25
100
AcDbLine
 10
6180.367816756
 20
5197.5803986275
 30
0.0
 11
6180.4353426467
 21
5193.7118429394
 31
0.0
  0
ARC
  5
9D
330
1F
100
AcDbEntity
  8
0
  6
Continuous
 62
     7
370
    25
100
AcDbCircle
 10
6158.4387992462
 20
5240.3548519475
 30
0.0
 40
0.25
100
AcDbArc
 50
90.0
 51
168.4999999998
  0
ARC
  5
9E
330
1F
100
AcDbEntity
  8
0
  6
Continuous
 62
     7
370
    25
100
AcDbCircle
 10
6158.8395948663
 20
5194.4282228602
 30
0.0
 40
0.2499999999996683
100
AcDbArc
 50
192.5000000002
 51
271.0000000001
  0
LINE
  5
9F
330
1F
100
AcDbEntity
  8
0
  6
Continuous
 62
     7
370
    25
100
AcDbLine
 10
6158.8439579679
 20
5194.1782609364
 30
0.0
 11
6159.6816489914
 21
5194.1928828876
 31
0.0
  0
LINE
  5
A0
330
1F
100
AcDbEntity
  8
0
  6
Continuous
 62
     7
370
    25
100
AcDbLine
 10
6159.2766178735
 20
5240.6048519475
 30
0.0
 11
6158.4387992462
 21
5240.6048519475
 31
0.0
  0
ARC
  5
A1
330
1F
100
AcDbEntity
  8
0
  6
Continuous
 62
     7
370
    25
100
AcDbCircle
 10
6159.2766178735
 20
5240.3548519475
 30
0.0
 40
0.25
100
AcDbArc
 50
10.5
 51
90.0
  0
ARC
  5
A2
330
1F
100
AcDbEntity
  8
0
  6
Continuous
 62
     7
370
    25
100
AcDbCircle
 10
6159.6772858898
 20
5194.4428448114
 30
0.0
 40
0.2500000000005312
100
AcDbArc
 50
271.0000000001
 51
350.4999999998
  0
LINE
  5
A3
330
1F
100
AcDbEntity
  8
0
  6
Continuous
 62
     7
370
    25
100
AcDbLine
 10
6158.19381807
 20
5240.4046939311
 30
0.0
 11
6157.7776256225
 21
5238.3590426963
 31
0.0
  0
LINE
  5
A4
330
1F
100
AcDbEntity
  8
0
  6
Continuous
 62
     7
370
    25
100
AcDbLine
 10
6158.1436902683
 20
5196.4121890691
 30
0.0
 11
6158.5955208645
 21
5194.3741129567
 31
0.0
  0
LINE
  5
A5
330
1F
100
AcDbEntity
  8
0
  6
Continuous
 62
     7
370
    25
100
AcDbLine
 10
6159.9238572901
 20
5194.4015829099
 30
0.0
 11
6160.4266870424
 21
5197.4063750249
 31
0.0
  0
LINE
  5
A6
330
1F
100
AcDbEntity
  8
0
  6
Continuous
 62
     7
370
    25
100
AcDbLine
 10
6160.0776256225
 20
5237.4048519475
 30
0.0
 11
6159.5224316004
 21
5240.4004108288
 31
0.0
  0
ARC
  5
A7
330
1F
100
AcDbEntity
  8
0
  6
Continuous
 62
     7
370
    25
100
AcDbCircle
 10
6142.4529357327
 20
5217.2502820412
 30
0.0
 40
23.99999999999999
100
AcDbArc
 50
290.0012723466
 51
303.9103151897
  0
ARC
  5
A8
330
1F
100
AcDbEntity
  8
0
  6
Continuous
 62
     7
370
    25
100
AcDbCircle
 10
6142.4529357327
 20
5217.2502820412
 30
0.0
 40
24.00000000000075
100
AcDbArc
 50
57.0896848103
 51
70.9987276534
  0
LINE
  5
A9
330
1F
100
AcDbEntity
  8
0
  6
Continuous
 62
     7
370
    25
100
AcDbLine
 10
6247.9587877665
 20
5199.7602920953
 30
0.0
 11
6248.5555511569
 21
5176.9708176516
 31
0.0
  0
LWPOLYLINE
  5
AA
330
1F
100
AcDbEntity
  8
0
  6
Continuous
 62
     7
370
    25
100
AcDbPolyline
 90
        7
 70
   128
 43
0.0
 10
6248.5546292297
 20
5177.0102427623
 10
6248.7298527927
 20
5175.85137039
 10
6249.682352959
 20
5173.9519580093
 10
6251.4345951168
 20
5172.2132892446
 10
6253.372505967
 20
5171.0942535688
 10
6254.5536721013
 20
5170.6770975743
 10
6256.5859270358
 20
5170.3994295927
  0
LINE
  5
AB
330
1F
100
AcDbEntity
  8
0
  6
Continuous
 62
     7
370
    25
100
AcDbLine
 10
6215.075531391
 20
5237.8848113999
 30
0.0
 11
6209.0580632208
 21
5237.8322977507
 31
0.0
  0
LINE
  5
AC
330
1F
100
AcDbEntity
  8
0
  6
Continuous
 62
     7
370
    25
100
AcDbLine
 10
6209.4071246407
 20
5197.8338208282
 30
0.0
 11
6216.6498673256
 21
5197.897027286
 31
0.0
  0
ARC
  5
AD
330
1F
100
AcDbEntity
  8
0
  6
Continuous
 62
     7
370
    25
100
AcDbCircle
 10
6156.3077385655
 20
5238.6580945979
 30
0.0
 40
1.500000000000748
100
AcDbArc
 50
237.0896848103
 51
348.5
  0
ARC
  5
AE
330
1F
100
AcDbEntity
  8
0
  6
Continuous
 62
     7
370
    25
100
AcDbCircle
 10
6156.6792462576
 20
5196.0875296482
 30
0.0
 40
1.50000000000058
100
AcDbArc
 50
12.5
 51
123.9103151897
  0
LINE
  5
AF
330
1F
100
AcDbEntity
  8
0
  6
Continuous
 62
     7
370
    25
100
AcDbLine
 10
6180.0187553361
 20
5237.5788755501
 30
0.0
 11
6160.0776256225
 21
5237.4048519475
 31
0.0
  0
LINE
  5
B0
330
1F
100
AcDbEntity
  8
0
  6
Continuous
 62
     7
370
    25
100
AcDbLine
 10
6160.4266870424
 20
5197.4063750249
 30
0.0
 11
6180.367816756
 21
5197.5803986275
 31
0.0
  0
LINE
  5
B1
330
1F
100
AcDbEntity
  8
0
  6
Continuous
 62
     7
370
    25
100
AcDbLine
 10
6124.1406343974
 20
5237.0911393767
 30
0.0
 11
6055.5892852738
 21
5236.492900816
 31
0.0
  0
LINE
  5
B2
330
1F
100
AcDbEntity
  8
0
  6
Continuous
 62
     7
370
    25
100
AcDbLine
 10
6055.9383450323
 20
5196.4946142781
 30
0.0
 11
6124.4896941558
 21
5197.0928528388
 31
0.0
  0
LINE
  5
B3
330
1F
100
AcDbEntity
  8
0
  6
Continuous
 62
     7
370
    25
100
AcDbLine
 10
6055.5892852738
 20
5236.492900816
 30
0.0
 11
6052.103555101
 21
5236.1771712445
 31
0.0
  0
LINE
  5
B4
330
1F
100
AcDbEntity
  8
0
  6
Continuous
 62
     7
370
    25
100
AcDbLine
 10
6052.4476355123
 20
5196.7494613827
 30
0.0
 11
6055.9383450323
 21
5196.4946142781
 31
0.0
  0
LINE
  5
B5
330
1F
100
AcDbEntity
  8
0
  6
Continuous
 62
     7
370
    25
100
AcDbLine
 10
6052.103555101
 20
5236.1771712445
 30
0.0
 11
6052.103555101
 21
5233.9623861136
 31
0.0
  0
LINE
  5
B6
330
1F
100
AcDbEntity
  8
0
  6
Continuous
 62
     7
370
    25
100
AcDbLine
 10
6052.408982182
 20
5198.9639091911
 30
0.0
 11
6052.4476355123
 21
5196.7494613827
 31
0.0
  0
ARC
  5
B7
330
1F
100
AcDbEntity
  8
0
  6
Continuous
 62
     7
370
    25
100
AcDbCircle
 10
6215.05807832
 20
5239.884735246
 30
0.0
 40
1.999999999999448
100
AcDbArc
 50
270.5
 51
0.5
  0
ARC
  5
B8
330
1F
100
AcDbEntity
  8
0
  6
Continuous
 62
     7
370
    25
100
AcDbCircle
 10
6216.8306388976
 20
5196.266725529
 30
0.0
 40
1.612651671836112
100
AcDbArc
 50
48.4360533132
 51
96.2068831879
  0
ARC
  5
B9
330
1F
100
AcDbEntity
  8
0
  6
Continuous
 62
     7
370
    25
100
AcDbCircle
 10
6222.9650514223
 20
5204.7389202592
 30
0.0
 40
8.836610070732569
100
AcDbArc
 50
235.0092265565
 51
282.7578591465
  0
LWPOLYLINE
  5
BA
330
1F
100
AcDbEntity
  8
0
  6
Continuous
 62
     7
370
    25
100
AcDbPolyline
 90
        3
 70
   128
 43
0.0
 10
6224.9633717955
 20
5196.1248175348
 10
6224.9688376206
 20
5196.1253242031
 10
6224.9584834296
 20
5196.1244618841
  0
LINE
  5
BB
330
1F
100
AcDbEntity
  8
0
  6
Continuous
 62
     7
370
    25
100
AcDbLine
 10
6681.3187553361
 20
5160.1994295927
 30
0.0
 11
6681.3187553361
 21
5230.1994295927
 31
0.0
  0
LINE
  5
BC
330
1F
100
AcDbEntity
  8
0
  6
Continuous
 62
     7
370
    25
100
AcDbLine
 10
6671.3187553361
 20
5230.1994295927
 30
0.0
 11
6671.3187553361
 21
5160.1994295927
 31
0.0
  0
LINE
  5
BD
330
1F
100
AcDbEntity
  8
0
  6
Continuous
 62
     7
370
    25
100
AcDbLine
 10
6681.3187553361
 20
5239.1994295927
 30
0.0
 11
6680.3187553361
 21
5240.1994295927
 31
0.0
  0
LINE
  5
BE
330
1F
100
AcDbEntity
  8
0
  6
Continuous
 62
     7
370
    25
100
AcDbLine
 10
6672.3187553361
 20
5240.1994295927
 30
0.0
 11
6671.3187553361
 21
5239.1994295927
 31
0.0
  0
LINE
  5
BF
330
1F
100
AcDbEntity
  8
0
  6
Continuous
 62
     7
370
    25
100
AcDbLine
 10
5876.7187553361
 20
5155.1994295927
 30
0.0
 11
5876.7187553361
 21
5230.1994295927
 31
0.0
  0
LINE
  5
C0
330
1F
100
AcDbEntity
  8
0
  6
Continuous
 62
     7
370
    25
100
AcDbLine
 10
5866.7187553361
 20
5230.1994295927
 30
0.0
 11
5866.7187553361
 21
5155.1994295927
 31
0.0
  0
LINE
  5
C1
330
1F
100
AcDbEntity
  8
0
  6
Continuous
 62
     7
370
    25
100
AcDbLine
 10
5876.7187553361
 20
5239.1994295927
 30
0.0
 11
5875.7187553361
 21
5240.1994295927
 31
0.0
  0
LINE
  5
C2
330
1F
100
AcDbEntity
  8
0
  6
Continuous
 62
     7
370
    25
100
AcDbLine
 10
5867.7187553361
 20
5240.1994295927
 30
0.0
 11
5866.7187553361
 21
5239.1994295927
 31
0.0
  0
LINE
  5
C3
330
1F
100
AcDbEntity
  8
0
  6
Continuous
 62
     7
370
    25
100
AcDbLine
 10
6694.6187553361
 20
5274.1994295927
 30
0.0
 11
5853.4187553361
 21
5274.1994295927
 31
0.0
  0
LINE
  5
C4
330
1F
100
AcDbEntity
  8
0
  6
Continuous
 62
     7
370
    25
100
AcDbLine
 10
5853.4187553361
 20
5274.1994295927
 30
0.0
 11
5850.7187553361
 21
5274.1994295927
 31
0.0
  0
LINE
  5
C5
330
1F
100
AcDbEntity
  8
0
  6
Continuous
 62
     7
370
    25
100
AcDbLine
 10
6697.3187553361
 20
5274.1994295927
 30
0.0
 11
6694.6187553361
 21
5274.1994295927
 31
0.0
  0
LINE
  5
C6
330
1F
100
AcDbEntity
  8
0
  6
Continuous
 62
     7
370
    25
100
AcDbLine
 10
6238.2332985674
 20
5256.9994295927
 30
0.0
 11
6240.7687553361
 21
5255.4492860395
 31
0.0
  0
LINE
  5
C7
330
1F
100
AcDbEntity
  8
0
  6
Continuous
 62
     7
370
    25
100
AcDbLine
 10
6242.478791473
 20
5254.403793359
 30
0.0
 11
6244.13369517
 21
5253.3920078973
 31
0.0
  0
LINE
  5
C8
330
1F
100
AcDbEntity
  8
0
  6
Continuous
 62
     7
370
    25
100
AcDbLine
 10
6303.9038155022
 20
5253.3920078973
 30
0.0
 11
6305.5587191992
 21
5254.403793359
 31
0.0
  0
LINE
  5
C9
330
1F
100
AcDbEntity
  8
0
  6
Continuous
 62
     7
370
    25
100
AcDbLine
 10
6307.2687553361
 20
5255.4492860395
 30
0.0
 11
6309.8042121048
 21
5256.9994295927
 31
0.0
  0
LINE
  5
CA
330
1F
100
AcDbEntity
  8
0
  6
Continuous
 62
     7
370
    25
100
AcDbLine
 10
6307.2687553361
 20
5254.403793359
 30
0.0
 11
6240.7687553361
 21
5254.403793359
 31
0.0
  0
LINE
  5
CB
330
1F
100
AcDbEntity
  8
0
  6
Continuous
 62
     7
370
    25
100
AcDbLine
 10
6234.0187553361
 20
5252.895718745
 30
0.0
 11
6314.0187553361
 21
5252.895718745
 31
0.0
  0
LINE
  5
CC
330
1F
100
AcDbEntity
  8
0
  6
Continuous
 62
     7
370
    25
100
AcDbLine
 10
6239.2281711583
 20
5206.0922647075
 30
0.0
 11
6238.978939987
 21
5244.3994295927
 31
0.0
  0
LWPOLYLINE
  5
CD
330
1F
100
AcDbEntity
  8
0
  6
Continuous
 62
     7
370
    25
100
AcDbPolyline
 90
       18
 70
   128
 43
0.0
 10
6317.7728701909
 20
5229.6989024751
 10
6317.8179474112
 20
5229.7297823121
 10
6317.0746431675
 20
5229.2267691506
 10
6315.5331883308
 20
5228.2006136862
 10
6313.4513558374
 20
5226.8468725163
 10
6310.813533529
 20
5225.1831812465
 10
6307.714577978
 20
5223.3001186353
 10
6304.1299940575
 20
5221.218314352
 10
6300.166592331
 20
5219.02862017
 10
6295.901327706
 20
5216.7990864528
 10
6289.4196487345
 20
5213.6588028027
 10
6282.5436487513
 20
5210.6312176293
 10
6275.8778265166
 20
5207.9868787103
 10
6269.1422089835
 20
5205.5871331617
 10
6262.71152514
 20
5203.5476754949
 10
6256.5475900396
 20
5201.8108974715
 10
6250.8859445234
 20
5200.403244367
 10
6245.8615497504
 20
5199.2978336541
  0
LWPOLYLINE
  5
CE
330
1F
100
AcDbEntity
  8
0
  6
Continuous
 62
     7
370
    25
100
AcDbPolyline
 90
        9
 70
   128
 43
0.0
 10
6239.2281711583
 20
5206.0922647075
 10
6239.4919429644
 20
5204.6197544863
 10
6239.9821298386
 20
5203.2173246852
 10
6240.6763318122
 20
5201.9490618506
 10
6241.54282608
 20
5200.8729215288
 10
6242.5420166316
 20
5200.0380798831
 10
6243.6282436615
 20
5199.4826865006
 10
6244.7518700762
 20
5199.2321210788
 10
6245.8615497504
 20
5199.2978336541
  0
ARC
  5
CF
330
1F
100
AcDbEntity
  8
0
  6
Continuous
 62
     7
370
    25
100
AcDbCircle
 10
6240.07644716
 20
5247.6367790091
 30
0.0
 40
1.79163248606482
100
AcDbArc
 50
100.3196220903
 51
187.6127302625
  0
LINE
  5
D0
330
1F
100
AcDbEntity
  8
0
  6
Continuous
 62
     7
370
    25
100
AcDbLine
 10
6239.7554956289
 20
5249.3994295927
 30
0.0
 11
6321.0187553361
 21
5249.3994295927
 31
0.0
  0
LINE
  5
D1
330
1F
100
AcDbEntity
  8
0
  6
Continuous
 62
     7
370
    25
100
AcDbLine
 10
6238.3006058891
 20
5244.3994295927
 30
0.0
 11
6323.0187553361
 21
5244.3994295927
 31
0.0
  0
LINE
  5
D2
330
1F
100
AcDbEntity
  8
0
  6
Continuous
 62
     7
370
    25
100
AcDbLine
 10
6238.3006058891
 20
5247.3994295927
 30
0.0
 11
6238.3006058891
 21
5244.3994295927
 31
0.0
  0
LINE
  5
D3
330
1F
100
AcDbEntity
  8
0
  6
Continuous
 62
     7
370
    25
100
AcDbLine
 10
6232.2687553361
 20
5252.3994295927
 30
0.0
 11
6315.7687553361
 21
5252.3994295927
 31
0.0
  0
LINE
  5
D4
330
1F
100
AcDbEntity
  8
0
  6
Continuous
 62
     7
370
    25
100
AcDbLine
 10
6250.1743875592
 20
5177.2161909546
 30
0.0
 11
6249.7305071389
 21
5200.1363370965
 31
0.0
  0
LINE
  5
D5
330
1F
100
AcDbEntity
  8
0
  6
Continuous
 62
     7
370
    25
100
AcDbLine
 10
6238.3006058891
 20
5247.3994295927
 30
0.0
 11
6220.7625077158
 21
5247.3994295927
 31
0.0
  0
ARC
  5
D6
330
1F
100
AcDbEntity
  8
0
  6
Continuous
 62
     7
370
    25
100
AcDbCircle
 10
6223.8177785637
 20
5247.8833259388
 30
0.0
 40
3.093353459904417
100
AcDbArc
 50
150.6517591701
 51
188.9997984493
  0
LINE
  5
D7
330
1F
100
AcDbEntity
  8
0
  6
Continuous
 62
     7
370
    25
100
AcDbLine
 10
6221.1214356073
 20
5249.3994295927
 30
0.0
 11
6239.7554956289
 21
5249.3994295927
 31
0.0
  0
LINE
  5
D8
330
1F
100
AcDbEntity
  8
0
  6
Continuous
 62
     7
370
    25
100
AcDbLine
 10
6220.7625077158
 20
5247.3994295927
 30
0.0
 11
6220.7625077158
 21
5244.3994295927
 31
0.0
  0
LINE
  5
D9
330
1F
100
AcDbEntity
  8
0
  6
Continuous
 62
     7
370
    25
100
AcDbLine
 10
6220.7625077158
 20
5244.3994295927
 30
0.0
 11
6238.3006058891
 21
5244.3994295927
 31
0.0
  0
ARC
  5
DA
330
1F
100
AcDbEntity
  8
0
  6
Continuous
 62
     7
370
    25
100
AcDbCircle
 10
6207.3936298622
 20
5330.8161065324
 30
0.0
 40
128.7224717719351
100
AcDbArc
 50
276.5444516408
 51
284.318474563
  0
LWPOLYLINE
  5
DB
330
1F
100
AcDbEntity
  8
0
  6
Continuous
 62
     7
370
    25
100
AcDbPolyline
 90
        6
 70
   128
 43
0.0
 10
6222.0646474319
 20
5202.9324250771
 10
6222.2378171069
 20
5201.588960521
 10
6222.5043085579
 20
5200.2485252856
 10
6223.230756787
 20
5198.0224189335
 10
6224.1303911652
 20
5196.5803864899
 10
6225.0664761678
 20
5196.1354266237
  0
ARC
  5
DC
330
1F
100
AcDbEntity
  8
0
  6
Continuous
 62
     7
370
    25
100
AcDbCircle
 10
6205.4363668662
 20
5395.1697422802
 30
0.0
 40
200.0000000001492
100
AcDbArc
 50
275.6326806459
 51
281.6613043232
  0
LINE
  5
DD
330
1F
100
AcDbEntity
  8
0
  6
Continuous
 62
     7
370
    25
100
AcDbLine
 10
6222.0646474319
 20
5202.9324250771
 30
0.0
 11
6222.0034090068
 21
5244.3994295927
 31
0.0
  0
LINE
  5
DE
330
1F
100
AcDbEntity
  8
0
  6
Continuous
 62
     7
370
    25
100
AcDbLine
 10
6299.2618990435
 20
5170.3994295927
 30
0.0
 11
6256.5859270358
 21
5170.3994295927
 31
0.0
  0
ARC
  5
DF
330
1F
100
AcDbEntity
  8
0
  6
Continuous
 62
     7
370
    25
100
AcDbCircle
 10
6256.8854772398
 20
5177.104756726
 30
0.0
 40
6.71201477116945
100
AcDbArc
 50
179.0487201604
 51
267.4420996519
  0
LINE
  5
E0
330
1F
100
AcDbEntity
  8
0
  6
Continuous
 62
     7
370
    25
100
AcDbLine
 10
6150.2670753606
 20
5243.094802193
 30
0.0
 11
6150.7169342992
 21
5191.5460736758
 31
0.0
  0
LINE
  5
E1
330
1F
100
AcDbEntity
  8
0
  6
Continuous
 62
     7
370
    25
100
AcDbLine
 10
6124.1406343974
 20
5237.0911393767
 30
0.0
 11
6124.4896941558
 21
5197.0928528388
 31
0.0
  0
LINE
  5
E2
330
1F
100
AcDbEntity
  8
0
  6
Continuous
 62
     7
370
    25
100
AcDbLine
 10
6215.0187553361
 20
5247.3994295927
 30
0.0
 11
6215.0187553361
 21
5244.3994295927
 31
0.0
  0
LINE
  5
E3
330
1F
100
AcDbEntity
  8
0
  6
Continuous
 62
     7
370
    25
100
AcDbLine
 10
6220.7625077158
 20
5247.3994295927
 30
0.0
 11
6215.0187553361
 21
5247.3994295927
 31
0.0
  0
LINE
  5
E4
330
1F
100
AcDbEntity
  8
0
  6
Continuous
 62
     7
370
    25
100
AcDbLine
 10
6215.0187553361
 20
5244.3994295927
 30
0.0
 11
6220.7625077158
 21
5244.3994295927
 31
0.0
  0
ARC
  5
E5
330
1F
100
AcDbEntity
  8
0
  6
Continuous
 62
     7
370
    25
100
AcDbCircle
 10
6217.0187553361
 20
5247.3994295927
 30
0.0
 40
2.0
100
AcDbArc
 50
90.0
 51
180.0
  0
LINE
  5
E6
330
1F
100
AcDbEntity
  8
0
  6
Continuous
 62
     7
370
    25
100
AcDbLine
 10
6217.0187553361
 20
5249.3994295927
 30
0.0
 11
6221.1214356073
 21
5249.3994295927
 31
0.0
  0
LINE
  5
E7
330
1F
100
AcDbEntity
  8
0
  6
Continuous
 62
     7
370
    25
100
AcDbLine
 10
6180.367816756
 20
5197.5803986275
 30
0.0
 11
6180.0187553361
 21
5237.5788755501
 31
0.0
  0
LINE
  5
E8
330
1F
100
AcDbEntity
  8
0
  6
Continuous
 62
     7
370
    25
100
AcDbLine
 10
6160.0776256225
 20
5237.4048519475
 30
0.0
 11
6160.4266870424
 21
5197.4063750249
 31
0.0
  0
ARC
  5
E9
330
1F
100
AcDbEntity
  8
0
  6
Continuous
 62
     7
370
    25
100
AcDbCircle
 10
6220.6942476888
 20
5246.6725229277
 30
0.0
 40
43.76156024910997
100
AcDbArc
 50
265.6588877915
 51
271.794519202
  0
LWPOLYLINE
  5
EA
330
1F
100
AcDbEntity
  8
0
  6
Continuous
 62
     7
370
    25
100
AcDbPolyline
 90
       11
 70
   128
 43
0.0
 10
6217.1183232808
 20
5232.9900732163
 10
6217.2756194896
 20
5230.9459559464
 10
6217.6396865851
 20
5228.7537518256
 10
6218.3510606342
 20
5225.3386855482
 10
6219.0238711509
 20
5221.7231014123
 10
6219.2969571782
 20
5219.1890369266
 10
6219.3229421487
 20
5216.5896001429
 10
6218.7048671643
 20
5211.58830264
 10
6218.0542560291
 20
5208.2281328917
 10
6217.5167526775
 20
5204.9548397935
 10
6217.3817542264
 20
5203.0365071461
  0
LINE
  5
EB
330
1F
100
AcDbEntity
  8
0
  6
Continuous
 62
     7
370
    25
100
AcDbLine
 10
6217.1183232808
 20
5232.9900732163
 30
0.0
 11
6217.0187553361
 21
5244.3994295927
 31
0.0
  0
ARC
  5
EC
330
1F
100
AcDbEntity
  8
0
  6
Continuous
 62
     7
370
    25
100
AcDbCircle
 10
6224.3794223422
 20
5203.1016276717
 30
0.0
 40
7.000000000000386
100
AcDbArc
 50
181.914945567
 51
275.6326806459
  0
LWPOLYLINE
  5
ED
330
1F
100
AcDbEntity
  8
0
  6
Continuous
 62
     7
370
    25
100
AcDbPolyline
 90
        4
 70
   128
 43
0.0
 10
6217.3817629049
 20
5203.0365113281
 10
6217.3817622372
 20
5203.0364660739
 10
6217.3833347494
 20
5202.8677984383
 10
6217.3833362467
 20
5202.867753733
  0
LWPOLYLINE
  5
EE
330
1F
100
AcDbEntity
  8
0
  6
Continuous
 62
     7
370
    25
100
AcDbPolyline
 90
       12
 70
   128
 43
0.0
 10
6215.3707559867
 20
5204.3705579716
 10
6215.5609290267
 20
5206.1146596789
 10
6216.2809055865
 20
5209.0213682274
 10
6217.1898760065
 20
5212.1464144353
 10
6217.7247271125
 20
5214.3792216511
 10
6218.0380611415
 20
5216.6937528676
 10
6218.0047626296
 20
5219.0462221668
 10
6217.6498913252
 20
5221.360296578
 10
6216.7567617548
 20
5224.6595515621
 10
6215.813584782
 20
5227.7503844661
 10
6215.3325011085
 20
5229.7464472124
 10
6215.1303687679
 20
5231.6010703993
  0
ARC
  5
EF
330
1F
100
AcDbEntity
  8
0
  6
Continuous
 62
     7
370
    25
100
AcDbCircle
 10
6215.379857893
 20
5233.3610905543
 30
0.0
 40
1.77761519162663
100
AcDbArc
 50
261.9318731471
 51
347.952862863
  0
ARC
  5
F0
330
1F
100
AcDbEntity
  8
0
  6
Continuous
 62
     7
370
    25
100
AcDbCircle
 10
6215.62363942
 20
5202.5690114508
 30
0.0
 40
1.81920859098918
100
AcDbArc
 50
14.8907936099
 51
97.990412116
  0
LINE
  5
F1
330
1F
100
AcDbEntity
  8
0
  6
Continuous
 62
     7
370
    25
100
AcDbLine
 10
6215.3724892376
 20
5204.1721584099
 30
0.0
 11
6215.370773051
 21
5204.3705578682
 31
0.0
  0
LINE
  5
F2
330
1F
100
AcDbEntity
  8
0
  6
Continuous
 62
     7
370
    25
100
AcDbLine
 10
6215.7718976569
 20
5202.0152682386
 30
0.0
 11
6215.3724833559
 21
5204.1721582739
 31
0.0
  0
LINE
  5
F3
330
1F
100
AcDbEntity
  8
0
  6
Continuous
 62
     7
370
    25
100
AcDbLine
 10
6055.5892852738
 20
5236.492900816
 30
0.0
 11
6055.9383450323
 21
5196.4946142781
 31
0.0
  0
LINE
  5
F4
330
1F
100
AcDbEntity
  8
0
  6
Continuous
 62
     7
370
    25
100
AcDbLine
 10
6052.103555101
 20
5236.1771712445
 30
0.0
 11
6052.4476355123
 21
5196.7494613827
 31
0.0
  0
LINE
  5
F5
330
1F
100
AcDbEntity
  8
0
  6
Continuous
 62
     7
370
    25
100
AcDbLine
 10
6052.103555101
 20
5233.9623861136
 30
0.0
 11
6052.408982182
 21
5198.9639091911
 31
0.0
  0
ARC
  5
F6
330
1F
100
AcDbEntity
  8
0
  6
Continuous
 62
     7
370
    25
100
AcDbCircle
 10
6215.6724657455
 20
5202.4325105256
 30
0.0
 40
1.765353851704063
100
AcDbArc
 50
14.2723990243
 51
99.7836484595
  0
ARC
  5
F7
330
1F
100
AcDbEntity
  8
0
  6
Continuous
 62
     7
370
    25
100
AcDbCircle
 10
6216.1314120213
 20
5200.3522489256
 30
0.0
 40
1.701435809411332
100
AcDbArc
 50
23.183457049
 51
102.198580133
  0
LINE
  5
F8
330
1F
100
AcDbEntity
  8
0
  6
Continuous
 62
     7
370
    25
100
AcDbLine
 10
5863.2187553361
 20
5160.1994295927
 30
0.0
 11
5863.2187553361
 21
5155.1994295927
 31
0.0
  0
LINE
  5
F9
330
1F
100
AcDbEntity
  8
0
  6
Continuous
 62
     7
370
    25
100
AcDbLine
 10
5863.2187553361
 20
5160.1994295927
 30
0.0
 11
5866.7187553361
 21
5160.1994295927
 31
0.0
  0
LINE
  5
FA
330
1F
100
AcDbEntity
  8
0
  6
Continuous
 62
     7
370
    25
100
AcDbLine
 10
5880.2187553361
 20
5160.1994295927
 30
0.0
 11
5880.2187553361
 21
5155.1994295927
 31
0.0
  0
LINE
  5
FB
330
1F
100
AcDbEntity
  8
0
  6
Continuous
 62
     7
370
    25
100
AcDbLine
 10
5876.7187553361
 20
5160.1994295927
 30
0.0
 11
5880.2187553361
 21
5160.1994295927
 31
0.0
  0
LINE
  5
FC
330
1F
100
AcDbEntity
  8
0
  6
Continuous
 62
     7
370
    25
100
AcDbLine
 10
6667.8187553361
 20
5160.1994295927
 30
0.0
 11
6667.8187553361
 21
5153.1994295927
 31
0.0
  0
LINE
  5
FD
330
1F
100
AcDbEntity
  8
0
  6
Continuous
 62
     7
370
    25
100
AcDbLine
 10
6667.8187553361
 20
5160.1994295927
 30
0.0
 11
6676.3187553361
 21
5160.1994295927
 31
0.0
  0
LINE
  5
FE
330
1F
100
AcDbEntity
  8
0
  6
Continuous
 62
     7
370
    25
100
AcDbLine
 10
6676.3187553361
 20
5160.1994295927
 30
0.0
 11
6676.3187553361
 21
5153.1994295927
 31
0.0
  0
LINE
  5
FF
330
1F
100
AcDbEntity
  8
0
  6
Continuous
 62
     7
370
    25
100
AcDbLine
 10
6667.8187553361
 20
5153.1994295927
 30
0.0
 11
6676.3187553361
 21
5153.1994295927
 31
0.0
  0
LINE
  5
100
330
1F
100
AcDbEntity
  8
0
  6
Continuous
 62
     7
370
    25
100
AcDbLine
 10
6676.3187553361
 20
5160.1994295927
 30
0.0
 11
6684.8187553361
 21
5160.1994295927
 31
0.0
  0
LINE
  5
101
330
1F
100
AcDbEntity
  8
0
  6
Continuous
 62
     7
370
    25
100
AcDbLine
 10
6684.8187553361
 20
5160.1994295927
 30
0.0
 11
6684.8187553361
 21
5153.1994295927
 31
0.0
  0
LINE
  5
102
330
1F
100
AcDbEntity
  8
0
  6
Continuous
 62
     7
370
    25
100
AcDbLine
 10
6676.3187553361
 20
5153.1994295927
 30
0.0
 11
6684.8187553361
 21
5153.1994295927
 31
0.0
  0
LINE
  5
103
330
1F
100
AcDbEntity
  8
0
  6
Continuous
 62
     7
370
    25
100
AcDbLine
 10
6676.3187553361
 20
5240.1994295927
 30
0.0
 11
6680.3187553361
 21
5240.1994295927
 31
0.0
  0
LINE
  5
104
330
1F
100
AcDbEntity
  8
0
  6
Continuous
 62
     7
370
    25
100
AcDbLine
 10
6672.3187553361
 20
5240.1994295927
 30
0.0
 11
6676.3187553361
 21
5240.1994295927
 31
0.0
  0
LINE
  5
105
330
1F
100
AcDbEntity
  8
0
  6
Continuous
 62
     7
370
    25
100
AcDbLine
 10
6640.3187553361
 20
5155.1994295927
 30
0.0
 11
6640.3187553361
 21
5153.1994295927
 31
0.0
  0
LINE
  5
106
330
1F
100
AcDbEntity
  8
0
  6
Continuous
 62
     7
370
    25
100
AcDbLine
 10
6640.3187553361
 20
5155.1994295927
 30
0.0
 11
6667.8187553361
 21
5155.1994295927
 31
0.0
  0
LINE
  5
107
330
1F
100
AcDbEntity
  8
0
  6
Continuous
 62
     7
370
    25
100
AcDbLine
 10
6684.8187553361
 20
5155.1994295927
 30
0.0
 11
6690.3187553361
 21
5155.1994295927
 31
0.0
  0
LINE
  5
108
330
1F
100
AcDbEntity
  8
0
  6
Continuous
 62
     7
370
    25
100
AcDbLine
 10
6690.3187553361
 20
5155.1994295927
 30
0.0
 11
6690.3187553361
 21
5153.1994295927
 31
0.0
  0
LINE
  5
109
330
1F
100
AcDbEntity
  8
0
  6
Continuous
 62
     7
370
    25
100
AcDbLine
 10
6640.3187553361
 20
5153.1994295927
 30
0.0
 11
6667.8187553361
 21
5153.1994295927
 31
0.0
  0
LINE
  5
10A
330
1F
100
AcDbEntity
  8
0
  6
Continuous
 62
     7
370
    25
100
AcDbLine
 10
6684.8187553361
 20
5153.1994295927
 30
0.0
 11
6690.3187553361
 21
5153.1994295927
 31
0.0
  0
LINE
  5
10B
330
1F
100
AcDbEntity
  8
0
  6
Continuous
 62
     7
370
    25
100
AcDbLine
 10
5857.7187553361
 20
5155.1994295927
 30
0.0
 11
5857.7187553361
 21
5153.1994295927
 31
0.0
  0
LINE
  5
10C
330
1F
100
AcDbEntity
  8
0
  6
Continuous
 62
     7
370
    25
100
AcDbLine
 10
5907.7187553361
 20
5155.1994295927
 30
0.0
 11
5907.7187553361
 21
5153.1994295927
 31
0.0
  0
LINE
  5
10D
330
1F
100
AcDbEntity
  8
0
  6
Continuous
 62
     7
370
    25
100
AcDbLine
 10
5857.7187553361
 20
5155.1994295927
 30
0.0
 11
5907.7187553361
 21
5155.1994295927
 31
0.0
  0
LINE
  5
10E
330
1F
100
AcDbEntity
  8
0
  6
Continuous
 62
     7
370
    25
100
AcDbLine
 10
5857.7187553361
 20
5153.1994295927
 30
0.0
 11
5907.7187553361
 21
5153.1994295927
 31
0.0
  0
LINE
  5
10F
330
1F
100
AcDbEntity
  8
0
  6
Continuous
 62
     7
370
    25
100
AcDbLine
 10
5867.7187553361
 20
5240.1994295927
 30
0.0
 11
5875.7187553361
 21
5240.1994295927
 31
0.0
  0
LINE
  5
110
330
1F
100
AcDbEntity
  8
0
  6
Continuous
 62
     7
370
    25
100
AcDbLine
 10
6676.3187553361
 20
5239.1994295927
 30
0.0
 11
6676.3187553361
 21
5232.1994295927
 31
0.0
  0
LINE
  5
111
330
1F
100
AcDbEntity
  8
0
  6
Continuous
 62
     7
370
    25
100
AcDbLine
 10
6676.3187553361
 20
5239.1994295927
 30
0.0
 11
6684.8187553361
 21
5239.1994295927
 31
0.0
  0
LINE
  5
112
330
1F
100
AcDbEntity
  8
0
  6
Continuous
 62
     7
370
    25
100
AcDbLine
 10
6684.8187553361
 20
5239.1994295927
 30
0.0
 11
6684.8187553361
 21
5232.1994295927
 31
0.0
  0
LINE
  5
113
330
1F
100
AcDbEntity
  8
0
  6
Continuous
 62
     7
370
    25
100
AcDbLine
 10
6676.3187553361
 20
5232.1994295927
 30
0.0
 11
6678.3507325016
 21
5232.1994295927
 31
0.0
  0
LINE
  5
114
330
1F
100
AcDbEntity
  8
0
  6
Continuous
 62
     7
370
    25
100
AcDbLine
 10
5863.2187553361
 20
5239.1994295927
 30
0.0
 11
5863.2187553361
 21
5232.1994295927
 31
0.0
  0
LINE
  5
115
330
1F
100
AcDbEntity
  8
0
  6
Continuous
 62
     7
370
    25
100
AcDbLine
 10
5871.7187553361
 20
5239.1994295927
 30
0.0
 11
5863.2187553361
 21
5239.1994295927
 31
0.0
  0
LINE
  5
116
330
1F
100
AcDbEntity
  8
0
  6
Continuous
 62
     7
370
    25
100
AcDbLine
 10
5871.7187553361
 20
5239.1994295927
 30
0.0
 11
5871.7187553361
 21
5232.1994295927
 31
0.0
  0
LINE
  5
117
330
1F
100
AcDbEntity
  8
0
  6
Continuous
 62
     7
370
    25
100
AcDbLine
 10
5871.7187553361
 20
5232.1994295927
 30
0.0
 11
5869.6867781706
 21
5232.1994295927
 31
0.0
  0
LINE
  5
118
330
1F
100
AcDbEntity
  8
0
  6
Continuous
 62
     7
370
    25
100
AcDbLine
 10
6667.8187553361
 20
5239.1994295927
 30
0.0
 11
6667.8187553361
 21
5232.1994295927
 31
0.0
  0
LINE
  5
119
330
1F
100
AcDbEntity
  8
0
  6
Continuous
 62
     7
370
    25
100
AcDbLine
 10
6667.8187553361
 20
5239.1994295927
 30
0.0
 11
6676.3187553361
 21
5239.1994295927
 31
0.0
  0
LINE
  5
11A
330
1F
100
AcDbEntity
  8
0
  6
Continuous
 62
     7
370
    25
100
AcDbLine
 10
6674.2867781706
 20
5232.1994295927
 30
0.0
 11
6676.3187553361
 21
5232.1994295927
 31
0.0
  0
LINE
  5
11B
330
1F
100
AcDbEntity
  8
0
  6
Continuous
 62
     7
370
    25
100
AcDbLine
 10
5880.2187553361
 20
5239.1994295927
 30
0.0
 11
5880.2187553361
 21
5232.1994295927
 31
0.0
  0
LINE
  5
11C
330
1F
100
AcDbEntity
  8
0
  6
Continuous
 62
     7
370
    25
100
AcDbLine
 10
5880.2187553361
 20
5239.1994295927
 30
0.0
 11
5871.7187553361
 21
5239.1994295927
 31
0.0
  0
LINE
  5
11D
330
1F
100
AcDbEntity
  8
0
  6
Continuous
 62
     7
370
    25
100
AcDbLine
 10
5873.7507325016
 20
5232.1994295927
 30
0.0
 11
5871.7187553361
 21
5232.1994295927
 31
0.0
  0
LINE
  5
11E
330
1F
100
AcDbEntity
  8
0
  6
Continuous
 62
     7
370
    25
100
AcDbLine
 10
5869.6867781706
 20
5232.1994295927
 30
0.0
 11
5861.7187553361
 21
5232.1994295927
 31
0.0
  0
LINE
  5
11F
330
1F
100
AcDbEntity
  8
0
  6
Continuous
 62
     7
370
    25
100
AcDbLine
 10
5881.7187553361
 20
5232.1994295927
 30
0.0
 11
5873.7507325016
 21
5232.1994295927
 31
0.0
  0
LINE
  5
120
330
1F
100
AcDbEntity
  8
0
  6
Continuous
 62
     7
370
    25
100
AcDbLine
 10
5881.7187553361
 20
5232.1994295927
 30
0.0
 11
5881.7187553361
 21
5230.1994295927
 31
0.0
  0
LINE
  5
121
330
1F
100
AcDbEntity
  8
0
  6
Continuous
 62
     7
370
    25
100
AcDbLine
 10
5881.7187553361
 20
5230.1994295927
 30
0.0
 11
5861.7187553361
 21
5230.1994295927
 31
0.0
  0
LINE
  5
122
330
1F
100
AcDbEntity
  8
0
  6
Continuous
 62
     7
370
    25
100
AcDbLine
 10
5861.7187553361
 20
5232.1994295927
 30
0.0
 11
5861.7187553361
 21
5230.1994295927
 31
0.0
  0
LINE
  5
123
330
1F
100
AcDbEntity
  8
0
  6
Continuous
 62
     7
370
    25
100
AcDbLine
 10
6666.3187553361
 20
5230.1994295927
 30
0.0
 11
6686.3187553361
 21
5230.1994295927
 31
0.0
  0
LINE
  5
124
330
1F
100
AcDbEntity
  8
0
  6
Continuous
 62
     7
370
    25
100
AcDbLine
 10
6678.3507325016
 20
5232.1994295927
 30
0.0
 11
6686.3187553361
 21
5232.1994295927
 31
0.0
  0
LINE
  5
125
330
1F
100
AcDbEntity
  8
0
  6
Continuous
 62
     7
370
    25
100
AcDbLine
 10
6666.3187553361
 20
5232.1994295927
 30
0.0
 11
6674.2867781706
 21
5232.1994295927
 31
0.0
  0
LINE
  5
126
330
1F
100
AcDbEntity
  8
0
  6
Continuous
 62
     7
370
    25
100
AcDbLine
 10
6666.3187553361
 20
5232.1994295927
 30
0.0
 11
6666.3187553361
 21
5230.1994295927
 31
0.0
  0
LINE
  5
127
330
1F
100
AcDbEntity
  8
0
  6
Continuous
 62
     7
370
    25
100
AcDbLine
 10
6686.3187553361
 20
5232.1994295927
 30
0.0
 11
6686.3187553361
 21
5230.1994295927
 31
0.0
  0
LINE
  5
128
330
1F
100
AcDbEntity
  8
0
  6
Continuous
 62
     7
370
    25
100
AcDbLine
 10
5861.7187553361
 20
5232.4493156103
 30
0.0
 11
5861.7187553361
 21
5232.1994295927
 31
0.0
  0
LINE
  5
129
330
1F
100
AcDbEntity
  8
0
  6
Continuous
 62
     7
370
    25
100
AcDbLine
 10
5881.7187553361
 20
5232.4493156103
 30
0.0
 11
5881.7187553361
 21
5232.1994295927
 31
0.0
  0
LINE
  5
12A
330
1F
100
AcDbEntity
  8
0
  6
Continuous
 62
     7
370
    25
100
AcDbLine
 10
6666.3187553361
 20
5232.4493156103
 30
0.0
 11
6666.3187553361
 21
5232.1994295927
 31
0.0
  0
LINE
  5
12B
330
1F
100
AcDbEntity
  8
0
  6
Continuous
 62
     7
370
    25
100
AcDbLine
 10
6686.3187553361
 20
5232.4493156103
 30
0.0
 11
6686.3187553361
 21
5232.1994295927
 31
0.0
  0
LINE
  5
12C
330
1F
100
AcDbEntity
  8
0
  6
Continuous
 62
     7
370
    25
100
AcDbLine
 10
5881.7187553361
 20
5256.2497715399
 30
0.0
 11
5861.7187553361
 21
5256.2497715399
 31
0.0
  0
LINE
  5
12D
330
1F
100
AcDbEntity
  8
0
  6
Continuous
 62
     7
370
    25
100
AcDbLine
 10
5861.7187553361
 20
5256.2497715399
 30
0.0
 11
5861.7187553361
 21
5232.4493156103
 31
0.0
  0
LINE
  5
12E
330
1F
100
AcDbEntity
  8
0
  6
Continuous
 62
     7
370
    25
100
AcDbLine
 10
5881.7187553361
 20
5256.2497715399
 30
0.0
 11
5881.7187553361
 21
5232.4493156103
 31
0.0
  0
LINE
  5
12F
330
1F
100
AcDbEntity
  8
0
  6
Continuous
 62
     7
370
    25
100
AcDbLine
 10
6666.3187553361
 20
5256.2497715399
 30
0.0
 11
6686.3187553361
 21
5256.2497715399
 31
0.0
  0
LINE
  5
130
330
1F
100
AcDbEntity
  8
0
  6
Continuous
 62
     7
370
    25
100
AcDbLine
 10
6666.3187553361
 20
5256.2497715399
 30
0.0
 11
6666.3187553361
 21
5232.4493156103
 31
0.0
  0
LINE
  5
131
330
1F
100
AcDbEntity
  8
0
  6
Continuous
 62
     7
370
    25
100
AcDbLine
 10
6686.3187553361
 20
5256.2497715399
 30
0.0
 11
6686.3187553361
 21
5232.4493156103
 31
0.0
  0
LINE
  5
132
330
1F
100
AcDbEntity
  8
0
  6
Continuous
 62
     7
370
    25
100
AcDbLine
 10
5821.7187553361
 20
5258.1994295927
 30
0.0
 11
5821.7187553361
 21
5256.9994295927
 31
0.0
  0
LINE
  5
133
330
1F
100
AcDbEntity
  8
0
  6
Continuous
 62
     7
370
    25
100
AcDbLine
 10
6726.3187553361
 20
5258.1994295927
 30
0.0
 11
6726.3187553361
 21
5256.9994295927
 31
0.0
  0
LINE
  5
134
330
1F
100
AcDbEntity
  8
0
  6
Continuous
 62
     7
370
    25
100
AcDbLine
 10
5821.7187553361
 20
5258.1994295927
 30
0.0
 11
6726.3187553361
 21
5258.1994295927
 31
0.0
  0
LINE
  5
135
330
1F
100
AcDbEntity
  8
0
  6
Continuous
 62
     7
370
    25
100
AcDbLine
 10
5821.7187553361
 20
5256.9994295927
 30
0.0
 11
6726.3187553361
 21
5256.9994295927
 31
0.0
  0
LINE
  5
136
330
1F
100
AcDbEntity
  8
0
  6
Continuous
 62
     7
370
    25
100
AcDbLine
 10
6694.6187553361
 20
5272.1478882613
 30
0.0
 11
5853.4187553361
 21
5272.1478882613
 31
0.0
  0
LINE
  5
137
330
1F
100
AcDbEntity
  8
0
  6
Continuous
 62
     7
370
    25
100
AcDbLine
 10
5853.4187553361
 20
5272.1478882613
 30
0.0
 11
5849.055499886
 21
5272.1478882613
 31
0.0
  0
ARC
  5
138
330
1F
100
AcDbEntity
  8
0
  6
Continuous
 62
     7
370
    25
100
AcDbCircle
 10
5850.7187553361
 20
5272.4994295927
 30
0.0
 40
1.700000000000129
100
AcDbArc
 50
90.0
 51
191.9342465732
  0
LINE
  5
139
330
1F
100
AcDbEntity
  8
0
  6
Continuous
 62
     7
370
    25
100
AcDbLine
 10
6698.9820107862
 20
5272.1478882613
 30
0.0
 11
6694.6187553361
 21
5272.1478882613
 31
0.0
  0
ARC
  5
13A
330
1F
100
AcDbEntity
  8
0
  6
Continuous
 62
     7
370
    25
100
AcDbCircle
 10
6697.3187553361
 20
5272.4994295927
 30
0.0
 40
1.700000000000129
100
AcDbArc
 50
348.0657534268
 51
90.0
  0
LINE
  5
13B
330
1F
100
AcDbEntity
  8
0
  6
Continuous
 62
     7
370
    25
100
AcDbLine
 10
6698.0928180068
 20
5267.9408303581
 30
0.0
 11
6694.6187553361
 21
5267.9408303581
 31
0.0
  0
LINE
  5
13C
330
1F
100
AcDbEntity
  8
0
  6
Continuous
 62
     7
370
    25
100
AcDbLine
 10
6694.6187553361
 20
5272.1478882613
 30
0.0
 11
6694.6187553361
 21
5267.9408303581
 31
0.0
  0
LINE
  5
13D
330
1F
100
AcDbEntity
  8
0
  6
Continuous
 62
     7
370
    25
100
AcDbLine
 10
6698.9820107862
 20
5272.1478882613
 30
0.0
 11
6698.0928180068
 21
5267.9408303581
 31
0.0
  0
LINE
  5
13E
330
1F
100
AcDbEntity
  8
0
  6
Continuous
 62
     7
370
    25
100
AcDbLine
 10
6694.6187553361
 20
5267.9408303581
 30
0.0
 11
5853.4187553361
 21
5267.9408303581
 31
0.0
  0
LINE
  5
13F
330
1F
100
AcDbEntity
  8
0
  6
Continuous
 62
     7
370
    25
100
AcDbLine
 10
5853.4187553361
 20
5272.1478882613
 30
0.0
 11
5853.4187553361
 21
5267.9408303581
 31
0.0
  0
LINE
  5
140
330
1F
100
AcDbEntity
  8
0
  6
Continuous
 62
     7
370
    25
100
AcDbLine
 10
5853.4187553361
 20
5267.9408303581
 30
0.0
 11
5849.9446926654
 21
5267.9408303581
 31
0.0
  0
LINE
  5
141
330
1F
100
AcDbEntity
  8
0
  6
Continuous
 62
     7
370
    25
100
AcDbLine
 10
5849.055499886
 20
5272.1478882613
 30
0.0
 11
5849.9446926654
 21
5267.9408303581
 31
0.0
  0
LINE
  5
142
330
1F
100
AcDbEntity
  8
0
  6
Continuous
 62
     7
370
    25
100
AcDbLine
 10
6696.8187553361
 20
5267.9408303581
 30
0.0
 11
6696.8187553361
 21
5258.1994295927
 31
0.0
  0
LINE
  5
143
330
1F
100
AcDbEntity
  8
0
  6
Continuous
 62
     7
370
    25
100
AcDbLine
 10
5851.2187553361
 20
5267.9408303581
 30
0.0
 11
5851.2187553361
 21
5258.1994295927
 31
0.0
  0
LINE
  5
144
330
1F
100
AcDbEntity
  8
0
  6
Continuous
 62
     7
370
    25
100
AcDbLine
 10
5861.7187553361
 20
5256.9994295927
 30
0.0
 11
5861.7187553361
 21
5256.2497715399
 31
0.0
  0
LINE
  5
145
330
1F
100
AcDbEntity
  8
0
  6
Continuous
 62
     7
370
    25
100
AcDbLine
 10
5881.7187553361
 20
5256.9994295927
 30
0.0
 11
5881.7187553361
 21
5256.2497715399
 31
0.0
  0
LINE
  5
146
330
1F
100
AcDbEntity
  8
0
  6
Continuous
 62
     7
370
    25
100
AcDbLine
 10
6666.3187553361
 20
5256.9994295927
 30
0.0
 11
6666.3187553361
 21
5256.2497715399
 31
0.0
  0
LINE
  5
147
330
1F
100
AcDbEntity
  8
0
  6
Continuous
 62
     7
370
    25
100
AcDbLine
 10
6686.3187553361
 20
5256.9994295927
 30
0.0
 11
6686.3187553361
 21
5256.2497715399
 31
0.0
  0
LINE
  5
148
330
1F
100
AcDbEntity
  8
0
  6
Continuous
 62
     8
370
    25
100
AcDbLine
 10
6234.7165292035
 20
5252.923103519
 30
0.0
 11
6313.3209814687
 21
5252.923103519
 31
0.0
  0
LINE
  5
149
330
1F
100
AcDbEntity
  8
0
  6
Continuous
 62
     8
370
    25
100
AcDbLine
 10
6234.9556405887
 20
5253.3372565868
 30
0.0
 11
6313.0818700835
 21
5253.3372565868
 31
0.0
  0
LWPOLYLINE
  5
14A
330
1F
100
AcDbEntity
  8
0
  6
Continuous
 62
     8
370
    25
100
AcDbPolyline
 90
       21
 70
   128
 43
0.0
 10
6239.2281711583
 20
5206.0922647075
 10
6244.8184801106
 20
5207.1353732179
 10
6251.3617451663
 20
5208.5173712913
 10
6258.2381055483
 20
5210.1610893164
 10
6265.6601580369
 20
5212.1614387324
 10
6273.1951379386
 20
5214.4404027525
 10
6280.8705471193
 20
5217.0289802436
 10
6288.5790349941
 20
5219.9122435854
 10
6292.3725753885
 20
5221.4399276079
 10
6296.0256362785
 20
5222.9809736583
 10
6299.6547344444
 20
5224.5821730839
 10
6303.0844385434
 20
5226.1611725038
 10
6306.3851815572
 20
5227.7433096771
 10
6309.4223907289
 20
5229.2544697144
 10
6312.085423543
 20
5230.6246000666
 10
6314.4495177519
 20
5231.8769677283
 10
6316.5581699416
 20
5233.0234095748
 10
6318.2851979403
 20
5233.9834474385
 10
6320.0229739419
 20
5234.9689634832
 10
6320.8744351873
 20
5235.4590951625
 10
6320.8303750986
 20
5235.4336251648
  0
LINE
  5
14B
330
1F
100
AcDbEntity
  8
0
  6
Continuous
 62
     8
370
    25
100
AcDbLine
 10
6323.0187553361
 20
5247.3994295927
 30
0.0
 11
6238.3006058891
 21
5247.3994295927
 31
0.0
  0
LINE
  5
14C
330
1F
100
AcDbEntity
  8
0
  6
Continuous
 62
     8
370
    25
100
AcDbLine
 10
6250.1743875592
 20
5177.2161909546
 30
0.0
 11
6306.2595003184
 21
5177.2161909546
 31
0.0
  0
LINE
  5
14D
330
1F
100
AcDbEntity
  8
0
  6
Continuous
 62
     8
370
    25
100
AcDbLine
 10
6207.4111392702
 20
5191.303718063
 30
0.0
 11
6206.9484158409
 21
5244.3265712016
 31
0.0
  0
LINE
  5
14E
330
1F
100
AcDbEntity
  8
0
  6
Continuous
 62
     8
370
    25
100
AcDbLine
 10
6181.9484158409
 20
5243.4467832338
 30
0.0
 11
6182.3995924741
 21
5191.7470618739
 31
0.0
  0
LINE
  5
14F
330
1F
100
AcDbEntity
  8
0
  6
Continuous
 62
     8
370
    25
100
AcDbLine
 10
6180.4353426467
 20
5193.7118429394
 30
0.0
 11
6180.0187553361
 21
5241.4480205277
 31
0.0
  0
LINE
  5
150
330
1F
100
AcDbEntity
  8
0
  6
Continuous
 62
     8
370
    25
100
AcDbLine
 10
6158.4387992462
 20
5240.6048519475
 30
0.0
 11
6158.8439579679
 21
5194.1782609364
 31
0.0
  0
LINE
  5
151
330
1F
100
AcDbEntity
  8
0
  6
Continuous
 62
     8
370
    25
100
AcDbLine
 10
6158.19381807
 20
5240.4046939311
 30
0.0
 11
6158.5955208645
 21
5194.3741129567
 31
0.0
  0
LINE
  5
152
330
1F
100
AcDbEntity
  8
0
  6
Continuous
 62
     8
370
    25
100
AcDbLine
 10
6159.2766178735
 20
5240.6048519475
 30
0.0
 11
6159.6816489914
 21
5194.1928828876
 31
0.0
  0
LINE
  5
153
330
1F
100
AcDbEntity
  8
0
  6
Continuous
 62
     8
370
    25
100
AcDbLine
 10
6159.5224316004
 20
5240.4004108288
 30
0.0
 11
6159.9238572901
 21
5194.4015829099
 31
0.0
  0
LINE
  5
154
330
1F
100
AcDbEntity
  8
0
  6
Continuous
 62
     8
370
    25
100
AcDbLine
 10
6157.7776256225
 20
5238.3590426963
 30
0.0
 11
6158.1436902683
 21
5196.4121890691
 31
0.0
  0
LINE
  5
155
330
1F
100
AcDbEntity
  8
0
  6
Continuous
 62
     8
370
    25
100
AcDbLine
 10
6155.4927501636
 20
5237.3988115063
 30
0.0
 11
6155.8424044621
 21
5197.3323974361
 31
0.0
  0
ARC
  5
156
330
1F
100
AcDbEntity
  8
0
  6
Continuous
 62
     8
370
    25
100
AcDbCircle
 10
6249.9684159886
 20
5172.72292204
 30
0.0
 40
4.497987308359088
100
AcDbArc
 50
87.3753972295
 51
107.4379694264
  0
LINE
  5
157
330
1F
100
AcDbEntity
  8
0
  6
Continuous
 62
     8
370
    25
100
AcDbLine
 10
6215.1303687679
 20
5231.6010703993
 30
0.0
 11
6215.075531391
 21
5237.8848113999
 31
0.0
  0
LWPOLYLINE
  5
158
330
1F
100
AcDbEntity
  8
0
  6
Continuous
 62
     8
370
    25
100
AcDbPolyline
 90
        6
 70
   128
 43
0.0
 10
6216.6493861121
 20
5197.9521689002
 10
6216.6553650177
 20
5197.9165433936
 10
6216.5931599036
 20
5198.2856125127
 10
6216.4438585374
 20
5199.1406172645
 10
6216.2041408676
 20
5200.3697669088
 10
6215.7718976569
 20
5202.0152682386
  0
ARC
  5
159
330
1F
100
AcDbEntity
  8
0
  6
Continuous
 62
     8
370
    25
100
AcDbCircle
 10
6203.8847664707
 20
5198.3277139701
 30
0.0
 40
14.07105711224698
100
AcDbArc
 50
356.7353387325
 51
11.0392685401
  0
LINE
  5
15A
330
1F
100
AcDbEntity
  8
0
  6
Continuous
 62
     8
370
    25
100
AcDbLine
 10
5881.7187553361
 20
5232.4493156103
 30
0.0
 11
5880.2187553361
 21
5232.4493156103
 31
0.0
  0
LINE
  5
15B
330
1F
100
AcDbEntity
  8
0
  6
Continuous
 62
     8
370
    25
100
AcDbLine
 10
5863.2187553361
 20
5232.4493156103
 30
0.0
 11
5861.7187553361
 21
5232.4493156103
 31
0.0
  0
LINE
  5
15C
330
1F
100
AcDbEntity
  8
0
  6
Continuous
 62
     8
370
    25
100
AcDbLine
 10
6666.3187553361
 20
5232.4493156103
 30
0.0
 11
6667.8187553361
 21
5232.4493156103
 31
0.0
  0
LINE
  5
15D
330
1F
100
AcDbEntity
  8
0
  6
Continuous
 62
     8
370
    25
100
AcDbLine
 10
6684.8187553361
 20
5232.4493156103
 30
0.0
 11
6686.3187553361
 21
5232.4493156103
 31
0.0
  0
LINE
  5
15E
330
1F
100
AcDbEntity
  8
0
  6
Continuous
 62
     8
370
    25
100
AcDbLine
 10
5853.4187553361
 20
5274.1994295927
 30
0.0
 11
5853.4187553361
 21
5272.1478882613
 31
0.0
  0
LINE
  5
15F
330
1F
100
AcDbEntity
  8
0
  6
Continuous
 62
     8
370
    25
100
AcDbLine
 10
6694.6187553361
 20
5274.1994295927
 30
0.0
 11
6694.6187553361
 21
5272.1478882613
 31
0.0
  0
LINE
  5
160
330
1F
100
AcDbEntity
  8
0
  6
Continuous
 62
     8
370
    25
100
AcDbLine
 10
6694.6187553361
 20
5267.9408303581
 30
0.0
 11
6694.6187553361
 21
5258.1994295927
 31
0.0
  0
LINE
  5
161
330
1F
100
AcDbEntity
  8
0
  6
Continuous
 62
     8
370
    25
100
AcDbLine
 10
5853.4187553361
 20
5267.9408303581
 30
0.0
 11
5853.4187553361
 21
5258.1994295927
 31
0.0
  0
LINE
  5
162
330
1F
100
AcDbEntity
  8
0
  6
Continuous
 62
     7
370
    25
100
AcDbLine
 10
6970.3575844481
 20
5254.9994295927
 30
0.0
 11
6970.3575844481
 21
5254.403793359
 31
0.0
  0
LINE
  5
163
330
1F
100
AcDbEntity
  8
0
  6
Continuous
 62
     7
370
    25
100
AcDbLine
 10
7036.8575844481
 20
5254.403793359
 30
0.0
 11
7036.8575844481
 21
5254.9994295927
 31
0.0
  0
LINE
  5
164
330
1F
100
AcDbEntity
  8
0
  6
Continuous
 62
     7
370
    25
100
AcDbLine
 10
6963.6075844481
 20
5252.895718745
 30
0.0
 11
6963.6075844481
 21
5252.3994295927
 31
0.0
  0
LINE
  5
165
330
1F
100
AcDbEntity
  8
0
  6
Continuous
 62
     7
370
    25
100
AcDbLine
 10
7043.6075844481
 20
5252.3994295927
 30
0.0
 11
7043.6075844481
 21
5252.895718745
 31
0.0
  0
ARC
  5
166
330
1F
100
AcDbEntity
  8
0
  6
Continuous
 62
     7
370
    25
100
AcDbCircle
 10
6964.2579264956
 20
5252.950488293
 30
0.0
 40
0.0547695479950149
100
AcDbArc
 50
270.0
 51
330.0000000003
  0
ARC
  5
167
330
1F
100
AcDbEntity
  8
0
  6
Continuous
 62
     7
370
    25
100
AcDbCircle
 10
7042.9572424007
 20
5252.950488293
 30
0.0
 40
0.0547695479950149
100
AcDbArc
 50
209.9999999997
 51
270.0
  0
LINE
  5
168
330
1F
100
AcDbEntity
  8
0
  6
Continuous
 62
     7
370
    25
100
AcDbLine
 10
7042.9098105807
 20
5252.923103519
 30
0.0
 11
7042.6706991955
 21
5253.3372565868
 31
0.0
  0
LINE
  5
169
330
1F
100
AcDbEntity
  8
0
  6
Continuous
 62
     7
370
    25
100
AcDbLine
 10
6964.5444697007
 20
5253.3372565868
 30
0.0
 11
6964.3053583155
 21
5252.923103519
 31
0.0
  0
ARC
  5
16A
330
1F
100
AcDbEntity
  8
0
  6
Continuous
 62
     7
370
    25
100
AcDbCircle
 10
6964.6393017522
 20
5253.2825052764
 30
0.0
 40
0.1095026209371498
100
AcDbArc
 50
90.0
 51
150.0000000001
  0
ARC
  5
16B
330
1F
100
AcDbEntity
  8
0
  6
Continuous
 62
     7
370
    25
100
AcDbCircle
 10
7042.575867144
 20
5253.2825052764
 30
0.0
 40
0.1095026209371498
100
AcDbArc
 50
29.9999999999
 51
90.0
  0
LINE
  5
16C
330
1F
100
AcDbEntity
  8
0
  6
Continuous
 62
     7
370
    25
100
AcDbLine
 10
7042.575867144
 20
5253.3920078973
 30
0.0
 11
7009.38108714
 21
5253.3920078973
 31
0.0
  0
LINE
  5
16D
330
1F
100
AcDbEntity
  8
0
  6
Continuous
 62
     7
370
    25
100
AcDbLine
 10
6997.8340817562
 20
5253.3920078973
 30
0.0
 11
6964.6393017522
 21
5253.3920078973
 31
0.0
  0
LINE
  5
16E
330
1F
100
AcDbEntity
  8
0
  6
Continuous
 62
     7
370
    25
100
AcDbLine
 10
6983.6076796441
 20
5217.0919961077
 30
0.0
 11
6983.6076796441
 21
5216.493757547
 31
0.0
  0
LINE
  5
16F
330
1F
100
AcDbEntity
  8
0
  6
Continuous
 62
     7
370
    25
100
AcDbLine
 10
7023.6074892522
 20
5216.493757547
 30
0.0
 11
7023.6074892522
 21
5217.0919961077
 31
0.0
  0
ARC
  5
170
330
1F
100
AcDbEntity
  8
0
  6
Continuous
 62
     7
370
    25
100
AcDbCircle
 10
7003.6075844481
 20
5217.2502820412
 30
0.0
 40
27.00000000000102
100
AcDbArc
 50
0.0
 51
83.6206297916
  0
ARC
  5
171
330
1F
100
AcDbEntity
  8
0
  6
Continuous
 62
     7
370
    25
100
AcDbCircle
 10
7003.6075844481
 20
5217.2502820412
 30
0.0
 40
27.00000000000082
100
AcDbArc
 50
96.3793702084
 51
0.0
  0
ARC
  5
172
330
1F
100
AcDbEntity
  8
0
  6
Continuous
 62
     7
370
    25
100
AcDbCircle
 10
7039.2318870392
 20
5147.0684811441
 30
0.0
 40
52.79442234757705
100
AcDbArc
 50
98.6113344955
 51
109.5792512048
  0
ARC
  5
173
330
1F
100
AcDbEntity
  8
0
  6
Continuous
 62
     7
370
    25
100
AcDbCircle
 10
6968.2560904191
 20
5148.109137152
 30
0.0
 40
51.7226837941966
100
AcDbArc
 50
70.3260562123
 51
81.523490746
  0
LINE
  5
174
330
1F
100
AcDbEntity
  8
0
  6
Continuous
 62
     7
370
    25
100
AcDbLine
 10
7045.3575844481
 20
5249.3994295927
 30
0.0
 11
7045.3575844481
 21
5252.3994295927
 31
0.0
  0
LINE
  5
175
330
1F
100
AcDbEntity
  8
0
  6
Continuous
 62
     7
370
    25
100
AcDbLine
 10
6961.8575844481
 20
5252.3994295927
 30
0.0
 11
6961.8575844481
 21
5249.3994295927
 31
0.0
  0
LINE
  5
176
330
1F
100
AcDbEntity
  8
0
  6
Continuous
 62
     7
370
    25
100
AcDbLine
 10
6956.7238804189
 20
5231.0732312898
 30
0.0
 11
6956.8666767485
 21
5214.7103926381
 31
0.0
  0
LINE
  5
177
330
1F
100
AcDbEntity
  8
0
  6
Continuous
 62
     7
370
    25
100
AcDbLine
 10
7050.348543927
 20
5214.716325943
 30
0.0
 11
7050.6075844481
 21
5244.3994295927
 31
0.0
  0
LWPOLYLINE
  5
178
330
1F
100
AcDbEntity
  8
0
  6
Continuous
 62
     7
370
    25
100
AcDbPolyline
 90
       14
 70
   128
 43
0.0
 10
6956.9030379431
 20
5214.733515774
 10
6956.9177485999
 20
5213.7232745704
 10
6957.2606938114
 20
5211.7426988402
 10
6957.9031604994
 20
5209.8926403822
 10
6958.8123782926
 20
5208.1922781254
 10
6959.9632867668
 20
5206.6442712646
 10
6961.3505099883
 20
5205.2357107882
 10
6962.9910350111
 20
5203.9494430714
 10
6964.9229578321
 20
5202.7712215909
 10
6967.1868498764
 20
5201.700109785
 10
6969.7817476525
 20
5200.755136546
 10
6972.6147540013
 20
5199.9664365693
 10
6975.6492676837
 20
5199.3152194412
 10
6975.9186530388
 20
5199.2702986762
  0
LWPOLYLINE
  5
179
330
1F
100
AcDbEntity
  8
0
  6
Continuous
 62
     7
370
    25
100
AcDbPolyline
 90
       13
 70
   128
 43
0.0
 10
7031.2761080309
 20
5199.2801391464
 10
7032.8377500334
 20
5199.5690056167
 10
7035.7152222344
 20
5200.2518949327
 10
7038.4805362008
 20
5201.1101520523
 10
7040.9854308862
 20
5202.1312013368
 10
7043.3498738918
 20
5203.4011049002
 10
7045.1760082884
 20
5204.6859753092
 10
7046.7035147715
 20
5206.0788049684
 10
7047.958241709
 20
5207.5797981912
 10
7048.9531853837
 20
5209.1892791781
 10
7049.7493428935
 20
5211.0854736808
 10
7050.206950853
 20
5213.0218019975
 10
7050.3288543286
 20
5214.7427782335
  0
ARC
  5
17A
330
1F
100
AcDbEntity
  8
0
  6
Continuous
 62
     7
370
    25
100
AcDbCircle
 10
6956.6075844481
 20
5247.3994295927
 30
0.0
 40
2.0
100
AcDbArc
 50
120.0010464823
 51
180.0
  0
ARC
  5
17B
330
1F
100
AcDbEntity
  8
0
  6
Continuous
 62
     7
370
    25
100
AcDbCircle
 10
7050.6075844481
 20
5247.3994295927
 30
0.0
 40
1.999999999999091
100
AcDbArc
 50
0.0
 51
90.0
  0
LINE
  5
17C
330
1F
100
AcDbEntity
  8
0
  6
Continuous
 62
     7
370
    25
100
AcDbLine
 10
7052.6075844481
 20
5244.3994295927
 30
0.0
 11
7052.6075844481
 21
5247.3994295927
 31
0.0
  0
LINE
  5
17D
330
1F
100
AcDbEntity
  8
0
  6
Continuous
 62
     7
370
    25
100
AcDbLine
 10
6954.6075844481
 20
5247.3994295927
 30
0.0
 11
6954.6075844481
 21
5244.3994295927
 31
0.0
  0
LINE
  5
17E
330
1F
100
AcDbEntity
  8
0
  6
Continuous
 62
     7
370
    25
100
AcDbLine
 10
6970.7575642615
 20
5200.4834722989
 30
0.0
 11
6971.3668394659
 21
5177.2161909546
 31
0.0
  0
LINE
  5
17F
330
1F
100
AcDbEntity
  8
0
  6
Continuous
 62
     7
370
    25
100
AcDbLine
 10
7035.8483294304
 20
5177.2161909546
 30
0.0
 11
7036.4575738061
 21
5200.4822949992
 31
0.0
  0
ARC
  5
180
330
1F
100
AcDbEntity
  8
0
  6
Continuous
 62
     7
370
    25
100
AcDbCircle
 10
7028.8507281556
 20
5177.3994295927
 30
0.0
 40
6.999999999999502
100
AcDbArc
 50
270.0
 51
358.5
  0
ARC
  5
181
330
1F
100
AcDbEntity
  8
0
  6
Continuous
 62
     7
370
    25
100
AcDbCircle
 10
6978.3644407407
 20
5177.3994295927
 30
0.0
 40
6.999999999999502
100
AcDbArc
 50
181.5
 51
270.0
  0
LINE
  5
182
330
1F
100
AcDbEntity
  8
0
  6
Continuous
 62
     7
370
    25
100
AcDbLine
 10
6948.6075844481
 20
5239.1994295927
 30
0.0
 11
6947.6075844481
 21
5240.1994295927
 31
0.0
  0
LINE
  5
183
330
1F
100
AcDbEntity
  8
0
  6
Continuous
 62
     7
370
    25
100
AcDbLine
 10
6939.6075844481
 20
5240.1994295927
 30
0.0
 11
6938.6075844481
 21
5239.1994295927
 31
0.0
  0
LINE
  5
184
330
1F
100
AcDbEntity
  8
0
  6
Continuous
 62
     7
370
    25
100
AcDbLine
 10
6948.6075844481
 20
5160.1994295927
 30
0.0
 11
6948.6075844481
 21
5230.1994295927
 31
0.0
  0
LINE
  5
185
330
1F
100
AcDbEntity
  8
0
  6
Continuous
 62
     7
370
    25
100
AcDbLine
 10
6938.6075844481
 20
5230.1994295927
 30
0.0
 11
6938.6075844481
 21
5160.1994295927
 31
0.0
  0
LINE
  5
186
330
1F
100
AcDbEntity
  8
0
  6
Continuous
 62
     7
370
    25
100
AcDbLine
 10
7095.6075844481
 20
5155.1994295927
 30
0.0
 11
7095.6075844481
 21
5230.1994295927
 31
0.0
  0
LINE
  5
187
330
1F
100
AcDbEntity
  8
0
  6
Continuous
 62
     7
370
    25
100
AcDbLine
 10
7085.6075844481
 20
5230.1994295927
 30
0.0
 11
7085.6075844481
 21
5155.1994295927
 31
0.0
  0
LINE
  5
188
330
1F
100
AcDbEntity
  8
0
  6
Continuous
 62
     7
370
    25
100
AcDbLine
 10
7095.6075844481
 20
5239.1994295927
 30
0.0
 11
7094.6075844481
 21
5240.1994295927
 31
0.0
  0
LINE
  5
189
330
1F
100
AcDbEntity
  8
0
  6
Continuous
 62
     7
370
    25
100
AcDbLine
 10
7086.6075844481
 20
5240.1994295927
 30
0.0
 11
7085.6075844481
 21
5239.1994295927
 31
0.0
  0
LINE
  5
18A
330
1F
100
AcDbEntity
  8
0
  6
Continuous
 62
     7
370
    25
100
AcDbLine
 10
7053.6075844481
 20
5274.1994295927
 30
0.0
 11
6953.6075844481
 21
5274.1994295927
 31
0.0
  0
LINE
  5
18B
330
1F
100
AcDbEntity
  8
0
  6
Continuous
 62
     7
370
    25
100
AcDbLine
 10
6953.6075844481
 20
5274.1994295927
 30
0.0
 11
6950.9075844481
 21
5274.1994295927
 31
0.0
  0
LINE
  5
18C
330
1F
100
AcDbEntity
  8
0
  6
Continuous
 62
     7
370
    25
100
AcDbLine
 10
7056.3075844481
 20
5274.1994295927
 30
0.0
 11
7053.6075844481
 21
5274.1994295927
 31
0.0
  0
LINE
  5
18D
330
1F
100
AcDbEntity
  8
0
  6
Continuous
 62
     7
370
    25
100
AcDbLine
 10
7000.6075844481
 20
5249.9994295927
 30
0.0
 11
7000.6075844481
 21
5234.9994295927
 31
0.0
  0
LINE
  5
18E
330
1F
100
AcDbEntity
  8
0
  6
Continuous
 62
     7
370
    25
100
AcDbLine
 10
7006.6075844481
 20
5234.9994295927
 30
0.0
 11
7006.6075844481
 21
5249.9994295927
 31
0.0
  0
LINE
  5
18F
330
1F
100
AcDbEntity
  8
0
  6
Continuous
 62
     7
370
    25
100
AcDbLine
 10
6972.0676205851
 20
5254.403793359
 30
0.0
 11
6973.7225242821
 21
5253.3920078973
 31
0.0
  0
LINE
  5
190
330
1F
100
AcDbEntity
  8
0
  6
Continuous
 62
     7
370
    25
100
AcDbLine
 10
7033.4926446142
 20
5253.3920078973
 30
0.0
 11
7035.1475483112
 21
5254.403793359
 31
0.0
  0
LINE
  5
191
330
1F
100
AcDbEntity
  8
0
  6
Continuous
 62
     7
370
    25
100
AcDbLine
 10
7036.8575844481
 20
5254.403793359
 30
0.0
 11
7009.38108714
 21
5254.403793359
 31
0.0
  0
LINE
  5
192
330
1F
100
AcDbEntity
  8
0
  6
Continuous
 62
     7
370
    25
100
AcDbLine
 10
6997.8340817562
 20
5254.403793359
 30
0.0
 11
6970.3575844481
 21
5254.403793359
 31
0.0
  0
LINE
  5
193
330
1F
100
AcDbEntity
  8
0
  6
Continuous
 62
     7
370
    25
100
AcDbLine
 10
6963.6075844481
 20
5252.895718745
 30
0.0
 11
6997.8340817562
 21
5252.895718745
 31
0.0
  0
LINE
  5
194
330
1F
100
AcDbEntity
  8
0
  6
Continuous
 62
     7
370
    25
100
AcDbLine
 10
7009.38108714
 20
5252.895718745
 30
0.0
 11
7043.6075844481
 21
5252.895718745
 31
0.0
  0
LWPOLYLINE
  5
195
330
1F
100
AcDbEntity
  8
0
  6
Continuous
 62
     7
370
    25
100
AcDbPolyline
 90
        8
 70
   128
 43
0.0
 10
7013.6926232581
 20
5230.329193335
 10
7013.2518715125
 20
5230.3257872403
 10
7009.6811400006
 20
5230.3000081795
 10
7005.9468493751
 20
5230.2747290932
 10
7002.159584395
 20
5230.2504589573
 10
6998.4283636085
 20
5230.225484533
 10
6994.8439505571
 20
5230.1997880934
 10
6993.5826827518
 20
5230.1900643358
  0
LINE
  5
196
330
1F
100
AcDbEntity
  8
0
  6
Continuous
 62
     7
370
    25
100
AcDbLine
 10
7003.6075844481
 20
5228.8994295927
 30
0.0
 11
7013.2984295917
 21
5228.8994295927
 31
0.0
  0
LINE
  5
197
330
1F
100
AcDbEntity
  8
0
  6
Continuous
 62
     7
370
    25
100
AcDbLine
 10
6993.9167393045
 20
5228.8994295927
 30
0.0
 11
7003.6075844481
 21
5228.8994295927
 31
0.0
  0
LWPOLYLINE
  5
198
330
1F
100
AcDbEntity
  8
0
  6
Continuous
 62
     7
370
    25
100
AcDbPolyline
 90
        7
 70
   128
 43
0.0
 10
6994.4750464153
 20
5231.2401483872
 10
6994.7293288173
 20
5231.2431795886
 10
6999.1249769366
 20
5231.2914319611
 10
7003.6075844481
 20
5231.3369295886
 10
7008.0901919597
 20
5231.3824272162
 10
7012.485840079
 20
5231.4306795886
 10
7012.5530655087
 20
5231.4314809568
  0
LWPOLYLINE
  5
199
330
1F
100
AcDbEntity
  8
0
  6
Continuous
 62
     7
370
    25
100
AcDbPolyline
 90
        5
 70
   128
 43
0.0
 10
6994.8433959017
 20
5231.431931742
 10
6999.1249769366
 20
5231.4789319651
 10
7003.6075844481
 20
5231.5244295927
 10
7008.0901919597
 20
5231.5699272203
 10
7012.1483091466
 20
5231.6144744125
  0
LWPOLYLINE
  5
19A
330
1F
100
AcDbEntity
  8
0
  6
Continuous
 62
     7
370
    25
100
AcDbPolyline
 90
        7
 70
   128
 43
0.0
 10
6993.7157521337
 20
5230.7580709195
 10
6995.0400290416
 20
5230.7744295907
 10
6999.2818486485
 20
5230.8226819631
 10
7003.6075844481
 20
5230.8681795907
 10
7007.9333202478
 20
5230.9136772182
 10
7012.1751398547
 20
5230.9619295907
 10
7013.2938928729
 20
5230.9757494441
  0
LWPOLYLINE
  5
19B
330
1F
100
AcDbEntity
  8
0
  6
Continuous
 62
     7
370
    25
100
AcDbPolyline
 90
        4
 70
   128
 43
0.0
 10
6996.4932940708
 20
5232.290961054
 10
6999.2818486485
 20
5232.3226819631
 10
7003.6075844481
 20
5232.3681795907
 10
7006.5787119513
 20
5232.3994295927
  0
LWPOLYLINE
  5
19C
330
1F
100
AcDbEntity
  8
0
  6
Continuous
 62
     7
370
    25
100
AcDbPolyline
 90
        7
 70
   128
 43
0.0
 10
6993.7040663935
 20
5230.3829265666
 10
6995.0400290416
 20
5230.3994295907
 10
6999.2818486485
 20
5230.4476819631
 10
7003.6075844481
 20
5230.4931795907
 10
7007.9333202478
 20
5230.5386772182
 10
7012.1751398547
 20
5230.5869295907
 10
7013.5042271993
 20
5230.6033476847
  0
LWPOLYLINE
  5
19D
330
1F
100
AcDbEntity
  8
0
  6
Continuous
 62
     7
370
    25
100
AcDbPolyline
 90
        5
 70
   128
 43
0.0
 10
6995.7569612379
 20
5231.9075849774
 10
6999.2818486485
 20
5231.9476819631
 10
7003.6075844481
 20
5231.9931795907
 10
7007.9333202478
 20
5232.0386772182
 10
7011.1296096423
 20
5232.0750362718
  0
ARC
  5
19E
330
1F
100
AcDbEntity
  8
0
  6
Continuous
 62
     7
370
    25
100
AcDbCircle
 10
7003.6075844481
 20
5216.4628407626
 30
0.0
 40
19.71434232641745
100
AcDbArc
 50
98.7529037444
 51
81.2470962556
  0
CIRCLE
  5
19F
330
1F
100
AcDbEntity
  8
0
  6
Continuous
 62
     7
370
    25
100
AcDbCircle
 10
7003.607521229
 20
5216.4627056762
 30
0.0
 40
17.49968043751101
  0
ARC
  5
1A0
330
1F
100
AcDbEntity
  8
0
  6
Continuous
 62
     7
370
    25
100
AcDbCircle
 10
7003.6075844481
 20
5216.4932748615
 30
0.0
 40
19.99963762810261
100
AcDbArc
 50
98.6270840614
 51
81.3729159386
  0
ARC
  5
1A1
330
1F
100
AcDbEntity
  8
0
  6
Continuous
 62
     7
370
    25
100
AcDbCircle
 10
7003.6081447031
 20
5217.0917248586
 30
0.0
 40
19.99934455095182
100
AcDbArc
 50
0.0007770969
 51
81.3744119802
  0
ARC
  5
1A2
330
1F
100
AcDbEntity
  8
0
  6
Continuous
 62
     7
370
    25
100
AcDbCircle
 10
7003.6070963319
 20
5217.0916628367
 30
0.0
 40
19.99941669060336
100
AcDbArc
 50
98.6257657018
 51
179.9990452211
  0
ARC
  5
1A3
330
1F
100
AcDbEntity
  8
0
  6
Continuous
 62
     7
370
    25
100
AcDbCircle
 10
7001.167967704
 20
5217.3405010765
 30
0.0
 40
15.0405668511284
100
AcDbArc
 50
177.7865545129
 51
205.5322813902
  0
ARC
  5
1A4
330
1F
100
AcDbEntity
  8
0
  6
Continuous
 62
     7
370
    25
100
AcDbCircle
 10
7003.6075844481
 20
5217.9213422988
 30
0.0
 40
17.50023986067636
100
AcDbArc
 50
203.8052968746
 51
336.1947031254
  0
ARC
  5
1A5
330
1F
100
AcDbEntity
  8
0
  6
Continuous
 62
     7
370
    25
100
AcDbCircle
 10
7005.2612767224
 20
5217.4467341698
 30
0.0
 40
15.79739587786072
100
AcDbArc
 50
335.348694842
 51
1.7302785812
  0
ARC
  5
1A6
330
1F
100
AcDbEntity
  8
0
  6
Continuous
 62
     7
370
    25
100
AcDbCircle
 10
7003.6076350833
 20
5217.8134230063
 30
0.0
 40
26.51314433449307
100
AcDbArc
 50
59.5202020559
 51
83.5030967344
  0
ARC
  5
1A7
330
1F
100
AcDbEntity
  8
0
  6
Continuous
 62
     7
370
    25
100
AcDbCircle
 10
7003.6075275897
 20
5217.8134423661
 30
0.0
 40
26.51312449346428
100
AcDbArc
 50
96.248458015
 51
120.4798075851
  0
LINE
  5
1A8
330
1F
100
AcDbEntity
  8
0
  6
Continuous
 62
     7
370
    25
100
AcDbLine
 10
6979.5879681132
 20
5247.3994295927
 30
0.0
 11
6979.5879681132
 21
5244.3994295927
 31
0.0
  0
LINE
  5
1A9
330
1F
100
AcDbEntity
  8
0
  6
Continuous
 62
     7
370
    25
100
AcDbLine
 10
6986.4743199715
 20
5247.3994295927
 30
0.0
 11
6979.5879681132
 21
5247.3994295927
 31
0.0
  0
LINE
  5
1AA
330
1F
100
AcDbEntity
  8
0
  6
Continuous
 62
     7
370
    25
100
AcDbLine
 10
6986.4743199715
 20
5247.3994295927
 30
0.0
 11
6986.4743199715
 21
5244.3994295927
 31
0.0
  0
LINE
  5
1AB
330
1F
100
AcDbEntity
  8
0
  6
Continuous
 62
     7
370
    25
100
AcDbLine
 10
6979.5879681132
 20
5244.3994295927
 30
0.0
 11
6986.4743199715
 21
5244.3994295927
 31
0.0
  0
LINE
  5
1AC
330
1F
100
AcDbEntity
  8
0
  6
Continuous
 62
     7
370
    25
100
AcDbLine
 10
6981.5554972155
 20
5249.3994295927
 30
0.0
 11
6986.4743199715
 21
5249.3994295927
 31
0.0
  0
LINE
  5
1AD
330
1F
100
AcDbEntity
  8
0
  6
Continuous
 62
     7
370
    25
100
AcDbLine
 10
6986.4743199715
 20
5249.3994295927
 30
0.0
 11
6986.4743199715
 21
5247.3994295927
 31
0.0
  0
ARC
  5
1AE
330
1F
100
AcDbEntity
  8
0
  6
Continuous
 62
     7
370
    25
100
AcDbCircle
 10
6981.5718666343
 20
5247.4155332466
 30
0.0
 40
1.983963878168156
100
AcDbArc
 50
90.4727451246
 51
180.4650697254
  0
LINE
  5
1AF
330
1F
100
AcDbEntity
  8
0
  6
Continuous
 62
     7
370
    25
100
AcDbLine
 10
7020.7408489248
 20
5247.3994295927
 30
0.0
 11
7020.7408489248
 21
5244.3994295927
 31
0.0
  0
LINE
  5
1B0
330
1F
100
AcDbEntity
  8
0
  6
Continuous
 62
     7
370
    25
100
AcDbLine
 10
6986.4743199715
 20
5244.3994295927
 30
0.0
 11
7000.6075844481
 21
5244.3994295927
 31
0.0
  0
LINE
  5
1B1
330
1F
100
AcDbEntity
  8
0
  6
Continuous
 62
     7
370
    25
100
AcDbLine
 10
7006.6075844481
 20
5244.3994295927
 30
0.0
 11
7020.7408489248
 21
5244.3994295927
 31
0.0
  0
LINE
  5
1B2
330
1F
100
AcDbEntity
  8
0
  6
Continuous
 62
     7
370
    25
100
AcDbLine
 10
6986.4743199715
 20
5249.3994295927
 30
0.0
 11
7000.6075844481
 21
5249.3994295927
 31
0.0
  0
LINE
  5
1B3
330
1F
100
AcDbEntity
  8
0
  6
Continuous
 62
     7
370
    25
100
AcDbLine
 10
7006.6075844481
 20
5249.3994295927
 30
0.0
 11
7020.7408489248
 21
5249.3994295927
 31
0.0
  0
LINE
  5
1B4
330
1F
100
AcDbEntity
  8
0
  6
Continuous
 62
     7
370
    25
100
AcDbLine
 10
7020.7408489248
 20
5249.3994295927
 30
0.0
 11
7020.7408489248
 21
5247.3994295927
 31
0.0
  0
LINE
  5
1B5
330
1F
100
AcDbEntity
  8
0
  6
Continuous
 62
     7
370
    25
100
AcDbLine
 10
7020.7408489248
 20
5249.3994295927
 30
0.0
 11
7025.6596716807
 21
5249.3994295927
 31
0.0
  0
ARC
  5
1B6
330
1F
100
AcDbEntity
  8
0
  6
Continuous
 62
     7
370
    25
100
AcDbCircle
 10
7025.643302262
 20
5247.4155332466
 30
0.0
 40
1.983963878171772
100
AcDbArc
 50
359.5349302747
 51
89.5272548754
  0
LINE
  5
1B7
330
1F
100
AcDbEntity
  8
0
  6
Continuous
 62
     7
370
    25
100
AcDbLine
 10
7027.6272007831
 20
5247.3994295927
 30
0.0
 11
7020.7408489248
 21
5247.3994295927
 31
0.0
  0
LINE
  5
1B8
330
1F
100
AcDbEntity
  8
0
  6
Continuous
 62
     7
370
    25
100
AcDbLine
 10
7027.6272007831
 20
5247.3994295927
 30
0.0
 11
7027.6272007831
 21
5244.3994295927
 31
0.0
  0
LINE
  5
1B9
330
1F
100
AcDbEntity
  8
0
  6
Continuous
 62
     7
370
    25
100
AcDbLine
 10
7020.7408489248
 20
5244.3994295927
 30
0.0
 11
7027.6272007831
 21
5244.3994295927
 31
0.0
  0
LWPOLYLINE
  5
1BA
330
1F
100
AcDbEntity
  8
0
  6
Continuous
 62
     7
370
    25
100
AcDbPolyline
 90
        3
 70
   128
 43
0.0
 10
7021.3806252516
 20
5196.8008151112
 10
7021.0486298427
 20
5196.5803864899
 10
7020.672579289
 20
5196.5149835099
  0
LWPOLYLINE
  5
1BB
330
1F
100
AcDbEntity
  8
0
  6
Continuous
 62
     7
370
    25
100
AcDbPolyline
 90
        3
 70
   128
 43
0.0
 10
6985.8345436447
 20
5196.8008151112
 10
6986.1665390536
 20
5196.5803864899
 10
6986.5640805541
 20
5196.5112457891
  0
LINE
  5
1BC
330
1F
100
AcDbEntity
  8
0
  6
Continuous
 62
     7
370
    25
100
AcDbLine
 10
6979.5879681132
 20
5247.3994295927
 30
0.0
 11
6970.0633777936
 21
5247.3994295927
 31
0.0
  0
ARC
  5
1BD
330
1F
100
AcDbEntity
  8
0
  6
Continuous
 62
     7
370
    25
100
AcDbCircle
 10
6971.8213120922
 20
5247.6640171745
 30
0.0
 40
1.777734397020797
100
AcDbArc
 50
102.5271579556
 51
188.5593696972
  0
LINE
  5
1BE
330
1F
100
AcDbEntity
  8
0
  6
Continuous
 62
     7
370
    25
100
AcDbLine
 10
6971.4357173242
 20
5249.3994295927
 30
0.0
 11
6981.5554972155
 21
5249.3994295927
 31
0.0
  0
LINE
  5
1BF
330
1F
100
AcDbEntity
  8
0
  6
Continuous
 62
     7
370
    25
100
AcDbLine
 10
6970.0633777936
 20
5247.3994295927
 30
0.0
 11
6970.0633777936
 21
5244.3994295927
 31
0.0
  0
LINE
  5
1C0
330
1F
100
AcDbEntity
  8
0
  6
Continuous
 62
     7
370
    25
100
AcDbLine
 10
6970.0633777936
 20
5244.3994295927
 30
0.0
 11
6979.5879681132
 21
5244.3994295927
 31
0.0
  0
ARC
  5
1C1
330
1F
100
AcDbEntity
  8
0
  6
Continuous
 62
     7
370
    25
100
AcDbCircle
 10
7035.3908041476
 20
5247.6619225339
 30
0.0
 40
1.780443090937101
100
AcDbArc
 50
351.5219073503
 51
77.391564997
  0
LINE
  5
1C2
330
1F
100
AcDbEntity
  8
0
  6
Continuous
 62
     7
370
    25
100
AcDbLine
 10
7037.1517911026
 20
5247.3994295927
 30
0.0
 11
7027.6272007831
 21
5247.3994295927
 31
0.0
  0
LINE
  5
1C3
330
1F
100
AcDbEntity
  8
0
  6
Continuous
 62
     7
370
    25
100
AcDbLine
 10
7025.6596716807
 20
5249.3994295927
 30
0.0
 11
7035.7794515721
 21
5249.3994295927
 31
0.0
  0
LINE
  5
1C4
330
1F
100
AcDbEntity
  8
0
  6
Continuous
 62
     7
370
    25
100
AcDbLine
 10
7037.1517911026
 20
5247.3994295927
 30
0.0
 11
7037.1517911026
 21
5244.3994295927
 31
0.0
  0
LINE
  5
1C5
330
1F
100
AcDbEntity
  8
0
  6
Continuous
 62
     7
370
    25
100
AcDbLine
 10
7027.6272007831
 20
5244.3994295927
 30
0.0
 11
7037.1517911026
 21
5244.3994295927
 31
0.0
  0
LINE
  5
1C6
330
1F
100
AcDbEntity
  8
0
  6
Continuous
 62
     7
370
    25
100
AcDbLine
 10
6972.5060947226
 20
5206.0922647075
 30
0.0
 11
6972.2832913148
 21
5244.3994295927
 31
0.0
  0
LINE
  5
1C7
330
1F
100
AcDbEntity
  8
0
  6
Continuous
 62
     7
370
    25
100
AcDbLine
 10
7034.7090741736
 20
5206.0922647075
 30
0.0
 11
7034.9318775814
 21
5244.3994295927
 31
0.0
  0
LINE
  5
1C8
330
1F
100
AcDbEntity
  8
0
  6
Continuous
 62
     7
370
    25
100
AcDbLine
 10
6996.3783213779
 20
5232.3994295927
 30
0.0
 11
7010.8368475184
 21
5232.3994295927
 31
0.0
  0
LINE
  5
1C9
330
1F
100
AcDbEntity
  8
0
  6
Continuous
 62
     7
370
    25
100
AcDbLine
 10
7009.38108714
 20
5252.3994295927
 30
0.0
 11
7045.3575844481
 21
5252.3994295927
 31
0.0
  0
LINE
  5
1CA
330
1F
100
AcDbEntity
  8
0
  6
Continuous
 62
     7
370
    25
100
AcDbLine
 10
6961.8575844481
 20
5252.3994295927
 30
0.0
 11
6997.8340817562
 21
5252.3994295927
 31
0.0
  0
LINE
  5
1CB
330
1F
100
AcDbEntity
  8
0
  6
Continuous
 62
     7
370
    25
100
AcDbLine
 10
7035.7794515721
 20
5249.3994295927
 30
0.0
 11
7050.6075844481
 21
5249.3994295927
 31
0.0
  0
LINE
  5
1CC
330
1F
100
AcDbEntity
  8
0
  6
Continuous
 62
     7
370
    25
100
AcDbLine
 10
6957.6075545546
 20
5249.3994295927
 30
0.0
 11
6971.4357173242
 21
5249.3994295927
 31
0.0
  0
LINE
  5
1CD
330
1F
100
AcDbEntity
  8
0
  6
Continuous
 62
     7
370
    25
100
AcDbLine
 10
7037.1517911026
 20
5244.3994295927
 30
0.0
 11
7052.6075844481
 21
5244.3994295927
 31
0.0
  0
LINE
  5
1CE
330
1F
100
AcDbEntity
  8
0
  6
Continuous
 62
     7
370
    25
100
AcDbLine
 10
6954.6075844481
 20
5244.3994295927
 30
0.0
 11
6955.6075220616
 21
5244.3994295927
 31
0.0
  0
LINE
  5
1CF
330
1F
100
AcDbEntity
  8
0
  6
Continuous
 62
     7
370
    25
100
AcDbLine
 10
6957.6075844481
 20
5244.3994295927
 30
0.0
 11
6970.0633777936
 21
5244.3994295927
 31
0.0
  0
LINE
  5
1D0
330
1F
100
AcDbEntity
  8
0
  6
Continuous
 62
     7
370
    25
100
AcDbLine
 10
6992.3483294304
 20
5177.2161909546
 30
0.0
 11
6992.7493324449
 21
5192.5298782534
 31
0.0
  0
ARC
  5
1D1
330
1F
100
AcDbEntity
  8
0
  6
Continuous
 62
     7
370
    25
100
AcDbCircle
 10
6987.1277062241
 20
5225.6275626865
 30
0.0
 40
48.6920508874472
100
AcDbArc
 50
263.8450785085
 51
276.1549214915
  0
ARC
  5
1D2
330
1F
100
AcDbEntity
  8
0
  6
Continuous
 62
     7
370
    25
100
AcDbCircle
 10
7020.0874626722
 20
5225.6275626034
 30
0.0
 40
48.69205080487542
100
AcDbArc
 50
263.845078498
 51
276.154921502
  0
LINE
  5
1D3
330
1F
100
AcDbEntity
  8
0
  6
Continuous
 62
     7
370
    25
100
AcDbLine
 10
7014.8668394659
 20
5177.2161909546
 30
0.0
 11
7014.4658364513
 21
5192.5298782534
 31
0.0
  0
LINE
  5
1D4
330
1F
100
AcDbEntity
  8
0
  6
Continuous
 62
     7
370
    25
100
AcDbLine
 10
6993.0460916115
 20
5203.967341734
 30
0.0
 11
6993.9167393045
 21
5228.8994295927
 31
0.0
  0
LINE
  5
1D5
330
1F
100
AcDbEntity
  8
0
  6
Continuous
 62
     7
370
    25
100
AcDbLine
 10
7014.1690772848
 20
5203.967341734
 30
0.0
 11
7013.2984295917
 21
5228.8994295927
 31
0.0
  0
LWPOLYLINE
  5
1D6
330
1F
100
AcDbEntity
  8
0
  6
Continuous
 62
     7
370
    25
100
AcDbPolyline
 90
        6
 70
   128
 43
0.0
 10
6985.3507281556
 20
5170.3994295927
 10
6984.0731105331
 20
5170.8919921844
 10
6982.9685908731
 20
5172.3293369154
 10
6982.2045727398
 20
5174.538324184
 10
6981.9916619435
 20
5175.8420431363
 10
6981.9070830178
 20
5177.2161909546
  0
ARC
  5
1D7
330
1F
100
AcDbEntity
  8
0
  6
Continuous
 62
     7
370
    25
100
AcDbCircle
 10
6985.3507281556
 20
5177.3994295927
 30
0.0
 40
7.000000000000435
100
AcDbArc
 50
270.0
 51
358.5
  0
LWPOLYLINE
  5
1D8
330
1F
100
AcDbEntity
  8
0
  6
Continuous
 62
     7
370
    25
100
AcDbPolyline
 90
        6
 70
   128
 43
0.0
 10
7025.3080858785
 20
5177.2161909546
 10
7025.2235096786
 20
5175.8420614451
 10
7025.0106029627
 20
5174.5383470362
 10
7024.2465780232
 20
5172.3293369154
 10
7023.1420583631
 20
5170.8919921844
 10
7021.8644407407
 20
5170.3994295927
  0
ARC
  5
1D9
330
1F
100
AcDbEntity
  8
0
  6
Continuous
 62
     7
370
    25
100
AcDbCircle
 10
7021.8644407407
 20
5177.3994295927
 30
0.0
 40
6.999999999998181
100
AcDbArc
 50
181.5
 51
270.0
  0
LINE
  5
1DA
330
1F
100
AcDbEntity
  8
0
  6
Continuous
 62
     7
370
    25
100
AcDbLine
 10
6985.3507281556
 20
5170.3994295927
 30
0.0
 11
6978.3644407407
 21
5170.3994295927
 31
0.0
  0
LINE
  5
1DB
330
1F
100
AcDbEntity
  8
0
  6
Continuous
 62
     7
370
    25
100
AcDbLine
 10
7028.8507281556
 20
5170.3994295927
 30
0.0
 11
7021.8644407407
 21
5170.3994295927
 31
0.0
  0
LINE
  5
1DC
330
1F
100
AcDbEntity
  8
0
  6
Continuous
 62
     7
370
    25
100
AcDbLine
 10
6992.3483294304
 20
5177.2161909546
 30
0.0
 11
6993.7422829517
 21
5177.2161909546
 31
0.0
  0
LWPOLYLINE
  5
1DD
330
1F
100
AcDbEntity
  8
0
  6
Continuous
 62
     7
370
    25
100
AcDbPolyline
 90
        9
 70
   128
 43
0.0
 10
6988.7942316382
 20
5170.3994295927
 10
6989.7439875529
 20
5170.5295003788
 10
6990.658447611
 20
5170.9148789056
 10
6991.5036276585
 20
5171.5412433196
 10
6992.2481182002
 20
5172.3853159887
 10
6992.8642516734
 20
5173.4157285716
 10
6993.3291306595
 20
5174.594187761
 10
6993.6254788225
 20
5175.8768983819
 10
6993.7422829517
 20
5177.2161909546
  0
LINE
  5
1DE
330
1F
100
AcDbEntity
  8
0
  6
Continuous
 62
     7
370
    25
100
AcDbLine
 10
6988.7942316382
 20
5170.3994295927
 30
0.0
 11
6985.3507281556
 21
5170.3994295927
 31
0.0
  0
LINE
  5
1DF
330
1F
100
AcDbEntity
  8
0
  6
Continuous
 62
     7
370
    25
100
AcDbLine
 10
7013.4728859446
 20
5177.2161909546
 30
0.0
 11
7014.8668394659
 21
5177.2161909546
 31
0.0
  0
LWPOLYLINE
  5
1E0
330
1F
100
AcDbEntity
  8
0
  6
Continuous
 62
     7
370
    25
100
AcDbPolyline
 90
        9
 70
   128
 43
0.0
 10
7013.4728859446
 20
5177.2161909546
 10
7013.5896900737
 20
5175.8768983819
 10
7013.8860382368
 20
5174.594187761
 10
7014.3509172228
 20
5173.4157285716
 10
7014.967050696
 20
5172.3853159887
 10
7015.7115412378
 20
5171.5412433196
 10
7016.5567212853
 20
5170.9148789056
 10
7017.4711813433
 20
5170.5295003788
 10
7018.4209372581
 20
5170.3994295927
  0
LINE
  5
1E1
330
1F
100
AcDbEntity
  8
0
  6
Continuous
 62
     7
370
    25
100
AcDbLine
 10
7021.8644407407
 20
5170.3994295927
 30
0.0
 11
7018.4209372581
 21
5170.3994295927
 31
0.0
  0
LINE
  5
1E2
330
1F
100
AcDbEntity
  8
0
  6
Continuous
 62
     7
370
    25
100
AcDbLine
 10
6993.7422829517
 20
5177.2161909546
 30
0.0
 11
6997.4849236388
 21
5177.2161909546
 31
0.0
  0
LINE
  5
1E3
330
1F
100
AcDbEntity
  8
0
  6
Continuous
 62
     7
370
    25
100
AcDbLine
 10
7009.7302452575
 20
5177.2161909546
 30
0.0
 11
7013.4728859446
 21
5177.2161909546
 31
0.0
  0
LWPOLYLINE
  5
1E4
330
1F
100
AcDbEntity
  8
0
  6
Continuous
 62
     7
370
    25
100
AcDbPolyline
 90
        9
 70
   128
 43
0.0
 10
6992.5368723253
 20
5170.3994295927
 10
6993.4866282401
 20
5170.5295003788
 10
6994.4010882981
 20
5170.9148789056
 10
6995.2462683456
 20
5171.5412433196
 10
6995.9907588874
 20
5172.3853159887
 10
6996.6068923606
 20
5173.4157285716
 10
6997.0717713466
 20
5174.594187761
 10
6997.3681195097
 20
5175.8768983819
 10
6997.4849236388
 20
5177.2161909546
  0
LINE
  5
1E5
330
1F
100
AcDbEntity
  8
0
  6
Continuous
 62
     7
370
    25
100
AcDbLine
 10
6992.5368723253
 20
5170.3994295927
 30
0.0
 11
6988.7942316382
 21
5170.3994295927
 31
0.0
  0
LWPOLYLINE
  5
1E6
330
1F
100
AcDbEntity
  8
0
  6
Continuous
 62
     7
370
    25
100
AcDbPolyline
 90
        9
 70
   128
 43
0.0
 10
7009.7302452575
 20
5177.2161909546
 10
7009.8470493866
 20
5175.8768983819
 10
7010.1433975497
 20
5174.594187761
 10
7010.6082765357
 20
5173.4157285716
 10
7011.2244100089
 20
5172.3853159887
 10
7011.9689005507
 20
5171.5412433196
 10
7012.8140805982
 20
5170.9148789056
 10
7013.7285406562
 20
5170.5295003788
 10
7014.6782965709
 20
5170.3994295927
  0
LINE
  5
1E7
330
1F
100
AcDbEntity
  8
0
  6
Continuous
 62
     7
370
    25
100
AcDbLine
 10
7018.4209372581
 20
5170.3994295927
 30
0.0
 11
7014.6782965709
 21
5170.3994295927
 31
0.0
  0
LINE
  5
1E8
330
1F
100
AcDbEntity
  8
0
  6
Continuous
 62
     7
370
    25
100
AcDbLine
 10
6997.4849236388
 20
5177.2161909546
 30
0.0
 11
7000.8502251353
 21
5177.2161909546
 31
0.0
  0
LINE
  5
1E9
330
1F
100
AcDbEntity
  8
0
  6
Continuous
 62
     7
370
    25
100
AcDbLine
 10
7006.364943761
 20
5177.2161909546
 30
0.0
 11
7009.7302452575
 21
5177.2161909546
 31
0.0
  0
LINE
  5
1EA
330
1F
100
AcDbEntity
  8
0
  6
Continuous
 62
     7
370
    25
100
AcDbLine
 10
7000.8502251353
 20
5170.3994295927
 30
0.0
 11
7000.8502251353
 21
5177.2161909546
 31
0.0
  0
LINE
  5
1EB
330
1F
100
AcDbEntity
  8
0
  6
Continuous
 62
     7
370
    25
100
AcDbLine
 10
7000.8502251353
 20
5170.3994295927
 30
0.0
 11
6992.5368723253
 21
5170.3994295927
 31
0.0
  0
LINE
  5
1EC
330
1F
100
AcDbEntity
  8
0
  6
Continuous
 62
     7
370
    25
100
AcDbLine
 10
7006.364943761
 20
5177.2161909546
 30
0.0
 11
7006.364943761
 21
5170.3994295927
 31
0.0
  0
LINE
  5
1ED
330
1F
100
AcDbEntity
  8
0
  6
Continuous
 62
     7
370
    25
100
AcDbLine
 10
7014.6782965709
 20
5170.3994295927
 30
0.0
 11
7006.364943761
 21
5170.3994295927
 31
0.0
  0
LINE
  5
1EE
330
1F
100
AcDbEntity
  8
0
  6
Continuous
 62
     7
370
    25
100
AcDbLine
 10
7000.8502251353
 20
5177.2161909546
 30
0.0
 11
7006.364943761
 21
5177.2161909546
 31
0.0
  0
LINE
  5
1EF
330
1F
100
AcDbEntity
  8
0
  6
Continuous
 62
     7
370
    25
100
AcDbLine
 10
7006.364943761
 20
5170.3994295927
 30
0.0
 11
7000.8502251353
 21
5170.3994295927
 31
0.0
  0
LINE
  5
1F0
330
1F
100
AcDbEntity
  8
0
  6
Continuous
 62
     7
370
    25
100
AcDbLine
 10
6938.70010716
 20
5160.1994295927
 30
0.0
 11
6938.70010716
 21
5153.1994295927
 31
0.0
  0
LINE
  5
1F1
330
1F
100
AcDbEntity
  8
0
  6
Continuous
 62
     7
370
    25
100
AcDbLine
 10
6938.70010716
 20
5160.1994295927
 30
0.0
 11
6948.5150617363
 21
5160.1994295927
 31
0.0
  0
LINE
  5
1F2
330
1F
100
AcDbEntity
  8
0
  6
Continuous
 62
     7
370
    25
100
AcDbLine
 10
6948.5150617363
 20
5160.1994295927
 30
0.0
 11
6948.5150617363
 21
5153.1994295927
 31
0.0
  0
LINE
  5
1F3
330
1F
100
AcDbEntity
  8
0
  6
Continuous
 62
     7
370
    25
100
AcDbLine
 10
6938.70010716
 20
5153.1994295927
 30
0.0
 11
6948.5150617363
 21
5153.1994295927
 31
0.0
  0
LINE
  5
1F4
330
1F
100
AcDbEntity
  8
0
  6
Continuous
 62
     7
370
    25
100
AcDbLine
 10
6933.7926298719
 20
5160.1994295927
 30
0.0
 11
6933.7926298719
 21
5153.1994295927
 31
0.0
  0
LINE
  5
1F5
330
1F
100
AcDbEntity
  8
0
  6
Continuous
 62
     7
370
    25
100
AcDbLine
 10
6933.7926298719
 20
5153.1994295927
 30
0.0
 11
6938.70010716
 21
5153.1994295927
 31
0.0
  0
LINE
  5
1F6
330
1F
100
AcDbEntity
  8
0
  6
Continuous
 62
     7
370
    25
100
AcDbLine
 10
6933.7926298719
 20
5160.1994295927
 30
0.0
 11
6938.70010716
 21
5160.1994295927
 31
0.0
  0
LINE
  5
1F7
330
1F
100
AcDbEntity
  8
0
  6
Continuous
 62
     7
370
    25
100
AcDbLine
 10
6953.4225390244
 20
5160.1994295927
 30
0.0
 11
6953.4225390244
 21
5153.1994295927
 31
0.0
  0
LINE
  5
1F8
330
1F
100
AcDbEntity
  8
0
  6
Continuous
 62
     7
370
    25
100
AcDbLine
 10
6948.5150617363
 20
5153.1994295927
 30
0.0
 11
6953.4225390244
 21
5153.1994295927
 31
0.0
  0
LINE
  5
1F9
330
1F
100
AcDbEntity
  8
0
  6
Continuous
 62
     7
370
    25
100
AcDbLine
 10
6948.5150617363
 20
5160.1994295927
 30
0.0
 11
6953.4225390244
 21
5160.1994295927
 31
0.0
  0
LINE
  5
1FA
330
1F
100
AcDbEntity
  8
0
  6
Continuous
 62
     7
370
    25
100
AcDbLine
 10
6939.6075844481
 20
5240.1994295927
 30
0.0
 11
6947.6075844481
 21
5240.1994295927
 31
0.0
  0
LINE
  5
1FB
330
1F
100
AcDbEntity
  8
0
  6
Continuous
 62
     7
370
    25
100
AcDbLine
 10
7080.7926298719
 20
5160.1994295927
 30
0.0
 11
7080.7926298719
 21
5155.1994295927
 31
0.0
  0
LINE
  5
1FC
330
1F
100
AcDbEntity
  8
0
  6
Continuous
 62
     7
370
    25
100
AcDbLine
 10
7080.7926298719
 20
5160.1994295927
 30
0.0
 11
7085.6075844481
 21
5160.1994295927
 31
0.0
  0
LINE
  5
1FD
330
1F
100
AcDbEntity
  8
0
  6
Continuous
 62
     7
370
    25
100
AcDbLine
 10
7100.4225390244
 20
5160.1994295927
 30
0.0
 11
7100.4225390244
 21
5155.1994295927
 31
0.0
  0
LINE
  5
1FE
330
1F
100
AcDbEntity
  8
0
  6
Continuous
 62
     7
370
    25
100
AcDbLine
 10
7095.6075844481
 20
5160.1994295927
 30
0.0
 11
7100.4225390244
 21
5160.1994295927
 31
0.0
  0
LINE
  5
1FF
330
1F
100
AcDbEntity
  8
0
  6
Continuous
 62
     7
370
    25
100
AcDbLine
 10
6928.6075844481
 20
5155.1994295927
 30
0.0
 11
6928.6075844481
 21
5153.1994295927
 31
0.0
  0
LINE
  5
200
330
1F
100
AcDbEntity
  8
0
  6
Continuous
 62
     7
370
    25
100
AcDbLine
 10
6958.6075844481
 20
5155.1994295927
 30
0.0
 11
6958.6075844481
 21
5153.1994295927
 31
0.0
  0
LINE
  5
201
330
1F
100
AcDbEntity
  8
0
  6
Continuous
 62
     7
370
    25
100
AcDbLine
 10
6928.6075844481
 20
5153.1994295927
 30
0.0
 11
6933.7926298719
 21
5153.1994295927
 31
0.0
  0
LINE
  5
202
330
1F
100
AcDbEntity
  8
0
  6
Continuous
 62
     7
370
    25
100
AcDbLine
 10
6953.4225390244
 20
5153.1994295927
 30
0.0
 11
6958.6075844481
 21
5153.1994295927
 31
0.0
  0
LINE
  5
203
330
1F
100
AcDbEntity
  8
0
  6
Continuous
 62
     7
370
    25
100
AcDbLine
 10
6928.6075844481
 20
5155.1994295927
 30
0.0
 11
6933.7926298719
 21
5155.1994295927
 31
0.0
  0
LINE
  5
204
330
1F
100
AcDbEntity
  8
0
  6
Continuous
 62
     7
370
    25
100
AcDbLine
 10
6953.4225390244
 20
5155.1994295927
 30
0.0
 11
6958.6075844481
 21
5155.1994295927
 31
0.0
  0
LINE
  5
205
330
1F
100
AcDbEntity
  8
0
  6
Continuous
 62
     7
370
    25
100
AcDbLine
 10
7075.6075844481
 20
5155.1994295927
 30
0.0
 11
7075.6075844481
 21
5153.1994295927
 31
0.0
  0
LINE
  5
206
330
1F
100
AcDbEntity
  8
0
  6
Continuous
 62
     7
370
    25
100
AcDbLine
 10
7075.6075844481
 20
5153.1994295927
 30
0.0
 11
7105.6075844481
 21
5153.1994295927
 31
0.0
  0
LINE
  5
207
330
1F
100
AcDbEntity
  8
0
  6
Continuous
 62
     7
370
    25
100
AcDbLine
 10
7105.6075844481
 20
5155.1994295927
 30
0.0
 11
7105.6075844481
 21
5153.1994295927
 31
0.0
  0
LINE
  5
208
330
1F
100
AcDbEntity
  8
0
  6
Continuous
 62
     7
370
    25
100
AcDbLine
 10
7075.6075844481
 20
5155.1994295927
 30
0.0
 11
7105.6075844481
 21
5155.1994295927
 31
0.0
  0
LINE
  5
209
330
1F
100
AcDbEntity
  8
0
  6
Continuous
 62
     7
370
    25
100
AcDbLine
 10
7086.6075844481
 20
5240.1994295927
 30
0.0
 11
7094.6075844481
 21
5240.1994295927
 31
0.0
  0
LINE
  5
20A
330
1F
100
AcDbEntity
  8
0
  6
Continuous
 62
     7
370
    25
100
AcDbLine
 10
6932.4075844481
 20
5258.1994295927
 30
0.0
 11
6932.4075844481
 21
5256.9994295927
 31
0.0
  0
LINE
  5
20B
330
1F
100
AcDbEntity
  8
0
  6
Continuous
 62
     7
370
    25
100
AcDbLine
 10
6932.4075844481
 20
5258.1994295927
 30
0.0
 11
7074.8075844481
 21
5258.1994295927
 31
0.0
  0
LINE
  5
20C
330
1F
100
AcDbEntity
  8
0
  6
Continuous
 62
     7
370
    25
100
AcDbLine
 10
7074.8075844481
 20
5258.1994295927
 30
0.0
 11
7074.8075844481
 21
5256.9994295927
 31
0.0
  0
LINE
  5
20D
330
1F
100
AcDbEntity
  8
0
  6
Continuous
 62
     7
370
    25
100
AcDbLine
 10
6932.4075844481
 20
5256.9994295927
 30
0.0
 11
7074.8075844481
 21
5256.9994295927
 31
0.0
  0
LINE
  5
20E
330
1F
100
AcDbEntity
  8
0
  6
Continuous
 62
     7
370
    25
100
AcDbLine
 10
7053.6075844481
 20
5272.1478882613
 30
0.0
 11
6953.6075844481
 21
5272.1478882613
 31
0.0
  0
LINE
  5
20F
330
1F
100
AcDbEntity
  8
0
  6
Continuous
 62
     7
370
    25
100
AcDbLine
 10
6953.6075844481
 20
5272.1478882613
 30
0.0
 11
6949.244328998
 21
5272.1478882613
 31
0.0
  0
ARC
  5
210
330
1F
100
AcDbEntity
  8
0
  6
Continuous
 62
     7
370
    25
100
AcDbCircle
 10
6950.8892151152
 20
5272.506664623
 30
0.0
 40
1.683558973215636
100
AcDbArc
 50
89.3750030156
 51
192.3044287048
  0
LINE
  5
211
330
1F
100
AcDbEntity
  8
0
  6
Continuous
 62
     7
370
    25
100
AcDbLine
 10
7057.9708398982
 20
5272.1478882613
 30
0.0
 11
7053.6075844481
 21
5272.1478882613
 31
0.0
  0
ARC
  5
212
330
1F
100
AcDbEntity
  8
0
  6
Continuous
 62
     7
370
    25
100
AcDbCircle
 10
7056.3075844481
 20
5272.4994295927
 30
0.0
 40
1.700000000000129
100
AcDbArc
 50
348.0657534268
 51
90.0
  0
LINE
  5
213
330
1F
100
AcDbEntity
  8
0
  6
Continuous
 62
     7
370
    25
100
AcDbLine
 10
6953.6075844481
 20
5267.9408303581
 30
0.0
 11
6950.1335217775
 21
5267.9408303581
 31
0.0
  0
LINE
  5
214
330
1F
100
AcDbEntity
  8
0
  6
Continuous
 62
     7
370
    25
100
AcDbLine
 10
6949.244328998
 20
5272.1478882613
 30
0.0
 11
6950.1335217775
 21
5267.9408303581
 31
0.0
  0
LINE
  5
215
330
1F
100
AcDbEntity
  8
0
  6
Continuous
 62
     7
370
    25
100
AcDbLine
 10
6953.6075844481
 20
5272.1478882613
 30
0.0
 11
6953.6075844481
 21
5267.9408303581
 31
0.0
  0
LINE
  5
216
330
1F
100
AcDbEntity
  8
0
  6
Continuous
 62
     7
370
    25
100
AcDbLine
 10
7053.6075844481
 20
5267.9408303581
 30
0.0
 11
6953.6075844481
 21
5267.9408303581
 31
0.0
  0
LINE
  5
217
330
1F
100
AcDbEntity
  8
0
  6
Continuous
 62
     7
370
    25
100
AcDbLine
 10
7053.6075844481
 20
5272.1478882613
 30
0.0
 11
7053.6075844481
 21
5267.9408303581
 31
0.0
  0
LINE
  5
218
330
1F
100
AcDbEntity
  8
0
  6
Continuous
 62
     7
370
    25
100
AcDbLine
 10
7057.0816471188
 20
5267.9408303581
 30
0.0
 11
7053.6075844481
 21
5267.9408303581
 31
0.0
  0
LINE
  5
219
330
1F
100
AcDbEntity
  8
0
  6
Continuous
 62
     7
370
    25
100
AcDbLine
 10
7057.9708398982
 20
5272.1478882613
 30
0.0
 11
7057.0816471188
 21
5267.9408303581
 31
0.0
  0
LINE
  5
21A
330
1F
100
AcDbEntity
  8
0
  6
Continuous
 62
     7
370
    25
100
AcDbLine
 10
6951.4075844481
 20
5267.9408303581
 30
0.0
 11
6951.4075844481
 21
5258.1994295927
 31
0.0
  0
LINE
  5
21B
330
1F
100
AcDbEntity
  8
0
  6
Continuous
 62
     7
370
    25
100
AcDbLine
 10
7055.8075844481
 20
5267.9408303581
 30
0.0
 11
7055.8075844481
 21
5258.1994295927
 31
0.0
  0
ARC
  5
21C
330
1F
100
AcDbEntity
  8
0
  6
Continuous
 62
     7
370
    25
100
AcDbCircle
 10
6954.6074492774
 20
5233.1994295927
 30
0.0
 40
1.000000000000909
100
AcDbArc
 50
270.0
 51
359.9996276583
  0
LINE
  5
21D
330
1F
100
AcDbEntity
  8
0
  6
Continuous
 62
     7
370
    25
100
AcDbLine
 10
6955.6074492774
 20
5233.1994230941
 30
0.0
 11
6955.6075844482
 21
5253.9994490885
 31
0.0
  0
ARC
  5
21E
330
1F
100
AcDbEntity
  8
0
  6
Continuous
 62
     7
370
    25
100
AcDbCircle
 10
6958.6075844481
 20
5253.9994295927
 30
0.0
 40
3.000000000000592
100
AcDbArc
 50
90.0
 51
179.9996276583
  0
ARC
  5
21F
330
1F
100
AcDbEntity
  8
0
  6
Continuous
 62
     7
370
    25
100
AcDbCircle
 10
7048.6075844481
 20
5253.9994295927
 30
0.0
 40
3.000000000000181
100
AcDbArc
 50
48.6002523617
 51
90.0
  0
LINE
  5
220
330
1F
100
AcDbEntity
  8
0
  6
Continuous
 62
     7
370
    25
100
AcDbLine
 10
7050.5915101324
 20
5256.2497715399
 30
0.0
 11
7077.5880678995
 21
5232.4493156103
 31
0.0
  0
ARC
  5
221
330
1F
100
AcDbEntity
  8
0
  6
Continuous
 62
     7
370
    25
100
AcDbCircle
 10
7078.2493764609
 20
5233.1994295927
 30
0.0
 40
1.000000000000909
100
AcDbArc
 50
228.6002523617
 51
270.0
  0
LINE
  5
222
330
1F
100
AcDbEntity
  8
0
  6
Continuous
 62
     7
370
    25
100
AcDbLine
 10
7078.2493764609
 20
5232.1994295927
 30
0.0
 11
7099.2493764609
 21
5232.1994295927
 31
0.0
  0
LINE
  5
223
330
1F
100
AcDbEntity
  8
0
  6
Continuous
 62
     7
370
    25
100
AcDbLine
 10
7099.2493764609
 20
5232.1994295927
 30
0.0
 11
7099.2493764609
 21
5230.1994295927
 31
0.0
  0
LINE
  5
224
330
1F
100
AcDbEntity
  8
0
  6
Continuous
 62
     7
370
    25
100
AcDbLine
 10
7099.2493764609
 20
5230.1994295927
 30
0.0
 11
7078.2493764609
 21
5230.1994295927
 31
0.0
  0
ARC
  5
225
330
1F
100
AcDbEntity
  8
0
  6
Continuous
 62
     7
370
    25
100
AcDbCircle
 10
7078.2493764609
 20
5233.1994295927
 30
0.0
 40
3.000000000000181
100
AcDbArc
 50
228.6002523617
 51
270.0
  0
LINE
  5
226
330
1F
100
AcDbEntity
  8
0
  6
Continuous
 62
     7
370
    25
100
AcDbLine
 10
7076.2654507766
 20
5230.9490876455
 30
0.0
 11
7049.2688930096
 21
5254.7495435751
 31
0.0
  0
ARC
  5
227
330
1F
100
AcDbEntity
  8
0
  6
Continuous
 62
     7
370
    25
100
AcDbCircle
 10
7048.6075844481
 20
5253.9994295927
 30
0.0
 40
1.000000000000716
100
AcDbArc
 50
48.6002523617
 51
90.0
  0
LINE
  5
228
330
1F
100
AcDbEntity
  8
0
  6
Continuous
 62
     7
370
    25
100
AcDbLine
 10
7048.6075844481
 20
5254.9994295927
 30
0.0
 11
6958.6075844481
 21
5254.9994295927
 31
0.0
  0
ARC
  5
229
330
1F
100
AcDbEntity
  8
0
  6
Continuous
 62
     7
370
    25
100
AcDbCircle
 10
6958.6075844481
 20
5253.9994295927
 30
0.0
 40
1.000000000000197
100
AcDbArc
 50
90.0
 51
179.9996276583
  0
LINE
  5
22A
330
1F
100
AcDbEntity
  8
0
  6
Continuous
 62
     7
370
    25
100
AcDbLine
 10
6957.6075844482
 20
5253.9994360913
 30
0.0
 11
6957.6074492774
 21
5233.199410097
 31
0.0
  0
ARC
  5
22B
330
1F
100
AcDbEntity
  8
0
  6
Continuous
 62
     7
370
    25
100
AcDbCircle
 10
6954.6074492774
 20
5233.1994295927
 30
0.0
 40
3.000000000000592
100
AcDbArc
 50
270.0
 51
359.9996276583
  0
LINE
  5
22C
330
1F
100
AcDbEntity
  8
0
  6
Continuous
 62
     7
370
    25
100
AcDbLine
 10
6954.6074492774
 20
5230.1994295927
 30
0.0
 11
6933.6074492774
 21
5230.1994295927
 31
0.0
  0
LINE
  5
22D
330
1F
100
AcDbEntity
  8
0
  6
Continuous
 62
     7
370
    25
100
AcDbLine
 10
6933.6074492774
 20
5232.1994295927
 30
0.0
 11
6954.6074492774
 21
5232.1994295927
 31
0.0
  0
LINE
  5
22E
330
1F
100
AcDbEntity
  8
0
  6
Continuous
 62
     7
370
    25
100
AcDbLine
 10
6933.6074492774
 20
5230.1994295927
 30
0.0
 11
6933.6074492774
 21
5232.1994295927
 31
0.0
  0
LINE
  5
22F
330
1F
100
AcDbEntity
  8
0
  6
Continuous
 62
     7
370
    25
100
AcDbLine
 10
6938.70010716
 20
5239.1994295927
 30
0.0
 11
6938.70010716
 21
5232.1994295927
 31
0.0
  0
LINE
  5
230
330
1F
100
AcDbEntity
  8
0
  6
Continuous
 62
     7
370
    25
100
AcDbLine
 10
6948.5150617363
 20
5239.1994295927
 30
0.0
 11
6948.5150617363
 21
5232.1994295927
 31
0.0
  0
LINE
  5
231
330
1F
100
AcDbEntity
  8
0
  6
Continuous
 62
     7
370
    25
100
AcDbLine
 10
6948.5150617363
 20
5239.1994295927
 30
0.0
 11
6938.70010716
 21
5239.1994295927
 31
0.0
  0
LINE
  5
232
330
1F
100
AcDbEntity
  8
0
  6
Continuous
 62
     7
370
    25
100
AcDbLine
 10
6933.7926298719
 20
5239.1994295927
 30
0.0
 11
6933.7926298719
 21
5232.1994295927
 31
0.0
  0
LINE
  5
233
330
1F
100
AcDbEntity
  8
0
  6
Continuous
 62
     7
370
    25
100
AcDbLine
 10
6938.70010716
 20
5239.1994295927
 30
0.0
 11
6933.7926298719
 21
5239.1994295927
 31
0.0
  0
LINE
  5
234
330
1F
100
AcDbEntity
  8
0
  6
Continuous
 62
     7
370
    25
100
AcDbLine
 10
6953.4225390244
 20
5239.1994295927
 30
0.0
 11
6953.4225390244
 21
5232.1994295927
 31
0.0
  0
LINE
  5
235
330
1F
100
AcDbEntity
  8
0
  6
Continuous
 62
     7
370
    25
100
AcDbLine
 10
6953.4225390244
 20
5239.1994295927
 30
0.0
 11
6948.5150617363
 21
5239.1994295927
 31
0.0
  0
LINE
  5
236
330
1F
100
AcDbEntity
  8
0
  6
Continuous
 62
     7
370
    25
100
AcDbLine
 10
7080.7926298719
 20
5239.1994295927
 30
0.0
 11
7080.7926298719
 21
5232.1994295927
 31
0.0
  0
LINE
  5
237
330
1F
100
AcDbEntity
  8
0
  6
Continuous
 62
     7
370
    25
100
AcDbLine
 10
7085.70010716
 20
5239.1994295927
 30
0.0
 11
7080.7926298719
 21
5239.1994295927
 31
0.0
  0
LINE
  5
238
330
1F
100
AcDbEntity
  8
0
  6
Continuous
 62
     7
370
    25
100
AcDbLine
 10
7085.70010716
 20
5239.1994295927
 30
0.0
 11
7085.70010716
 21
5232.1994295927
 31
0.0
  0
LINE
  5
239
330
1F
100
AcDbEntity
  8
0
  6
Continuous
 62
     7
370
    25
100
AcDbLine
 10
7095.5150617363
 20
5239.1994295927
 30
0.0
 11
7095.5150617363
 21
5232.1994295927
 31
0.0
  0
LINE
  5
23A
330
1F
100
AcDbEntity
  8
0
  6
Continuous
 62
     7
370
    25
100
AcDbLine
 10
7100.4225390244
 20
5239.1994295927
 30
0.0
 11
7100.4225390244
 21
5232.1994295927
 31
0.0
  0
LINE
  5
23B
330
1F
100
AcDbEntity
  8
0
  6
Continuous
 62
     7
370
    25
100
AcDbLine
 10
7100.4225390244
 20
5232.1994295927
 30
0.0
 11
7099.2493764609
 21
5232.1994295927
 31
0.0
  0
LINE
  5
23C
330
1F
100
AcDbEntity
  8
0
  6
Continuous
 62
     7
370
    25
100
AcDbLine
 10
7100.4225390244
 20
5239.1994295927
 30
0.0
 11
7095.5150617363
 21
5239.1994295927
 31
0.0
  0
LINE
  5
23D
330
1F
100
AcDbEntity
  8
0
  6
Continuous
 62
     7
370
    25
100
AcDbLine
 10
7095.5150617363
 20
5239.1994295927
 30
0.0
 11
7085.70010716
 21
5239.1994295927
 31
0.0
  0
LINE
  5
23E
330
1F
100
AcDbEntity
  8
0
  6
Continuous
 62
     7
370
    25
100
AcDbLine
 10
7006.4943357941
 20
5249.9994295927
 30
0.0
 11
7006.4943357941
 21
5254.9994295927
 31
0.0
  0
LINE
  5
23F
330
1F
100
AcDbEntity
  8
0
  6
Continuous
 62
     7
370
    25
100
AcDbLine
 10
7000.7208331022
 20
5249.9994295927
 30
0.0
 11
7006.4943357941
 21
5249.9994295927
 31
0.0
  0
LINE
  5
240
330
1F
100
AcDbEntity
  8
0
  6
Continuous
 62
     7
370
    25
100
AcDbLine
 10
7000.7208331022
 20
5249.9994295927
 30
0.0
 11
7000.7208331022
 21
5254.9994295927
 31
0.0
  0
LINE
  5
241
330
1F
100
AcDbEntity
  8
0
  6
Continuous
 62
     7
370
    25
100
AcDbLine
 10
6997.8340817562
 20
5249.9994295927
 30
0.0
 11
6997.8340817562
 21
5254.9994295927
 31
0.0
  0
LINE
  5
242
330
1F
100
AcDbEntity
  8
0
  6
Continuous
 62
     7
370
    25
100
AcDbLine
 10
6997.8340817562
 20
5249.9994295927
 30
0.0
 11
7000.7208331022
 21
5249.9994295927
 31
0.0
  0
LINE
  5
243
330
1F
100
AcDbEntity
  8
0
  6
Continuous
 62
     7
370
    25
100
AcDbLine
 10
7009.38108714
 20
5249.9994295927
 30
0.0
 11
7009.38108714
 21
5254.9994295927
 31
0.0
  0
LINE
  5
244
330
1F
100
AcDbEntity
  8
0
  6
Continuous
 62
     7
370
    25
100
AcDbLine
 10
7006.4943357941
 20
5249.9994295927
 30
0.0
 11
7009.38108714
 21
5249.9994295927
 31
0.0
  0
LINE
  5
245
330
1F
100
AcDbEntity
  8
0
  6
Continuous
 62
     7
370
    25
100
AcDbLine
 10
7000.6075844481
 20
5234.9994295927
 30
0.0
 11
7006.6075844481
 21
5234.9994295927
 31
0.0
  0
LINE
  5
246
330
1F
100
AcDbEntity
  8
0
  6
Continuous
 62
     8
370
    25
100
AcDbLine
 10
6964.3053583155
 20
5252.923103519
 30
0.0
 11
6997.8340817562
 21
5252.923103519
 31
0.0
  0
LINE
  5
247
330
1F
100
AcDbEntity
  8
0
  6
Continuous
 62
     8
370
    25
100
AcDbLine
 10
7009.38108714
 20
5252.923103519
 30
0.0
 11
7042.9098105807
 21
5252.923103519
 31
0.0
  0
LINE
  5
248
330
1F
100
AcDbEntity
  8
0
  6
Continuous
 62
     8
370
    25
100
AcDbLine
 10
6964.5444697007
 20
5253.3372565868
 30
0.0
 11
6997.8340817562
 21
5253.3372565868
 31
0.0
  0
LINE
  5
249
330
1F
100
AcDbEntity
  8
0
  6
Continuous
 62
     8
370
    25
100
AcDbLine
 10
7009.38108714
 20
5253.3372565868
 30
0.0
 11
7042.6706991955
 21
5253.3372565868
 31
0.0
  0
ARC
  5
24A
330
1F
100
AcDbEntity
  8
0
  6
Continuous
 62
     8
370
    25
100
AcDbCircle
 10
7003.607917615
 20
5217.4059466657
 30
0.0
 40
17.49966683632837
100
AcDbArc
 50
269.9989091761
 51
359.9989091346
  0
ARC
  5
24B
330
1F
100
AcDbEntity
  8
0
  6
Continuous
 62
     8
370
    25
100
AcDbCircle
 10
7003.6072503763
 20
5217.4059448462
 30
0.0
 40
17.49966501687419
100
AcDbArc
 50
180.0011153103
 51
270.0010937871
  0
LINE
  5
24C
330
1F
100
AcDbEntity
  8
0
  6
Continuous
 62
     8
370
    25
100
AcDbLine
 10
7020.7408489248
 20
5247.3994295927
 30
0.0
 11
7006.6075844481
 21
5247.3994295927
 31
0.0
  0
LINE
  5
24D
330
1F
100
AcDbEntity
  8
0
  6
Continuous
 62
     8
370
    25
100
AcDbLine
 10
7000.6075844481
 20
5247.3994295927
 30
0.0
 11
6986.4743199715
 21
5247.3994295927
 31
0.0
  0
LINE
  5
24E
330
1F
100
AcDbEntity
  8
0
  6
Continuous
 62
     8
370
    25
100
AcDbLine
 10
7025.4355830154
 20
5233.141741337
 30
0.0
 11
7025.532410448
 21
5244.3994295927
 31
0.0
  0
LINE
  5
24F
330
1F
100
AcDbEntity
  8
0
  6
Continuous
 62
     8
370
    25
100
AcDbLine
 10
7019.61894515
 20
5238.9904827872
 30
0.0
 11
7019.61894515
 21
5244.3994295927
 31
0.0
  0
LINE
  5
250
330
1F
100
AcDbEntity
  8
0
  6
Continuous
 62
     8
370
    25
100
AcDbLine
 10
6981.7795858809
 20
5233.141741337
 30
0.0
 11
6981.6827584482
 21
5244.3994295927
 31
0.0
  0
LINE
  5
251
330
1F
100
AcDbEntity
  8
0
  6
Continuous
 62
     8
370
    25
100
AcDbLine
 10
6987.5962237463
 20
5238.9904827872
 30
0.0
 11
6987.5962237463
 21
5244.3994295927
 31
0.0
  0
ARC
  5
252
330
1F
100
AcDbEntity
  8
0
  6
Continuous
 62
     8
370
    25
100
AcDbCircle
 10
7019.1679773534
 20
5202.2009778633
 30
0.0
 40
5.835886262677752
100
AcDbArc
 50
292.2807405458
 51
346.2292893367
  0
ARC
  5
253
330
1F
100
AcDbEntity
  8
0
  6
Continuous
 62
     8
370
    25
100
AcDbCircle
 10
6988.0487911044
 20
5202.2025756093
 30
0.0
 40
5.83797124790169
100
AcDbArc
 50
193.7452696728
 51
247.7106782337
  0
ARC
  5
254
330
1F
100
AcDbEntity
  8
0
  6
Continuous
 62
     8
370
    25
100
AcDbCircle
 10
7044.7545169489
 20
5158.2783709411
 30
0.0
 40
48.85774613776071
100
AcDbArc
 50
101.8649724379
 51
111.5369123433
  0
LWPOLYLINE
  5
255
330
1F
100
AcDbEntity
  8
0
  6
Continuous
 62
     8
370
    25
100
AcDbPolyline
 90
        8
 70
   128
 43
0.0
 10
7034.7090741736
 20
5206.0922647075
 10
7034.7448654851
 20
5204.6197544863
 10
7034.5658391847
 20
5203.2173246852
 10
7034.1801762004
 20
5201.9490618506
 10
7033.6055000943
 20
5200.8729215288
 10
7032.8680717226
 20
5200.0380798831
 10
7032.001589198
 20
5199.4826865006
 10
7031.3243449278
 20
5199.2714681823
  0
ARC
  5
256
330
1F
100
AcDbEntity
  8
0
  6
Continuous
 62
     8
370
    25
100
AcDbCircle
 10
6962.5431603089
 20
5158.5529097061
 30
0.0
 40
48.57211479934834
100
AcDbArc
 50
68.5846849951
 51
78.1636904354
  0
LWPOLYLINE
  5
257
330
1F
100
AcDbEntity
  8
0
  6
Continuous
 62
     8
370
    25
100
AcDbPolyline
 90
        8
 70
   128
 43
0.0
 10
6972.5060947226
 20
5206.0922647075
 10
6972.4703034112
 20
5204.6197544863
 10
6972.6493297116
 20
5203.2173246852
 10
6973.0349926959
 20
5201.9490618506
 10
6973.6096688019
 20
5200.8729215288
 10
6974.3470971737
 20
5200.0380798831
 10
6975.2135796983
 20
5199.4826865006
 10
6975.8825661789
 20
5199.2730378802
  0
LWPOLYLINE
  5
258
330
1F
100
AcDbEntity
  8
0
  6
Continuous
 62
     8
370
    25
100
AcDbPolyline
 90
        7
 70
   128
 43
0.0
 10
7034.7090741736
 20
5206.0922647075
 10
7040.0202336575
 20
5207.1353732179
 10
7044.4282039381
 20
5208.5173712913
 10
7047.5618081784
 20
5210.1610893164
 10
7049.5724335528
 20
5212.1614387324
 10
7050.3388786079
 20
5214.4404027525
 10
7050.2881649517
 20
5214.7168528623
  0
LWPOLYLINE
  5
259
330
1F
100
AcDbEntity
  8
0
  6
Continuous
 62
     8
370
    25
100
AcDbPolyline
 90
       11
 70
   128
 43
0.0
 10
6956.8933855479
 20
5214.7106257223
 10
6956.8740881053
 20
5214.4839267265
 10
6957.1464568449
 20
5213.1517066418
 10
6957.848002446
 20
5211.8658221141
 10
6958.9759701992
 20
5210.6810998339
 10
6960.3571365412
 20
5209.7052991358
 10
6962.0765631845
 20
5208.8185440736
 10
6964.2001112784
 20
5207.9970582303
 10
6966.6604090661
 20
5207.2703342689
 10
6969.4224999809
 20
5206.6397536453
 10
6972.5060947226
 20
5206.0922647075
  0
LINE
  5
25A
330
1F
100
AcDbEntity
  8
0
  6
Continuous
 62
     8
370
    25
100
AcDbLine
 10
6970.0633777936
 20
5247.3994295927
 30
0.0
 11
6957.6075415574
 21
5247.3994295927
 31
0.0
  0
LINE
  5
25B
330
1F
100
AcDbEntity
  8
0
  6
Continuous
 62
     8
370
    25
100
AcDbLine
 10
6955.6075415574
 20
5247.3994295927
 30
0.0
 11
6954.6075844481
 21
5247.3994295927
 31
0.0
  0
LINE
  5
25C
330
1F
100
AcDbEntity
  8
0
  6
Continuous
 62
     8
370
    25
100
AcDbLine
 10
7052.6075844481
 20
5247.3994295927
 30
0.0
 11
7037.1517911026
 21
5247.3994295927
 31
0.0
  0
LINE
  5
25D
330
1F
100
AcDbEntity
  8
0
  6
Continuous
 62
     8
370
    25
100
AcDbLine
 10
6981.9070830178
 20
5177.2161909546
 30
0.0
 11
6981.5398209051
 21
5198.0535926867
 31
0.0
  0
LINE
  5
25E
330
1F
100
AcDbEntity
  8
0
  6
Continuous
 62
     8
370
    25
100
AcDbLine
 10
7025.3080858785
 20
5177.2161909546
 30
0.0
 11
7035.8483294304
 21
5177.2161909546
 31
0.0
  0
LINE
  5
25F
330
1F
100
AcDbEntity
  8
0
  6
Continuous
 62
     8
370
    25
100
AcDbLine
 10
6971.3668394659
 20
5177.2161909546
 30
0.0
 11
6981.9070830178
 21
5177.2161909546
 31
0.0
  0
LINE
  5
260
330
1F
100
AcDbEntity
  8
0
  6
Continuous
 62
     8
370
    25
100
AcDbLine
 10
7025.3080858785
 20
5177.2161909546
 30
0.0
 11
7025.6754311646
 21
5198.0583117034
 31
0.0
  0
LINE
  5
261
330
1F
100
AcDbEntity
  8
0
  6
Continuous
 62
     8
370
    25
100
AcDbLine
 10
6993.7422829517
 20
5177.2161909546
 30
0.0
 11
6994.0162328696
 21
5192.0113047462
 31
0.0
  0
LINE
  5
262
330
1F
100
AcDbEntity
  8
0
  6
Continuous
 62
     8
370
    25
100
AcDbLine
 10
7013.4728859446
 20
5177.2161909546
 30
0.0
 11
7013.1989360266
 21
5192.0113047462
 31
0.0
  0
LINE
  5
263
330
1F
100
AcDbEntity
  8
0
  6
Continuous
 62
     8
370
    25
100
AcDbLine
 10
6993.9273451822
 20
5203.3421807542
 30
0.0
 11
6994.5584229906
 21
5228.8994295927
 31
0.0
  0
LINE
  5
264
330
1F
100
AcDbEntity
  8
0
  6
Continuous
 62
     8
370
    25
100
AcDbLine
 10
7013.2878237141
 20
5203.3421807542
 30
0.0
 11
7012.6567459057
 21
5228.8994295927
 31
0.0
  0
LINE
  5
265
330
1F
100
AcDbEntity
  8
0
  6
Continuous
 62
     8
370
    25
100
AcDbLine
 10
6998.0345679058
 20
5201.3322142491
 30
0.0
 11
6998.7152772401
 21
5228.8994295927
 31
0.0
  0
LINE
  5
266
330
1F
100
AcDbEntity
  8
0
  6
Continuous
 62
     8
370
    25
100
AcDbLine
 10
7009.1806009905
 20
5201.3322142491
 30
0.0
 11
7008.4998916562
 21
5228.8994295927
 31
0.0
  0
LINE
  5
267
330
1F
100
AcDbEntity
  8
0
  6
Continuous
 62
     8
370
    25
100
AcDbLine
 10
6997.4849236388
 20
5177.2161909546
 30
0.0
 11
6997.7382214616
 21
5190.8959545383
 31
0.0
  0
LINE
  5
268
330
1F
100
AcDbEntity
  8
0
  6
Continuous
 62
     8
370
    25
100
AcDbLine
 10
7009.7302452575
 20
5177.2161909546
 30
0.0
 11
7009.4769474347
 21
5190.8959545383
 31
0.0
  0
LINE
  5
269
330
1F
100
AcDbEntity
  8
0
  6
Continuous
 62
     8
370
    25
100
AcDbLine
 10
7000.2644386976
 20
5200.743433178
 30
0.0
 11
7000.2644386976
 21
5228.8994295927
 31
0.0
  0
LINE
  5
26A
330
1F
100
AcDbEntity
  8
0
  6
Continuous
 62
     8
370
    25
100
AcDbLine
 10
7006.9507301986
 20
5200.743433178
 30
0.0
 11
7006.9507301986
 21
5228.8994295927
 31
0.0
  0
LINE
  5
26B
330
1F
100
AcDbEntity
  8
0
  6
Continuous
 62
     8
370
    25
100
AcDbLine
 10
7000.8502251353
 20
5177.2161909546
 30
0.0
 11
7000.8502251353
 21
5190.3914479336
 31
0.0
  0
LINE
  5
26C
330
1F
100
AcDbEntity
  8
0
  6
Continuous
 62
     8
370
    25
100
AcDbLine
 10
7006.364943761
 20
5177.2161909546
 30
0.0
 11
7006.364943761
 21
5190.3914479336
 31
0.0
  0
LINE
  5
26D
330
1F
100
AcDbEntity
  8
0
  6
Continuous
 62
     8
370
    25
100
AcDbLine
 10
6953.6075844481
 20
5274.1994295927
 30
0.0
 11
6953.6075844481
 21
5272.1478882613
 31
0.0
  0
LINE
  5
26E
330
1F
100
AcDbEntity
  8
0
  6
Continuous
 62
     8
370
    25
100
AcDbLine
 10
7053.6075844481
 20
5274.1994295927
 30
0.0
 11
7053.6075844481
 21
5272.1478882613
 31
0.0
  0
LINE
  5
26F
330
1F
100
AcDbEntity
  8
0
  6
Continuous
 62
     8
370
    25
100
AcDbLine
 10
6953.6075844481
 20
5267.9408303581
 30
0.0
 11
6953.6075844481
 21
5258.1994295927
 31
0.0
  0
LINE
  5
270
330
1F
100
AcDbEntity
  8
0
  6
Continuous
 62
     8
370
    25
100
AcDbLine
 10
7053.6075844481
 20
5267.9408303581
 30
0.0
 11
7053.6075844481
 21
5258.1994295927
 31
0.0
  0
ARC
  5
271
330
1F
100
AcDbEntity
  8
0
  6
Continuous
 62
     7
370
    25
100
AcDbCircle
 10
6274.0187553361
 20
4899.1095135229
 30
0.0
 40
18.14999999999967
100
AcDbArc
 50
129.1086831024
 51
164.0229281893
  0
LWPOLYLINE
  5
272
330
1F
100
AcDbEntity
  8
0
  6
Continuous
 62
     7
370
    25
100
AcDbPolyline
 90
        3
 70
   128
 43
0.0
 10
6291.0428249587
 20
4905.4026489486
 10
6291.7819258412
 20
4902.8367475654
 10
6292.1410335457
 20
4900.1122759539
  0
ARC
  5
273
330
1F
100
AcDbEntity
  8
0
  6
Continuous
 62
     7
370
    25
100
AcDbCircle
 10
6274.0187553361
 20
4899.1095135229
 30
0.0
 40
20.05000000000087
100
AcDbArc
 50
126.5565495815
 51
150.4899542604
  0
ARC
  5
274
330
1F
100
AcDbEntity
  8
0
  6
Continuous
 62
     7
370
    25
100
AcDbCircle
 10
6292.0911099143
 20
4900.1095135229
 30
0.0
 40
0.0500000000001819
100
AcDbArc
 50
270.0
 51
3.1671253038
  0
ARC
  5
275
330
1F
100
AcDbEntity
  8
0
  6
Continuous
 62
     7
370
    25
100
AcDbCircle
 10
6292.0911099143
 20
4900.1095135229
 30
0.0
 40
1.950000000000728
100
AcDbArc
 50
270.0
 51
316.8209470634
  0
LINE
  5
276
330
1F
100
AcDbEntity
  8
0
  6
Continuous
 62
     7
370
    25
100
AcDbLine
 10
6287.5911099143
 20
4898.1595135229
 30
0.0
 11
6287.7180741075
 21
4898.1595135229
 31
0.0
  0
LINE
  5
277
330
1F
100
AcDbEntity
  8
0
  6
Continuous
 62
     7
370
    25
100
AcDbLine
 10
6291.9180741075
 20
4898.1595135229
 30
0.0
 11
6292.0911099143
 21
4898.1595135229
 31
0.0
  0
LINE
  5
278
330
1F
100
AcDbEntity
  8
0
  6
Continuous
 62
     7
370
    25
100
AcDbLine
 10
6292.0911099143
 20
4900.0595135229
 30
0.0
 11
6291.9180741075
 21
4900.0595135229
 31
0.0
  0
LINE
  5
279
330
1F
100
AcDbEntity
  8
0
  6
Continuous
 62
     7
370
    25
100
AcDbLine
 10
6287.7180741075
 20
4900.0595135229
 30
0.0
 11
6287.5911099143
 21
4900.0595135229
 31
0.0
  0
LINE
  5
27A
330
1F
100
AcDbEntity
  8
0
  6
Continuous
 62
     7
370
    25
100
AcDbLine
 10
6260.3187553361
 20
4898.1595135229
 30
0.0
 11
6260.4464007579
 21
4898.1595135229
 31
0.0
  0
LINE
  5
27B
330
1F
100
AcDbEntity
  8
0
  6
Continuous
 62
     7
370
    25
100
AcDbLine
 10
6260.4464007579
 20
4900.0595135229
 30
0.0
 11
6260.3187553361
 21
4900.0595135229
 31
0.0
  0
LINE
  5
27C
330
1F
100
AcDbEntity
  8
0
  6
Continuous
 62
     7
370
    25
100
AcDbLine
 10
6694.6187553361
 20
4953.5095135229
 30
0.0
 11
5853.4187053361
 21
4953.5095135229
 31
0.0
  0
ARC
  5
27D
330
1F
100
AcDbEntity
  8
0
  6
Continuous
 62
     7
370
    25
100
AcDbCircle
 10
5853.4187553361
 20
4949.1095135229
 30
0.0
 40
4.400000000000546
100
AcDbArc
 50
90.0
 51
180.0
  0
ARC
  5
27E
330
1F
100
AcDbEntity
  8
0
  6
Continuous
 62
     7
370
    25
100
AcDbCircle
 10
6694.6187553361
 20
4949.1095135229
 30
0.0
 40
4.400000000000546
100
AcDbArc
 50
0.0
 51
90.0
  0
LINE
  5
27F
330
1F
100
AcDbEntity
  8
0
  6
Continuous
 62
     7
370
    25
100
AcDbLine
 10
5849.0187553361
 20
4949.1095135229
 30
0.0
 11
5849.0187553361
 21
4849.1095135229
 31
0.0
  0
LINE
  5
280
330
1F
100
AcDbEntity
  8
0
  6
Continuous
 62
     7
370
    25
100
AcDbLine
 10
6699.0187553361
 20
4849.1095135229
 30
0.0
 11
6699.0187553361
 21
4949.1095135229
 31
0.0
  0
ARC
  5
281
330
1F
100
AcDbEntity
  8
0
  6
Continuous
 62
     7
370
    25
100
AcDbCircle
 10
6694.6187553361
 20
4849.1095135229
 30
0.0
 40
4.400000000000546
100
AcDbArc
 50
270.0
 51
0.0
  0
ARC
  5
282
330
1F
100
AcDbEntity
  8
0
  6
Continuous
 62
     7
370
    25
100
AcDbCircle
 10
5853.4187553361
 20
4849.1095135229
 30
0.0
 40
4.400000000000546
100
AcDbArc
 50
180.0
 51
270.0
  0
LINE
  5
283
330
1F
100
AcDbEntity
  8
0
  6
Continuous
 62
     7
370
    25
100
AcDbLine
 10
5853.4187553361
 20
4844.7095135229
 30
0.0
 11
6694.6187553361
 21
4844.7095135229
 31
0.0
  0
LINE
  5
284
330
1F
100
AcDbEntity
  8
0
  6
Continuous
 62
     7
370
    25
100
AcDbLine
 10
5856.8955320313
 20
4948.109513523
 30
0.0
 11
5857.718755336
 21
4945.909513523
 31
0.0
  0
LINE
  5
285
330
1F
100
AcDbEntity
  8
0
  6
Continuous
 62
     7
370
    25
100
AcDbLine
 10
5856.8955320313
 20
4946.909513523
 30
0.0
 11
5857.7187553361
 21
4945.909513523
 31
0.0
  0
LINE
  5
286
330
1F
100
AcDbEntity
  8
0
  6
Continuous
 62
     7
370
    25
100
AcDbLine
 10
5856.8955320313
 20
4948.109513523
 30
0.0
 11
5856.8955320313
 21
4946.909513523
 31
0.0
  0
LINE
  5
287
330
1F
100
AcDbEntity
  8
0
  6
Continuous
 62
     7
370
    25
100
AcDbLine
 10
6691.141978641
 20
4948.109513523
 30
0.0
 11
6691.1419786409
 21
4946.909513523
 31
0.0
  0
LINE
  5
288
330
1F
100
AcDbEntity
  8
0
  6
Continuous
 62
     7
370
    25
100
AcDbLine
 10
6690.3187553361
 20
4945.909513523
 30
0.0
 11
6691.1419786409
 21
4946.909513523
 31
0.0
  0
LINE
  5
289
330
1F
100
AcDbEntity
  8
0
  6
Continuous
 62
     7
370
    25
100
AcDbLine
 10
6690.3187553361
 20
4945.909513523
 30
0.0
 11
6691.1419786409
 21
4948.109513523
 31
0.0
  0
LINE
  5
28A
330
1F
100
AcDbEntity
  8
0
  6
Continuous
 62
     7
370
    25
100
AcDbLine
 10
5856.8955320313
 20
4948.109513523
 30
0.0
 11
6691.141978641
 21
4948.109513523
 31
0.0
  0
LINE
  5
28B
330
1F
100
AcDbEntity
  8
0
  6
Continuous
 62
     7
370
    25
100
AcDbLine
 10
5857.718755336
 20
4945.909513523
 30
0.0
 11
6690.3187553363
 21
4945.909513523
 31
0.0
  0
LINE
  5
28C
330
1F
100
AcDbEntity
  8
0
  6
Continuous
 62
     7
370
    25
100
AcDbLine
 10
5855.518755336
 20
4946.7327368277
 30
0.0
 11
5856.718755336
 21
4946.7327368276
 31
0.0
  0
LINE
  5
28D
330
1F
100
AcDbEntity
  8
0
  6
Continuous
 62
     7
370
    25
100
AcDbLine
 10
5857.718755336
 20
4945.9095135229
 30
0.0
 11
5856.718755336
 21
4946.7327368276
 31
0.0
  0
LINE
  5
28E
330
1F
100
AcDbEntity
  8
0
  6
Continuous
 62
     7
370
    25
100
AcDbLine
 10
5857.718755336
 20
4945.9095135229
 30
0.0
 11
5855.518755336
 21
4946.7327368276
 31
0.0
  0
LINE
  5
28F
330
1F
100
AcDbEntity
  8
0
  6
Continuous
 62
     7
370
    25
100
AcDbLine
 10
6692.5187553363
 20
4946.7327368278
 30
0.0
 11
6690.3187553363
 21
4945.909513523
 31
0.0
  0
LINE
  5
290
330
1F
100
AcDbEntity
  8
0
  6
Continuous
 62
     7
370
    25
100
AcDbLine
 10
6691.3187553363
 20
4946.7327368278
 30
0.0
 11
6690.3187553362
 21
4945.9095135229
 31
0.0
  0
LINE
  5
291
330
1F
100
AcDbEntity
  8
0
  6
Continuous
 62
     7
370
    25
100
AcDbLine
 10
6692.5187553363
 20
4946.7327368278
 30
0.0
 11
6691.3187553363
 21
4946.7327368278
 31
0.0
  0
LINE
  5
292
330
1F
100
AcDbEntity
  8
0
  6
Continuous
 62
     7
370
    25
100
AcDbLine
 10
5855.518755336
 20
4851.486290218
 30
0.0
 11
5857.718755336
 21
4852.3095135229
 31
0.0
  0
LINE
  5
293
330
1F
100
AcDbEntity
  8
0
  6
Continuous
 62
     7
370
    25
100
AcDbLine
 10
5855.518755336
 20
4851.486290218
 30
0.0
 11
5855.518755336
 21
4946.7327368277
 31
0.0
  0
LINE
  5
294
330
1F
100
AcDbEntity
  8
0
  6
Continuous
 62
     7
370
    25
100
AcDbLine
 10
5857.718755336
 20
4852.3095135229
 30
0.0
 11
5857.718755336
 21
4945.909513523
 31
0.0
  0
LINE
  5
295
330
1F
100
AcDbEntity
  8
0
  6
Continuous
 62
     7
370
    25
100
AcDbLine
 10
6692.5187553363
 20
4946.7327368278
 30
0.0
 11
6692.5187553363
 21
4851.4862902181
 31
0.0
  0
LINE
  5
296
330
1F
100
AcDbEntity
  8
0
  6
Continuous
 62
     7
370
    25
100
AcDbLine
 10
6690.3187553363
 20
4852.3095135228
 30
0.0
 11
6692.5187553363
 21
4851.4862902181
 31
0.0
  0
LINE
  5
297
330
1F
100
AcDbEntity
  8
0
  6
Continuous
 62
     7
370
    25
100
AcDbLine
 10
6690.3187553363
 20
4945.909513523
 30
0.0
 11
6690.3187553363
 21
4852.3095135228
 31
0.0
  0
LINE
  5
298
330
1F
100
AcDbEntity
  8
0
  6
Continuous
 62
     7
370
    25
100
AcDbLine
 10
6690.3187553363
 20
4852.3095135228
 30
0.0
 11
5857.718755336
 21
4852.3095135229
 31
0.0
  0
ARC
  5
299
330
1F
100
AcDbEntity
  8
0
  6
Continuous
 62
     7
370
    25
100
AcDbCircle
 10
5869.518755336
 20
4887.1095135229
 30
0.0
 40
3.0
100
AcDbArc
 50
180.0
 51
0.0
  0
LINE
  5
29A
330
1F
100
AcDbEntity
  8
0
  6
Continuous
 62
     7
370
    25
100
AcDbLine
 10
5872.518755336
 20
4887.1095135229
 30
0.0
 11
5872.518755336
 21
4911.1095135229
 31
0.0
  0
ARC
  5
29B
330
1F
100
AcDbEntity
  8
0
  6
Continuous
 62
     7
370
    25
100
AcDbCircle
 10
5869.518755336
 20
4911.1095135229
 30
0.0
 40
3.0
100
AcDbArc
 50
0.0
 51
180.0
  0
LINE
  5
29C
330
1F
100
AcDbEntity
  8
0
  6
Continuous
 62
     7
370
    25
100
AcDbLine
 10
5866.518755336
 20
4911.1095135229
 30
0.0
 11
5866.518755336
 21
4887.1095135229
 31
0.0
  0
ARC
  5
29D
330
1F
100
AcDbEntity
  8
0
  6
Continuous
 62
     7
370
    25
100
AcDbCircle
 10
6672.5187553363
 20
4887.1095135229
 30
0.0
 40
3.000000000000909
100
AcDbArc
 50
180.0
 51
0.0
  0
LINE
  5
29E
330
1F
100
AcDbEntity
  8
0
  6
Continuous
 62
     7
370
    25
100
AcDbLine
 10
6675.5187553363
 20
4887.1095135229
 30
0.0
 11
6675.5187553363
 21
4911.1095135229
 31
0.0
  0
ARC
  5
29F
330
1F
100
AcDbEntity
  8
0
  6
Continuous
 62
     7
370
    25
100
AcDbCircle
 10
6672.5187553363
 20
4911.1095135229
 30
0.0
 40
3.000000000000909
100
AcDbArc
 50
0.0
 51
180.0
  0
LINE
  5
2A0
330
1F
100
AcDbEntity
  8
0
  6
Continuous
 62
     7
370
    25
100
AcDbLine
 10
6669.5187553363
 20
4911.1095135229
 30
0.0
 11
6669.5187553363
 21
4887.1095135229
 31
0.0
  0
ARC
  5
2A1
330
1F
100
AcDbEntity
  8
0
  6
Continuous
 62
     7
370
    25
100
AcDbCircle
 10
6662.2903154674
 20
4891.0456134107
 30
0.0
 40
3.0
100
AcDbArc
 50
180.0
 51
0.0
  0
LINE
  5
2A2
330
1F
100
AcDbEntity
  8
0
  6
Continuous
 62
     7
370
    25
100
AcDbLine
 10
6665.2903154674
 20
4891.0456134107
 30
0.0
 11
6665.2903154674
 21
4915.0456134107
 31
0.0
  0
ARC
  5
2A3
330
1F
100
AcDbEntity
  8
0
  6
Continuous
 62
     7
370
    25
100
AcDbCircle
 10
6662.2903154674
 20
4915.0456134107
 30
0.0
 40
3.0
100
AcDbArc
 50
0.0
 51
180.0
  0
LINE
  5
2A4
330
1F
100
AcDbEntity
  8
0
  6
Continuous
 62
     7
370
    25
100
AcDbLine
 10
6659.2903154674
 20
4915.0456134107
 30
0.0
 11
6659.2903154674
 21
4891.0456134107
 31
0.0
  0
ARC
  5
2A5
330
1F
100
AcDbEntity
  8
0
  6
Continuous
 62
     7
370
    25
100
AcDbCircle
 10
6651.9906952153
 20
4894.7931325111
 30
0.0
 40
3.000000000000909
100
AcDbArc
 50
180.0
 51
0.0
  0
LINE
  5
2A6
330
1F
100
AcDbEntity
  8
0
  6
Continuous
 62
     7
370
    25
100
AcDbLine
 10
6654.9906952153
 20
4894.7931325111
 30
0.0
 11
6654.9906952153
 21
4918.7931325111
 31
0.0
  0
ARC
  5
2A7
330
1F
100
AcDbEntity
  8
0
  6
Continuous
 62
     7
370
    25
100
AcDbCircle
 10
6651.9906952153
 20
4918.7931325111
 30
0.0
 40
3.000000000000909
100
AcDbArc
 50
0.0
 51
180.0
  0
LINE
  5
2A8
330
1F
100
AcDbEntity
  8
0
  6
Continuous
 62
     7
370
    25
100
AcDbLine
 10
6648.9906952153
 20
4918.7931325111
 30
0.0
 11
6648.9906952153
 21
4894.7931325111
 31
0.0
  0
ARC
  5
2A9
330
1F
100
AcDbEntity
  8
0
  6
Continuous
 62
     7
370
    25
100
AcDbCircle
 10
6641.6120844277
 20
4898.3103170001
 30
0.0
 40
3.000000000000909
100
AcDbArc
 50
180.0
 51
0.0
  0
LINE
  5
2AA
330
1F
100
AcDbEntity
  8
0
  6
Continuous
 62
     7
370
    25
100
AcDbLine
 10
6644.6120844277
 20
4898.3103170001
 30
0.0
 11
6644.6120844277
 21
4922.3103170001
 31
0.0
  0
ARC
  5
2AB
330
1F
100
AcDbEntity
  8
0
  6
Continuous
 62
     7
370
    25
100
AcDbCircle
 10
6641.6120844277
 20
4922.3103170001
 30
0.0
 40
3.000000000000909
100
AcDbArc
 50
0.0
 51
180.0
  0
LINE
  5
2AC
330
1F
100
AcDbEntity
  8
0
  6
Continuous
 62
     7
370
    25
100
AcDbLine
 10
6638.6120844277
 20
4922.3103170001
 30
0.0
 11
6638.6120844277
 21
4898.3103170001
 31
0.0
  0
ARC
  5
2AD
330
1F
100
AcDbEntity
  8
0
  6
Continuous
 62
     7
370
    25
100
AcDbCircle
 10
6631.1419035202
 20
4901.5502158909
 30
0.0
 40
3.0
100
AcDbArc
 50
180.0
 51
0.0
  0
LINE
  5
2AE
330
1F
100
AcDbEntity
  8
0
  6
Continuous
 62
     7
370
    25
100
AcDbLine
 10
6634.1419035202
 20
4901.5502158909
 30
0.0
 11
6634.1419035202
 21
4925.5502158909
 31
0.0
  0
ARC
  5
2AF
330
1F
100
AcDbEntity
  8
0
  6
Continuous
 62
     7
370
    25
100
AcDbCircle
 10
6631.1419035202
 20
4925.5502158909
 30
0.0
 40
3.0
100
AcDbArc
 50
0.0
 51
180.0
  0
LINE
  5
2B0
330
1F
100
AcDbEntity
  8
0
  6
Continuous
 62
     7
370
    25
100
AcDbLine
 10
6628.1419035202
 20
4925.5502158909
 30
0.0
 11
6628.1419035202
 21
4901.5502158909
 31
0.0
  0
ARC
  5
2B1
330
1F
100
AcDbEntity
  8
0
  6
Continuous
 62
     7
370
    25
100
AcDbCircle
 10
6620.574056676
 20
4904.4567136523
 30
0.0
 40
3.0
100
AcDbArc
 50
180.0
 51
0.0
  0
LINE
  5
2B2
330
1F
100
AcDbEntity
  8
0
  6
Continuous
 62
     7
370
    25
100
AcDbLine
 10
6623.574056676
 20
4904.4567136523
 30
0.0
 11
6623.574056676
 21
4928.4567136523
 31
0.0
  0
ARC
  5
2B3
330
1F
100
AcDbEntity
  8
0
  6
Continuous
 62
     7
370
    25
100
AcDbCircle
 10
6620.574056676
 20
4928.4567136523
 30
0.0
 40
3.0
100
AcDbArc
 50
0.0
 51
180.0
  0
LINE
  5
2B4
330
1F
100
AcDbEntity
  8
0
  6
Continuous
 62
     7
370
    25
100
AcDbLine
 10
6617.574056676
 20
4928.4567136523
 30
0.0
 11
6617.574056676
 21
4904.4567136523
 31
0.0
  0
ARC
  5
2B5
330
1F
100
AcDbEntity
  8
0
  6
Continuous
 62
     7
370
    25
100
AcDbCircle
 10
6609.9067719282
 20
4906.9662951952
 30
0.0
 40
3.0
100
AcDbArc
 50
180.0
 51
0.0
  0
LINE
  5
2B6
330
1F
100
AcDbEntity
  8
0
  6
Continuous
 62
     7
370
    25
100
AcDbLine
 10
6612.9067719282
 20
4906.9662951952
 30
0.0
 11
6612.9067719282
 21
4930.9662951952
 31
0.0
  0
ARC
  5
2B7
330
1F
100
AcDbEntity
  8
0
  6
Continuous
 62
     7
370
    25
100
AcDbCircle
 10
6609.9067719282
 20
4930.9662951952
 30
0.0
 40
3.0
100
AcDbArc
 50
0.0
 51
180.0
  0
LINE
  5
2B8
330
1F
100
AcDbEntity
  8
0
  6
Continuous
 62
     7
370
    25
100
AcDbLine
 10
6606.9067719282
 20
4930.9662951952
 30
0.0
 11
6606.9067719282
 21
4906.9662951952
 31
0.0
  0
ARC
  5
2B9
330
1F
100
AcDbEntity
  8
0
  6
Continuous
 62
     7
370
    25
100
AcDbCircle
 10
6599.1407721627
 20
4909.0102219299
 30
0.0
 40
3.0
100
AcDbArc
 50
180.0
 51
0.0
  0
LINE
  5
2BA
330
1F
100
AcDbEntity
  8
0
  6
Continuous
 62
     7
370
    25
100
AcDbLine
 10
6602.1407721627
 20
4909.0102219299
 30
0.0
 11
6602.1407721627
 21
4933.0102219299
 31
0.0
  0
ARC
  5
2BB
330
1F
100
AcDbEntity
  8
0
  6
Continuous
 62
     7
370
    25
100
AcDbCircle
 10
6599.1407721627
 20
4933.0102219299
 30
0.0
 40
3.0
100
AcDbArc
 50
0.0
 51
180.0
  0
LINE
  5
2BC
330
1F
100
AcDbEntity
  8
0
  6
Continuous
 62
     7
370
    25
100
AcDbLine
 10
6596.1407721627
 20
4933.0102219299
 30
0.0
 11
6596.1407721627
 21
4909.0102219299
 31
0.0
  0
ARC
  5
2BD
330
1F
100
AcDbEntity
  8
0
  6
Continuous
 62
     7
370
    25
100
AcDbCircle
 10
6588.2858578084
 20
4910.5162727236
 30
0.0
 40
3.0
100
AcDbArc
 50
180.0
 51
0.0
  0
LINE
  5
2BE
330
1F
100
AcDbEntity
  8
0
  6
Continuous
 62
     7
370
    25
100
AcDbLine
 10
6591.2858578084
 20
4910.5162727236
 30
0.0
 11
6591.2858578084
 21
4934.5162727236
 31
0.0
  0
ARC
  5
2BF
330
1F
100
AcDbEntity
  8
0
  6
Continuous
 62
     7
370
    25
100
AcDbCircle
 10
6588.2858578084
 20
4934.5162727236
 30
0.0
 40
3.0
100
AcDbArc
 50
0.0
 51
180.0
  0
LINE
  5
2C0
330
1F
100
AcDbEntity
  8
0
  6
Continuous
 62
     7
370
    25
100
AcDbLine
 10
6585.2858578084
 20
4934.5162727236
 30
0.0
 11
6585.2858578084
 21
4910.5162727236
 31
0.0
  0
ARC
  5
2C1
330
1F
100
AcDbEntity
  8
0
  6
Continuous
 62
     7
370
    25
100
AcDbCircle
 10
6577.3642881377
 20
4911.4139801542
 30
0.0
 40
3.000000000000909
100
AcDbArc
 50
180.0
 51
0.0
  0
LINE
  5
2C2
330
1F
100
AcDbEntity
  8
0
  6
Continuous
 62
     7
370
    25
100
AcDbLine
 10
6580.3642881377
 20
4911.4139801542
 30
0.0
 11
6580.3642881377
 21
4935.4139801542
 31
0.0
  0
ARC
  5
2C3
330
1F
100
AcDbEntity
  8
0
  6
Continuous
 62
     7
370
    25
100
AcDbCircle
 10
6577.3642881377
 20
4935.4139801542
 30
0.0
 40
3.000000000000909
100
AcDbArc
 50
0.0
 51
180.0
  0
LINE
  5
2C4
330
1F
100
AcDbEntity
  8
0
  6
Continuous
 62
     7
370
    25
100
AcDbLine
 10
6574.3642881377
 20
4935.4139801542
 30
0.0
 11
6574.3642881377
 21
4911.4139801542
 31
0.0
  0
ARC
  5
2C5
330
1F
100
AcDbEntity
  8
0
  6
Continuous
 62
     7
370
    25
100
AcDbCircle
 10
6566.4089383247
 20
4911.6424004031
 30
0.0
 40
3.0
100
AcDbArc
 50
180.0
 51
0.0
  0
LINE
  5
2C6
330
1F
100
AcDbEntity
  8
0
  6
Continuous
 62
     7
370
    25
100
AcDbLine
 10
6569.4089383247
 20
4911.6424004031
 30
0.0
 11
6569.4089383247
 21
4935.6424004031
 31
0.0
  0
ARC
  5
2C7
330
1F
100
AcDbEntity
  8
0
  6
Continuous
 62
     7
370
    25
100
AcDbCircle
 10
6566.4089383247
 20
4935.6424004031
 30
0.0
 40
3.0
100
AcDbArc
 50
0.0
 51
180.0
  0
LINE
  5
2C8
330
1F
100
AcDbEntity
  8
0
  6
Continuous
 62
     7
370
    25
100
AcDbLine
 10
6563.4089383247
 20
4935.6424004031
 30
0.0
 11
6563.4089383247
 21
4911.6424004031
 31
0.0
  0
ARC
  5
2C9
330
1F
100
AcDbEntity
  8
0
  6
Continuous
 62
     7
370
    25
100
AcDbCircle
 10
6555.4601892293
 20
4911.1578898929
 30
0.0
 40
3.0
100
AcDbArc
 50
180.0
 51
0.0
  0
LINE
  5
2CA
330
1F
100
AcDbEntity
  8
0
  6
Continuous
 62
     7
370
    25
100
AcDbLine
 10
6558.4601892293
 20
4911.1578898929
 30
0.0
 11
6558.4601892293
 21
4935.1578898929
 31
0.0
  0
ARC
  5
2CB
330
1F
100
AcDbEntity
  8
0
  6
Continuous
 62
     7
370
    25
100
AcDbCircle
 10
6555.4601892293
 20
4935.1578898929
 30
0.0
 40
3.0
100
AcDbArc
 50
0.0
 51
180.0
  0
LINE
  5
2CC
330
1F
100
AcDbEntity
  8
0
  6
Continuous
 62
     7
370
    25
100
AcDbLine
 10
6552.4601892293
 20
4935.1578898929
 30
0.0
 11
6552.4601892293
 21
4911.1578898929
 31
0.0
  0
ARC
  5
2CD
330
1F
100
AcDbEntity
  8
0
  6
Continuous
 62
     7
370
    25
100
AcDbCircle
 10
6544.5703228745
 20
4909.9466005075
 30
0.0
 40
3.0
100
AcDbArc
 50
180.0
 51
0.0
  0
LINE
  5
2CE
330
1F
100
AcDbEntity
  8
0
  6
Continuous
 62
     7
370
    25
100
AcDbLine
 10
6547.5703228745
 20
4909.9466005075
 30
0.0
 11
6547.5703228745
 21
4933.9466005075
 31
0.0
  0
ARC
  5
2CF
330
1F
100
AcDbEntity
  8
0
  6
Continuous
 62
     7
370
    25
100
AcDbCircle
 10
6544.5703228745
 20
4933.9466005075
 30
0.0
 40
3.0
100
AcDbArc
 50
0.0
 51
180.0
  0
LINE
  5
2D0
330
1F
100
AcDbEntity
  8
0
  6
Continuous
 62
     7
370
    25
100
AcDbLine
 10
6541.5703228745
 20
4933.9466005075
 30
0.0
 11
6541.5703228745
 21
4909.9466005075
 31
0.0
  0
ARC
  5
2D1
330
1F
100
AcDbEntity
  8
0
  6
Continuous
 62
     7
370
    25
100
AcDbCircle
 10
6533.7719568438
 20
4908.0760266596
 30
0.0
 40
3.0
100
AcDbArc
 50
180.0
 51
0.0
  0
LINE
  5
2D2
330
1F
100
AcDbEntity
  8
0
  6
Continuous
 62
     7
370
    25
100
AcDbLine
 10
6536.7719568438
 20
4908.0760266596
 30
0.0
 11
6536.7719568438
 21
4932.0760266596
 31
0.0
  0
ARC
  5
2D3
330
1F
100
AcDbEntity
  8
0
  6
Continuous
 62
     7
370
    25
100
AcDbCircle
 10
6533.7719568438
 20
4932.0760266596
 30
0.0
 40
3.0
100
AcDbArc
 50
0.0
 51
180.0
  0
LINE
  5
2D4
330
1F
100
AcDbEntity
  8
0
  6
Continuous
 62
     7
370
    25
100
AcDbLine
 10
6530.7719568438
 20
4932.0760266596
 30
0.0
 11
6530.7719568438
 21
4908.0760266596
 31
0.0
  0
ARC
  5
2D5
330
1F
100
AcDbEntity
  8
0
  6
Continuous
 62
     7
370
    25
100
AcDbCircle
 10
6523.0835164029
 20
4905.6562751548
 30
0.0
 40
3.0
100
AcDbArc
 50
180.0
 51
0.0
  0
LINE
  5
2D6
330
1F
100
AcDbEntity
  8
0
  6
Continuous
 62
     7
370
    25
100
AcDbLine
 10
6526.0835164029
 20
4905.6562751548
 30
0.0
 11
6526.0835164029
 21
4929.6562751548
 31
0.0
  0
ARC
  5
2D7
330
1F
100
AcDbEntity
  8
0
  6
Continuous
 62
     7
370
    25
100
AcDbCircle
 10
6523.0835164029
 20
4929.6562751548
 30
0.0
 40
3.0
100
AcDbArc
 50
0.0
 51
180.0
  0
LINE
  5
2D8
330
1F
100
AcDbEntity
  8
0
  6
Continuous
 62
     7
370
    25
100
AcDbLine
 10
6520.0835164029
 20
4929.6562751548
 30
0.0
 11
6520.0835164029
 21
4905.6562751548
 31
0.0
  0
ARC
  5
2D9
330
1F
100
AcDbEntity
  8
0
  6
Continuous
 62
     7
370
    25
100
AcDbCircle
 10
6512.5051901084
 20
4902.7914877965
 30
0.0
 40
3.000000000000909
100
AcDbArc
 50
180.0
 51
0.0
  0
LINE
  5
2DA
330
1F
100
AcDbEntity
  8
0
  6
Continuous
 62
     7
370
    25
100
AcDbLine
 10
6515.5051901084
 20
4902.7914877965
 30
0.0
 11
6515.5051901084
 21
4926.7914877965
 31
0.0
  0
ARC
  5
2DB
330
1F
100
AcDbEntity
  8
0
  6
Continuous
 62
     7
370
    25
100
AcDbCircle
 10
6512.5051901084
 20
4926.7914877965
 30
0.0
 40
3.000000000000909
100
AcDbArc
 50
0.0
 51
180.0
  0
LINE
  5
2DC
330
1F
100
AcDbEntity
  8
0
  6
Continuous
 62
     7
370
    25
100
AcDbLine
 10
6509.5051901084
 20
4926.7914877965
 30
0.0
 11
6509.5051901084
 21
4902.7914877965
 31
0.0
  0
ARC
  5
2DD
330
1F
100
AcDbEntity
  8
0
  6
Continuous
 62
     7
370
    25
100
AcDbCircle
 10
6502.0279154329
 20
4899.577720949
 30
0.0
 40
3.000000000000909
100
AcDbArc
 50
180.0
 51
0.0
  0
LINE
  5
2DE
330
1F
100
AcDbEntity
  8
0
  6
Continuous
 62
     7
370
    25
100
AcDbLine
 10
6505.0279154329
 20
4899.577720949
 30
0.0
 11
6505.0279154329
 21
4923.577720949
 31
0.0
  0
ARC
  5
2DF
330
1F
100
AcDbEntity
  8
0
  6
Continuous
 62
     7
370
    25
100
AcDbCircle
 10
6502.0279154329
 20
4923.577720949
 30
0.0
 40
3.000000000000909
100
AcDbArc
 50
0.0
 51
180.0
  0
LINE
  5
2E0
330
1F
100
AcDbEntity
  8
0
  6
Continuous
 62
     7
370
    25
100
AcDbLine
 10
6499.0279154329
 20
4923.577720949
 30
0.0
 11
6499.0279154329
 21
4899.577720949
 31
0.0
  0
ARC
  5
2E1
330
1F
100
AcDbEntity
  8
0
  6
Continuous
 62
     7
370
    25
100
AcDbCircle
 10
6491.6349629131
 20
4896.1025236047
 30
0.0
 40
3.0
100
AcDbArc
 50
180.0
 51
0.0
  0
LINE
  5
2E2
330
1F
100
AcDbEntity
  8
0
  6
Continuous
 62
     7
370
    25
100
AcDbLine
 10
6494.6349629131
 20
4896.1025236047
 30
0.0
 11
6494.6349629131
 21
4920.1025236047
 31
0.0
  0
ARC
  5
2E3
330
1F
100
AcDbEntity
  8
0
  6
Continuous
 62
     7
370
    25
100
AcDbCircle
 10
6491.6349629131
 20
4920.1025236047
 30
0.0
 40
3.0
100
AcDbArc
 50
0.0
 51
180.0
  0
LINE
  5
2E4
330
1F
100
AcDbEntity
  8
0
  6
Continuous
 62
     7
370
    25
100
AcDbLine
 10
6488.6349629131
 20
4920.1025236047
 30
0.0
 11
6488.6349629131
 21
4896.1025236047
 31
0.0
  0
ARC
  5
2E5
330
1F
100
AcDbEntity
  8
0
  6
Continuous
 62
     7
370
    25
100
AcDbCircle
 10
6481.3019804134
 20
4892.445212839
 30
0.0
 40
3.000000000000909
100
AcDbArc
 50
180.0
 51
0.0
  0
LINE
  5
2E6
330
1F
100
AcDbEntity
  8
0
  6
Continuous
 62
     7
370
    25
100
AcDbLine
 10
6484.3019804134
 20
4892.445212839
 30
0.0
 11
6484.3019804134
 21
4916.445212839
 31
0.0
  0
ARC
  5
2E7
330
1F
100
AcDbEntity
  8
0
  6
Continuous
 62
     7
370
    25
100
AcDbCircle
 10
6481.3019804134
 20
4916.445212839
 30
0.0
 40
3.000000000000909
100
AcDbArc
 50
0.0
 51
180.0
  0
LINE
  5
2E8
330
1F
100
AcDbEntity
  8
0
  6
Continuous
 62
     7
370
    25
100
AcDbLine
 10
6478.3019804134
 20
4916.445212839
 30
0.0
 11
6478.3019804134
 21
4892.445212839
 31
0.0
  0
ARC
  5
2E9
330
1F
100
AcDbEntity
  8
0
  6
Continuous
 62
     7
370
    25
100
AcDbCircle
 10
6471.0077730689
 20
4888.6819801511
 30
0.0
 40
3.0
100
AcDbArc
 50
180.0
 51
0.0
  0
LINE
  5
2EA
330
1F
100
AcDbEntity
  8
0
  6
Continuous
 62
     7
370
    25
100
AcDbLine
 10
6474.0077730689
 20
4888.6819801511
 30
0.0
 11
6474.0077730689
 21
4912.6819801511
 31
0.0
  0
ARC
  5
2EB
330
1F
100
AcDbEntity
  8
0
  6
Continuous
 62
     7
370
    25
100
AcDbCircle
 10
6471.0077730689
 20
4912.6819801511
 30
0.0
 40
3.0
100
AcDbArc
 50
0.0
 51
180.0
  0
LINE
  5
2EC
330
1F
100
AcDbEntity
  8
0
  6
Continuous
 62
     7
370
    25
100
AcDbLine
 10
6468.0077730689
 20
4912.6819801511
 30
0.0
 11
6468.0077730689
 21
4888.6819801511
 31
0.0
  0
ARC
  5
2ED
330
1F
100
AcDbEntity
  8
0
  6
Continuous
 62
     7
370
    25
100
AcDbCircle
 10
6460.7266384093
 20
4884.8850419667
 30
0.0
 40
3.0
100
AcDbArc
 50
180.0
 51
0.0
  0
LINE
  5
2EE
330
1F
100
AcDbEntity
  8
0
  6
Continuous
 62
     7
370
    25
100
AcDbLine
 10
6463.7266384093
 20
4884.8850419667
 30
0.0
 11
6463.7266384093
 21
4908.8850419667
 31
0.0
  0
ARC
  5
2EF
330
1F
100
AcDbEntity
  8
0
  6
Continuous
 62
     7
370
    25
100
AcDbCircle
 10
6460.7266384093
 20
4908.8850419667
 30
0.0
 40
3.0
100
AcDbArc
 50
0.0
 51
180.0
  0
LINE
  5
2F0
330
1F
100
AcDbEntity
  8
0
  6
Continuous
 62
     7
370
    25
100
AcDbLine
 10
6457.7266384093
 20
4908.8850419667
 30
0.0
 11
6457.7266384093
 21
4884.8850419667
 31
0.0
  0
ARC
  5
2F1
330
1F
100
AcDbEntity
  8
0
  6
Continuous
 62
     7
370
    25
100
AcDbCircle
 10
6450.4329905965
 20
4881.1261944328
 30
0.0
 40
3.0
100
AcDbArc
 50
180.0
 51
0.0
  0
LINE
  5
2F2
330
1F
100
AcDbEntity
  8
0
  6
Continuous
 62
     7
370
    25
100
AcDbLine
 10
6453.4329905965
 20
4881.1261944328
 30
0.0
 11
6453.4329905965
 21
4905.1261944328
 31
0.0
  0
ARC
  5
2F3
330
1F
100
AcDbEntity
  8
0
  6
Continuous
 62
     7
370
    25
100
AcDbCircle
 10
6450.4329905965
 20
4905.1261944328
 30
0.0
 40
3.0
100
AcDbArc
 50
0.0
 51
180.0
  0
LINE
  5
2F4
330
1F
100
AcDbEntity
  8
0
  6
Continuous
 62
     7
370
    25
100
AcDbLine
 10
6447.4329905965
 20
4905.1261944328
 30
0.0
 11
6447.4329905965
 21
4881.1261944328
 31
0.0
  0
ARC
  5
2F5
330
1F
100
AcDbEntity
  8
0
  6
Continuous
 62
     7
370
    25
100
AcDbCircle
 10
6440.0983162302
 20
4877.4778270006
 30
0.0
 40
3.000000000000909
100
AcDbArc
 50
180.0
 51
0.0
  0
LINE
  5
2F6
330
1F
100
AcDbEntity
  8
0
  6
Continuous
 62
     7
370
    25
100
AcDbLine
 10
6443.0983162302
 20
4877.4778270006
 30
0.0
 11
6443.0983162302
 21
4901.4778270006
 31
0.0
  0
ARC
  5
2F7
330
1F
100
AcDbEntity
  8
0
  6
Continuous
 62
     7
370
    25
100
AcDbCircle
 10
6440.0983162302
 20
4901.4778270006
 30
0.0
 40
3.000000000000909
100
AcDbArc
 50
0.0
 51
180.0
  0
LINE
  5
2F8
330
1F
100
AcDbEntity
  8
0
  6
Continuous
 62
     7
370
    25
100
AcDbLine
 10
6437.0983162302
 20
4901.4778270006
 30
0.0
 11
6437.0983162302
 21
4877.4778270006
 31
0.0
  0
ARC
  5
2F9
330
1F
100
AcDbEntity
  8
0
  6
Continuous
 62
     7
370
    25
100
AcDbCircle
 10
6429.69883427
 20
4874.017839883
 30
0.0
 40
3.000000000000909
100
AcDbArc
 50
180.0
 51
0.0
  0
LINE
  5
2FA
330
1F
100
AcDbEntity
  8
0
  6
Continuous
 62
     7
370
    25
100
AcDbLine
 10
6432.69883427
 20
4874.017839883
 30
0.0
 11
6432.69883427
 21
4898.017839883
 31
0.0
  0
ARC
  5
2FB
330
1F
100
AcDbEntity
  8
0
  6
Continuous
 62
     7
370
    25
100
AcDbCircle
 10
6429.69883427
 20
4898.017839883
 30
0.0
 40
3.000000000000909
100
AcDbArc
 50
0.0
 51
180.0
  0
LINE
  5
2FC
330
1F
100
AcDbEntity
  8
0
  6
Continuous
 62
     7
370
    25
100
AcDbLine
 10
6426.69883427
 20
4898.017839883
 30
0.0
 11
6426.69883427
 21
4874.017839883
 31
0.0
  0
ARC
  5
2FD
330
1F
100
AcDbEntity
  8
0
  6
Continuous
 62
     7
370
    25
100
AcDbCircle
 10
6419.2124328058
 20
4870.8304327726
 30
0.0
 40
3.0
100
AcDbArc
 50
180.0
 51
0.0
  0
LINE
  5
2FE
330
1F
100
AcDbEntity
  8
0
  6
Continuous
 62
     7
370
    25
100
AcDbLine
 10
6422.2124328058
 20
4870.8304327726
 30
0.0
 11
6422.2124328058
 21
4894.8304327726
 31
0.0
  0
ARC
  5
2FF
330
1F
100
AcDbEntity
  8
0
  6
Continuous
 62
     7
370
    25
100
AcDbCircle
 10
6419.2124328058
 20
4894.8304327726
 30
0.0
 40
3.0
100
AcDbArc
 50
0.0
 51
180.0
  0
LINE
  5
300
330
1F
100
AcDbEntity
  8
0
  6
Continuous
 62
     7
370
    25
100
AcDbLine
 10
6416.2124328058
 20
4894.8304327726
 30
0.0
 11
6416.2124328058
 21
4870.8304327726
 31
0.0
  0
ARC
  5
301
330
1F
100
AcDbEntity
  8
0
  6
Continuous
 62
     7
370
    25
100
AcDbCircle
 10
6408.6232362925
 20
4868.0090486534
 30
0.0
 40
3.000000000000909
100
AcDbArc
 50
180.0
 51
0.0
  0
LINE
  5
302
330
1F
100
AcDbEntity
  8
0
  6
Continuous
 62
     7
370
    25
100
AcDbLine
 10
6411.6232362925
 20
4868.0090486534
 30
0.0
 11
6411.6232362925
 21
4892.0090486534
 31
0.0
  0
ARC
  5
303
330
1F
100
AcDbEntity
  8
0
  6
Continuous
 62
     7
370
    25
100
AcDbCircle
 10
6408.6232362925
 20
4892.0090486534
 30
0.0
 40
3.000000000000909
100
AcDbArc
 50
0.0
 51
180.0
  0
LINE
  5
304
330
1F
100
AcDbEntity
  8
0
  6
Continuous
 62
     7
370
    25
100
AcDbLine
 10
6405.6232362925
 20
4892.0090486534
 30
0.0
 11
6405.6232362925
 21
4868.0090486534
 31
0.0
  0
ARC
  5
305
330
1F
100
AcDbEntity
  8
0
  6
Continuous
 62
     7
370
    25
100
AcDbCircle
 10
6397.9200554973
 20
4865.656651452
 30
0.0
 40
3.0
100
AcDbArc
 50
180.0
 51
0.0
  0
LINE
  5
306
330
1F
100
AcDbEntity
  8
0
  6
Continuous
 62
     7
370
    25
100
AcDbLine
 10
6400.9200554973
 20
4865.656651452
 30
0.0
 11
6400.9200554973
 21
4889.656651452
 31
0.0
  0
ARC
  5
307
330
1F
100
AcDbEntity
  8
0
  6
Continuous
 62
     7
370
    25
100
AcDbCircle
 10
6397.9200554973
 20
4889.656651452
 30
0.0
 40
3.0
100
AcDbArc
 50
0.0
 51
180.0
  0
LINE
  5
308
330
1F
100
AcDbEntity
  8
0
  6
Continuous
 62
     7
370
    25
100
AcDbLine
 10
6394.9200554973
 20
4889.656651452
 30
0.0
 11
6394.9200554973
 21
4865.656651452
 31
0.0
  0
ARC
  5
309
330
1F
100
AcDbEntity
  8
0
  6
Continuous
 62
     7
370
    25
100
AcDbCircle
 10
6387.105464867
 20
4863.8872399132
 30
0.0
 40
3.0
100
AcDbArc
 50
180.0
 51
0.0
  0
LINE
  5
30A
330
1F
100
AcDbEntity
  8
0
  6
Continuous
 62
     7
370
    25
100
AcDbLine
 10
6390.105464867
 20
4863.8872399132
 30
0.0
 11
6390.105464867
 21
4887.8872399132
 31
0.0
  0
ARC
  5
30B
330
1F
100
AcDbEntity
  8
0
  6
Continuous
 62
     7
370
    25
100
AcDbCircle
 10
6387.105464867
 20
4887.8872399132
 30
0.0
 40
3.0
100
AcDbArc
 50
0.0
 51
180.0
  0
LINE
  5
30C
330
1F
100
AcDbEntity
  8
0
  6
Continuous
 62
     7
370
    25
100
AcDbLine
 10
6384.105464867
 20
4887.8872399132
 30
0.0
 11
6384.105464867
 21
4863.8872399132
 31
0.0
  0
ARC
  5
30D
330
1F
100
AcDbEntity
  8
0
  6
Continuous
 62
     7
370
    25
100
AcDbCircle
 10
6376.1987306362
 20
4862.8225376871
 30
0.0
 40
3.0
100
AcDbArc
 50
180.0
 51
0.0
  0
LINE
  5
30E
330
1F
100
AcDbEntity
  8
0
  6
Continuous
 62
     7
370
    25
100
AcDbLine
 10
6379.1987306362
 20
4862.8225376871
 30
0.0
 11
6379.1987306362
 21
4886.8225376871
 31
0.0
  0
ARC
  5
30F
330
1F
100
AcDbEntity
  8
0
  6
Continuous
 62
     7
370
    25
100
AcDbCircle
 10
6376.1987306362
 20
4886.8225376871
 30
0.0
 40
3.0
100
AcDbArc
 50
0.0
 51
180.0
  0
LINE
  5
310
330
1F
100
AcDbEntity
  8
0
  6
Continuous
 62
     7
370
    25
100
AcDbLine
 10
6373.1987306362
 20
4886.8225376871
 30
0.0
 11
6373.1987306362
 21
4862.8225376871
 31
0.0
  0
ARC
  5
311
330
1F
100
AcDbEntity
  8
0
  6
Continuous
 62
     7
370
    25
100
AcDbCircle
 10
6365.2446910042
 20
4862.5794028387
 30
0.0
 40
3.0
100
AcDbArc
 50
180.0
 51
0.0
  0
LINE
  5
312
330
1F
100
AcDbEntity
  8
0
  6
Continuous
 62
     7
370
    25
100
AcDbLine
 10
6368.2446910042
 20
4862.5794028387
 30
0.0
 11
6368.2446910042
 21
4886.5794028387
 31
0.0
  0
ARC
  5
313
330
1F
100
AcDbEntity
  8
0
  6
Continuous
 62
     7
370
    25
100
AcDbCircle
 10
6365.2446910042
 20
4886.5794028387
 30
0.0
 40
3.0
100
AcDbArc
 50
0.0
 51
180.0
  0
LINE
  5
314
330
1F
100
AcDbEntity
  8
0
  6
Continuous
 62
     7
370
    25
100
AcDbLine
 10
6362.2446910042
 20
4886.5794028387
 30
0.0
 11
6362.2446910042
 21
4862.5794028387
 31
0.0
  0
ARC
  5
315
330
1F
100
AcDbEntity
  8
0
  6
Continuous
 62
     7
370
    25
100
AcDbCircle
 10
6354.3020942912
 20
4863.1634903674
 30
0.0
 40
3.0
100
AcDbArc
 50
180.0
 51
0.0
  0
LINE
  5
316
330
1F
100
AcDbEntity
  8
0
  6
Continuous
 62
     7
370
    25
100
AcDbLine
 10
6357.3020942912
 20
4863.1634903674
 30
0.0
 11
6357.3020942912
 21
4887.1634903674
 31
0.0
  0
ARC
  5
317
330
1F
100
AcDbEntity
  8
0
  6
Continuous
 62
     7
370
    25
100
AcDbCircle
 10
6354.3020942912
 20
4887.1634903674
 30
0.0
 40
3.0
100
AcDbArc
 50
0.0
 51
180.0
  0
LINE
  5
318
330
1F
100
AcDbEntity
  8
0
  6
Continuous
 62
     7
370
    25
100
AcDbLine
 10
6351.3020942912
 20
4887.1634903674
 30
0.0
 11
6351.3020942912
 21
4863.1634903674
 31
0.0
  0
ARC
  5
319
330
1F
100
AcDbEntity
  8
0
  6
Continuous
 62
     7
370
    25
100
AcDbCircle
 10
6343.4240166112
 20
4864.4792349966
 30
0.0
 40
3.0
100
AcDbArc
 50
180.0
 51
0.0
  0
LINE
  5
31A
330
1F
100
AcDbEntity
  8
0
  6
Continuous
 62
     7
370
    25
100
AcDbLine
 10
6346.4240166112
 20
4864.4792349966
 30
0.0
 11
6346.4240166112
 21
4888.4792349966
 31
0.0
  0
ARC
  5
31B
330
1F
100
AcDbEntity
  8
0
  6
Continuous
 62
     7
370
    25
100
AcDbCircle
 10
6343.4240166112
 20
4888.4792349966
 30
0.0
 40
3.0
100
AcDbArc
 50
0.0
 51
180.0
  0
LINE
  5
31C
330
1F
100
AcDbEntity
  8
0
  6
Continuous
 62
     7
370
    25
100
AcDbLine
 10
6340.4240166112
 20
4888.4792349966
 30
0.0
 11
6340.4240166112
 21
4864.4792349966
 31
0.0
  0
ARC
  5
31D
330
1F
100
AcDbEntity
  8
0
  6
Continuous
 62
     7
370
    25
100
AcDbCircle
 10
6332.6391320655
 20
4866.4211354783
 30
0.0
 40
3.0
100
AcDbArc
 50
180.0
 51
0.0
  0
LINE
  5
31E
330
1F
100
AcDbEntity
  8
0
  6
Continuous
 62
     7
370
    25
100
AcDbLine
 10
6335.6391320655
 20
4866.4211354783
 30
0.0
 11
6335.6391320655
 21
4890.4211354783
 31
0.0
  0
ARC
  5
31F
330
1F
100
AcDbEntity
  8
0
  6
Continuous
 62
     7
370
    25
100
AcDbCircle
 10
6332.6391320655
 20
4890.4211354783
 30
0.0
 40
3.0
100
AcDbArc
 50
0.0
 51
180.0
  0
LINE
  5
320
330
1F
100
AcDbEntity
  8
0
  6
Continuous
 62
     7
370
    25
100
AcDbLine
 10
6329.6391320655
 20
4890.4211354783
 30
0.0
 11
6329.6391320655
 21
4866.4211354783
 31
0.0
  0
ARC
  5
321
330
1F
100
AcDbEntity
  8
0
  6
Continuous
 62
     7
370
    25
100
AcDbCircle
 10
6321.9594640527
 20
4868.8847398334
 30
0.0
 40
3.0
100
AcDbArc
 50
180.0
 51
0.0
  0
LINE
  5
322
330
1F
100
AcDbEntity
  8
0
  6
Continuous
 62
     7
370
    25
100
AcDbLine
 10
6324.9594640527
 20
4868.8847398334
 30
0.0
 11
6324.9594640527
 21
4892.8847398334
 31
0.0
  0
ARC
  5
323
330
1F
100
AcDbEntity
  8
0
  6
Continuous
 62
     7
370
    25
100
AcDbCircle
 10
6321.9594640527
 20
4892.8847398334
 30
0.0
 40
3.0
100
AcDbArc
 50
0.0
 51
180.0
  0
LINE
  5
324
330
1F
100
AcDbEntity
  8
0
  6
Continuous
 62
     7
370
    25
100
AcDbLine
 10
6318.9594640527
 20
4892.8847398334
 30
0.0
 11
6318.9594640527
 21
4868.8847398334
 31
0.0
  0
ARC
  5
325
330
1F
100
AcDbEntity
  8
0
  6
Continuous
 62
     7
370
    25
100
AcDbCircle
 10
6311.3880195567
 20
4871.7700751597
 30
0.0
 40
3.000000000000909
100
AcDbArc
 50
180.0
 51
0.0
  0
LINE
  5
326
330
1F
100
AcDbEntity
  8
0
  6
Continuous
 62
     7
370
    25
100
AcDbLine
 10
6314.3880195567
 20
4871.7700751597
 30
0.0
 11
6314.3880195567
 21
4895.7700751597
 31
0.0
  0
ARC
  5
327
330
1F
100
AcDbEntity
  8
0
  6
Continuous
 62
     7
370
    25
100
AcDbCircle
 10
6311.3880195567
 20
4895.7700751597
 30
0.0
 40
3.000000000000909
100
AcDbArc
 50
0.0
 51
180.0
  0
LINE
  5
328
330
1F
100
AcDbEntity
  8
0
  6
Continuous
 62
     7
370
    25
100
AcDbLine
 10
6308.3880195567
 20
4895.7700751597
 30
0.0
 11
6308.3880195567
 21
4871.7700751597
 31
0.0
  0
ARC
  5
329
330
1F
100
AcDbEntity
  8
0
  6
Continuous
 62
     7
370
    25
100
AcDbCircle
 10
6300.9113434653
 20
4874.9864315146
 30
0.0
 40
3.0
100
AcDbArc
 50
180.0
 51
0.0
  0
LINE
  5
32A
330
1F
100
AcDbEntity
  8
0
  6
Continuous
 62
     7
370
    25
100
AcDbLine
 10
6303.9113434653
 20
4874.9864315146
 30
0.0
 11
6303.9113434653
 21
4898.9864315146
 31
0.0
  0
ARC
  5
32B
330
1F
100
AcDbEntity
  8
0
  6
Continuous
 62
     7
370
    25
100
AcDbCircle
 10
6300.9113434653
 20
4898.9864315146
 30
0.0
 40
3.0
100
AcDbArc
 50
0.0
 51
180.0
  0
LINE
  5
32C
330
1F
100
AcDbEntity
  8
0
  6
Continuous
 62
     7
370
    25
100
AcDbLine
 10
6297.9113434653
 20
4898.9864315146
 30
0.0
 11
6297.9113434653
 21
4874.9864315146
 31
0.0
  0
ARC
  5
32D
330
1F
100
AcDbEntity
  8
0
  6
Continuous
 62
     7
370
    25
100
AcDbCircle
 10
6290.5130866637
 20
4878.4497897683
 30
0.0
 40
3.0
100
AcDbArc
 50
180.0
 51
0.0
  0
LINE
  5
32E
330
1F
100
AcDbEntity
  8
0
  6
Continuous
 62
     7
370
    25
100
AcDbLine
 10
6293.5130866637
 20
4878.4497897683
 30
0.0
 11
6293.5130866637
 21
4902.4497897683
 31
0.0
  0
ARC
  5
32F
330
1F
100
AcDbEntity
  8
0
  6
Continuous
 62
     7
370
    25
100
AcDbCircle
 10
6290.5130866637
 20
4902.4497897683
 30
0.0
 40
3.0
100
AcDbArc
 50
0.0
 51
180.0
  0
LINE
  5
330
330
1F
100
AcDbEntity
  8
0
  6
Continuous
 62
     7
370
    25
100
AcDbLine
 10
6287.5130866637
 20
4902.4497897683
 30
0.0
 11
6287.5130866637
 21
4878.4497897683
 31
0.0
  0
ARC
  5
331
330
1F
100
AcDbEntity
  8
0
  6
Continuous
 62
     7
370
    25
100
AcDbCircle
 10
6280.1725041732
 20
4882.0825366586
 30
0.0
 40
3.0
100
AcDbArc
 50
180.0
 51
0.0
  0
LINE
  5
332
330
1F
100
AcDbEntity
  8
0
  6
Continuous
 62
     7
370
    25
100
AcDbLine
 10
6283.1725041732
 20
4882.0825366586
 30
0.0
 11
6283.1725041732
 21
4906.0825366586
 31
0.0
  0
ARC
  5
333
330
1F
100
AcDbEntity
  8
0
  6
Continuous
 62
     7
370
    25
100
AcDbCircle
 10
6280.1725041732
 20
4906.0825366586
 30
0.0
 40
3.0
100
AcDbArc
 50
0.0
 51
180.0
  0
LINE
  5
334
330
1F
100
AcDbEntity
  8
0
  6
Continuous
 62
     7
370
    25
100
AcDbLine
 10
6277.1725041732
 20
4906.0825366586
 30
0.0
 11
6277.1725041732
 21
4882.0825366586
 31
0.0
  0
ARC
  5
335
330
1F
100
AcDbEntity
  8
0
  6
Continuous
 62
     7
370
    25
100
AcDbCircle
 10
6269.8659495806
 20
4885.8118456286
 30
0.0
 40
3.0
100
AcDbArc
 50
180.0
 51
0.0
  0
LINE
  5
336
330
1F
100
AcDbEntity
  8
0
  6
Continuous
 62
     7
370
    25
100
AcDbLine
 10
6272.8659495806
 20
4885.8118456286
 30
0.0
 11
6272.8659495806
 21
4909.8118456286
 31
0.0
  0
ARC
  5
337
330
1F
100
AcDbEntity
  8
0
  6
Continuous
 62
     7
370
    25
100
AcDbCircle
 10
6269.8659495806
 20
4909.8118456286
 30
0.0
 40
3.0
100
AcDbArc
 50
0.0
 51
180.0
  0
LINE
  5
338
330
1F
100
AcDbEntity
  8
0
  6
Continuous
 62
     7
370
    25
100
AcDbLine
 10
6266.8659495806
 20
4909.8118456286
 30
0.0
 11
6266.8659495806
 21
4885.8118456286
 31
0.0
  0
ARC
  5
339
330
1F
100
AcDbEntity
  8
0
  6
Continuous
 62
     7
370
    25
100
AcDbCircle
 10
6259.5698549622
 20
4889.5670526283
 30
0.0
 40
3.0
100
AcDbArc
 50
180.0
 51
0.0
  0
LINE
  5
33A
330
1F
100
AcDbEntity
  8
0
  6
Continuous
 62
     7
370
    25
100
AcDbLine
 10
6262.5698549622
 20
4889.5670526283
 30
0.0
 11
6262.5698549622
 21
4913.5670526283
 31
0.0
  0
ARC
  5
33B
330
1F
100
AcDbEntity
  8
0
  6
Continuous
 62
     7
370
    25
100
AcDbCircle
 10
6259.5698549622
 20
4913.5670526283
 30
0.0
 40
3.0
100
AcDbArc
 50
0.0
 51
180.0
  0
LINE
  5
33C
330
1F
100
AcDbEntity
  8
0
  6
Continuous
 62
     7
370
    25
100
AcDbLine
 10
6256.5698549622
 20
4913.5670526283
 30
0.0
 11
6256.5698549622
 21
4889.5670526283
 31
0.0
  0
ARC
  5
33D
330
1F
100
AcDbEntity
  8
0
  6
Continuous
 62
     7
370
    25
100
AcDbCircle
 10
6249.257715388
 20
4893.279001283
 30
0.0
 40
3.0
100
AcDbArc
 50
180.0
 51
0.0
  0
LINE
  5
33E
330
1F
100
AcDbEntity
  8
0
  6
Continuous
 62
     7
370
    25
100
AcDbLine
 10
6252.257715388
 20
4893.279001283
 30
0.0
 11
6252.257715388
 21
4917.279001283
 31
0.0
  0
ARC
  5
33F
330
1F
100
AcDbEntity
  8
0
  6
Continuous
 62
     7
370
    25
100
AcDbCircle
 10
6249.257715388
 20
4917.279001283
 30
0.0
 40
3.0
100
AcDbArc
 50
0.0
 51
180.0
  0
LINE
  5
340
330
1F
100
AcDbEntity
  8
0
  6
Continuous
 62
     7
370
    25
100
AcDbLine
 10
6246.257715388
 20
4917.279001283
 30
0.0
 11
6246.257715388
 21
4893.279001283
 31
0.0
  0
ARC
  5
341
330
1F
100
AcDbEntity
  8
0
  6
Continuous
 62
     7
370
    25
100
AcDbCircle
 10
6238.9045568584
 20
4896.8765659822
 30
0.0
 40
3.0
100
AcDbArc
 50
180.0
 51
0.0
  0
LINE
  5
342
330
1F
100
AcDbEntity
  8
0
  6
Continuous
 62
     7
370
    25
100
AcDbLine
 10
6241.9045568584
 20
4896.8765659822
 30
0.0
 11
6241.9045568584
 21
4920.8765659822
 31
0.0
  0
ARC
  5
343
330
1F
100
AcDbEntity
  8
0
  6
Continuous
 62
     7
370
    25
100
AcDbCircle
 10
6238.9045568584
 20
4920.8765659822
 30
0.0
 40
3.0
100
AcDbArc
 50
0.0
 51
180.0
  0
LINE
  5
344
330
1F
100
AcDbEntity
  8
0
  6
Continuous
 62
     7
370
    25
100
AcDbLine
 10
6235.9045568584
 20
4920.8765659822
 30
0.0
 11
6235.9045568584
 21
4896.8765659822
 31
0.0
  0
ARC
  5
345
330
1F
100
AcDbEntity
  8
0
  6
Continuous
 62
     7
370
    25
100
AcDbCircle
 10
6228.4884034236
 20
4900.2843968768
 30
0.0
 40
3.000000000000909
100
AcDbArc
 50
180.0
 51
0.0
  0
LINE
  5
346
330
1F
100
AcDbEntity
  8
0
  6
Continuous
 62
     7
370
    25
100
AcDbLine
 10
6231.4884034236
 20
4900.2843968768
 30
0.0
 11
6231.4884034236
 21
4924.2843968768
 31
0.0
  0
ARC
  5
347
330
1F
100
AcDbEntity
  8
0
  6
Continuous
 62
     7
370
    25
100
AcDbCircle
 10
6228.4884034236
 20
4924.2843968768
 30
0.0
 40
3.000000000000909
100
AcDbArc
 50
0.0
 51
180.0
  0
LINE
  5
348
330
1F
100
AcDbEntity
  8
0
  6
Continuous
 62
     7
370
    25
100
AcDbLine
 10
6225.4884034236
 20
4924.2843968768
 30
0.0
 11
6225.4884034236
 21
4900.2843968768
 31
0.0
  0
ARC
  5
349
330
1F
100
AcDbEntity
  8
0
  6
Continuous
 62
     7
370
    25
100
AcDbCircle
 10
6217.987260286
 20
4903.422342256
 30
0.0
 40
3.0
100
AcDbArc
 50
180.0
 51
0.0
  0
LINE
  5
34A
330
1F
100
AcDbEntity
  8
0
  6
Continuous
 62
     7
370
    25
100
AcDbLine
 10
6220.987260286
 20
4903.422342256
 30
0.0
 11
6220.987260286
 21
4927.422342256
 31
0.0
  0
ARC
  5
34B
330
1F
100
AcDbEntity
  8
0
  6
Continuous
 62
     7
370
    25
100
AcDbCircle
 10
6217.987260286
 20
4927.422342256
 30
0.0
 40
3.0
100
AcDbArc
 50
0.0
 51
180.0
  0
LINE
  5
34C
330
1F
100
AcDbEntity
  8
0
  6
Continuous
 62
     7
370
    25
100
AcDbLine
 10
6214.987260286
 20
4927.422342256
 30
0.0
 11
6214.987260286
 21
4903.422342256
 31
0.0
  0
ARC
  5
34D
330
1F
100
AcDbEntity
  8
0
  6
Continuous
 62
     7
370
    25
100
AcDbCircle
 10
6207.3880606769
 20
4906.2015457867
 30
0.0
 40
3.0
100
AcDbArc
 50
180.0
 51
0.0
  0
LINE
  5
34E
330
1F
100
AcDbEntity
  8
0
  6
Continuous
 62
     7
370
    25
100
AcDbLine
 10
6210.3880606769
 20
4906.2015457867
 30
0.0
 11
6210.3880606769
 21
4930.2015457867
 31
0.0
  0
ARC
  5
34F
330
1F
100
AcDbEntity
  8
0
  6
Continuous
 62
     7
370
    25
100
AcDbCircle
 10
6207.3880606769
 20
4930.2015457867
 30
0.0
 40
3.0
100
AcDbArc
 50
0.0
 51
180.0
  0
LINE
  5
350
330
1F
100
AcDbEntity
  8
0
  6
Continuous
 62
     7
370
    25
100
AcDbLine
 10
6204.3880606769
 20
4930.2015457867
 30
0.0
 11
6204.3880606769
 21
4906.2015457867
 31
0.0
  0
ARC
  5
351
330
1F
100
AcDbEntity
  8
0
  6
Continuous
 62
     7
370
    25
100
AcDbCircle
 10
6196.677676028
 20
4908.5265511625
 30
0.0
 40
3.0
100
AcDbArc
 50
180.0
 51
0.0
  0
LINE
  5
352
330
1F
100
AcDbEntity
  8
0
  6
Continuous
 62
     7
370
    25
100
AcDbLine
 10
6199.677676028
 20
4908.5265511625
 30
0.0
 11
6199.677676028
 21
4932.5265511625
 31
0.0
  0
ARC
  5
353
330
1F
100
AcDbEntity
  8
0
  6
Continuous
 62
     7
370
    25
100
AcDbCircle
 10
6196.677676028
 20
4932.5265511625
 30
0.0
 40
3.0
100
AcDbArc
 50
0.0
 51
180.0
  0
LINE
  5
354
330
1F
100
AcDbEntity
  8
0
  6
Continuous
 62
     7
370
    25
100
AcDbLine
 10
6193.677676028
 20
4932.5265511625
 30
0.0
 11
6193.677676028
 21
4908.5265511625
 31
0.0
  0
ARC
  5
355
330
1F
100
AcDbEntity
  8
0
  6
Continuous
 62
     7
370
    25
100
AcDbCircle
 10
6185.8623420157
 20
4910.2915693592
 30
0.0
 40
3.000000000000909
100
AcDbArc
 50
180.0
 51
0.0
  0
LINE
  5
356
330
1F
100
AcDbEntity
  8
0
  6
Continuous
 62
     7
370
    25
100
AcDbLine
 10
6188.8623420157
 20
4910.2915693592
 30
0.0
 11
6188.8623420157
 21
4934.2915693592
 31
0.0
  0
ARC
  5
357
330
1F
100
AcDbEntity
  8
0
  6
Continuous
 62
     7
370
    25
100
AcDbCircle
 10
6185.8623420157
 20
4934.2915693592
 30
0.0
 40
3.000000000000909
100
AcDbArc
 50
0.0
 51
180.0
  0
LINE
  5
358
330
1F
100
AcDbEntity
  8
0
  6
Continuous
 62
     7
370
    25
100
AcDbLine
 10
6182.8623420157
 20
4934.2915693592
 30
0.0
 11
6182.8623420157
 21
4910.2915693592
 31
0.0
  0
ARC
  5
359
330
1F
100
AcDbEntity
  8
0
  6
Continuous
 62
     7
370
    25
100
AcDbCircle
 10
6174.9601962449
 20
4911.3863192098
 30
0.0
 40
3.0
100
AcDbArc
 50
180.0
 51
0.0
  0
LINE
  5
35A
330
1F
100
AcDbEntity
  8
0
  6
Continuous
 62
     7
370
    25
100
AcDbLine
 10
6177.9601962449
 20
4911.3863192098
 30
0.0
 11
6177.9601962449
 21
4935.3863192098
 31
0.0
  0
ARC
  5
35B
330
1F
100
AcDbEntity
  8
0
  6
Continuous
 62
     7
370
    25
100
AcDbCircle
 10
6174.9601962449
 20
4935.3863192098
 30
0.0
 40
3.0
100
AcDbArc
 50
0.0
 51
180.0
  0
LINE
  5
35C
330
1F
100
AcDbEntity
  8
0
  6
Continuous
 62
     7
370
    25
100
AcDbLine
 10
6171.9601962449
 20
4935.3863192098
 30
0.0
 11
6171.9601962449
 21
4911.3863192098
 31
0.0
  0
ARC
  5
35D
330
1F
100
AcDbEntity
  8
0
  6
Continuous
 62
     7
370
    25
100
AcDbCircle
 10
6164.0073592016
 20
4911.7076537052
 30
0.0
 40
3.0
100
AcDbArc
 50
180.0
 51
0.0
  0
LINE
  5
35E
330
1F
100
AcDbEntity
  8
0
  6
Continuous
 62
     7
370
    25
100
AcDbLine
 10
6167.0073592016
 20
4911.7076537052
 30
0.0
 11
6167.0073592016
 21
4935.7076537052
 31
0.0
  0
ARC
  5
35F
330
1F
100
AcDbEntity
  8
0
  6
Continuous
 62
     7
370
    25
100
AcDbCircle
 10
6164.0073592016
 20
4935.7076537052
 30
0.0
 40
3.0
100
AcDbArc
 50
0.0
 51
180.0
  0
LINE
  5
360
330
1F
100
AcDbEntity
  8
0
  6
Continuous
 62
     7
370
    25
100
AcDbLine
 10
6161.0073592016
 20
4935.7076537052
 30
0.0
 11
6161.0073592016
 21
4911.7076537052
 31
0.0
  0
ARC
  5
361
330
1F
100
AcDbEntity
  8
0
  6
Continuous
 62
     7
370
    25
100
AcDbCircle
 10
6153.0588182152
 20
4911.2564968589
 30
0.0
 40
3.0
100
AcDbArc
 50
180.0
 51
0.0
  0
LINE
  5
362
330
1F
100
AcDbEntity
  8
0
  6
Continuous
 62
     7
370
    25
100
AcDbLine
 10
6156.0588182152
 20
4911.2564968589
 30
0.0
 11
6156.0588182152
 21
4935.2564968589
 31
0.0
  0
ARC
  5
363
330
1F
100
AcDbEntity
  8
0
  6
Continuous
 62
     7
370
    25
100
AcDbCircle
 10
6153.0588182152
 20
4935.2564968589
 30
0.0
 40
3.0
100
AcDbArc
 50
0.0
 51
180.0
  0
LINE
  5
364
330
1F
100
AcDbEntity
  8
0
  6
Continuous
 62
     7
370
    25
100
AcDbLine
 10
6150.0588182152
 20
4935.2564968589
 30
0.0
 11
6150.0588182152
 21
4911.2564968589
 31
0.0
  0
ARC
  5
365
330
1F
100
AcDbEntity
  8
0
  6
Continuous
 62
     7
370
    25
100
AcDbCircle
 10
6142.1598230535
 20
4910.1183659755
 30
0.0
 40
3.0
100
AcDbArc
 50
180.0
 51
0.0
  0
LINE
  5
366
330
1F
100
AcDbEntity
  8
0
  6
Continuous
 62
     7
370
    25
100
AcDbLine
 10
6145.1598230535
 20
4910.1183659755
 30
0.0
 11
6145.1598230535
 21
4934.1183659755
 31
0.0
  0
ARC
  5
367
330
1F
100
AcDbEntity
  8
0
  6
Continuous
 62
     7
370
    25
100
AcDbCircle
 10
6142.1598230535
 20
4934.1183659755
 30
0.0
 40
3.0
100
AcDbArc
 50
0.0
 51
180.0
  0
LINE
  5
368
330
1F
100
AcDbEntity
  8
0
  6
Continuous
 62
     7
370
    25
100
AcDbLine
 10
6139.1598230535
 20
4934.1183659755
 30
0.0
 11
6139.1598230535
 21
4910.1183659755
 31
0.0
  0
ARC
  5
369
330
1F
100
AcDbEntity
  8
0
  6
Continuous
 62
     7
370
    25
100
AcDbCircle
 10
6131.3377217106
 20
4908.3861971217
 30
0.0
 40
3.0
100
AcDbArc
 50
180.0
 51
0.0
  0
LINE
  5
36A
330
1F
100
AcDbEntity
  8
0
  6
Continuous
 62
     7
370
    25
100
AcDbLine
 10
6134.3377217106
 20
4908.3861971217
 30
0.0
 11
6134.3377217106
 21
4932.3861971217
 31
0.0
  0
ARC
  5
36B
330
1F
100
AcDbEntity
  8
0
  6
Continuous
 62
     7
370
    25
100
AcDbCircle
 10
6131.3377217106
 20
4932.3861971217
 30
0.0
 40
3.0
100
AcDbArc
 50
0.0
 51
180.0
  0
LINE
  5
36C
330
1F
100
AcDbEntity
  8
0
  6
Continuous
 62
     7
370
    25
100
AcDbLine
 10
6128.3377217106
 20
4932.3861971217
 30
0.0
 11
6128.3377217106
 21
4908.3861971217
 31
0.0
  0
ARC
  5
36D
330
1F
100
AcDbEntity
  8
0
  6
Continuous
 62
     7
370
    25
100
AcDbCircle
 10
6120.6078966426
 20
4906.1526209869
 30
0.0
 40
3.0
100
AcDbArc
 50
180.0
 51
0.0
  0
LINE
  5
36E
330
1F
100
AcDbEntity
  8
0
  6
Continuous
 62
     7
370
    25
100
AcDbLine
 10
6123.6078966426
 20
4906.1526209869
 30
0.0
 11
6123.6078966426
 21
4930.1526209869
 31
0.0
  0
ARC
  5
36F
330
1F
100
AcDbEntity
  8
0
  6
Continuous
 62
     7
370
    25
100
AcDbCircle
 10
6120.6078966426
 20
4930.1526209869
 30
0.0
 40
3.0
100
AcDbArc
 50
0.0
 51
180.0
  0
LINE
  5
370
330
1F
100
AcDbEntity
  8
0
  6
Continuous
 62
     7
370
    25
100
AcDbLine
 10
6117.6078966426
 20
4930.1526209869
 30
0.0
 11
6117.6078966426
 21
4906.1526209869
 31
0.0
  0
ARC
  5
371
330
1F
100
AcDbEntity
  8
0
  6
Continuous
 62
     7
370
    25
100
AcDbCircle
 10
6109.9737393104
 20
4903.5058014221
 30
0.0
 40
3.0
100
AcDbArc
 50
180.0
 51
0.0
  0
LINE
  5
372
330
1F
100
AcDbEntity
  8
0
  6
Continuous
 62
     7
370
    25
100
AcDbLine
 10
6112.9737393104
 20
4903.5058014221
 30
0.0
 11
6112.9737393104
 21
4927.5058014221
 31
0.0
  0
ARC
  5
373
330
1F
100
AcDbEntity
  8
0
  6
Continuous
 62
     7
370
    25
100
AcDbCircle
 10
6109.9737393104
 20
4927.5058014221
 30
0.0
 40
3.0
100
AcDbArc
 50
0.0
 51
180.0
  0
LINE
  5
374
330
1F
100
AcDbEntity
  8
0
  6
Continuous
 62
     7
370
    25
100
AcDbLine
 10
6106.9737393104
 20
4927.5058014221
 30
0.0
 11
6106.9737393104
 21
4903.5058014221
 31
0.0
  0
ARC
  5
375
330
1F
100
AcDbEntity
  8
0
  6
Continuous
 62
     7
370
    25
100
AcDbCircle
 10
6099.426630405
 20
4900.5266324012
 30
0.0
 40
3.0
100
AcDbArc
 50
180.0
 51
0.0
  0
LINE
  5
376
330
1F
100
AcDbEntity
  8
0
  6
Continuous
 62
     7
370
    25
100
AcDbLine
 10
6102.426630405
 20
4900.5266324012
 30
0.0
 11
6102.426630405
 21
4924.5266324012
 31
0.0
  0
ARC
  5
377
330
1F
100
AcDbEntity
  8
0
  6
Continuous
 62
     7
370
    25
100
AcDbCircle
 10
6099.426630405
 20
4924.5266324012
 30
0.0
 40
3.0
100
AcDbArc
 50
0.0
 51
180.0
  0
LINE
  5
378
330
1F
100
AcDbEntity
  8
0
  6
Continuous
 62
     7
370
    25
100
AcDbLine
 10
6096.426630405
 20
4924.5266324012
 30
0.0
 11
6096.426630405
 21
4900.5266324012
 31
0.0
  0
ARC
  5
379
330
1F
100
AcDbEntity
  8
0
  6
Continuous
 62
     7
370
    25
100
AcDbCircle
 10
6088.95642539
 20
4897.2905872862
 30
0.0
 40
3.0
100
AcDbArc
 50
180.0
 51
0.0
  0
LINE
  5
37A
330
1F
100
AcDbEntity
  8
0
  6
Continuous
 62
     7
370
    25
100
AcDbLine
 10
6091.95642539
 20
4897.2905872862
 30
0.0
 11
6091.95642539
 21
4921.2905872862
 31
0.0
  0
ARC
  5
37B
330
1F
100
AcDbEntity
  8
0
  6
Continuous
 62
     7
370
    25
100
AcDbCircle
 10
6088.95642539
 20
4921.2905872862
 30
0.0
 40
3.0
100
AcDbArc
 50
0.0
 51
180.0
  0
LINE
  5
37C
330
1F
100
AcDbEntity
  8
0
  6
Continuous
 62
     7
370
    25
100
AcDbLine
 10
6085.95642539
 20
4921.2905872862
 30
0.0
 11
6085.95642539
 21
4897.2905872862
 31
0.0
  0
ARC
  5
37D
330
1F
100
AcDbEntity
  8
0
  6
Continuous
 62
     7
370
    25
100
AcDbCircle
 10
6078.5439544433
 20
4893.8657648415
 30
0.0
 40
3.0
100
AcDbArc
 50
180.0
 51
0.0
  0
LINE
  5
37E
330
1F
100
AcDbEntity
  8
0
  6
Continuous
 62
     7
370
    25
100
AcDbLine
 10
6081.5439544433
 20
4893.8657648415
 30
0.0
 11
6081.5439544433
 21
4917.8657648415
 31
0.0
  0
ARC
  5
37F
330
1F
100
AcDbEntity
  8
0
  6
Continuous
 62
     7
370
    25
100
AcDbCircle
 10
6078.5439544433
 20
4917.8657648415
 30
0.0
 40
3.0
100
AcDbArc
 50
0.0
 51
180.0
  0
LINE
  5
380
330
1F
100
AcDbEntity
  8
0
  6
Continuous
 62
     7
370
    25
100
AcDbLine
 10
6075.5439544433
 20
4917.8657648415
 30
0.0
 11
6075.5439544433
 21
4893.8657648415
 31
0.0
  0
ARC
  5
381
330
1F
100
AcDbEntity
  8
0
  6
Continuous
 62
     7
370
    25
100
AcDbCircle
 10
6068.1760232504
 20
4890.3184023473
 30
0.0
 40
3.0
100
AcDbArc
 50
180.0
 51
0.0
  0
LINE
  5
382
330
1F
100
AcDbEntity
  8
0
  6
Continuous
 62
     7
370
    25
100
AcDbLine
 10
6071.1760232504
 20
4890.3184023473
 30
0.0
 11
6071.1760232504
 21
4914.3184023473
 31
0.0
  0
ARC
  5
383
330
1F
100
AcDbEntity
  8
0
  6
Continuous
 62
     7
370
    25
100
AcDbCircle
 10
6068.1760232504
 20
4914.3184023473
 30
0.0
 40
3.0
100
AcDbArc
 50
0.0
 51
180.0
  0
LINE
  5
384
330
1F
100
AcDbEntity
  8
0
  6
Continuous
 62
     7
370
    25
100
AcDbLine
 10
6065.1760232504
 20
4914.3184023473
 30
0.0
 11
6065.1760232504
 21
4890.3184023473
 31
0.0
  0
ARC
  5
385
330
1F
100
AcDbEntity
  8
0
  6
Continuous
 62
     7
370
    25
100
AcDbCircle
 10
6057.8274135985
 20
4886.7079922767
 30
0.0
 40
3.0
100
AcDbArc
 50
180.0
 51
0.0
  0
LINE
  5
386
330
1F
100
AcDbEntity
  8
0
  6
Continuous
 62
     7
370
    25
100
AcDbLine
 10
6060.8274135985
 20
4886.7079922767
 30
0.0
 11
6060.8274135985
 21
4910.7079922767
 31
0.0
  0
ARC
  5
387
330
1F
100
AcDbEntity
  8
0
  6
Continuous
 62
     7
370
    25
100
AcDbCircle
 10
6057.8274135985
 20
4910.7079922767
 30
0.0
 40
3.0
100
AcDbArc
 50
0.0
 51
180.0
  0
LINE
  5
388
330
1F
100
AcDbEntity
  8
0
  6
Continuous
 62
     7
370
    25
100
AcDbLine
 10
6054.8274135985
 20
4910.7079922767
 30
0.0
 11
6054.8274135985
 21
4886.7079922767
 31
0.0
  0
ARC
  5
389
330
1F
100
AcDbEntity
  8
0
  6
Continuous
 62
     7
370
    25
100
AcDbCircle
 10
6047.4803921596
 20
4883.0951233599
 30
0.0
 40
3.0
100
AcDbArc
 50
180.0
 51
0.0
  0
LINE
  5
38A
330
1F
100
AcDbEntity
  8
0
  6
Continuous
 62
     7
370
    25
100
AcDbLine
 10
6050.4803921596
 20
4883.0951233599
 30
0.0
 11
6050.4803921596
 21
4907.0951233599
 31
0.0
  0
ARC
  5
38B
330
1F
100
AcDbEntity
  8
0
  6
Continuous
 62
     7
370
    25
100
AcDbCircle
 10
6047.4803921596
 20
4907.0951233599
 30
0.0
 40
3.0
100
AcDbArc
 50
0.0
 51
180.0
  0
LINE
  5
38C
330
1F
100
AcDbEntity
  8
0
  6
Continuous
 62
     7
370
    25
100
AcDbLine
 10
6044.4803921596
 20
4907.0951233599
 30
0.0
 11
6044.4803921596
 21
4883.0951233599
 31
0.0
  0
ARC
  5
38D
330
1F
100
AcDbEntity
  8
0
  6
Continuous
 62
     7
370
    25
100
AcDbCircle
 10
6037.1127119645
 20
4879.5387225225
 30
0.0
 40
3.0
100
AcDbArc
 50
180.0
 51
0.0
  0
LINE
  5
38E
330
1F
100
AcDbEntity
  8
0
  6
Continuous
 62
     7
370
    25
100
AcDbLine
 10
6040.1127119645
 20
4879.5387225225
 30
0.0
 11
6040.1127119645
 21
4903.5387225225
 31
0.0
  0
ARC
  5
38F
330
1F
100
AcDbEntity
  8
0
  6
Continuous
 62
     7
370
    25
100
AcDbCircle
 10
6037.1127119645
 20
4903.5387225225
 30
0.0
 40
3.0
100
AcDbArc
 50
0.0
 51
180.0
  0
LINE
  5
390
330
1F
100
AcDbEntity
  8
0
  6
Continuous
 62
     7
370
    25
100
AcDbLine
 10
6034.1127119645
 20
4903.5387225225
 30
0.0
 11
6034.1127119645
 21
4879.5387225225
 31
0.0
  0
ARC
  5
391
330
1F
100
AcDbEntity
  8
0
  6
Continuous
 62
     7
370
    25
100
AcDbCircle
 10
6026.7066227637
 20
4876.1004735072
 30
0.0
 40
3.000000000000909
100
AcDbArc
 50
180.0
 51
0.0
  0
LINE
  5
392
330
1F
100
AcDbEntity
  8
0
  6
Continuous
 62
     7
370
    25
100
AcDbLine
 10
6029.7066227637
 20
4876.1004735072
 30
0.0
 11
6029.7066227637
 21
4900.1004735072
 31
0.0
  0
ARC
  5
393
330
1F
100
AcDbEntity
  8
0
  6
Continuous
 62
     7
370
    25
100
AcDbCircle
 10
6026.7066227637
 20
4900.1004735072
 30
0.0
 40
3.000000000000909
100
AcDbArc
 50
0.0
 51
180.0
  0
LINE
  5
394
330
1F
100
AcDbEntity
  8
0
  6
Continuous
 62
     7
370
    25
100
AcDbLine
 10
6023.7066227637
 20
4900.1004735072
 30
0.0
 11
6023.7066227637
 21
4876.1004735072
 31
0.0
  0
ARC
  5
395
330
1F
100
AcDbEntity
  8
0
  6
Continuous
 62
     7
370
    25
100
AcDbCircle
 10
6016.2413714811
 20
4872.843535583
 30
0.0
 40
3.000000000000909
100
AcDbArc
 50
180.0
 51
0.0
  0
LINE
  5
396
330
1F
100
AcDbEntity
  8
0
  6
Continuous
 62
     7
370
    25
100
AcDbLine
 10
6019.2413714811
 20
4872.843535583
 30
0.0
 11
6019.2413714811
 21
4896.843535583
 31
0.0
  0
ARC
  5
397
330
1F
100
AcDbEntity
  8
0
  6
Continuous
 62
     7
370
    25
100
AcDbCircle
 10
6016.2413714811
 20
4896.843535583
 30
0.0
 40
3.000000000000909
100
AcDbArc
 50
0.0
 51
180.0
  0
LINE
  5
398
330
1F
100
AcDbEntity
  8
0
  6
Continuous
 62
     7
370
    25
100
AcDbLine
 10
6013.2413714811
 20
4896.843535583
 30
0.0
 11
6013.2413714811
 21
4872.843535583
 31
0.0
  0
ARC
  5
399
330
1F
100
AcDbEntity
  8
0
  6
Continuous
 62
     7
370
    25
100
AcDbCircle
 10
6005.7022145788
 20
4869.8366237991
 30
0.0
 40
3.0
100
AcDbArc
 50
180.0
 51
0.0
  0
LINE
  5
39A
330
1F
100
AcDbEntity
  8
0
  6
Continuous
 62
     7
370
    25
100
AcDbLine
 10
6008.7022145788
 20
4869.8366237991
 30
0.0
 11
6008.7022145788
 21
4893.8366237991
 31
0.0
  0
ARC
  5
39B
330
1F
100
AcDbEntity
  8
0
  6
Continuous
 62
     7
370
    25
100
AcDbCircle
 10
6005.7022145788
 20
4893.8366237991
 30
0.0
 40
3.0
100
AcDbArc
 50
0.0
 51
180.0
  0
LINE
  5
39C
330
1F
100
AcDbEntity
  8
0
  6
Continuous
 62
     7
370
    25
100
AcDbLine
 10
6002.7022145788
 20
4893.8366237991
 30
0.0
 11
6002.7022145788
 21
4869.8366237991
 31
0.0
  0
ARC
  5
39D
330
1F
100
AcDbEntity
  8
0
  6
Continuous
 62
     7
370
    25
100
AcDbCircle
 10
5995.0759196222
 20
4867.1533272477
 30
0.0
 40
3.0
100
AcDbArc
 50
180.0
 51
0.0
  0
LINE
  5
39E
330
1F
100
AcDbEntity
  8
0
  6
Continuous
 62
     7
370
    25
100
AcDbLine
 10
5998.0759196222
 20
4867.1533272477
 30
0.0
 11
5998.0759196222
 21
4891.1533272477
 31
0.0
  0
ARC
  5
39F
330
1F
100
AcDbEntity
  8
0
  6
Continuous
 62
     7
370
    25
100
AcDbCircle
 10
5995.0759196222
 20
4891.1533272477
 30
0.0
 40
3.0
100
AcDbArc
 50
0.0
 51
180.0
  0
LINE
  5
3A0
330
1F
100
AcDbEntity
  8
0
  6
Continuous
 62
     7
370
    25
100
AcDbLine
 10
5992.0759196222
 20
4891.1533272477
 30
0.0
 11
5992.0759196222
 21
4867.1533272477
 31
0.0
  0
ARC
  5
3A1
330
1F
100
AcDbEntity
  8
0
  6
Continuous
 62
     7
370
    25
100
AcDbCircle
 10
5984.3567742939
 20
4864.8740245547
 30
0.0
 40
3.000000000000909
100
AcDbArc
 50
180.0
 51
0.0
  0
LINE
  5
3A2
330
1F
100
AcDbEntity
  8
0
  6
Continuous
 62
     7
370
    25
100
AcDbLine
 10
5987.3567742939
 20
4864.8740245547
 30
0.0
 11
5987.3567742939
 21
4888.8740245547
 31
0.0
  0
ARC
  5
3A3
330
1F
100
AcDbEntity
  8
0
  6
Continuous
 62
     7
370
    25
100
AcDbCircle
 10
5984.3567742939
 20
4888.8740245547
 30
0.0
 40
3.000000000000909
100
AcDbArc
 50
0.0
 51
180.0
  0
LINE
  5
3A4
330
1F
100
AcDbEntity
  8
0
  6
Continuous
 62
     7
370
    25
100
AcDbLine
 10
5981.3567742939
 20
4888.8740245547
 30
0.0
 11
5981.3567742939
 21
4864.8740245547
 31
0.0
  0
ARC
  5
3A5
330
1F
100
AcDbEntity
  8
0
  6
Continuous
 62
     7
370
    25
100
AcDbCircle
 10
5973.5450868847
 20
4863.0848085468
 30
0.0
 40
3.0
100
AcDbArc
 50
180.0
 51
0.0
  0
LINE
  5
3A6
330
1F
100
AcDbEntity
  8
0
  6
Continuous
 62
     7
370
    25
100
AcDbLine
 10
5976.5450868847
 20
4863.0848085468
 30
0.0
 11
5976.5450868847
 21
4887.0848085468
 31
0.0
  0
ARC
  5
3A7
330
1F
100
AcDbEntity
  8
0
  6
Continuous
 62
     7
370
    25
100
AcDbCircle
 10
5973.5450868847
 20
4887.0848085468
 30
0.0
 40
3.0
100
AcDbArc
 50
0.0
 51
180.0
  0
LINE
  5
3A8
330
1F
100
AcDbEntity
  8
0
  6
Continuous
 62
     7
370
    25
100
AcDbLine
 10
5970.5450868847
 20
4887.0848085468
 30
0.0
 11
5970.5450868847
 21
4863.0848085468
 31
0.0
  0
ARC
  5
3A9
330
1F
100
AcDbEntity
  8
0
  6
Continuous
 62
     7
370
    25
100
AcDbCircle
 10
5962.6531896035
 20
4861.8767460499
 30
0.0
 40
3.0
100
AcDbArc
 50
180.0
 51
0.0
  0
LINE
  5
3AA
330
1F
100
AcDbEntity
  8
0
  6
Continuous
 62
     7
370
    25
100
AcDbLine
 10
5965.6531896035
 20
4861.8767460499
 30
0.0
 11
5965.6531896035
 21
4885.8767460499
 31
0.0
  0
ARC
  5
3AB
330
1F
100
AcDbEntity
  8
0
  6
Continuous
 62
     7
370
    25
100
AcDbCircle
 10
5962.6531896035
 20
4885.8767460499
 30
0.0
 40
3.0
100
AcDbArc
 50
0.0
 51
180.0
  0
LINE
  5
3AC
330
1F
100
AcDbEntity
  8
0
  6
Continuous
 62
     7
370
    25
100
AcDbLine
 10
5959.6531896035
 20
4885.8767460499
 30
0.0
 11
5959.6531896035
 21
4861.8767460499
 31
0.0
  0
ARC
  5
3AD
330
1F
100
AcDbEntity
  8
0
  6
Continuous
 62
     7
370
    25
100
AcDbCircle
 10
5951.7084332005
 20
4861.3420466374
 30
0.0
 40
3.0
100
AcDbArc
 50
180.0
 51
0.0
  0
LINE
  5
3AE
330
1F
100
AcDbEntity
  8
0
  6
Continuous
 62
     7
370
    25
100
AcDbLine
 10
5954.7084332005
 20
4861.3420466374
 30
0.0
 11
5954.7084332005
 21
4885.3420466374
 31
0.0
  0
ARC
  5
3AF
330
1F
100
AcDbEntity
  8
0
  6
Continuous
 62
     7
370
    25
100
AcDbCircle
 10
5951.7084332005
 20
4885.3420466374
 30
0.0
 40
3.0
100
AcDbArc
 50
0.0
 51
180.0
  0
LINE
  5
3B0
330
1F
100
AcDbEntity
  8
0
  6
Continuous
 62
     7
370
    25
100
AcDbLine
 10
5948.7084332005
 20
4885.3420466374
 30
0.0
 11
5948.7084332005
 21
4861.3420466374
 31
0.0
  0
ARC
  5
3B1
330
1F
100
AcDbEntity
  8
0
  6
Continuous
 62
     7
370
    25
100
AcDbCircle
 10
5940.7531722393
 20
4861.5677137816
 30
0.0
 40
3.0
100
AcDbArc
 50
180.0
 51
0.0
  0
LINE
  5
3B2
330
1F
100
AcDbEntity
  8
0
  6
Continuous
 62
     7
370
    25
100
AcDbLine
 10
5943.7531722393
 20
4861.5677137816
 30
0.0
 11
5943.7531722393
 21
4885.5677137816
 31
0.0
  0
ARC
  5
3B3
330
1F
100
AcDbEntity
  8
0
  6
Continuous
 62
     7
370
    25
100
AcDbCircle
 10
5940.7531722393
 20
4885.5677137816
 30
0.0
 40
3.0
100
AcDbArc
 50
0.0
 51
180.0
  0
LINE
  5
3B4
330
1F
100
AcDbEntity
  8
0
  6
Continuous
 62
     7
370
    25
100
AcDbLine
 10
5937.7531722393
 20
4885.5677137816
 30
0.0
 11
5937.7531722393
 21
4861.5677137816
 31
0.0
  0
ARC
  5
3B5
330
1F
100
AcDbEntity
  8
0
  6
Continuous
 62
     7
370
    25
100
AcDbCircle
 10
5929.8477443314
 20
4862.6271258213
 30
0.0
 40
3.0
100
AcDbArc
 50
180.0
 51
0.0
  0
LINE
  5
3B6
330
1F
100
AcDbEntity
  8
0
  6
Continuous
 62
     7
370
    25
100
AcDbLine
 10
5932.8477443314
 20
4862.6271258213
 30
0.0
 11
5932.8477443314
 21
4886.6271258213
 31
0.0
  0
ARC
  5
3B7
330
1F
100
AcDbEntity
  8
0
  6
Continuous
 62
     7
370
    25
100
AcDbCircle
 10
5929.8477443314
 20
4886.6271258213
 30
0.0
 40
3.0
100
AcDbArc
 50
0.0
 51
180.0
  0
LINE
  5
3B8
330
1F
100
AcDbEntity
  8
0
  6
Continuous
 62
     7
370
    25
100
AcDbLine
 10
5926.8477443314
 20
4886.6271258213
 30
0.0
 11
5926.8477443314
 21
4862.6271258213
 31
0.0
  0
ARC
  5
3B9
330
1F
100
AcDbEntity
  8
0
  6
Continuous
 62
     7
370
    25
100
AcDbCircle
 10
5919.0644392868
 20
4864.570614418
 30
0.0
 40
3.000000000000909
100
AcDbArc
 50
180.0
 51
0.0
  0
LINE
  5
3BA
330
1F
100
AcDbEntity
  8
0
  6
Continuous
 62
     7
370
    25
100
AcDbLine
 10
5922.0644392868
 20
4864.570614418
 30
0.0
 11
5922.0644392868
 21
4888.570614418
 31
0.0
  0
ARC
  5
3BB
330
1F
100
AcDbEntity
  8
0
  6
Continuous
 62
     7
370
    25
100
AcDbCircle
 10
5919.0644392868
 20
4888.570614418
 30
0.0
 40
3.000000000000909
100
AcDbArc
 50
0.0
 51
180.0
  0
LINE
  5
3BC
330
1F
100
AcDbEntity
  8
0
  6
Continuous
 62
     7
370
    25
100
AcDbLine
 10
5916.0644392868
 20
4888.570614418
 30
0.0
 11
5916.0644392868
 21
4864.570614418
 31
0.0
  0
ARC
  5
3BD
330
1F
100
AcDbEntity
  8
0
  6
Continuous
 62
     7
370
    25
100
AcDbCircle
 10
5908.4844697454
 20
4867.4170613884
 30
0.0
 40
3.000000000000909
100
AcDbArc
 50
180.0
 51
0.0
  0
LINE
  5
3BE
330
1F
100
AcDbEntity
  8
0
  6
Continuous
 62
     7
370
    25
100
AcDbLine
 10
5911.4844697454
 20
4867.4170613884
 30
0.0
 11
5911.4844697454
 21
4891.4170613884
 31
0.0
  0
ARC
  5
3BF
330
1F
100
AcDbEntity
  8
0
  6
Continuous
 62
     7
370
    25
100
AcDbCircle
 10
5908.4844697454
 20
4891.4170613884
 30
0.0
 40
3.000000000000909
100
AcDbArc
 50
0.0
 51
180.0
  0
LINE
  5
3C0
330
1F
100
AcDbEntity
  8
0
  6
Continuous
 62
     7
370
    25
100
AcDbLine
 10
5905.4844697454
 20
4891.4170613884
 30
0.0
 11
5905.4844697454
 21
4867.4170613884
 31
0.0
  0
ARC
  5
3C1
330
1F
100
AcDbEntity
  8
0
  6
Continuous
 62
     7
370
    25
100
AcDbCircle
 10
5898.1844491422
 20
4871.1512862498
 30
0.0
 40
3.0
100
AcDbArc
 50
180.0
 51
0.0
  0
LINE
  5
3C2
330
1F
100
AcDbEntity
  8
0
  6
Continuous
 62
     7
370
    25
100
AcDbLine
 10
5901.1844491422
 20
4871.1512862498
 30
0.0
 11
5901.1844491422
 21
4895.1512862498
 31
0.0
  0
ARC
  5
3C3
330
1F
100
AcDbEntity
  8
0
  6
Continuous
 62
     7
370
    25
100
AcDbCircle
 10
5898.1844491422
 20
4895.1512862498
 30
0.0
 40
3.0
100
AcDbArc
 50
0.0
 51
180.0
  0
LINE
  5
3C4
330
1F
100
AcDbEntity
  8
0
  6
Continuous
 62
     7
370
    25
100
AcDbLine
 10
5895.1844491422
 20
4895.1512862498
 30
0.0
 11
5895.1844491422
 21
4871.1512862498
 31
0.0
  0
ARC
  5
3C5
330
1F
100
AcDbEntity
  8
0
  6
Continuous
 62
     7
370
    25
100
AcDbCircle
 10
5888.2288878642
 20
4875.7269109673
 30
0.0
 40
3.0
100
AcDbArc
 50
180.0
 51
0.0
  0
LINE
  5
3C6
330
1F
100
AcDbEntity
  8
0
  6
Continuous
 62
     7
370
    25
100
AcDbLine
 10
5891.2288878642
 20
4875.7269109673
 30
0.0
 11
5891.2288878642
 21
4899.7269109673
 31
0.0
  0
ARC
  5
3C7
330
1F
100
AcDbEntity
  8
0
  6
Continuous
 62
     7
370
    25
100
AcDbCircle
 10
5888.2288878642
 20
4899.7269109673
 30
0.0
 40
3.0
100
AcDbArc
 50
0.0
 51
180.0
  0
LINE
  5
3C8
330
1F
100
AcDbEntity
  8
0
  6
Continuous
 62
     7
370
    25
100
AcDbLine
 10
5885.2288878642
 20
4899.7269109673
 30
0.0
 11
5885.2288878642
 21
4875.7269109673
 31
0.0
  0
ARC
  5
3C9
330
1F
100
AcDbEntity
  8
0
  6
Continuous
 62
     7
370
    25
100
AcDbCircle
 10
5878.6642060289
 20
4881.0743188305
 30
0.0
 40
3.000000000000909
100
AcDbArc
 50
180.0
 51
0.0
  0
LINE
  5
3CA
330
1F
100
AcDbEntity
  8
0
  6
Continuous
 62
     7
370
    25
100
AcDbLine
 10
5881.6642060289
 20
4881.0743188305
 30
0.0
 11
5881.6642060289
 21
4905.0743188305
 31
0.0
  0
ARC
  5
3CB
330
1F
100
AcDbEntity
  8
0
  6
Continuous
 62
     7
370
    25
100
AcDbCircle
 10
5878.6642060289
 20
4905.0743188305
 30
0.0
 40
3.000000000000909
100
AcDbArc
 50
0.0
 51
180.0
  0
LINE
  5
3CC
330
1F
100
AcDbEntity
  8
0
  6
Continuous
 62
     7
370
    25
100
AcDbLine
 10
5875.6642060289
 20
4905.0743188305
 30
0.0
 11
5875.6642060289
 21
4881.0743188305
 31
0.0
  0
LINE
  5
3CD
330
1F
100
AcDbEntity
  8
0
  6
Continuous
 62
     7
370
    25
100
AcDbLine
 10
6692.5187553363
 20
4851.4862902181
 30
0.0
 11
6691.3187553363
 21
4851.4862902181
 31
0.0
  0
LINE
  5
3CE
330
1F
100
AcDbEntity
  8
0
  6
Continuous
 62
     7
370
    25
100
AcDbLine
 10
6690.3187553363
 20
4852.3095135228
 30
0.0
 11
6691.3187553363
 21
4851.4862902181
 31
0.0
  0
LINE
  5
3CF
330
1F
100
AcDbEntity
  8
0
  6
Continuous
 62
     7
370
    25
100
AcDbLine
 10
5856.718755336
 20
4851.486290218
 30
0.0
 11
5857.7187553361
 21
4852.3095135229
 31
0.0
  0
LINE
  5
3D0
330
1F
100
AcDbEntity
  8
0
  6
Continuous
 62
     7
370
    25
100
AcDbLine
 10
5855.518755336
 20
4851.486290218
 30
0.0
 11
5856.718755336
 21
4851.486290218
 31
0.0
  0
LINE
  5
3D1
330
1F
100
AcDbEntity
  8
0
  6
Continuous
 62
     7
370
    25
100
AcDbLine
 10
6691.1419786408
 20
4850.1095135229
 30
0.0
 11
6690.3187553362
 21
4852.3095135228
 31
0.0
  0
LINE
  5
3D2
330
1F
100
AcDbEntity
  8
0
  6
Continuous
 62
     7
370
    25
100
AcDbLine
 10
6691.1419786408
 20
4851.3095135229
 30
0.0
 11
6690.3187553362
 21
4852.3095135228
 31
0.0
  0
LINE
  5
3D3
330
1F
100
AcDbEntity
  8
0
  6
Continuous
 62
     7
370
    25
100
AcDbLine
 10
6691.1419786408
 20
4850.1095135229
 30
0.0
 11
6691.1419786408
 21
4851.3095135229
 31
0.0
  0
LINE
  5
3D4
330
1F
100
AcDbEntity
  8
0
  6
Continuous
 62
     7
370
    25
100
AcDbLine
 10
5856.8955320314
 20
4850.1095135229
 30
0.0
 11
5856.8955320314
 21
4851.3095135229
 31
0.0
  0
LINE
  5
3D5
330
1F
100
AcDbEntity
  8
0
  6
Continuous
 62
     7
370
    25
100
AcDbLine
 10
5857.7187553361
 20
4852.3095135229
 30
0.0
 11
5856.8955320314
 21
4851.3095135229
 31
0.0
  0
LINE
  5
3D6
330
1F
100
AcDbEntity
  8
0
  6
Continuous
 62
     7
370
    25
100
AcDbLine
 10
5857.7187553361
 20
4852.3095135229
 30
0.0
 11
5856.8955320314
 21
4850.1095135229
 31
0.0
  0
LINE
  5
3D7
330
1F
100
AcDbEntity
  8
0
  6
Continuous
 62
     7
370
    25
100
AcDbLine
 10
6691.1419786408
 20
4850.1095135229
 30
0.0
 11
5856.8955320314
 21
4850.1095135229
 31
0.0
  0
LINE
  5
3D8
330
1F
100
AcDbEntity
  8
0
  6
Continuous
 62
     7
370
    25
100
AcDbLine
 10
6256.8187553361
 20
4902.6095135229
 30
0.0
 11
6256.8187553361
 21
4899.1095135229
 31
0.0
  0
LINE
  5
3D9
330
1F
100
AcDbEntity
  8
0
  6
Continuous
 62
     7
370
    25
100
AcDbLine
 10
6256.8187553361
 20
4902.6095135229
 30
0.0
 11
6259.6187553361
 21
4902.6095135229
 31
0.0
  0
LINE
  5
3DA
330
1F
100
AcDbEntity
  8
0
  6
Continuous
 62
     7
370
    25
100
AcDbLine
 10
6259.6187553361
 20
4899.1095135229
 30
0.0
 11
6259.6187553361
 21
4902.6095135229
 31
0.0
  0
LINE
  5
3DB
330
1F
100
AcDbEntity
  8
0
  6
Continuous
 62
     7
370
    25
100
AcDbLine
 10
6256.8187553361
 20
4899.1095135229
 30
0.0
 11
6259.6187553361
 21
4899.1095135229
 31
0.0
  0
LINE
  5
3DC
330
1F
100
AcDbEntity
  8
0
  6
Continuous
 62
     7
370
    25
100
AcDbLine
 10
6291.2180741075
 20
4899.1095135229
 30
0.0
 11
6291.2180741075
 21
4902.6095135229
 31
0.0
  0
ARC
  5
3DD
330
1F
100
AcDbEntity
  8
0
  6
Continuous
 62
     7
370
    25
100
AcDbCircle
 10
6291.2180741075
 20
4901.9095135229
 30
0.0
 40
0.7000000000007276
100
AcDbArc
 50
0.0
 51
90.0
  0
LINE
  5
3DE
330
1F
100
AcDbEntity
  8
0
  6
Continuous
 62
     7
370
    25
100
AcDbLine
 10
6291.9180741075
 20
4901.9095135229
 30
0.0
 11
6291.9180741075
 21
4899.1095135229
 31
0.0
  0
LINE
  5
3DF
330
1F
100
AcDbEntity
  8
0
  6
Continuous
 62
     7
370
    25
100
AcDbLine
 10
6291.2180741075
 20
4899.1095135229
 30
0.0
 11
6291.9180741075
 21
4899.1095135229
 31
0.0
  0
ARC
  5
3E0
330
1F
100
AcDbEntity
  8
0
  6
Continuous
 62
     7
370
    25
100
AcDbCircle
 10
6259.6187553361
 20
4901.9095135229
 30
0.0
 40
0.7000000000007276
100
AcDbArc
 50
0.0
 51
90.0
  0
LINE
  5
3E1
330
1F
100
AcDbEntity
  8
0
  6
Continuous
 62
     7
370
    25
100
AcDbLine
 10
6260.3187553361
 20
4901.9095135229
 30
0.0
 11
6260.3187553361
 21
4899.1095135229
 31
0.0
  0
LINE
  5
3E2
330
1F
100
AcDbEntity
  8
0
  6
Continuous
 62
     7
370
    25
100
AcDbLine
 10
6260.3187553361
 20
4899.1095135229
 30
0.0
 11
6259.6187553361
 21
4899.1095135229
 31
0.0
  0
LINE
  5
3E3
330
1F
100
AcDbEntity
  8
0
  6
Continuous
 62
     7
370
    25
100
AcDbLine
 10
6287.7180741075
 20
4899.1095135229
 30
0.0
 11
6287.7180741075
 21
4901.9095135229
 31
0.0
  0
ARC
  5
3E4
330
1F
100
AcDbEntity
  8
0
  6
Continuous
 62
     7
370
    25
100
AcDbCircle
 10
6288.4180741075
 20
4901.9095135229
 30
0.0
 40
0.7000000000007276
100
AcDbArc
 50
90.0
 51
180.0
  0
LINE
  5
3E5
330
1F
100
AcDbEntity
  8
0
  6
Continuous
 62
     7
370
    25
100
AcDbLine
 10
6288.4180741075
 20
4902.6095135229
 30
0.0
 11
6288.4180741075
 21
4899.1095135229
 31
0.0
  0
LINE
  5
3E6
330
1F
100
AcDbEntity
  8
0
  6
Continuous
 62
     7
370
    25
100
AcDbLine
 10
6288.4180741075
 20
4899.1095135229
 30
0.0
 11
6287.7180741075
 21
4899.1095135229
 31
0.0
  0
LWPOLYLINE
  5
3E7
330
1F
100
AcDbEntity
  8
0
  6
Continuous
 62
     7
370
    25
100
AcDbPolyline
 90
        3
 70
   128
 43
0.0
 10
6256.8187553361
 20
4902.6095135229
 10
6256.6821921107
 20
4902.5960632192
 10
6256.5698549622
 20
4902.5637677578
  0
LINE
  5
3E8
330
1F
100
AcDbEntity
  8
0
  6
Continuous
 62
     7
370
    25
100
AcDbLine
 10
6288.4180741075
 20
4899.1095135229
 30
0.0
 11
6291.2180741075
 21
4899.1095135229
 31
0.0
  0
LINE
  5
3E9
330
1F
100
AcDbEntity
  8
0
  6
Continuous
 62
     7
370
    25
100
AcDbLine
 10
6288.4180741075
 20
4902.6095135229
 30
0.0
 11
6291.2180741075
 21
4902.6095135229
 31
0.0
  0
LINE
  5
3EA
330
1F
100
AcDbEntity
  8
0
  6
Continuous
 62
     7
370
    25
100
AcDbLine
 10
6288.4180741075
 20
4899.1095135229
 30
0.0
 11
6288.4180741075
 21
4895.6095135229
 31
0.0
  0
ARC
  5
3EB
330
1F
100
AcDbEntity
  8
0
  6
Continuous
 62
     7
370
    25
100
AcDbCircle
 10
6288.4180741075
 20
4896.3095135229
 30
0.0
 40
0.7000000000007276
100
AcDbArc
 50
180.0
 51
270.0
  0
LINE
  5
3EC
330
1F
100
AcDbEntity
  8
0
  6
Continuous
 62
     7
370
    25
100
AcDbLine
 10
6287.7180741075
 20
4896.3095135229
 30
0.0
 11
6287.7180741075
 21
4899.1095135229
 31
0.0
  0
LINE
  5
3ED
330
1F
100
AcDbEntity
  8
0
  6
Continuous
 62
     7
370
    25
100
AcDbLine
 10
6260.3187553361
 20
4899.1095135229
 30
0.0
 11
6260.3187553361
 21
4896.3095135229
 31
0.0
  0
ARC
  5
3EE
330
1F
100
AcDbEntity
  8
0
  6
Continuous
 62
     7
370
    25
100
AcDbCircle
 10
6259.6187553361
 20
4896.3095135229
 30
0.0
 40
0.7000000000007276
100
AcDbArc
 50
270.0
 51
0.0
  0
LINE
  5
3EF
330
1F
100
AcDbEntity
  8
0
  6
Continuous
 62
     7
370
    25
100
AcDbLine
 10
6259.6187553361
 20
4895.6095135229
 30
0.0
 11
6259.6187553361
 21
4899.1095135229
 31
0.0
  0
LINE
  5
3F0
330
1F
100
AcDbEntity
  8
0
  6
Continuous
 62
     7
370
    25
100
AcDbLine
 10
6291.2180741075
 20
4895.6095135229
 30
0.0
 11
6291.2180741075
 21
4899.1095135229
 31
0.0
  0
LINE
  5
3F1
330
1F
100
AcDbEntity
  8
0
  6
Continuous
 62
     7
370
    25
100
AcDbLine
 10
6291.2180741075
 20
4895.6095135229
 30
0.0
 11
6288.4180741075
 21
4895.6095135229
 31
0.0
  0
LINE
  5
3F2
330
1F
100
AcDbEntity
  8
0
  6
Continuous
 62
     7
370
    25
100
AcDbLine
 10
6256.8187553361
 20
4899.1095135229
 30
0.0
 11
6256.8187553361
 21
4895.6095135229
 31
0.0
  0
LINE
  5
3F3
330
1F
100
AcDbEntity
  8
0
  6
Continuous
 62
     7
370
    25
100
AcDbLine
 10
6259.6187553361
 20
4895.6095135229
 30
0.0
 11
6256.8187553361
 21
4895.6095135229
 31
0.0
  0
LWPOLYLINE
  5
3F4
330
1F
100
AcDbEntity
  8
0
  6
Continuous
 62
     7
370
    25
100
AcDbPolyline
 90
        3
 70
   128
 43
0.0
 10
6256.8187553361
 20
4895.6095135229
 10
6256.6821921107
 20
4895.6229638266
 10
6256.5698549622
 20
4895.655259288
  0
LINE
  5
3F5
330
1F
100
AcDbEntity
  8
0
  6
Continuous
 62
     7
370
    25
100
AcDbLine
 10
6291.9180741075
 20
4899.1095135229
 30
0.0
 11
6291.9180741075
 21
4896.3095135229
 31
0.0
  0
ARC
  5
3F6
330
1F
100
AcDbEntity
  8
0
  6
Continuous
 62
     7
370
    25
100
AcDbCircle
 10
6291.2180741075
 20
4896.3095135229
 30
0.0
 40
0.7000000000007276
100
AcDbArc
 50
270.0
 51
0.0
  0
LINE
  5
3F7
330
1F
100
AcDbEntity
  8
0
  6
Continuous
 62
     7
370
    25
100
AcDbLine
 10
6287.5911099143
 20
4900.0595135229
 30
0.0
 11
6287.5911099143
 21
4898.1595135229
 31
0.0
  0
LINE
  5
3F8
330
1F
100
AcDbEntity
  8
0
  6
Continuous
 62
     7
370
    25
100
AcDbLine
 10
6260.4464007579
 20
4900.0595135229
 30
0.0
 11
6260.4464007579
 21
4898.1595135229
 31
0.0
  0
LINE
  5
3F9
330
1F
100
AcDbEntity
  8
0
  6
Continuous
 62
     7
370
    25
100
AcDbLine
 10
6291.9180741075
 20
4896.3095135229
 30
0.0
 11
6292.6180741075
 21
4896.3095135229
 31
0.0
  0
LINE
  5
3FA
330
1F
100
AcDbEntity
  8
0
  6
Continuous
 62
     7
370
    25
100
AcDbLine
 10
6291.2180741075
 20
4895.6095135229
 30
0.0
 11
6291.2180741075
 21
4894.9095135229
 31
0.0
  0
LINE
  5
3FB
330
1F
100
AcDbEntity
  8
0
  6
Continuous
 62
     7
370
    25
100
AcDbLine
 10
6291.2180741075
 20
4894.9095135229
 30
0.0
 11
6289.7457391364
 21
4894.9095135229
 31
0.0
  0
ARC
  5
3FC
330
1F
100
AcDbEntity
  8
0
  6
Continuous
 62
     7
370
    25
100
AcDbCircle
 10
6284.9581307864
 20
4896.3574579279
 30
0.0
 40
5.001773356813414
100
AcDbArc
 50
343.1728014175
 51
351.3999709405
  0
LINE
  5
3FD
330
1F
100
AcDbEntity
  8
0
  6
Continuous
 62
     7
370
    25
100
AcDbLine
 10
6256.8187553361
 20
4902.6095135229
 30
0.0
 11
6256.8187553361
 21
4903.3095135229
 31
0.0
  0
LINE
  5
3FE
330
1F
100
AcDbEntity
  8
0
  6
Continuous
 62
     7
370
    25
100
AcDbLine
 10
6256.8187553361
 20
4903.3095135229
 30
0.0
 11
6257.8688085829
 21
4903.3095135229
 31
0.0
  0
ARC
  5
3FF
330
1F
100
AcDbEntity
  8
0
  6
Continuous
 62
     7
370
    25
100
AcDbCircle
 10
6272.5442175404
 20
4900.3207291042
 30
0.0
 40
14.97666385991073
100
AcDbArc
 50
168.488608232
 51
171.2094187131
  0
LINE
  5
400
330
1F
100
AcDbEntity
  8
0
  6
Continuous
 62
     7
370
    25
100
AcDbLine
 10
6258.1319173948
 20
4894.9095135229
 30
0.0
 11
6256.8187553361
 21
4894.9095135229
 31
0.0
  0
LINE
  5
401
330
1F
100
AcDbEntity
  8
0
  6
Continuous
 62
     7
370
    25
100
AcDbLine
 10
6256.8187553361
 20
4895.6095135229
 30
0.0
 11
6256.8187553361
 21
4894.9095135229
 31
0.0
  0
ARC
  5
402
330
1F
100
AcDbEntity
  8
0
  6
Continuous
 62
     7
370
    25
100
AcDbCircle
 10
6272.4137597959
 20
4899.03608743
 30
0.0
 40
14.86605645686726
100
AcDbArc
 50
193.3263042335
 51
196.1160409617
  0
LINE
  5
403
330
1F
100
AcDbEntity
  8
0
  6
Continuous
 62
     7
370
    25
100
AcDbLine
 10
6289.7457391364
 20
4903.3095135229
 30
0.0
 11
6291.2180741075
 21
4903.3095135229
 31
0.0
  0
LINE
  5
404
330
1F
100
AcDbEntity
  8
0
  6
Continuous
 62
     7
370
    25
100
AcDbLine
 10
6291.2180741075
 20
4902.6095135229
 30
0.0
 11
6291.2180741075
 21
4903.3095135229
 31
0.0
  0
ARC
  5
405
330
1F
100
AcDbEntity
  8
0
  6
Continuous
 62
     7
370
    25
100
AcDbCircle
 10
6283.6371123519
 20
4901.5635349155
 30
0.0
 40
6.353248184156114
100
AcDbArc
 50
9.4761375318
 51
15.9510901102
  0
ARC
  5
406
330
1F
100
AcDbEntity
  8
0
  6
Continuous
 62
     7
370
    25
100
AcDbCircle
 10
6291.2180741075
 20
4896.3095135229
 30
0.0
 40
1.400000000000546
100
AcDbArc
 50
270.0
 51
0.0
  0
ARC
  5
407
330
1F
100
AcDbEntity
  8
0
  6
Continuous
 62
     7
370
    25
100
AcDbCircle
 10
6268.27011641
 20
4886.1654452965
 30
0.0
 40
2.114962488157019
100
AcDbArc
 50
241.9416008995
 51
246.0533341107
  0
ARC
  5
408
330
1F
100
AcDbEntity
  8
0
  6
Continuous
 62
     7
370
    25
100
AcDbCircle
 10
6274.0187553361
 20
4899.1095135229
 30
0.0
 40
19.95000000000064
100
AcDbArc
 50
282.7344568175
 51
297.0064415185
  0
ARC
  5
409
330
1F
100
AcDbEntity
  8
0
  6
Continuous
 62
     7
370
    25
100
AcDbCircle
 10
6274.0187553361
 20
4899.1095135229
 30
0.0
 40
19.9500000000005
100
AcDbArc
 50
312.5635529043
 51
347.730669199
  0
ARC
  5
40A
330
1F
100
AcDbEntity
  8
0
  6
Continuous
 62
     7
370
    25
100
AcDbCircle
 10
6274.0187553361
 20
4899.1095135229
 30
0.0
 40
19.94999999999995
100
AcDbArc
 50
208.7194141015
 51
217.8673318083
  0
ARC
  5
40B
330
1F
100
AcDbEntity
  8
0
  6
Continuous
 62
     7
370
    25
100
AcDbCircle
 10
6273.3501736981
 20
4899.1857493338
 30
0.0
 40
15.80764111507773
100
AcDbArc
 50
195.6950342709
 51
224.6703190973
  0
ARC
  5
40C
330
1F
100
AcDbEntity
  8
0
  6
Continuous
 62
     7
370
    25
100
AcDbCircle
 10
6270.6078519367
 20
4900.5484370058
 30
0.0
 40
13.03482907846506
100
AcDbArc
 50
128.0722990468
 51
167.7707942433
  0
LINE
  5
40D
330
1F
100
AcDbEntity
  8
0
  6
Continuous
 62
     7
370
    25
100
AcDbLine
 10
6289.7457391364
 20
4903.3095135229
 30
0.0
 11
6289.1464442461
 21
4905.1204242439
 31
0.0
  0
LWPOLYLINE
  5
40E
330
1F
100
AcDbEntity
  8
0
  6
Continuous
 62
     7
370
    25
100
AcDbPolyline
 90
        3
 70
   128
 43
0.0
 10
6267.4116825597
 20
4884.2325310069
 10
6269.8201590204
 20
4883.3821549261
 10
6271.1278115028
 20
4883.0901357819
  0
ARC
  5
40F
330
1F
100
AcDbEntity
  8
0
  6
Continuous
 62
     7
370
    25
100
AcDbCircle
 10
6274.0187553361
 20
4899.1095135229
 30
0.0
 40
16.278145455025
100
AcDbArc
 50
281.171202413
 51
304.2173388413
  0
ARC
  5
410
330
1F
100
AcDbEntity
  8
0
  6
Continuous
 62
     7
370
    25
100
AcDbCircle
 10
6274.0187553361
 20
4899.1095135229
 30
0.0
 40
16.27814545502454
100
AcDbArc
 50
325.9945691356
 51
345.04770896
  0
LINE
  5
411
330
1F
100
AcDbEntity
  8
0
  6
Continuous
 62
     7
370
    25
100
AcDbLine
 10
6257.8688085827
 20
4903.3095135222
 30
0.0
 11
6259.1458421908
 21
4903.3095135229
 31
0.0
  0
ARC
  5
412
330
1F
100
AcDbEntity
  8
0
  6
Continuous
 62
     7
370
    25
100
AcDbCircle
 10
6259.7595598155
 20
4903.2143873954
 30
0.0
 40
0.62104613602516
100
AcDbArc
 50
171.1892765271
 51
256.89587381
  0
ARC
  5
413
330
1F
100
AcDbEntity
  8
0
  6
Continuous
 62
     7
370
    25
100
AcDbCircle
 10
6259.7595598155
 20
4895.0046396504
 30
0.0
 40
0.6210461360266789
100
AcDbArc
 50
103.1041261901
 51
188.8107234727
  0
LINE
  5
414
330
1F
100
AcDbEntity
  8
0
  6
Continuous
 62
     7
370
    25
100
AcDbLine
 10
6259.1458421908
 20
4894.9095135229
 30
0.0
 11
6258.1319173948
 21
4894.9095135229
 31
0.0
  0
LINE
  5
415
330
1F
100
AcDbEntity
  8
0
  6
Continuous
 62
     7
370
    25
100
AcDbLine
 10
6260.5458421908
 20
4901.9095135229
 30
0.0
 11
6260.5458421908
 21
4896.3095135229
 31
0.0
  0
ARC
  5
416
330
1F
100
AcDbEntity
  8
0
  6
Continuous
 62
     7
370
    25
100
AcDbCircle
 10
6259.1458421908
 20
4901.9095135229
 30
0.0
 40
1.400000000000546
100
AcDbArc
 50
0.0
 51
90.0
  0
ELLIPSE
  5
417
330
1F
100
AcDbEntity
  8
0
  6
Continuous
 62
     7
370
    25
100
AcDbEllipse
 10
6264.2763521413
 20
4899.1095135229
 30
0.0
 11
7.524669661681401
 21
0.0
 31
0.0
210
0.0
220
0.0
230
1.0
 40
0.9998720779
 41
5.236935575030772
 42
7.329435039328352
  0
ARC
  5
418
330
1F
100
AcDbEntity
  8
0
  6
Continuous
 62
     7
370
    25
100
AcDbCircle
 10
6259.1458421908
 20
4896.3095135229
 30
0.0
 40
1.399999999999636
100
AcDbArc
 50
270.0
 51
0.0
  0
LINE
  5
419
330
1F
100
AcDbEntity
  8
0
  6
Continuous
 62
     7
370
    25
100
AcDbLine
 10
6260.5458421908
 20
4901.9095135229
 30
0.0
 11
6260.3187553361
 21
4901.9095135229
 31
0.0
  0
LINE
  5
41A
330
1F
100
AcDbEntity
  8
0
  6
Continuous
 62
     7
370
    25
100
AcDbLine
 10
6260.5458421908
 20
4896.3095135229
 30
0.0
 11
6260.3187553361
 21
4896.3095135229
 31
0.0
  0
ARC
  5
41B
330
1F
100
AcDbEntity
  8
0
  6
Continuous
 62
     7
370
    25
100
AcDbCircle
 10
6264.8399617196
 20
4907.2157704132
 30
0.0
 40
3.579462495001186
100
AcDbArc
 50
333.5544399289
 51
50.6354567782
  0
LWPOLYLINE
  5
41C
330
1F
100
AcDbEntity
  8
0
  6
Continuous
 62
     7
370
    25
100
AcDbPolyline
 90
        3
 70
   128
 43
0.0
 10
6266.9196692821
 20
4910.127724816
 10
6266.9540900775
 20
4910.0882286937
 10
6267.1102436645
 20
4909.9831467236
  0
ARC
  5
41D
330
1F
100
AcDbEntity
  8
0
  6
Continuous
 62
     7
370
    25
100
AcDbCircle
 10
6264.8399617196
 20
4891.0032566326
 30
0.0
 40
3.579462495002009
100
AcDbArc
 50
309.3645432218
 51
26.4455600711
  0
LINE
  5
41E
330
1F
100
AcDbEntity
  8
0
  6
Continuous
 62
     7
370
    25
100
AcDbLine
 10
6267.1102436645
 20
4888.2358803222
 30
0.0
 11
6266.8659495806
 21
4888.0087861098
 31
0.0
  0
ARC
  5
41F
330
1F
100
AcDbEntity
  8
0
  6
Continuous
 62
     7
370
    25
100
AcDbCircle
 10
6261.4721348093
 20
4899.6094122206
 30
0.0
 40
11.80688947198016
100
AcDbArc
 50
15.2005241078
 51
61.4759874211
  0
ARC
  5
420
330
1F
100
AcDbEntity
  8
0
  6
Continuous
 62
     7
370
    25
100
AcDbCircle
 10
6261.8764111816
 20
4898.3188020462
 30
0.0
 40
11.36038348616304
100
AcDbArc
 50
297.4328763511
 51
345.3200035924
  0
LWPOLYLINE
  5
421
330
1F
100
AcDbEntity
  8
0
  6
Continuous
 62
     7
370
    25
100
AcDbPolyline
 90
        3
 70
   128
 43
0.0
 10
6256.6327038857
 20
4889.0231259156
 10
6256.724683593
 20
4888.8662190068
 10
6257.9391929883
 20
4887.0489300088
  0
ARC
  5
422
330
1F
100
AcDbEntity
  8
0
  6
Continuous
 62
     7
370
    25
100
AcDbCircle
 10
6274.0187553361
 20
4899.1095135229
 30
0.0
 40
20.09999999999999
100
AcDbArc
 50
283.1374858079
 51
296.603412528
  0
ARC
  5
423
330
1F
100
AcDbEntity
  8
0
  6
Continuous
 62
     7
370
    25
100
AcDbCircle
 10
6274.0187553361
 20
4899.1095135229
 30
0.0
 40
20.10000000000029
100
AcDbArc
 50
312.1720992514
 51
345.8988746475
  0
ARC
  5
424
330
1F
100
AcDbEntity
  8
0
  6
Continuous
 62
     7
370
    25
100
AcDbCircle
 10
6274.0187553361
 20
4899.1095135229
 30
0.0
 40
20.09999999999981
100
AcDbArc
 50
126.5496861965
 51
149.8801571665
  0
ARC
  5
425
330
1F
100
AcDbEntity
  8
0
  6
Continuous
 62
     7
370
    25
100
AcDbCircle
 10
6301.0187553361
 20
4899.1095135229
 30
0.0
 40
2.45000000000049
100
AcDbArc
 50
128.2893063631
 51
231.7106936369
  0
ARC
  5
426
330
1F
100
AcDbEntity
  8
0
  6
Continuous
 62
     7
370
    25
100
AcDbCircle
 10
6247.0187553361
 20
4899.1095135229
 30
0.0
 40
2.450000000003871
100
AcDbArc
 50
308.2893063632
 51
51.7106936368
  0
LWPOLYLINE
  5
427
330
1F
100
AcDbEntity
  8
0
  6
Continuous
 62
     7
370
    25
100
AcDbPolyline
 90
        3
 70
   128
 43
0.0
 10
6239.1187553361
 20
4899.1095135229
 10
6239.2978159497
 20
4895.5787390855
 10
6239.5041765969
 20
4893.9371006959
  0
ARC
  5
428
330
1F
100
AcDbEntity
  8
0
  6
Continuous
 62
     7
370
    25
100
AcDbCircle
 10
6274.0187553361
 20
4899.1095135229
 30
0.0
 40
34.90000000000028
100
AcDbArc
 50
313.688635073
 51
328.9281933515
  0
LWPOLYLINE
  5
429
330
1F
100
AcDbEntity
  8
0
  6
Continuous
 62
     7
370
    25
100
AcDbPolyline
 90
        3
 70
   128
 43
0.0
 10
6308.3880195567
 20
4893.0462077466
 10
6308.7396947225
 20
4895.5787390856
 10
6308.8774657338
 20
4897.4123660909
  0
ARC
  5
42A
330
1F
100
AcDbEntity
  8
0
  6
Continuous
 62
     7
370
    25
100
AcDbCircle
 10
6274.0187553361
 20
4899.1095135229
 30
0.0
 40
34.90000000000055
100
AcDbArc
 50
156.9520606597
 51
180.0
  0
ARC
  5
42B
330
1F
100
AcDbEntity
  8
0
  6
Continuous
 62
     7
370
    25
100
AcDbCircle
 10
6301.0187553361
 20
4899.1095135229
 30
0.0
 40
2.45000000000049
100
AcDbArc
 50
231.7106936369
 51
128.2893063631
  0
ARC
  5
42C
330
1F
100
AcDbEntity
  8
0
  6
Continuous
 62
     7
370
    25
100
AcDbCircle
 10
6247.0187553361
 20
4899.1095135229
 30
0.0
 40
2.45000000000049
100
AcDbArc
 50
51.7106936369
 51
108.0971139213
  0
ARC
  5
42D
330
1F
100
AcDbEntity
  8
0
  6
Continuous
 62
     7
370
    25
100
AcDbCircle
 10
6247.0187553361
 20
4899.1095135229
 30
0.0
 40
2.450000000000629
100
AcDbArc
 50
251.9028860787
 51
308.2893063631
  0
LINE
  5
42E
330
1F
100
AcDbEntity
  8
0
  6
Continuous
 62
     7
370
    25
100
AcDbLine
 10
6271.6944353979
 20
4890.0906877106
 30
0.0
 11
6267.5375811484
 21
4885.9338334611
 31
0.0
  0
ARC
  5
42F
330
1F
100
AcDbEntity
  8
0
  6
Continuous
 62
     7
370
    25
100
AcDbCircle
 10
5871.7187553361
 20
4959.1095135229
 30
0.0
 40
4.000000000000468
100
AcDbArc
 50
270.0
 51
25.5142086023
  0
ARC
  5
430
330
1F
100
AcDbEntity
  8
0
  6
Continuous
 62
     7
370
    25
100
AcDbCircle
 10
5871.7187553361
 20
4959.1095135229
 30
0.0
 40
4.000000000000093
100
AcDbArc
 50
154.4857914025
 51
270.0
  0
CIRCLE
  5
431
330
1F
100
AcDbEntity
  8
0
  6
Continuous
 62
     7
370
    25
100
AcDbCircle
 10
6676.3187553361
 20
4812.1095135229
 30
0.0
 40
4.0
  0
CIRCLE
  5
432
330
1F
100
AcDbEntity
  8
0
  6
Continuous
 62
     7
370
    25
100
AcDbCircle
 10
6676.3187553361
 20
4812.1095135229
 30
0.0
 40
5.0
  0
ARC
  5
433
330
1F
100
AcDbEntity
  8
0
  6
Continuous
 62
     7
370
    25
100
AcDbCircle
 10
6676.3187553361
 20
4959.1095135229
 30
0.0
 40
4.000000000000093
100
AcDbArc
 50
270.0
 51
25.5142085975
  0
ARC
  5
434
330
1F
100
AcDbEntity
  8
0
  6
Continuous
 62
     7
370
    25
100
AcDbCircle
 10
6676.3187553361
 20
4959.1095135229
 30
0.0
 40
4.000000000000468
100
AcDbArc
 50
154.4857913977
 51
270.0
  0
LINE
  5
435
330
1F
100
AcDbEntity
  8
0
  6
Continuous
 62
     7
370
    25
100
AcDbLine
 10
6640.3187553361
 20
4974.1095135229
 30
0.0
 11
6640.3187553361
 21
4970.3095135229
 31
0.0
  0
LINE
  5
436
330
1F
100
AcDbEntity
  8
0
  6
Continuous
 62
     7
370
    25
100
AcDbLine
 10
6690.3187553361
 20
4974.1095135229
 30
0.0
 11
6640.3187553361
 21
4974.1095135229
 31
0.0
  0
LINE
  5
437
330
1F
100
AcDbEntity
  8
0
  6
Continuous
 62
     7
370
    25
100
AcDbLine
 10
6690.3187553361
 20
4970.3095135229
 30
0.0
 11
6690.3187553361
 21
4974.1095135229
 31
0.0
  0
CIRCLE
  5
438
330
1F
100
AcDbEntity
  8
0
  6
Continuous
 62
     7
370
    25
100
AcDbCircle
 10
5871.7187553361
 20
4812.1095135229
 30
0.0
 40
3.999999999999091
  0
CIRCLE
  5
439
330
1F
100
AcDbEntity
  8
0
  6
Continuous
 62
     7
370
    25
100
AcDbCircle
 10
5871.7187553361
 20
4812.1095135229
 30
0.0
 40
5.0
  0
LINE
  5
43A
330
1F
100
AcDbEntity
  8
0
  6
Continuous
 62
     7
370
    25
100
AcDbLine
 10
5857.7187553361
 20
4797.1095135229
 30
0.0
 11
5907.7187553361
 21
4797.1095135229
 31
0.0
  0
LINE
  5
43B
330
1F
100
AcDbEntity
  8
0
  6
Continuous
 62
     7
370
    25
100
AcDbLine
 10
5907.7187553361
 20
4797.1095135229
 30
0.0
 11
5907.7187553361
 21
4827.1095135229
 31
0.0
  0
CIRCLE
  5
43C
330
1F
100
AcDbEntity
  8
0
  6
Continuous
 62
     7
370
    25
100
AcDbCircle
 10
5893.7187553361
 20
4812.1095135229
 30
0.0
 40
2.749999999999091
  0
LINE
  5
43D
330
1F
100
AcDbEntity
  8
0
  6
Continuous
 62
     7
370
    25
100
AcDbLine
 10
5907.7187553361
 20
4827.1095135229
 30
0.0
 11
5881.7187553361
 21
4827.1095135229
 31
0.0
  0
LINE
  5
43E
330
1F
100
AcDbEntity
  8
0
  6
Continuous
 62
     7
370
    25
100
AcDbLine
 10
5861.7187553361
 20
4827.1095135229
 30
0.0
 11
5857.7187553361
 21
4827.1095135229
 31
0.0
  0
LINE
  5
43F
330
1F
100
AcDbEntity
  8
0
  6
Continuous
 62
     7
370
    25
100
AcDbLine
 10
5857.7187553361
 20
4827.1095135229
 30
0.0
 11
5857.7187553361
 21
4797.1095135229
 31
0.0
  0
LINE
  5
440
330
1F
100
AcDbEntity
  8
0
  6
Continuous
 62
     7
370
    25
100
AcDbLine
 10
6694.6187553361
 20
4950.1095135229
 30
0.0
 11
5853.4187553361
 21
4950.1095135229
 31
0.0
  0
ARC
  5
441
330
1F
100
AcDbEntity
  8
0
  6
Continuous
 62
     7
370
    25
100
AcDbCircle
 10
5853.4187553361
 20
4949.1095135229
 30
0.0
 40
1.0
100
AcDbArc
 50
90.0
 51
180.0
  0
ARC
  5
442
330
1F
100
AcDbEntity
  8
0
  6
Continuous
 62
     7
370
    25
100
AcDbCircle
 10
6694.6187553361
 20
4949.1095135229
 30
0.0
 40
1.0
100
AcDbArc
 50
0.0
 51
90.0
  0
LINE
  5
443
330
1F
100
AcDbEntity
  8
0
  6
Continuous
 62
     7
370
    25
100
AcDbLine
 10
5852.4187553361
 20
4849.1095135229
 30
0.0
 11
5852.4187553361
 21
4949.1095135229
 31
0.0
  0
LINE
  5
444
330
1F
100
AcDbEntity
  8
0
  6
Continuous
 62
     7
370
    25
100
AcDbLine
 10
6695.6187553361
 20
4949.1095135229
 30
0.0
 11
6695.6187553361
 21
4849.1095135229
 31
0.0
  0
ARC
  5
445
330
1F
100
AcDbEntity
  8
0
  6
Continuous
 62
     7
370
    25
100
AcDbCircle
 10
6694.6187553361
 20
4849.1095135229
 30
0.0
 40
1.0
100
AcDbArc
 50
270.0
 51
0.0
  0
ARC
  5
446
330
1F
100
AcDbEntity
  8
0
  6
Continuous
 62
     7
370
    25
100
AcDbCircle
 10
5853.4187553361
 20
4849.1095135229
 30
0.0
 40
1.0
100
AcDbArc
 50
180.0
 51
270.0
  0
LINE
  5
447
330
1F
100
AcDbEntity
  8
0
  6
Continuous
 62
     7
370
    25
100
AcDbLine
 10
6694.6187553361
 20
4848.1095135229
 30
0.0
 11
5853.4187553361
 21
4848.1095135229
 31
0.0
  0
LINE
  5
448
330
1F
100
AcDbEntity
  8
0
  6
Continuous
 62
     7
370
    25
100
AcDbLine
 10
6726.3187553361
 20
4970.3095135229
 30
0.0
 11
5821.7187553361
 21
4970.3095135229
 31
0.0
  0
LINE
  5
449
330
1F
100
AcDbEntity
  8
0
  6
Continuous
 62
     7
370
    25
100
AcDbLine
 10
6726.3187553361
 20
4827.9095135229
 30
0.0
 11
6726.3187553361
 21
4970.3095135229
 31
0.0
  0
LINE
  5
44A
330
1F
100
AcDbEntity
  8
0
  6
Continuous
 62
     7
370
    25
100
AcDbLine
 10
5821.7187553361
 20
4827.9095135229
 30
0.0
 11
6726.3187553361
 21
4827.9095135229
 31
0.0
  0
LINE
  5
44B
330
1F
100
AcDbEntity
  8
0
  6
Continuous
 62
     7
370
    25
100
AcDbLine
 10
5821.7187553361
 20
4970.3095135229
 30
0.0
 11
5821.7187553361
 21
4827.9095135229
 31
0.0
  0
CIRCLE
  5
44C
330
1F
100
AcDbEntity
  8
0
  6
Continuous
 62
     7
370
    25
100
AcDbCircle
 10
6676.3187553361
 20
4958.5894594084
 30
0.0
 40
4.25
  0
CIRCLE
  5
44D
330
1F
100
AcDbEntity
  8
0
  6
Continuous
 62
     7
370
    25
100
AcDbCircle
 10
5871.7187553361
 20
4958.5894594084
 30
0.0
 40
4.25
  0
LINE
  5
44E
330
1F
100
AcDbEntity
  8
0
  6
Continuous
 62
     7
370
    25
100
AcDbLine
 10
5881.7187553361
 20
4825.1290300716
 30
0.0
 11
5861.7187553361
 21
4825.1290300716
 31
0.0
  0
LINE
  5
44F
330
1F
100
AcDbEntity
  8
0
  6
Continuous
 62
     7
370
    25
100
AcDbLine
 10
5881.7187553361
 20
4827.9095135229
 30
0.0
 11
5881.7187553361
 21
4825.1290300716
 31
0.0
  0
LINE
  5
450
330
1F
100
AcDbEntity
  8
0
  6
Continuous
 62
     7
370
    25
100
AcDbLine
 10
5861.7187553361
 20
4827.9095135229
 30
0.0
 11
5861.7187553361
 21
4825.1290300716
 31
0.0
  0
LINE
  5
451
330
1F
100
AcDbEntity
  8
0
  6
Continuous
 62
     7
370
    25
100
AcDbLine
 10
6666.3187553361
 20
4825.1290300716
 30
0.0
 11
6686.3187553361
 21
4825.1290300716
 31
0.0
  0
LINE
  5
452
330
1F
100
AcDbEntity
  8
0
  6
Continuous
 62
     7
370
    25
100
AcDbLine
 10
6666.3187553361
 20
4827.9095135229
 30
0.0
 11
6666.3187553361
 21
4825.1290300716
 31
0.0
  0
LINE
  5
453
330
1F
100
AcDbEntity
  8
0
  6
Continuous
 62
     7
370
    25
100
AcDbLine
 10
6686.3187553361
 20
4827.9095135229
 30
0.0
 11
6686.3187553361
 21
4825.1290300716
 31
0.0
  0
LINE
  5
454
330
1F
100
AcDbEntity
  8
0
  6
Continuous
 62
     7
370
    25
100
AcDbLine
 10
6676.3187553361
 20
4821.9244680991
 30
0.0
 11
6667.8187553361
 21
4817.016990811
 31
0.0
  0
LINE
  5
455
330
1F
100
AcDbEntity
  8
0
  6
Continuous
 62
     7
370
    25
100
AcDbLine
 10
6684.8187553361
 20
4817.016990811
 30
0.0
 11
6676.3187553361
 21
4821.9244680991
 31
0.0
  0
LINE
  5
456
330
1F
100
AcDbEntity
  8
0
  6
Continuous
 62
     7
370
    25
100
AcDbLine
 10
6684.8187553361
 20
4807.2020362348
 30
0.0
 11
6684.8187553361
 21
4817.016990811
 31
0.0
  0
LINE
  5
457
330
1F
100
AcDbEntity
  8
0
  6
Continuous
 62
     7
370
    25
100
AcDbLine
 10
6676.3187553361
 20
4802.2945589467
 30
0.0
 11
6684.8187553361
 21
4807.2020362348
 31
0.0
  0
LINE
  5
458
330
1F
100
AcDbEntity
  8
0
  6
Continuous
 62
     7
370
    25
100
AcDbLine
 10
6667.8187553361
 20
4807.2020362348
 30
0.0
 11
6676.3187553361
 21
4802.2945589467
 31
0.0
  0
LINE
  5
459
330
1F
100
AcDbEntity
  8
0
  6
Continuous
 62
     7
370
    25
100
AcDbLine
 10
6667.8187553361
 20
4817.016990811
 30
0.0
 11
6667.8187553361
 21
4807.2020362348
 31
0.0
  0
LINE
  5
45A
330
1F
100
AcDbEntity
  8
0
  6
Continuous
 62
     7
370
    25
100
AcDbLine
 10
5880.2187553361
 20
4807.2020362348
 30
0.0
 11
5871.7187553361
 21
4802.2945589467
 31
0.0
  0
LINE
  5
45B
330
1F
100
AcDbEntity
  8
0
  6
Continuous
 62
     7
370
    25
100
AcDbLine
 10
5871.7187553361
 20
4802.2945589467
 30
0.0
 11
5863.2187553361
 21
4807.2020362348
 31
0.0
  0
LINE
  5
45C
330
1F
100
AcDbEntity
  8
0
  6
Continuous
 62
     7
370
    25
100
AcDbLine
 10
5863.2187553361
 20
4807.2020362348
 30
0.0
 11
5863.2187553361
 21
4817.016990811
 31
0.0
  0
LINE
  5
45D
330
1F
100
AcDbEntity
  8
0
  6
Continuous
 62
     7
370
    25
100
AcDbLine
 10
5863.2187553361
 20
4817.016990811
 30
0.0
 11
5871.7187553361
 21
4821.9244680991
 31
0.0
  0
LINE
  5
45E
330
1F
100
AcDbEntity
  8
0
  6
Continuous
 62
     7
370
    25
100
AcDbLine
 10
5880.2187553361
 20
4817.016990811
 30
0.0
 11
5880.2187553361
 21
4807.2020362348
 31
0.0
  0
LINE
  5
45F
330
1F
100
AcDbEntity
  8
0
  6
Continuous
 62
     7
370
    25
100
AcDbLine
 10
5871.7187553361
 20
4821.9244680991
 30
0.0
 11
5880.2187553361
 21
4817.016990811
 31
0.0
  0
LINE
  5
460
330
1F
100
AcDbEntity
  8
0
  6
Continuous
 62
     7
370
    25
100
AcDbLine
 10
6666.3187553361
 20
4824.4677215102
 30
0.0
 11
6686.3187553361
 21
4824.4677215102
 31
0.0
  0
LINE
  5
461
330
1F
100
AcDbEntity
  8
0
  6
Continuous
 62
     7
370
    25
100
AcDbLine
 10
6666.3187553361
 20
4825.1290300716
 30
0.0
 11
6666.3187553361
 21
4824.4677215102
 31
0.0
  0
LINE
  5
462
330
1F
100
AcDbEntity
  8
0
  6
Continuous
 62
     7
370
    25
100
AcDbLine
 10
6686.3187553361
 20
4825.1290300716
 30
0.0
 11
6686.3187553361
 21
4824.4677215102
 31
0.0
  0
LINE
  5
463
330
1F
100
AcDbEntity
  8
0
  6
Continuous
 62
     7
370
    25
100
AcDbLine
 10
5881.7187553361
 20
4824.4677215102
 30
0.0
 11
5861.7187553361
 21
4824.4677215102
 31
0.0
  0
LINE
  5
464
330
1F
100
AcDbEntity
  8
0
  6
Continuous
 62
     7
370
    25
100
AcDbLine
 10
5881.7187553361
 20
4825.1290300716
 30
0.0
 11
5881.7187553361
 21
4824.4677215102
 31
0.0
  0
LINE
  5
465
330
1F
100
AcDbEntity
  8
0
  6
Continuous
 62
     7
370
    25
100
AcDbLine
 10
5861.7187553361
 20
4825.1290300716
 30
0.0
 11
5861.7187553361
 21
4824.4677215102
 31
0.0
  0
LINE
  5
466
330
1F
100
AcDbEntity
  8
0
  6
Continuous
 62
     7
370
    25
100
AcDbLine
 10
6678.3507325016
 20
4803.4677215102
 30
0.0
 11
6686.3187553361
 21
4803.4677215102
 31
0.0
  0
LINE
  5
467
330
1F
100
AcDbEntity
  8
0
  6
Continuous
 62
     7
370
    25
100
AcDbLine
 10
6666.3187553361
 20
4803.4677215102
 30
0.0
 11
6674.2867781706
 21
4803.4677215102
 31
0.0
  0
LINE
  5
468
330
1F
100
AcDbEntity
  8
0
  6
Continuous
 62
     7
370
    25
100
AcDbLine
 10
6666.3187553361
 20
4824.4677215102
 30
0.0
 11
6666.3187553361
 21
4803.4677215102
 31
0.0
  0
LINE
  5
469
330
1F
100
AcDbEntity
  8
0
  6
Continuous
 62
     7
370
    25
100
AcDbLine
 10
6686.3187553361
 20
4824.4677215102
 30
0.0
 11
6686.3187553361
 21
4803.4677215102
 31
0.0
  0
LINE
  5
46A
330
1F
100
AcDbEntity
  8
0
  6
Continuous
 62
     7
370
    25
100
AcDbLine
 10
5881.7187553361
 20
4803.4677215102
 30
0.0
 11
5873.7507325016
 21
4803.4677215102
 31
0.0
  0
LINE
  5
46B
330
1F
100
AcDbEntity
  8
0
  6
Continuous
 62
     7
370
    25
100
AcDbLine
 10
5869.6867781706
 20
4803.4677215102
 30
0.0
 11
5861.7187553361
 21
4803.4677215102
 31
0.0
  0
LINE
  5
46C
330
1F
100
AcDbEntity
  8
0
  6
Continuous
 62
     7
370
    25
100
AcDbLine
 10
5881.7187553361
 20
4824.4677215102
 30
0.0
 11
5881.7187553361
 21
4803.4677215102
 31
0.0
  0
LINE
  5
46D
330
1F
100
AcDbEntity
  8
0
  6
Continuous
 62
     7
370
    25
100
AcDbLine
 10
5861.7187553361
 20
4824.4677215102
 30
0.0
 11
5861.7187553361
 21
4803.4677215102
 31
0.0
  0
LINE
  5
46E
330
1F
100
AcDbEntity
  8
0
  6
Continuous
 62
     8
370
    25
100
AcDbLine
 10
6256.8187553361
 20
4899.1095135229
 30
0.0
 11
6256.5698549622
 21
4899.1095135229
 31
0.0
  0
LINE
  5
46F
330
1F
100
AcDbEntity
  8
0
  6
Continuous
 62
     8
370
    25
100
AcDbLine
 10
6292.1410335457
 20
4900.1122759539
 30
0.0
 11
6293.5130866637
 21
4900.1881959515
 31
0.0
  0
LINE
  5
470
330
1F
100
AcDbEntity
  8
0
  6
Continuous
 62
     8
370
    25
100
AcDbLine
 10
6292.0911099143
 20
4900.0595135229
 30
0.0
 11
6292.0911099143
 21
4898.1595135229
 31
0.0
  0
LINE
  5
471
330
1F
100
AcDbEntity
  8
0
  6
Continuous
 62
     8
370
    25
100
AcDbLine
 10
6291.9180741075
 20
4901.9095135229
 30
0.0
 11
6291.951476825
 21
4901.9095135229
 31
0.0
  0
LINE
  5
472
330
1F
100
AcDbEntity
  8
0
  6
Continuous
 62
     8
370
    25
100
AcDbLine
 10
6292.6180741075
 20
4898.2320661231
 30
0.0
 11
6292.6180741075
 21
4896.3095135229
 31
0.0
  0
LINE
  5
473
330
1F
100
AcDbEntity
  8
0
  6
Continuous
 62
     8
370
    25
100
AcDbLine
 10
6256.8187553361
 20
4903.3095135229
 30
0.0
 11
6256.5698549622
 21
4903.2872103705
 31
0.0
  0
LWPOLYLINE
  5
474
330
1F
100
AcDbEntity
  8
0
  6
Continuous
 62
     8
370
    25
100
AcDbPolyline
 90
        3
 70
   128
 43
0.0
 10
6291.6959044323
 20
4903.2254459607
 10
6291.4912005583
 20
4903.2826129155
 10
6291.2180741075
 20
4903.3095135229
  0
LINE
  5
475
330
1F
100
AcDbEntity
  8
0
  6
Continuous
 62
     8
370
    25
100
AcDbLine
 10
6256.5698549622
 20
4894.9318166753
 30
0.0
 11
6256.8187553361
 21
4894.9095135229
 31
0.0
  0
ELLIPSE
  5
476
330
1F
100
AcDbEntity
  8
0
  6
Continuous
 62
     8
370
    25
100
AcDbEllipse
 10
6271.7669387685
 20
4912.0535817493
 30
0.0
 11
7.431956459165121
 21
0.0
 31
0.0
210
0.0
220
0.0
230
1.0
 40
0.9998720779
 41
3.992304677407694
 42
4.187842385738499
  0
ELLIPSE
  5
477
330
1F
100
AcDbEntity
  8
0
  6
Continuous
 62
     8
370
    25
100
AcDbEllipse
 10
6271.7669387685
 20
4886.1654452965
 30
0.0
 11
7.431956459165121
 21
0.0
 31
0.0
210
0.0
220
0.0
230
1.0
 40
0.9998720779
 41
2.09534292144104
 42
2.290880629771825
  0
LINE
  5
478
330
1F
100
AcDbEntity
  8
0
  6
Continuous
 62
     8
370
    25
100
AcDbLine
 10
6299.5006555862
 20
4901.0324990011
 30
0.0
 11
6299.4507873026
 21
4901.6068848524
 31
0.0
  0
ARC
  5
479
330
1F
100
AcDbEntity
  8
0
  6
Continuous
 62
     8
370
    25
100
AcDbCircle
 10
6274.0187553361
 20
4899.1095135229
 30
0.0
 40
25.55435605731817
100
AcDbArc
 50
302.2791691738
 51
319.7167575731
  0
ARC
  5
47A
330
1F
100
AcDbEntity
  8
0
  6
Continuous
 62
     8
370
    25
100
AcDbCircle
 10
6274.0187553361
 20
4899.1095135229
 30
0.0
 40
25.55435605731812
100
AcDbArc
 50
339.2235000796
 51
355.6843677726
  0
ARC
  5
47B
330
1F
100
AcDbEntity
  8
0
  6
Continuous
 62
     8
370
    25
100
AcDbCircle
 10
6274.0187553361
 20
4899.1095135229
 30
0.0
 40
25.55435605731783
100
AcDbArc
 50
184.3156322274
 51
199.9906451919
  0
ARC
  5
47C
330
1F
100
AcDbEntity
  8
0
  6
Continuous
 62
     8
370
    25
100
AcDbCircle
 10
6274.0187553361
 20
4899.1095135229
 30
0.0
 40
25.55435605731797
100
AcDbArc
 50
148.3816335442
 51
175.6843677726
  0
LINE
  5
47D
330
1F
100
AcDbEntity
  8
0
  6
Continuous
 62
     8
370
    25
100
AcDbLine
 10
6257.3130379268
 20
4910.1965106745
 30
0.0
 11
6257.2530613701
 21
4910.1965106745
 31
0.0
  0
LINE
  5
47E
330
1F
100
AcDbEntity
  8
0
  6
Continuous
 62
     8
370
    25
100
AcDbLine
 10
6257.2530613701
 20
4888.0225163713
 30
0.0
 11
6257.4331894983
 21
4888.0225163713
 31
0.0
  0
LINE
  5
47F
330
1F
100
AcDbEntity
  8
0
  6
Continuous
 62
     8
370
    25
100
AcDbLine
 10
6256.8063387412
 20
4889.0231259156
 30
0.0
 11
6256.6327038857
 21
4889.0231259156
 31
0.0
  0
LINE
  5
480
330
1F
100
AcDbEntity
  8
0
  6
Continuous
 62
     8
370
    25
100
AcDbLine
 10
6256.6327038857
 20
4909.1959011302
 30
0.0
 11
6256.6905331239
 21
4909.1959011302
 31
0.0
  0
LINE
  5
481
330
1F
100
AcDbEntity
  8
0
  6
Continuous
 62
     8
370
    25
100
AcDbLine
 10
6257.5944271793
 20
4910.696206088
 30
0.0
 11
6257.6556549147
 21
4910.696206088
 31
0.0
  0
LINE
  5
482
330
1F
100
AcDbEntity
  8
0
  6
Continuous
 62
     8
370
    25
100
AcDbLine
 10
6257.7783410741
 20
4887.5228209578
 30
0.0
 11
6257.5944271793
 21
4887.5228209578
 31
0.0
  0
LINE
  5
483
330
1F
100
AcDbEntity
  8
0
  6
Continuous
 62
     8
370
    25
100
AcDbLine
 10
6259.2201071187
 20
4912.637355588
 30
0.0
 11
6259.1524347065
 21
4912.637355588
 31
0.0
  0
LINE
  5
484
330
1F
100
AcDbEntity
  8
0
  6
Continuous
 62
     8
370
    25
100
AcDbLine
 10
6261.2541967505
 20
4914.636137242
 30
0.0
 11
6261.3330761708
 21
4914.636137242
 31
0.0
  0
LINE
  5
485
330
1F
100
AcDbEntity
  8
0
  6
Continuous
 62
     8
370
    25
100
AcDbLine
 10
6267.8183579209
 20
4912.0044168122
 30
0.0
 11
6271.6944353979
 21
4908.1283393352
 31
0.0
  0
LINE
  5
486
330
1F
100
AcDbEntity
  8
0
  6
Continuous
 62
     8
370
    25
100
AcDbLine
 10
6270.5691560511
 20
4907.0030599884
 30
0.0
 11
6271.6944353979
 21
4908.1283393352
 31
0.0
  0
ARC
  5
487
330
1F
100
AcDbEntity
  8
0
  6
Continuous
 62
     8
370
    25
100
AcDbCircle
 10
6266.0187553361
 20
4902.4526592734
 30
0.0
 40
8.02662371911963
100
AcDbArc
 50
31.4538959629
 51
45.0
  0
ARC
  5
488
330
1F
100
AcDbEntity
  8
0
  6
Continuous
 62
     8
370
    25
100
AcDbCircle
 10
6266.0187553361
 20
4895.7663677724
 30
0.0
 40
8.02662371911963
100
AcDbArc
 50
315.0
 51
328.5461040371
  0
LINE
  5
489
330
1F
100
AcDbEntity
  8
0
  6
Continuous
 62
     8
370
    25
100
AcDbLine
 10
6271.6944353979
 20
4890.0906877106
 30
0.0
 11
6270.4888262086
 21
4891.2962968999
 31
0.0
  0
LINE
  5
48A
330
1F
100
AcDbEntity
  8
0
  6
Continuous
 62
     8
370
    25
100
AcDbLine
 10
6267.5375811484
 20
4885.9338334611
 30
0.0
 11
6266.8659495806
 21
4886.6054650289
 31
0.0
  0
LWPOLYLINE
  5
48B
330
1F
100
AcDbEntity
  8
0
  6
Continuous
 62
     8
370
    25
100
AcDbPolyline
 90
        3
 70
   128
 43
0.0
 10
6267.5375811484
 20
4885.9338334611
 10
6266.9539372685
 20
4885.4048494828
 10
6266.9000213621
 20
4885.3609911041
  0
LINE
  5
48C
330
1F
100
AcDbEntity
  8
0
  6
Continuous
 62
     8
370
    25
100
AcDbLine
 10
6694.6187553361
 20
4950.1095135229
 30
0.0
 11
6694.6187553361
 21
4953.5095135229
 31
0.0
  0
LINE
  5
48D
330
1F
100
AcDbEntity
  8
0
  6
Continuous
 62
     8
370
    25
100
AcDbLine
 10
5853.4187553361
 20
4950.1095135229
 30
0.0
 11
5853.4187553361
 21
4953.509512539
 31
0.0
  0
LINE
  5
48E
330
1F
100
AcDbEntity
  8
0
  6
Continuous
 62
     8
370
    25
100
AcDbLine
 10
5852.4187553361
 20
4949.1095135229
 30
0.0
 11
5849.0187553361
 21
4949.1095135229
 31
0.0
  0
LINE
  5
48F
330
1F
100
AcDbEntity
  8
0
  6
Continuous
 62
     8
370
    25
100
AcDbLine
 10
6695.6187553361
 20
4949.1095135229
 30
0.0
 11
6699.0187553361
 21
4949.1095135229
 31
0.0
  0
LINE
  5
490
330
1F
100
AcDbEntity
  8
0
  6
Continuous
 62
     8
370
    25
100
AcDbLine
 10
5852.4187553361
 20
4849.1095135229
 30
0.0
 11
5849.0187553361
 21
4849.1095135229
 31
0.0
  0
LINE
  5
491
330
1F
100
AcDbEntity
  8
0
  6
Continuous
 62
     8
370
    25
100
AcDbLine
 10
6695.6187553361
 20
4849.1095135229
 30
0.0
 11
6699.0187553361
 21
4849.1095135229
 31
0.0
  0
LINE
  5
492
330
1F
100
AcDbEntity
  8
0
  6
Continuous
 62
     8
370
    25
100
AcDbLine
 10
6694.6187553361
 20
4848.1095135229
 30
0.0
 11
6694.6187553361
 21
4844.7095135229
 31
0.0
  0
LINE
  5
493
330
1F
100
AcDbEntity
  8
0
  6
Continuous
 62
     8
370
    25
100
AcDbLine
 10
5853.4187553361
 20
4848.1095135229
 30
0.0
 11
5853.4187553361
 21
4844.7095135229
 31
0.0
  0
ARC
  5
494
330
1F
100
AcDbEntity
  8
0
  6
Continuous
 62
     8
370
    25
100
AcDbCircle
 10
6274.0187553361
 20
4899.1095135229
 30
0.0
 40
40.00000000000036
100
AcDbArc
 50
329.2304167715
 51
357.3863483382
  0
ARC
  5
495
330
1F
100
AcDbEntity
  8
0
  6
Continuous
 62
     8
370
    25
100
AcDbCircle
 10
6274.0187553361
 20
4899.1095135229
 30
0.0
 40
40.00000000000011
100
AcDbArc
 50
144.4033679863
 51
162.336498341
  0
ARC
  5
496
330
1F
100
AcDbEntity
  8
0
  6
Continuous
 62
     8
370
    25
100
AcDbCircle
 10
6274.0187553361
 20
4899.1095135229
 30
0.0
 40
35.20108727315835
100
AcDbArc
 50
313.5212375099
 51
328.1242233417
  0
ARC
  5
497
330
1F
100
AcDbEntity
  8
0
  6
Continuous
 62
     8
370
    25
100
AcDbCircle
 10
6274.0187553361
 20
4899.1095135229
 30
0.0
 40
35.20108727315826
100
AcDbArc
 50
347.5194416005
 51
357.8980633885
  0
ARC
  5
498
330
1F
100
AcDbEntity
  8
0
  6
Continuous
 62
     8
370
    25
100
AcDbCircle
 10
6274.0187553361
 20
4899.1095135229
 30
0.0
 40
35.20108727315857
100
AcDbArc
 50
155.8261349968
 51
188.5241279885
  0
ENDSEC
  0
SECTION
  2
OBJECTS
  0
DICTIONARY
  5
C
330
0
100
AcDbDictionary
281
     1
  3
ACAD_GROUP
350
D
  3
ACAD_LAYOUT
350
1A
  3
ACAD_MLINESTYLE
350
17
  3
ACAD_PLOTSETTINGS
350
19
  3
ACAD_PLOTSTYLENAME
350
E
  3
ACAD_SCALELIST
350
47
  3
DWGPROPS
350
499
  0
DICTIONARY
  5
D
102
{ACAD_REACTORS
330
C
102
}
330
C
100
AcDbDictionary
281
     1
  0
DICTIONARY
  5
1A
102
{ACAD_REACTORS
330
C
102
}
330
C
100
AcDbDictionary
281
     1
  3
Layout1
350
1E
  3
Layout2
350
26
  3
Model
350
22
  0
DICTIONARY
  5
17
102
{ACAD_REACTORS
330
C
102
}
330
C
100
AcDbDictionary
281
     1
  3
Standard
350
18
  0
DICTIONARY
  5
19
102
{ACAD_REACTORS
330
C
102
}
330
C
100
AcDbDictionary
281
     1
  0
ACDBDICTIONARYWDFLT
  5
E
102
{ACAD_REACTORS
330
C
102
}
330
C
100
AcDbDictionary
281
     1
  3
Normal
350
F
100
AcDbDictionaryWithDefault
340
F
  0
DICTIONARY
  5
47
102
{ACAD_REACTORS
330
C
102
}
330
C
100
AcDbDictionary
281
     1
  3
A0
350
48
  3
A1
350
49
  3
A2
350
4A
  3
A3
350
4B
  3
A4
350
4C
  3
A5
350
4D
  3
A6
350
4E
  3
A7
350
4F
  3
A8
350
50
  3
A9
350
51
  3
B0
350
52
  3
B1
350
53
  3
B2
350
54
  3
B3
350
55
  3
B4
350
56
  3
B5
350
57
  3
B6
350
58
  3
B7
350
59
  3
B8
350
5A
  3
B9
350
5B
  3
C0
350
5C
  3
C1
350
5D
  3
C2
350
5E
  3
C3
350
5F
  3
C4
350
60
  3
C5
350
61
  3
C6
350
62
  3
C7
350
63
  3
C8
350
64
  3
C9
350
65
  3
D0
350
66
  3
D1
350
67
  3
D2
350
68
  0
XRECORD
  5
499
102
{ACAD_REACTORS
330
C
102
}
330
C
100
AcDbXrecord
280
     1
  1
DWGPROPS COOKIE
  2

  3

  4

  6

  7

  8
radek.stransky
  9

300
=
301
=
302
=
303
=
304
=
305
=
306
=
307
=
308
=
309
=
 40
0.0
 41
2459108.260543206
 42
2459108.260543634
  1

 90
        0
  0
LAYOUT
  5
1E
102
{ACAD_REACTORS
330
1A
102
}
330
1A
100
AcDbPlotSettings
  1

  2
none_device
  4

  6

 40
0.0
 41
0.0
 42
0.0
 43
0.0
 44
0.0
 45
0.0
 46
0.0
 47
0.0
 48
0.0
 49
0.0
140
0.0
141
0.0
142
1.0
143
1.0
 70
   688
 72
     1
 73
     0
 74
     5
  7

 75
    16
147
1.0
148
0.0
149
0.0
100
AcDbLayout
  1
Layout1
 70
     1
 71
     1
 10
0.0
 20
0.0
 11
420.0
 21
297.0
 12
0.0
 22
0.0
 32
0.0
 14
1.0000000000E+20
 24
1.0000000000E+20
 34
1.0000000000E+20
 15
-1.0000000000E+20
 25
-1.0000000000E+20
 35
-1.0000000000E+20
146
0.0
 13
0.0
 23
0.0
 33
0.0
 16
1.0
 26
0.0
 36
0.0
 17
0.0
 27
1.0
 37
0.0
 76
     0
330
1B
  0
LAYOUT
  5
26
102
{ACAD_REACTORS
330
1A
102
}
330
1A
100
AcDbPlotSettings
  1

  2
none_device
  4

  6

 40
0.0
 41
0.0
 42
0.0
 43
0.0
 44
0.0
 45
0.0
 46
0.0
 47
0.0
 48
0.0
 49
0.0
140
0.0
141
0.0
142
1.0
143
1.0
 70
   688
 72
     1
 73
     0
 74
     5
  7

 75
    16
147
1.0
148
0.0
149
0.0
100
AcDbLayout
  1
Layout2
 70
     1
 71
     2
 10
0.0
 20
0.0
 11
0.0
 21
0.0
 12
0.0
 22
0.0
 32
0.0
 14
0.0
 24
0.0
 34
0.0
 15
0.0
 25
0.0
 35
0.0
146
0.0
 13
0.0
 23
0.0
 33
0.0
 16
1.0
 26
0.0
 36
0.0
 17
0.0
 27
1.0
 37
0.0
 76
     0
330
23
  0
LAYOUT
  5
22
102
{ACAD_REACTORS
330
1A
102
}
330
1A
100
AcDbPlotSettings
  1

  2
none_device
  4
Letter_(8.50_x_11.00_Inches)
  6

 40
6.35
 41
6.35
 42
6.35000508
 43
6.35000508
 44
215.9
 45
279.4
 46
0.0
 47
0.0
 48
0.0
 49
0.0
140
0.0
141
0.0
142
1.0
143
1.0
 70
  1712
 72
     1
 73
     0
 74
     0
  7

 75
     0
147
1.0
148
0.0
149
0.0
100
AcDbLayout
  1
Model
 70
     1
 71
     0
 10
0.0
 20
0.0
 11
20000.0
 21
10000.0
 12
0.0
 22
0.0
 32
0.0
 14
0.0
 24
0.0
 34
0.0
 15
20000.0
 25
10000.0
 35
0.0
146
0.0
 13
0.0
 23
0.0
 33
0.0
 16
1.0
 26
0.0
 36
0.0
 17
0.0
 27
1.0
 37
0.0
 76
     0
330
1F
331
29
  0
MLINESTYLE
  5
18
102
{ACAD_REACTORS
330
17
102
}
330
17
100
AcDbMlineStyle
  2
Standard
 70
     0
  3

 62
   256
 51
90.0
 52
90.0
 71
     2
 49
0.5
 62
   256
  6
BYLAYER
 49
-0.5
 62
   256
  6
BYLAYER
  0
ACDBPLACEHOLDER
  5
F
102
{ACAD_REACTORS
330
E
102
}
330
E
  0
SCALE
  5
48
102
{ACAD_REACTORS
330
47
102
}
330
47
100
AcDbScale
 70
     0
300
1:1
140
1.0
141
1.0
290
     1
  0
SCALE
  5
49
102
{ACAD_REACTORS
330
47
102
}
330
47
100
AcDbScale
 70
     0
300
1:2
140
1.0
141
2.0
290
     0
  0
SCALE
  5
4A
102
{ACAD_REACTORS
330
47
102
}
330
47
100
AcDbScale
 70
     0
300
1:4
140
1.0
141
4.0
290
     0
  0
SCALE
  5
4B
102
{ACAD_REACTORS
330
47
102
}
330
47
100
AcDbScale
 70
     0
300
1:5
140
1.0
141
5.0
290
     0
  0
SCALE
  5
4C
102
{ACAD_REACTORS
330
47
102
}
330
47
100
AcDbScale
 70
     0
300
1:8
140
1.0
141
8.0
290
     0
  0
SCALE
  5
4D
102
{ACAD_REACTORS
330
47
102
}
330
47
100
AcDbScale
 70
     0
300
1:10
140
1.0
141
10.0
290
     0
  0
SCALE
  5
4E
102
{ACAD_REACTORS
330
47
102
}
330
47
100
AcDbScale
 70
     0
300
1:16
140
1.0
141
16.0
290
     0
  0
SCALE
  5
4F
102
{ACAD_REACTORS
330
47
102
}
330
47
100
AcDbScale
 70
     0
300
1:20
140
1.0
141
20.0
290
     0
  0
SCALE
  5
50
102
{ACAD_REACTORS
330
47
102
}
330
47
100
AcDbScale
 70
     0
300
1:30
140
1.0
141
30.0
290
     0
  0
SCALE
  5
51
102
{ACAD_REACTORS
330
47
102
}
330
47
100
AcDbScale
 70
     0
300
1:40
140
1.0
141
40.0
290
     0
  0
SCALE
  5
52
102
{ACAD_REACTORS
330
47
102
}
330
47
100
AcDbScale
 70
     0
300
1:50
140
1.0
141
50.0
290
     0
  0
SCALE
  5
53
102
{ACAD_REACTORS
330
47
102
}
330
47
100
AcDbScale
 70
     0
300
1:100
140
1.0
141
100.0
290
     0
  0
SCALE
  5
54
102
{ACAD_REACTORS
330
47
102
}
330
47
100
AcDbScale
 70
     0
300
2:1
140
2.0
141
1.0
290
     0
  0
SCALE
  5
55
102
{ACAD_REACTORS
330
47
102
}
330
47
100
AcDbScale
 70
     0
300
4:1
140
4.0
141
1.0
290
     0
  0
SCALE
  5
56
102
{ACAD_REACTORS
330
47
102
}
330
47
100
AcDbScale
 70
     0
300
8:1
140
8.0
141
1.0
290
     0
  0
SCALE
  5
57
102
{ACAD_REACTORS
330
47
102
}
330
47
100
AcDbScale
 70
     0
300
10:1
140
10.0
141
1.0
290
     0
  0
SCALE
  5
58
102
{ACAD_REACTORS
330
47
102
}
330
47
100
AcDbScale
 70
     0
300
100:1
140
100.0
141
1.0
290
     0
  0
SCALE
  5
59
102
{ACAD_REACTORS
330
47
102
}
330
47
100
AcDbScale
 70
     0
300
1/128" = 1'-0"
140
0.0078125
141
12.0
290
     0
  0
SCALE
  5
5A
102
{ACAD_REACTORS
330
47
102
}
330
47
100
AcDbScale
 70
     0
300
1/64" = 1'-0"
140
0.015625
141
12.0
290
     0
  0
SCALE
  5
5B
102
{ACAD_REACTORS
330
47
102
}
330
47
100
AcDbScale
 70
     0
300
1/32" = 1'-0"
140
0.03125
141
12.0
290
     0
  0
SCALE
  5
5C
102
{ACAD_REACTORS
330
47
102
}
330
47
100
AcDbScale
 70
     0
300
1/16" = 1'-0"
140
0.0625
141
12.0
290
     0
  0
SCALE
  5
5D
102
{ACAD_REACTORS
330
47
102
}
330
47
100
AcDbScale
 70
     0
300
3/32" = 1'-0"
140
0.09375
141
12.0
290
     0
  0
SCALE
  5
5E
102
{ACAD_REACTORS
330
47
102
}
330
47
100
AcDbScale
 70
     0
300
1/8" = 1'-0"
140
0.125
141
12.0
290
     0
  0
SCALE
  5
5F
102
{ACAD_REACTORS
330
47
102
}
330
47
100
AcDbScale
 70
     0
300
3/16" = 1'-0"
140
0.1875
141
12.0
290
     0
  0
SCALE
  5
60
102
{ACAD_REACTORS
330
47
102
}
330
47
100
AcDbScale
 70
     0
300
1/4" = 1'-0"
140
0.25
141
12.0
290
     0
  0
SCALE
  5
61
102
{ACAD_REACTORS
330
47
102
}
330
47
100
AcDbScale
 70
     0
300
3/8" = 1'-0"
140
0.375
141
12.0
290
     0
  0
SCALE
  5
62
102
{ACAD_REACTORS
330
47
102
}
330
47
100
AcDbScale
 70
     0
300
1/2" = 1'-0"
140
0.5
141
12.0
290
     0
  0
SCALE
  5
63
102
{ACAD_REACTORS
330
47
102
}
330
47
100
AcDbScale
 70
     0
300
3/4" = 1'-0"
140
0.75
141
12.0
290
     0
  0
SCALE
  5
64
102
{ACAD_REACTORS
330
47
102
}
330
47
100
AcDbScale
 70
     0
300
1" = 1'-0"
140
1.0
141
12.0
290
     0
  0
SCALE
  5
65
102
{ACAD_REACTORS
330
47
102
}
330
47
100
AcDbScale
 70
     0
300
1-1/2" = 1'-0"
140
1.5
141
12.0
290
     0
  0
SCALE
  5
66
102
{ACAD_REACTORS
330
47
102
}
330
47
100
AcDbScale
 70
     0
300
3" = 1'-0"
140
3.0
141
12.0
290
     0
  0
SCALE
  5
67
102
{ACAD_REACTORS
330
47
102
}
330
47
100
AcDbScale
 70
     0
300
6" = 1'-0"
140
6.0
141
12.0
290
     0
  0
SCALE
  5
68
102
{ACAD_REACTORS
330
47
102
}
330
47
100
AcDbScale
 70
     0
300
1'-0" = 1'-0"
140
12.0
141
12.0
290
     0
  0
ENDSEC
  0
EOF
