  0
SECTION
  2
HEADER
  9
$ACADVER
  1
AC1015
  9
$ACADMAINTVER
 70
     6
  9
$DWGCODEPAGE
  3
ANSI_1250
  9
$INSBASE
 10
0.0
 20
0.0
 30
0.0
  9
$EXTMIN
 10
0.0
 20
0.0
 30
0.0
  9
$EXTMAX
 10
20000.0
 20
10000.0
 30
0.0
  9
$LIMMIN
 10
0.0
 20
0.0
  9
$LIMMAX
 10
20000.0
 20
10000.0
  9
$ORTHOMODE
 70
     0
  9
$REGENMODE
 70
     1
  9
$FILLMODE
 70
     1
  9
$QTEXTMODE
 70
     0
  9
$MIRRTEXT
 70
     1
  9
$LTSCALE
 40
1.0
  9
$ATTMODE
 70
     1
  9
$TEXTSIZE
 40
2.0
  9
$TRACEWID
 40
1.0
  9
$TEXTSTYLE
  7
Standard
  9
$CLAYER
  8
0
  9
$CELTYPE
  6
ByLayer
  9
$CECOLOR
 62
   256
  9
$CELTSCALE
 40
1.0
  9
$DISPSILH
 70
     0
  9
$DIMSCALE
 40
1.0
  9
$DIMASZ
 40
2.0
  9
$DIMEXO
 40
1.0
  9
$DIMDLI
 40
3.75
  9
$DIMRND
 40
0.0
  9
$DIMDLE
 40
0.0
  9
$DIMEXE
 40
1.0
  9
$DIMTP
 40
0.0
  9
$DIMTM
 40
0.0
  9
$DIMTXT
 40
2.0
  9
$DIMCEN
 40
2.5
  9
$DIMTSZ
 40
0.0
  9
$DIMTOL
 70
     0
  9
$DIMLIM
 70
     0
  9
$DIMTIH
 70
     1
  9
$DIMTOH
 70
     1
  9
$DIMSE1
 70
     0
  9
$DIMSE2
 70
     0
  9
$DIMTAD
 70
     1
  9
$DIMZIN
 70
     0
  9
$DIMBLK
  1

  9
$DIMASO
 70
     1
  9
$DIMSHO
 70
     1
  9
$DIMPOST
  1

  9
$DIMAPOST
  1

  9
$DIMALT
 70
     0
  9
$DIMALTD
 70
     3
  9
$DIMALTF
 40
0.0393700787
  9
$DIMLFAC
 40
1.0
  9
$DIMTOFL
 70
     1
  9
$DIMTVP
 40
0.0
  9
$DIMTIX
 70
     0
  9
$DIMSOXD
 70
     0
  9
$DIMSAH
 70
     0
  9
$DIMBLK1
  1

  9
$DIMBLK2
  1

  9
$DIMSTYLE
  2
ISO-25
  9
$DIMCLRD
 70
     0
  9
$DIMCLRE
 70
     0
  9
$DIMCLRT
 70
     0
  9
$DIMTFAC
 40
1.0
  9
$DIMGAP
 40
1.524
  9
$DIMJUST
 70
     0
  9
$DIMSD1
 70
     0
  9
$DIMSD2
 70
     0
  9
$DIMTOLJ
 70
     0
  9
$DIMTZIN
 70
     0
  9
$DIMALTZ
 70
     0
  9
$DIMALTTZ
 70
     0
  9
$DIMUPT
 70
     0
  9
$DIMDEC
 70
     2
  9
$DIMTDEC
 70
     0
  9
$DIMALTU
 70
     2
  9
$DIMALTTD
 70
     3
  9
$DIMTXSTY
  7
Standard
  9
$DIMAUNIT
 70
     0
  9
$DIMADEC
 70
     2
  9
$DIMALTRND
 40
0.0
  9
$DIMAZIN
 70
     0
  9
$DIMDSEP
 70
    44
  9
$DIMATFIT
 70
     3
  9
$DIMFRAC
 70
     0
  9
$DIMLDRBLK
  1

  9
$DIMLUNIT
 70
     2
  9
$DIMLWD
 70
    -2
  9
$DIMLWE
 70
    -2
  9
$DIMTMOVE
 70
     0
  9
$LUNITS
 70
     2
  9
$LUPREC
 70
     3
  9
$SKETCHINC
 40
1.0
  9
$FILLETRAD
 40
10.0
  9
$AUNITS
 70
     0
  9
$AUPREC
 70
     2
  9
$MENU
  1
.
  9
$ELEVATION
 40
0.0
  9
$PELEVATION
 40
0.0
  9
$THICKNESS
 40
0.0
  9
$LIMCHECK
 70
     0
  9
$CHAMFERA
 40
0.0
  9
$CHAMFERB
 40
0.0
  9
$CHAMFERC
 40
0.0
  9
$CHAMFERD
 40
0.0
  9
$SKPOLY
 70
     0
  9
$TDCREATE
 40
2459107.529422801
  9
$TDUCREATE
 40
2459107.446089467
  9
$TDUPDATE
 40
2459107.529423171
  9
$TDUUPDATE
 40
2459107.446089838
  9
$TDINDWG
 40
0.0000000116
  9
$TDUSRTIMER
 40
0.0000000116
  9
$USRTIMER
 70
     1
  9
$ANGBASE
 50
0.0
  9
$ANGDIR
 70
     0
  9
$PDMODE
 70
     0
  9
$PDSIZE
 40
-1.0
  9
$PLINEWID
 40
0.0
  9
$SPLFRAME
 70
     0
  9
$SPLINETYPE
 70
     6
  9
$SPLINESEGS
 70
     8
  9
$HANDSEED
  5
49C
  9
$SURFTAB1
 70
     6
  9
$SURFTAB2
 70
     6
  9
$SURFTYPE
 70
     6
  9
$SURFU
 70
     6
  9
$SURFV
 70
     6
  9
$UCSBASE
  2

  9
$UCSNAME
  2

  9
$UCSORG
 10
0.0
 20
0.0
 30
0.0
  9
$UCSXDIR
 10
1.0
 20
0.0
 30
0.0
  9
$UCSYDIR
 10
0.0
 20
1.0
 30
0.0
  9
$UCSORTHOREF
  2

  9
$UCSORTHOVIEW
 70
     0
  9
$UCSORGTOP
 10
0.0
 20
0.0
 30
0.0
  9
$UCSORGBOTTOM
 10
0.0
 20
0.0
 30
0.0
  9
$UCSORGLEFT
 10
0.0
 20
0.0
 30
0.0
  9
$UCSORGRIGHT
 10
0.0
 20
0.0
 30
0.0
  9
$UCSORGFRONT
 10
0.0
 20
0.0
 30
0.0
  9
$UCSORGBACK
 10
0.0
 20
0.0
 30
0.0
  9
$PUCSBASE
  2

  9
$PUCSNAME
  2

  9
$PUCSORG
 10
0.0
 20
0.0
 30
0.0
  9
$PUCSXDIR
 10
1.0
 20
0.0
 30
0.0
  9
$PUCSYDIR
 10
0.0
 20
1.0
 30
0.0
  9
$PUCSORTHOREF
  2

  9
$PUCSORTHOVIEW
 70
     0
  9
$PUCSORGTOP
 10
0.0
 20
0.0
 30
0.0
  9
$PUCSORGBOTTOM
 10
0.0
 20
0.0
 30
0.0
  9
$PUCSORGLEFT
 10
0.0
 20
0.0
 30
0.0
  9
$PUCSORGRIGHT
 10
0.0
 20
0.0
 30
0.0
  9
$PUCSORGFRONT
 10
0.0
 20
0.0
 30
0.0
  9
$PUCSORGBACK
 10
0.0
 20
0.0
 30
0.0
  9
$USERI1
 70
     0
  9
$USERI2
 70
     0
  9
$USERI3
 70
     0
  9
$USERI4
 70
     0
  9
$USERI5
 70
     0
  9
$USERR1
 40
0.0
  9
$USERR2
 40
0.0
  9
$USERR3
 40
0.0
  9
$USERR4
 40
0.0
  9
$USERR5
 40
0.0
  9
$WORLDVIEW
 70
     1
  9
$SHADEDGE
 70
     3
  9
$SHADEDIF
 70
    70
  9
$TILEMODE
 70
     1
  9
$MAXACTVP
 70
    64
  9
$PINSBASE
 10
0.0
 20
0.0
 30
0.0
  9
$PLIMCHECK
 70
     0
  9
$PEXTMIN
 10
1.0000000000E+20
 20
1.0000000000E+20
 30
1.0000000000E+20
  9
$PEXTMAX
 10
-1.0000000000E+20
 20
-1.0000000000E+20
 30
-1.0000000000E+20
  9
$PLIMMIN
 10
0.0
 20
0.0
  9
$PLIMMAX
 10
420.0
 20
297.0
  9
$UNITMODE
 70
     0
  9
$VISRETAIN
 70
     1
  9
$PLINEGEN
 70
     0
  9
$PSLTSCALE
 70
     1
  9
$TREEDEPTH
 70
  3020
  9
$CMLSTYLE
  2
Standard
  9
$CMLJUST
 70
     0
  9
$CMLSCALE
 40
20.0
  9
$PROXYGRAPHICS
 70
     1
  9
$MEASUREMENT
 70
     1
  9
$CELWEIGHT
370
    -1
  9
$ENDCAPS
280
     0
  9
$JOINSTYLE
280
     0
  9
$LWDISPLAY
290
     1
  9
$INSUNITS
 70
     4
  9
$HYPERLINKBASE
  1

  9
$STYLESHEET
  1

  9
$XEDIT
290
     1
  9
$CEPSNTYPE
380
     0
  9
$PSTYLEMODE
290
     1
  9
$FINGERPRINTGUID
  2
{61a66c4d-f50e-4335-8aa1-bcbee44bb5ac}
  9
$VERSIONGUID
  2
{FAEB1C32-E019-11D5-929B-00C0DF256EC4}
  9
$EXTNAMES
290
     1
  9
$PSVPSCALE
 40
0.0
  9
$OLESTARTUP
290
     0
  0
ENDSEC
  0
SECTION
  2
CLASSES
  0
CLASS
  1
ACDBDICTIONARYWDFLT
  2
AcDbDictionaryWithDefault
  3
ObjectDBX Classes
 90
        0
280
     0
281
     0
  0
CLASS
  1
VISUALSTYLE
  2
AcDbVisualStyle
  3
ObjectDBX Classes
 90
     4095
280
     0
281
     0
  0
CLASS
  1
MATERIAL
  2
AcDbMaterial
  3
ObjectDBX Classes
 90
     1153
280
     0
281
     0
  0
CLASS
  1
SCALE
  2
AcDbScale
  3
ObjectDBX Classes
 90
     1153
280
     0
281
     0
  0
CLASS
  1
TABLESTYLE
  2
AcDbTableStyle
  3
ObjectDBX Classes
 90
     4095
280
     0
281
     0
  0
CLASS
  1
MLEADERSTYLE
  2
AcDbMLeaderStyle
  3
ACDB_MLEADERSTYLE_CLASS
 90
     4095
280
     0
281
     0
  0
CLASS
  1
SUN
  2
AcDbSun
  3
SCENEOE
 90
     1153
280
     0
281
     0
  0
CLASS
  1
ACDBPLACEHOLDER
  2
AcDbPlaceHolder
  3
ObjectDBX Classes
 90
        0
280
     0
281
     0
  0
CLASS
  1
LAYOUT
  2
AcDbLayout
  3
ObjectDBX Classes
 90
        0
280
     0
281
     0
  0
ENDSEC
  0
SECTION
  2
TABLES
  0
TABLE
  2
VPORT
  5
8
330
0
100
AcDbSymbolTable
 70
     1
  0
VPORT
  5
29
330
8
100
AcDbSymbolTableRecord
100
AcDbViewportTableRecord
  2
*Active
 70
     0
 10
0.0
 20
0.0
 11
1.0
 21
1.0
 12
10000.0
 22
5000.0
 13
0.0
 23
0.0
 14
10.0
 24
10.0
 15
10.0
 25
10.0
 16
0.0
 26
0.0
 36
1.0
 17
0.0
 27
0.0
 37
0.0
 40
10000.0
 41
2.0
 42
50.0
 43
0.0
 44
0.0
 50
0.0
 51
0.0
 71
     0
 72
  2000
 73
     1
 74
     3
 75
     0
 76
     0
 77
     0
 78
     0
281
     0
 65
     1
110
0.0
120
0.0
130
0.0
111
1.0
121
0.0
131
0.0
112
0.0
122
1.0
132
0.0
 79
     0
146
0.0
  0
ENDTAB
  0
TABLE
  2
LTYPE
  5
5
330
0
100
AcDbSymbolTable
 70
     6
  0
LTYPE
  5
14
330
5
100
AcDbSymbolTableRecord
100
AcDbLinetypeTableRecord
  2
ByBlock
 70
     0
  3

 72
    65
 73
     0
 40
0.0
  0
LTYPE
  5
15
330
5
100
AcDbSymbolTableRecord
100
AcDbLinetypeTableRecord
  2
ByLayer
 70
     0
  3

 72
    65
 73
     0
 40
0.0
  0
LTYPE
  5
16
330
5
100
AcDbSymbolTableRecord
100
AcDbLinetypeTableRecord
  2
Continuous
 70
     0
  3
Solid line
 72
    65
 73
     0
 40
0.0
  0
LTYPE
  5
6E
330
5
100
AcDbSymbolTableRecord
100
AcDbLinetypeTableRecord
  2
HIDDEN
 70
     0
  3
Hidden __ __ __ __ __ __ __ __ __ __ __ __ __ __
 72
    65
 73
     2
 40
1.905
 49
1.27
 74
     0
 49
-0.635
 74
     0
  0
LTYPE
  5
6F
330
5
100
AcDbSymbolTableRecord
100
AcDbLinetypeTableRecord
  2
PHANTOM
 70
     0
  3
Phantom ______  __  __  ______  __  __  ______
 72
    65
 73
     6
 40
12.7
 49
6.35
 74
     0
 49
-1.27
 74
     0
 49
1.27
 74
     0
 49
-1.27
 74
     0
 49
1.27
 74
     0
 49
-1.27
 74
     0
  0
LTYPE
  5
70
330
5
100
AcDbSymbolTableRecord
100
AcDbLinetypeTableRecord
  2
CENTER
 70
     0
  3
Center ____ _ ____ _ ____ _ ____ _ ____ _ ____
 72
    65
 73
     4
 40
10.16
 49
6.35
 74
     0
 49
-1.27
 74
     0
 49
1.27
 74
     0
 49
-1.27
 74
     0
  0
LTYPE
  5
71
330
5
100
AcDbSymbolTableRecord
100
AcDbLinetypeTableRecord
  2
CENTERX2
 70
     0
  3
Center (2x) ________  __  ________  __  _____
 72
    65
 73
     4
 40
20.32
 49
12.7
 74
     0
 49
-2.54
 74
     0
 49
2.54
 74
     0
 49
-2.54
 74
     0
  0
LTYPE
  5
72
330
5
100
AcDbSymbolTableRecord
100
AcDbLinetypeTableRecord
  2
DOT2
 70
     0
  3
Dot (.5x) ........................................
 72
    65
 73
     2
 40
0.635
 49
0.0
 74
     0
 49
-0.635
 74
     0
  0
ENDTAB
  0
TABLE
  2
LAYER
  5
2
330
0
100
AcDbSymbolTable
 70
    13
  0
LAYER
  5
10
330
2
100
AcDbSymbolTableRecord
100
AcDbLayerTableRecord
  2
0
 70
     0
 62
     7
  6
Continuous
370
    -3
390
F
  0
LAYER
  5
73
330
2
100
AcDbSymbolTableRecord
100
AcDbLayerTableRecord
  2
FORMAT
 70
     0
 62
     7
  6
Continuous
370
    -3
390
F
  0
LAYER
  5
74
330
2
100
AcDbSymbolTableRecord
100
AcDbLayerTableRecord
  2
OSA
 70
     0
 62
     7
  6
CENTER
370
    -3
390
F
  0
LAYER
  5
75
330
2
100
AcDbSymbolTableRecord
100
AcDbLayerTableRecord
  2
0_35
 70
     0
 62
     7
  6
Continuous
370
    35
390
F
  0
LAYER
  5
76
330
2
100
AcDbSymbolTableRecord
100
AcDbLayerTableRecord
  2
0_5
 70
     0
 62
     7
  6
Continuous
370
    50
390
F
  0
LAYER
  5
77
330
2
100
AcDbSymbolTableRecord
100
AcDbLayerTableRecord
  2
0_25
 70
     0
 62
     7
  6
Continuous
370
    25
390
F
  0
LAYER
  5
78
330
2
100
AcDbSymbolTableRecord
100
AcDbLayerTableRecord
  2
0_18
 70
     0
 62
     7
  6
Continuous
370
    -3
390
F
  0
LAYER
  5
79
330
2
100
AcDbSymbolTableRecord
100
AcDbLayerTableRecord
  2
SLD-0
 70
     0
 62
   179
  6
Continuous
370
    -3
390
F
  0
LAYER
  5
7A
330
2
100
AcDbSymbolTableRecord
100
AcDbLayerTableRecord
  2
KOTY
 70
     0
 62
     7
  6
Continuous
370
    -3
390
F
  0
LAYER
  5
7B
330
2
100
AcDbSymbolTableRecord
100
AcDbLayerTableRecord
  2
SILNA
 70
     0
 62
   179
  6
Continuous
370
    -3
390
F
  0
LAYER
  5
7C
330
2
100
AcDbSymbolTableRecord
100
AcDbLayerTableRecord
  2
0_18_1
 70
     0
 62
   179
  6
Continuous
370
    -3
390
F
  0
LAYER
  5
7D
330
2
100
AcDbSymbolTableRecord
100
AcDbLayerTableRecord
  2
0_35_1
 70
     0
 62
   179
  6
Continuous
370
    35
390
F
  0
LAYER
  5
7E
330
2
100
AcDbSymbolTableRecord
100
AcDbLayerTableRecord
  2
0_5_1
 70
     0
 62
   179
  6
Continuous
370
    50
390
F
  0
ENDTAB
  0
TABLE
  2
STYLE
  5
3
330
0
100
AcDbSymbolTable
 70
     1
  0
STYLE
  5
11
330
3
100
AcDbSymbolTableRecord
100
AcDbTextStyleTableRecord
  2
Standard
 70
     0
 40
0.0
 41
1.0
 50
0.0
 71
     0
 42
2.0
  3
txt
  4

  0
ENDTAB
  0
TABLE
  2
VIEW
  5
6
330
0
100
AcDbSymbolTable
 70
     0
  0
ENDTAB
  0
TABLE
  2
UCS
  5
7
330
0
100
AcDbSymbolTable
 70
     0
  0
ENDTAB
  0
TABLE
  2
APPID
  5
9
330
0
100
AcDbSymbolTable
 70
     1
  0
APPID
  5
12
330
9
100
AcDbSymbolTableRecord
100
AcDbRegAppTableRecord
  2
ACAD
 70
     0
  0
ENDTAB
  0
TABLE
  2
DIMSTYLE
  5
A
330
0
100
AcDbSymbolTable
 70
     1
100
AcDbDimStyleTable
  0
DIMSTYLE
105
27
330
A
100
AcDbSymbolTableRecord
100
AcDbDimStyleTableRecord
  2
ISO-25
 70
     0
 41
2.5
 42
0.625
 43
3.75
 44
1.25
 73
     0
 74
     0
 77
     1
 78
     8
140
2.5
141
2.5
143
0.0393700787
147
0.625
171
     3
172
     1
178
     0
271
     2
272
     2
274
     3
278
    44
283
     0
284
     8
340
11
  0
ENDTAB
  0
TABLE
  2
BLOCK_RECORD
  5
1
330
0
100
AcDbSymbolTable
 70
     1
  0
BLOCK_RECORD
  5
1F
330
1
100
AcDbSymbolTableRecord
100
AcDbBlockTableRecord
  2
*Model_Space
340
22
  0
BLOCK_RECORD
  5
1B
330
1
100
AcDbSymbolTableRecord
100
AcDbBlockTableRecord
  2
*Paper_Space
340
1E
  0
BLOCK_RECORD
  5
23
330
1
100
AcDbSymbolTableRecord
100
AcDbBlockTableRecord
  2
*Paper_Space0
340
26
  0
ENDTAB
  0
ENDSEC
  0
SECTION
  2
BLOCKS
  0
BLOCK
  5
20
330
1F
100
AcDbEntity
  8
0
100
AcDbBlockBegin
  2
*Model_Space
 70
     0
 10
0.0
 20
0.0
 30
0.0
  3
*Model_Space
  1

  0
ENDBLK
  5
21
330
1F
100
AcDbEntity
  8
0
100
AcDbBlockEnd
  0
BLOCK
  5
1C
330
1B
100
AcDbEntity
 67
     1
  8
0
100
AcDbBlockBegin
  2
*Paper_Space
 70
     0
 10
0.0
 20
0.0
 30
0.0
  3
*Paper_Space
  1

  0
ENDBLK
  5
1D
330
1B
100
AcDbEntity
 67
     1
  8
0
100
AcDbBlockEnd
  0
BLOCK
  5
24
330
23
100
AcDbEntity
  8
0
100
AcDbBlockBegin
  2
*Paper_Space0
 70
     0
 10
0.0
 20
0.0
 30
0.0
  3
*Paper_Space0
  1

  0
ENDBLK
  5
25
330
23
100
AcDbEntity
  8
0
100
AcDbBlockEnd
  0
ENDSEC
  0
SECTION
  2
ENTITIES
  0
LINE
  5
7F
330
1F
100
AcDbEntity
  8
0
  6
Continuous
 62
     7
370
    25
100
AcDbLine
 10
6240.7687553361
 20
5255.4492860395
 30
0.0
 11
6240.7687553361
 21
5254.403793359
 31
0.0
  0
LINE
  5
80
330
1F
100
AcDbEntity
  8
0
  6
Continuous
 62
     7
370
    25
100
AcDbLine
 10
6307.2687553361
 20
5254.403793359
 30
0.0
 11
6307.2687553361
 21
5255.4492860395
 31
0.0
  0
LINE
  5
81
330
1F
100
AcDbEntity
  8
0
  6
Continuous
 62
     7
370
    25
100
AcDbLine
 10
6234.0187553361
 20
5252.895718745
 30
0.0
 11
6234.0187553361
 21
5252.3994295927
 31
0.0
  0
LINE
  5
82
330
1F
100
AcDbEntity
  8
0
  6
Continuous
 62
     7
370
    25
100
AcDbLine
 10
6314.0187553361
 20
5252.3994295927
 30
0.0
 11
6314.0187553361
 21
5252.895718745
 31
0.0
  0
ARC
  5
83
330
1F
100
AcDbEntity
  8
0
  6
Continuous
 62
     7
370
    25
100
AcDbCircle
 10
6234.6690973836
 20
5252.950488293
 30
0.0
 40
0.05476954799542
100
AcDbArc
 50
270.0
 51
330.0000000003
  0
ARC
  5
84
330
1F
100
AcDbEntity
  8
0
  6
Continuous
 62
     7
370
    25
100
AcDbCircle
 10
6313.3684132886
 20
5252.950488293
 30
0.0
 40
0.0547695479950149
100
AcDbArc
 50
209.9999999997
 51
270.0
  0
LINE
  5
85
330
1F
100
AcDbEntity
  8
0
  6
Continuous
 62
     7
370
    25
100
AcDbLine
 10
6313.3209814687
 20
5252.923103519
 30
0.0
 11
6313.0818700835
 21
5253.3372565868
 31
0.0
  0
LINE
  5
86
330
1F
100
AcDbEntity
  8
0
  6
Continuous
 62
     7
370
    25
100
AcDbLine
 10
6234.9556405887
 20
5253.3372565868
 30
0.0
 11
6234.7165292035
 21
5252.923103519
 31
0.0
  0
ARC
  5
87
330
1F
100
AcDbEntity
  8
0
  6
Continuous
 62
     7
370
    25
100
AcDbCircle
 10
6235.0504726402
 20
5253.2825052764
 30
0.0
 40
0.1095026209371498
100
AcDbArc
 50
90.0
 51
150.0000000001
  0
ARC
  5
88
330
1F
100
AcDbEntity
  8
0
  6
Continuous
 62
     7
370
    25
100
AcDbCircle
 10
6312.987038032
 20
5253.2825052764
 30
0.0
 40
0.1095026209377465
100
AcDbArc
 50
29.9999999999
 51
90.0
  0
LINE
  5
89
330
1F
100
AcDbEntity
  8
0
  6
Continuous
 62
     7
370
    25
100
AcDbLine
 10
6312.987038032
 20
5253.3920078973
 30
0.0
 11
6235.0504726402
 21
5253.3920078973
 31
0.0
  0
ARC
  5
8A
330
1F
100
AcDbEntity
  8
0
  6
Continuous
 62
     7
370
    25
100
AcDbCircle
 10
6314.0573135552
 20
5235.4613588722
 30
0.0
 40
6.853085275294285
100
AcDbArc
 50
305.7382565022
 51
359.7686518055
  0
LINE
  5
8B
330
1F
100
AcDbEntity
  8
0
  6
Continuous
 62
     7
370
    25
100
AcDbLine
 10
6320.940503559
 20
5235.4326640883
 30
0.0
 11
6321.0187553361
 21
5244.3994295927
 31
0.0
  0
ARC
  5
8C
330
1F
100
AcDbEntity
  8
0
  6
Continuous
 62
     7
370
    25
100
AcDbCircle
 10
6321.0187553361
 20
5247.3994295927
 30
0.0
 40
1.999999999999091
100
AcDbArc
 50
0.0
 51
90.0
  0
LINE
  5
8D
330
1F
100
AcDbEntity
  8
0
  6
Continuous
 62
     7
370
    25
100
AcDbLine
 10
6323.0187553361
 20
5244.3994295927
 30
0.0
 11
6323.0187553361
 21
5247.3994295927
 31
0.0
  0
LINE
  5
8E
330
1F
100
AcDbEntity
  8
0
  6
Continuous
 62
     7
370
    25
100
AcDbLine
 10
6315.7687553361
 20
5249.3994295927
 30
0.0
 11
6315.7687553361
 21
5252.3994295927
 31
0.0
  0
LINE
  5
8F
330
1F
100
AcDbEntity
  8
0
  6
Continuous
 62
     7
370
    25
100
AcDbLine
 10
6232.2687553361
 20
5252.3994295927
 30
0.0
 11
6232.2687553361
 21
5249.3994295927
 31
0.0
  0
LINE
  5
90
330
1F
100
AcDbEntity
  8
0
  6
Continuous
 62
     7
370
    25
100
AcDbLine
 10
6306.2595003184
 20
5177.2161909546
 30
0.0
 11
6307.4613636571
 21
5223.1135001483
 31
0.0
  0
ARC
  5
91
330
1F
100
AcDbEntity
  8
0
  6
Continuous
 62
     7
370
    25
100
AcDbCircle
 10
6299.2618990435
 20
5177.3994295927
 30
0.0
 40
6.999999999999502
100
AcDbArc
 50
270.0
 51
358.5
  0
ARC
  5
92
330
1F
100
AcDbEntity
  8
0
  6
Continuous
 62
     7
370
    25
100
AcDbCircle
 10
6142.4529357327
 20
5217.2502820412
 30
0.0
 40
26.99999999999926
100
AcDbArc
 50
228.2942528904
 51
287.8227912466
  0
ARC
  5
93
330
1F
100
AcDbEntity
  8
0
  6
Continuous
 62
     7
370
    25
100
AcDbCircle
 10
6142.4529357327
 20
5217.2502820412
 30
0.0
 40
27.00000000000122
100
AcDbArc
 50
73.1772087534
 51
132.7057471096
  0
ARC
  5
94
330
1F
100
AcDbEntity
  8
0
  6
Continuous
 62
     7
370
    25
100
AcDbCircle
 10
6207.0187553361
 20
5242.3278084955
 30
0.0
 40
2.000000000000287
100
AcDbArc
 50
0.5
 51
92.0154937467
  0
ARC
  5
95
330
1F
100
AcDbEntity
  8
0
  6
Continuous
 62
     7
370
    25
100
AcDbCircle
 10
6207.4465848332
 20
5193.3034039414
 30
0.0
 40
2.000000000000357
100
AcDbArc
 50
268.9845062533
 51
0.5
  0
LINE
  5
96
330
1F
100
AcDbEntity
  8
0
  6
Continuous
 62
     7
370
    25
100
AcDbLine
 10
6209.4465086793
 20
5193.3208570124
 30
0.0
 11
6209.0186791822
 21
5242.3452615665
 31
0.0
  0
LINE
  5
97
330
1F
100
AcDbEntity
  8
0
  6
Continuous
 62
     7
370
    25
100
AcDbLine
 10
6206.9484158409
 20
5244.3265712016
 30
0.0
 11
6181.9484158409
 21
5243.4467832338
 31
0.0
  0
LINE
  5
98
330
1F
100
AcDbEntity
  8
0
  6
Continuous
 62
     7
370
    25
100
AcDbLine
 10
6182.3995924741
 20
5191.7470618739
 30
0.0
 11
6207.4111392702
 21
5191.303718063
 31
0.0
  0
ARC
  5
99
330
1F
100
AcDbEntity
  8
0
  6
Continuous
 62
     7
370
    25
100
AcDbCircle
 10
6182.0187553361
 20
5241.4480205277
 30
0.0
 40
2.000000000000287
100
AcDbArc
 50
92.0154937467
 51
180.0
  0
ARC
  5
9A
330
1F
100
AcDbEntity
  8
0
  6
Continuous
 62
     7
370
    25
100
AcDbCircle
 10
6182.4350380371
 20
5193.7467477523
 30
0.0
 40
2.000000000000027
100
AcDbArc
 50
181.0
 51
268.9845062532
  0
LINE
  5
9B
330
1F
100
AcDbEntity
  8
0
  6
Continuous
 62
     7
370
    25
100
AcDbLine
 10
6180.0187553361
 20
5241.4480205277
 30
0.0
 11
6180.0187553361
 21
5237.5788755501
 31
0.0
  0
LINE
  5
9C
330
1F
100
AcDbEntity
  8
0
  6
Continuous
 62
     7
370
    25
100
AcDbLine
 10
6180.367816756
 20
5197.5803986275
 30
0.0
 11
6180.4353426467
 21
5193.7118429394
 31
0.0
  0
ARC
  5
9D
330
1F
100
AcDbEntity
  8
0
  6
Continuous
 62
     7
370
    25
100
AcDbCircle
 10
6158.4387992462
 20
5240.3548519475
 30
0.0
 40
0.25
100
AcDbArc
 50
90.0
 51
168.4999999998
  0
ARC
  5
9E
330
1F
100
AcDbEntity
  8
0
  6
Continuous
 62
     7
370
    25
100
AcDbCircle
 10
6158.8395948663
 20
5194.4282228602
 30
0.0
 40
0.2499999999996683
100
AcDbArc
 50
192.5000000002
 51
271.0000000001
  0
LINE
  5
9F
330
1F
100
AcDbEntity
  8
0
  6
Continuous
 62
     7
370
    25
100
AcDbLine
 10
6158.8439579679
 20
5194.1782609364
 30
0.0
 11
6159.6816489914
 21
5194.1928828876
 31
0.0
  0
LINE
  5
A0
330
1F
100
AcDbEntity
  8
0
  6
Continuous
 62
     7
370
    25
100
AcDbLine
 10
6159.2766178735
 20
5240.6048519475
 30
0.0
 11
6158.4387992462
 21
5240.6048519475
 31
0.0
  0
ARC
  5
A1
330
1F
100
AcDbEntity
  8
0
  6
Continuous
 62
     7
370
    25
100
AcDbCircle
 10
6159.2766178735
 20
5240.3548519475
 30
0.0
 40
0.25
100
AcDbArc
 50
10.5
 51
90.0
  0
ARC
  5
A2
330
1F
100
AcDbEntity
  8
0
  6
Continuous
 62
     7
370
    25
100
AcDbCircle
 10
6159.6772858898
 20
5194.4428448114
 30
0.0
 40
0.2500000000005312
100
AcDbArc
 50
271.0000000001
 51
350.4999999998
  0
LINE
  5
A3
330
1F
100
AcDbEntity
  8
0
  6
Continuous
 62
     7
370
    25
100
AcDbLine
 10
6158.19381807
 20
5240.4046939311
 30
0.0
 11
6157.7776256225
 21
5238.3590426963
 31
0.0
  0
LINE
  5
A4
330
1F
100
AcDbEntity
  8
0
  6
Continuous
 62
     7
370
    25
100
AcDbLine
 10
6158.1436902683
 20
5196.4121890691
 30
0.0
 11
6158.5955208645
 21
5194.3741129567
 31
0.0
  0
LINE
  5
A5
330
1F
100
AcDbEntity
  8
0
  6
Continuous
 62
     7
370
    25
100
AcDbLine
 10
6159.9238572901
 20
5194.4015829099
 30
0.0
 11
6160.4266870424
 21
5197.4063750249
 31
0.0
  0
LINE
  5
A6
330
1F
100
AcDbEntity
  8
0
  6
Continuous
 62
     7
370
    25
100
AcDbLine
 10
6160.0776256225
 20
5237.4048519475
 30
0.0
 11
6159.5224316004
 21
5240.4004108288
 31
0.0
  0
ARC
  5
A7
330
1F
100
AcDbEntity
  8
0
  6
Continuous
 62
     7
370
    25
100
AcDbCircle
 10
6142.4529357327
 20
5217.2502820412
 30
0.0
 40
23.99999999999999
100
AcDbArc
 50
290.0012723466
 51
303.9103151897
  0
ARC
  5
A8
330
1F
100
AcDbEntity
  8
0
  6
Continuous
 62
     7
370
    25
100
AcDbCircle
 10
6142.4529357327
 20
5217.2502820412
 30
0.0
 40
24.00000000000075
100
AcDbArc
 50
57.0896848103
 51
70.9987276534
  0
LINE
  5
A9
330
1F
100
AcDbEntity
  8
0
  6
Continuous
 62
     7
370
    25
100
AcDbLine
 10
6247.9587877665
 20
5199.7602920953
 30
0.0
 11
6248.5555511569
 21
5176.9708176516
 31
0.0
  0
LWPOLYLINE
  5
AA
330
1F
100
AcDbEntity
  8
0
  6
Continuous
 62
     7
370
    25
100
AcDbPolyline
 90
        7
 70
   128
 43
0.0
 10
6248.5546292297
 20
5177.0102427623
 10
6248.7298527927
 20
5175.85137039
 10
6249.682352959
 20
5173.9519580093
 10
6251.4345951168
 20
5172.2132892446
 10
6253.372505967
 20
5171.0942535688
 10
6254.5536721013
 20
5170.6770975743
 10
6256.5859270358
 20
5170.3994295927
  0
LINE
  5
AB
330
1F
100
AcDbEntity
  8
0
  6
Continuous
 62
     7
370
    25
100
AcDbLine
 10
6215.075531391
 20
5237.8848113999
 30
0.0
 11
6209.0580632208
 21
5237.8322977507
 31
0.0
  0
LINE
  5
AC
330
1F
100
AcDbEntity
  8
0
  6
Continuous
 62
     7
370
    25
100
AcDbLine
 10
6209.4071246407
 20
5197.8338208282
 30
0.0
 11
6216.6498673256
 21
5197.897027286
 31
0.0
  0
ARC
  5
AD
330
1F
100
AcDbEntity
  8
0
  6
Continuous
 62
     7
370
    25
100
AcDbCircle
 10
6156.3077385655
 20
5238.6580945979
 30
0.0
 40
1.500000000000748
100
AcDbArc
 50
237.0896848103
 51
348.5
  0
ARC
  5
AE
330
1F
100
AcDbEntity
  8
0
  6
Continuous
 62
     7
370
    25
100
AcDbCircle
 10
6156.6792462576
 20
5196.0875296482
 30
0.0
 40
1.50000000000058
100
AcDbArc
 50
12.5
 51
123.9103151897
  0
LINE
  5
AF
330
1F
100
AcDbEntity
  8
0
  6
Continuous
 62
     7
370
    25
100
AcDbLine
 10
6180.0187553361
 20
5237.5788755501
 30
0.0
 11
6160.0776256225
 21
5237.4048519475
 31
0.0
  0
LINE
  5
B0
330
1F
100
AcDbEntity
  8
0
  6
Continuous
 62
     7
370
    25
100
AcDbLine
 10
6160.4266870424
 20
5197.4063750249
 30
0.0
 11
6180.367816756
 21
5197.5803986275
 31
0.0
  0
LINE
  5
B1
330
1F
100
AcDbEntity
  8
0
  6
Continuous
 62
     7
370
    25
100
AcDbLine
 10
6055.5892852738
 20
5236.492900816
 30
0.0
 11
6052.103555101
 21
5236.1771712445
 31
0.0
  0
LINE
  5
B2
330
1F
100
AcDbEntity
  8
0
  6
Continuous
 62
     7
370
    25
100
AcDbLine
 10
6052.4476355123
 20
5196.7494613827
 30
0.0
 11
6055.9383450323
 21
5196.4946142781
 31
0.0
  0
LINE
  5
B3
330
1F
100
AcDbEntity
  8
0
  6
Continuous
 62
     7
370
    25
100
AcDbLine
 10
6124.1406343974
 20
5237.0911393767
 30
0.0
 11
6055.5892852738
 21
5236.492900816
 31
0.0
  0
LINE
  5
B4
330
1F
100
AcDbEntity
  8
0
  6
Continuous
 62
     7
370
    25
100
AcDbLine
 10
6055.9383450323
 20
5196.4946142781
 30
0.0
 11
6124.4896941558
 21
5197.0928528388
 31
0.0
  0
LINE
  5
B5
330
1F
100
AcDbEntity
  8
0
  6
Continuous
 62
     7
370
    25
100
AcDbLine
 10
6052.103555101
 20
5236.1771712445
 30
0.0
 11
6052.103555101
 21
5233.9623861136
 31
0.0
  0
LINE
  5
B6
330
1F
100
AcDbEntity
  8
0
  6
Continuous
 62
     7
370
    25
100
AcDbLine
 10
6052.408982182
 20
5198.9639091911
 30
0.0
 11
6052.4476355123
 21
5196.7494613827
 31
0.0
  0
ARC
  5
B7
330
1F
100
AcDbEntity
  8
0
  6
Continuous
 62
     7
370
    25
100
AcDbCircle
 10
6215.05807832
 20
5239.884735246
 30
0.0
 40
1.999999999999448
100
AcDbArc
 50
270.5
 51
0.5
  0
ARC
  5
B8
330
1F
100
AcDbEntity
  8
0
  6
Continuous
 62
     7
370
    25
100
AcDbCircle
 10
6216.8306388976
 20
5196.266725529
 30
0.0
 40
1.612651671835432
100
AcDbArc
 50
48.4360533131
 51
96.2068831879
  0
ARC
  5
B9
330
1F
100
AcDbEntity
  8
0
  6
Continuous
 62
     7
370
    25
100
AcDbCircle
 10
6222.9650514223
 20
5204.7389202592
 30
0.0
 40
8.836610070730174
100
AcDbArc
 50
235.0092265565
 51
282.7578591465
  0
LWPOLYLINE
  5
BA
330
1F
100
AcDbEntity
  8
0
  6
Continuous
 62
     7
370
    25
100
AcDbPolyline
 90
        3
 70
   128
 43
0.0
 10
6224.9633717955
 20
5196.1248175348
 10
6224.9688376206
 20
5196.1253242031
 10
6224.9584834296
 20
5196.1244618841
  0
LINE
  5
BB
330
1F
100
AcDbEntity
  8
0
  6
Continuous
 62
     7
370
    25
100
AcDbLine
 10
6731.3187553361
 20
5160.1994295927
 30
0.0
 11
6731.3187553361
 21
5230.1994295927
 31
0.0
  0
LINE
  5
BC
330
1F
100
AcDbEntity
  8
0
  6
Continuous
 62
     7
370
    25
100
AcDbLine
 10
6721.3187553361
 20
5230.1994295927
 30
0.0
 11
6721.3187553361
 21
5160.1994295927
 31
0.0
  0
LINE
  5
BD
330
1F
100
AcDbEntity
  8
0
  6
Continuous
 62
     7
370
    25
100
AcDbLine
 10
6731.3187553361
 20
5239.1994295927
 30
0.0
 11
6730.3187553361
 21
5240.1994295927
 31
0.0
  0
LINE
  5
BE
330
1F
100
AcDbEntity
  8
0
  6
Continuous
 62
     7
370
    25
100
AcDbLine
 10
6722.3187553361
 20
5240.1994295927
 30
0.0
 11
6721.3187553361
 21
5239.1994295927
 31
0.0
  0
LINE
  5
BF
330
1F
100
AcDbEntity
  8
0
  6
Continuous
 62
     7
370
    25
100
AcDbLine
 10
5826.7187553361
 20
5239.1994295927
 30
0.0
 11
5825.7187553361
 21
5240.1994295927
 31
0.0
  0
LINE
  5
C0
330
1F
100
AcDbEntity
  8
0
  6
Continuous
 62
     7
370
    25
100
AcDbLine
 10
5817.7187553361
 20
5240.1994295927
 30
0.0
 11
5816.7187553361
 21
5239.1994295927
 31
0.0
  0
LINE
  5
C1
330
1F
100
AcDbEntity
  8
0
  6
Continuous
 62
     7
370
    25
100
AcDbLine
 10
5826.7187553361
 20
5155.1994295927
 30
0.0
 11
5826.7187553361
 21
5230.1994295927
 31
0.0
  0
LINE
  5
C2
330
1F
100
AcDbEntity
  8
0
  6
Continuous
 62
     7
370
    25
100
AcDbLine
 10
5816.7187553361
 20
5230.1994295927
 30
0.0
 11
5816.7187553361
 21
5155.1994295927
 31
0.0
  0
LINE
  5
C3
330
1F
100
AcDbEntity
  8
0
  6
Continuous
 62
     7
370
    25
100
AcDbLine
 10
6747.3187553361
 20
5274.1994295927
 30
0.0
 11
6744.6187553361
 21
5274.1994295927
 31
0.0
  0
LINE
  5
C4
330
1F
100
AcDbEntity
  8
0
  6
Continuous
 62
     7
370
    25
100
AcDbLine
 10
6744.6187553361
 20
5274.1994295927
 30
0.0
 11
5803.4187553361
 21
5274.1994295927
 31
0.0
  0
LINE
  5
C5
330
1F
100
AcDbEntity
  8
0
  6
Continuous
 62
     7
370
    25
100
AcDbLine
 10
5803.4187553361
 20
5274.1994295927
 30
0.0
 11
5800.7187553361
 21
5274.1994295927
 31
0.0
  0
LINE
  5
C6
330
1F
100
AcDbEntity
  8
0
  6
Continuous
 62
     7
370
    25
100
AcDbLine
 10
6238.2332985674
 20
5256.9994295927
 30
0.0
 11
6240.7687553361
 21
5255.4492860395
 31
0.0
  0
LINE
  5
C7
330
1F
100
AcDbEntity
  8
0
  6
Continuous
 62
     7
370
    25
100
AcDbLine
 10
6242.478791473
 20
5254.403793359
 30
0.0
 11
6244.13369517
 21
5253.3920078973
 31
0.0
  0
LINE
  5
C8
330
1F
100
AcDbEntity
  8
0
  6
Continuous
 62
     7
370
    25
100
AcDbLine
 10
6303.9038155022
 20
5253.3920078973
 30
0.0
 11
6305.5587191992
 21
5254.403793359
 31
0.0
  0
LINE
  5
C9
330
1F
100
AcDbEntity
  8
0
  6
Continuous
 62
     7
370
    25
100
AcDbLine
 10
6307.2687553361
 20
5255.4492860395
 30
0.0
 11
6309.8042121048
 21
5256.9994295927
 31
0.0
  0
LINE
  5
CA
330
1F
100
AcDbEntity
  8
0
  6
Continuous
 62
     7
370
    25
100
AcDbLine
 10
6307.2687553361
 20
5254.403793359
 30
0.0
 11
6240.7687553361
 21
5254.403793359
 31
0.0
  0
LINE
  5
CB
330
1F
100
AcDbEntity
  8
0
  6
Continuous
 62
     7
370
    25
100
AcDbLine
 10
6234.0187553361
 20
5252.895718745
 30
0.0
 11
6314.0187553361
 21
5252.895718745
 31
0.0
  0
LWPOLYLINE
  5
CC
330
1F
100
AcDbEntity
  8
0
  6
Continuous
 62
     7
370
    25
100
AcDbPolyline
 90
       18
 70
   128
 43
0.0
 10
6317.7728701909
 20
5229.6989024751
 10
6317.8179474112
 20
5229.7297823121
 10
6317.0746431675
 20
5229.2267691506
 10
6315.5331883308
 20
5228.2006136862
 10
6313.4513558374
 20
5226.8468725163
 10
6310.813533529
 20
5225.1831812465
 10
6307.714577978
 20
5223.3001186353
 10
6304.1299940575
 20
5221.218314352
 10
6300.166592331
 20
5219.02862017
 10
6295.901327706
 20
5216.7990864528
 10
6289.4196487345
 20
5213.6588028027
 10
6282.5436487513
 20
5210.6312176293
 10
6275.8778265166
 20
5207.9868787103
 10
6269.1422089835
 20
5205.5871331617
 10
6262.71152514
 20
5203.5476754949
 10
6256.5475900396
 20
5201.8108974715
 10
6250.8859445234
 20
5200.403244367
 10
6245.8615497504
 20
5199.2978336541
  0
LWPOLYLINE
  5
CD
330
1F
100
AcDbEntity
  8
0
  6
Continuous
 62
     7
370
    25
100
AcDbPolyline
 90
        9
 70
   128
 43
0.0
 10
6239.2281711583
 20
5206.0922647075
 10
6239.4919429644
 20
5204.6197544863
 10
6239.9821298386
 20
5203.2173246852
 10
6240.6763318122
 20
5201.9490618506
 10
6241.54282608
 20
5200.8729215288
 10
6242.5420166316
 20
5200.0380798831
 10
6243.6282436615
 20
5199.4826865006
 10
6244.7518700762
 20
5199.2321210788
 10
6245.8615497504
 20
5199.2978336541
  0
LINE
  5
CE
330
1F
100
AcDbEntity
  8
0
  6
Continuous
 62
     7
370
    25
100
AcDbLine
 10
6239.2281711583
 20
5206.0922647075
 30
0.0
 11
6238.978939987
 21
5244.3994295927
 31
0.0
  0
ARC
  5
CF
330
1F
100
AcDbEntity
  8
0
  6
Continuous
 62
     7
370
    25
100
AcDbCircle
 10
6240.07644716
 20
5247.6367790091
 30
0.0
 40
1.79163248606482
100
AcDbArc
 50
100.3196220903
 51
187.6127302625
  0
LINE
  5
D0
330
1F
100
AcDbEntity
  8
0
  6
Continuous
 62
     7
370
    25
100
AcDbLine
 10
6239.7554956289
 20
5249.3994295927
 30
0.0
 11
6321.0187553361
 21
5249.3994295927
 31
0.0
  0
LINE
  5
D1
330
1F
100
AcDbEntity
  8
0
  6
Continuous
 62
     7
370
    25
100
AcDbLine
 10
6238.3006058891
 20
5247.3994295927
 30
0.0
 11
6238.3006058891
 21
5244.3994295927
 31
0.0
  0
LINE
  5
D2
330
1F
100
AcDbEntity
  8
0
  6
Continuous
 62
     7
370
    25
100
AcDbLine
 10
6238.3006058891
 20
5244.3994295927
 30
0.0
 11
6323.0187553361
 21
5244.3994295927
 31
0.0
  0
LINE
  5
D3
330
1F
100
AcDbEntity
  8
0
  6
Continuous
 62
     7
370
    25
100
AcDbLine
 10
6232.2687553361
 20
5252.3994295927
 30
0.0
 11
6315.7687553361
 21
5252.3994295927
 31
0.0
  0
LINE
  5
D4
330
1F
100
AcDbEntity
  8
0
  6
Continuous
 62
     7
370
    25
100
AcDbLine
 10
6250.1743875592
 20
5177.2161909546
 30
0.0
 11
6249.7305071389
 21
5200.1363370965
 31
0.0
  0
LINE
  5
D5
330
1F
100
AcDbEntity
  8
0
  6
Continuous
 62
     7
370
    25
100
AcDbLine
 10
6220.7625077158
 20
5247.3994295927
 30
0.0
 11
6220.7625077158
 21
5244.3994295927
 31
0.0
  0
LINE
  5
D6
330
1F
100
AcDbEntity
  8
0
  6
Continuous
 62
     7
370
    25
100
AcDbLine
 10
6238.3006058891
 20
5247.3994295927
 30
0.0
 11
6220.7625077158
 21
5247.3994295927
 31
0.0
  0
LINE
  5
D7
330
1F
100
AcDbEntity
  8
0
  6
Continuous
 62
     7
370
    25
100
AcDbLine
 10
6220.7625077158
 20
5244.3994295927
 30
0.0
 11
6238.3006058891
 21
5244.3994295927
 31
0.0
  0
ARC
  5
D8
330
1F
100
AcDbEntity
  8
0
  6
Continuous
 62
     7
370
    25
100
AcDbCircle
 10
6223.8177785637
 20
5247.8833259388
 30
0.0
 40
3.093353459904417
100
AcDbArc
 50
150.6517591701
 51
188.9997984493
  0
LINE
  5
D9
330
1F
100
AcDbEntity
  8
0
  6
Continuous
 62
     7
370
    25
100
AcDbLine
 10
6221.1214356073
 20
5249.3994295927
 30
0.0
 11
6239.7554956289
 21
5249.3994295927
 31
0.0
  0
ARC
  5
DA
330
1F
100
AcDbEntity
  8
0
  6
Continuous
 62
     7
370
    25
100
AcDbCircle
 10
6207.3936298622
 20
5330.8161065324
 30
0.0
 40
128.7224717719351
100
AcDbArc
 50
276.5444516408
 51
284.318474563
  0
LWPOLYLINE
  5
DB
330
1F
100
AcDbEntity
  8
0
  6
Continuous
 62
     7
370
    25
100
AcDbPolyline
 90
        6
 70
   128
 43
0.0
 10
6222.0646474319
 20
5202.9324250771
 10
6222.2378171069
 20
5201.588960521
 10
6222.5043085579
 20
5200.2485252856
 10
6223.230756787
 20
5198.0224189335
 10
6224.1303911652
 20
5196.5803864899
 10
6225.0664761678
 20
5196.1354266237
  0
ARC
  5
DC
330
1F
100
AcDbEntity
  8
0
  6
Continuous
 62
     7
370
    25
100
AcDbCircle
 10
6205.4363668662
 20
5395.1697422802
 30
0.0
 40
200.0000000000639
100
AcDbArc
 50
275.6326806459
 51
281.6613043232
  0
LINE
  5
DD
330
1F
100
AcDbEntity
  8
0
  6
Continuous
 62
     7
370
    25
100
AcDbLine
 10
6222.0646474319
 20
5202.9324250771
 30
0.0
 11
6222.0034090068
 21
5244.3994295927
 31
0.0
  0
LINE
  5
DE
330
1F
100
AcDbEntity
  8
0
  6
Continuous
 62
     7
370
    25
100
AcDbLine
 10
6299.2618990435
 20
5170.3994295927
 30
0.0
 11
6256.5859270358
 21
5170.3994295927
 31
0.0
  0
ARC
  5
DF
330
1F
100
AcDbEntity
  8
0
  6
Continuous
 62
     7
370
    25
100
AcDbCircle
 10
6256.8854772398
 20
5177.104756726
 30
0.0
 40
6.71201477116945
100
AcDbArc
 50
179.0487201604
 51
267.4420996519
  0
LINE
  5
E0
330
1F
100
AcDbEntity
  8
0
  6
Continuous
 62
     7
370
    25
100
AcDbLine
 10
6150.2670753606
 20
5243.094802193
 30
0.0
 11
6150.7169342992
 21
5191.5460736758
 31
0.0
  0
LINE
  5
E1
330
1F
100
AcDbEntity
  8
0
  6
Continuous
 62
     7
370
    25
100
AcDbLine
 10
6124.1406343974
 20
5237.0911393767
 30
0.0
 11
6124.4896941558
 21
5197.0928528388
 31
0.0
  0
LINE
  5
E2
330
1F
100
AcDbEntity
  8
0
  6
Continuous
 62
     7
370
    25
100
AcDbLine
 10
6215.0187553361
 20
5247.3994295927
 30
0.0
 11
6215.0187553361
 21
5244.3994295927
 31
0.0
  0
LINE
  5
E3
330
1F
100
AcDbEntity
  8
0
  6
Continuous
 62
     7
370
    25
100
AcDbLine
 10
6220.7625077158
 20
5247.3994295927
 30
0.0
 11
6215.0187553361
 21
5247.3994295927
 31
0.0
  0
LINE
  5
E4
330
1F
100
AcDbEntity
  8
0
  6
Continuous
 62
     7
370
    25
100
AcDbLine
 10
6215.0187553361
 20
5244.3994295927
 30
0.0
 11
6220.7625077158
 21
5244.3994295927
 31
0.0
  0
ARC
  5
E5
330
1F
100
AcDbEntity
  8
0
  6
Continuous
 62
     7
370
    25
100
AcDbCircle
 10
6217.0187553361
 20
5247.3994295927
 30
0.0
 40
2.0
100
AcDbArc
 50
90.0
 51
180.0
  0
LINE
  5
E6
330
1F
100
AcDbEntity
  8
0
  6
Continuous
 62
     7
370
    25
100
AcDbLine
 10
6217.0187553361
 20
5249.3994295927
 30
0.0
 11
6221.1214356073
 21
5249.3994295927
 31
0.0
  0
LINE
  5
E7
330
1F
100
AcDbEntity
  8
0
  6
Continuous
 62
     7
370
    25
100
AcDbLine
 10
6180.367816756
 20
5197.5803986275
 30
0.0
 11
6180.0187553361
 21
5237.5788755501
 31
0.0
  0
LINE
  5
E8
330
1F
100
AcDbEntity
  8
0
  6
Continuous
 62
     7
370
    25
100
AcDbLine
 10
6160.0776256225
 20
5237.4048519475
 30
0.0
 11
6160.4266870424
 21
5197.4063750249
 31
0.0
  0
ARC
  5
E9
330
1F
100
AcDbEntity
  8
0
  6
Continuous
 62
     7
370
    25
100
AcDbCircle
 10
6220.6942476888
 20
5246.6725229277
 30
0.0
 40
43.76156024910997
100
AcDbArc
 50
265.6588877915
 51
271.794519202
  0
LWPOLYLINE
  5
EA
330
1F
100
AcDbEntity
  8
0
  6
Continuous
 62
     7
370
    25
100
AcDbPolyline
 90
       11
 70
   128
 43
0.0
 10
6217.1183232808
 20
5232.9900732163
 10
6217.2756194896
 20
5230.9459559464
 10
6217.6396865851
 20
5228.7537518256
 10
6218.3510606342
 20
5225.3386855482
 10
6219.0238711509
 20
5221.7231014123
 10
6219.2969571782
 20
5219.1890369266
 10
6219.3229421487
 20
5216.5896001429
 10
6218.7048671643
 20
5211.58830264
 10
6218.0542560291
 20
5208.2281328917
 10
6217.5167526775
 20
5204.9548397935
 10
6217.3817542264
 20
5203.0365071461
  0
LINE
  5
EB
330
1F
100
AcDbEntity
  8
0
  6
Continuous
 62
     7
370
    25
100
AcDbLine
 10
6217.1183232808
 20
5232.9900732163
 30
0.0
 11
6217.0187553361
 21
5244.3994295927
 31
0.0
  0
ARC
  5
EC
330
1F
100
AcDbEntity
  8
0
  6
Continuous
 62
     7
370
    25
100
AcDbCircle
 10
6224.3794223422
 20
5203.1016276717
 30
0.0
 40
7.000000000000386
100
AcDbArc
 50
181.914945567
 51
275.6326806459
  0
LWPOLYLINE
  5
ED
330
1F
100
AcDbEntity
  8
0
  6
Continuous
 62
     7
370
    25
100
AcDbPolyline
 90
        4
 70
   128
 43
0.0
 10
6217.3817629049
 20
5203.0365113281
 10
6217.3817622372
 20
5203.0364660739
 10
6217.3833347494
 20
5202.8677984383
 10
6217.3833362467
 20
5202.867753733
  0
LWPOLYLINE
  5
EE
330
1F
100
AcDbEntity
  8
0
  6
Continuous
 62
     7
370
    25
100
AcDbPolyline
 90
       12
 70
   128
 43
0.0
 10
6215.3707559867
 20
5204.3705579716
 10
6215.5609290267
 20
5206.1146596789
 10
6216.2809055865
 20
5209.0213682274
 10
6217.1898760065
 20
5212.1464144353
 10
6217.7247271125
 20
5214.3792216511
 10
6218.0380611415
 20
5216.6937528676
 10
6218.0047626296
 20
5219.0462221668
 10
6217.6498913252
 20
5221.360296578
 10
6216.7567617548
 20
5224.6595515621
 10
6215.813584782
 20
5227.7503844661
 10
6215.3325011085
 20
5229.7464472124
 10
6215.1303687679
 20
5231.6010703993
  0
ARC
  5
EF
330
1F
100
AcDbEntity
  8
0
  6
Continuous
 62
     7
370
    25
100
AcDbCircle
 10
6215.379857893
 20
5233.3610905543
 30
0.0
 40
1.77761519162663
100
AcDbArc
 50
261.9318731471
 51
347.952862863
  0
ARC
  5
F0
330
1F
100
AcDbEntity
  8
0
  6
Continuous
 62
     7
370
    25
100
AcDbCircle
 10
6215.62363942
 20
5202.5690114508
 30
0.0
 40
1.81920859098918
100
AcDbArc
 50
14.8907936099
 51
97.990412116
  0
LINE
  5
F1
330
1F
100
AcDbEntity
  8
0
  6
Continuous
 62
     7
370
    25
100
AcDbLine
 10
6215.3724892376
 20
5204.1721584099
 30
0.0
 11
6215.370773051
 21
5204.3705578682
 31
0.0
  0
LINE
  5
F2
330
1F
100
AcDbEntity
  8
0
  6
Continuous
 62
     7
370
    25
100
AcDbLine
 10
6215.7718976569
 20
5202.0152682386
 30
0.0
 11
6215.3724833559
 21
5204.1721582739
 31
0.0
  0
LINE
  5
F3
330
1F
100
AcDbEntity
  8
0
  6
Continuous
 62
     7
370
    25
100
AcDbLine
 10
6055.5892852738
 20
5236.492900816
 30
0.0
 11
6055.9383450323
 21
5196.4946142781
 31
0.0
  0
LINE
  5
F4
330
1F
100
AcDbEntity
  8
0
  6
Continuous
 62
     7
370
    25
100
AcDbLine
 10
6052.103555101
 20
5236.1771712445
 30
0.0
 11
6052.4476355123
 21
5196.7494613827
 31
0.0
  0
LINE
  5
F5
330
1F
100
AcDbEntity
  8
0
  6
Continuous
 62
     7
370
    25
100
AcDbLine
 10
6052.103555101
 20
5233.9623861136
 30
0.0
 11
6052.408982182
 21
5198.9639091911
 31
0.0
  0
ARC
  5
F6
330
1F
100
AcDbEntity
  8
0
  6
Continuous
 62
     7
370
    25
100
AcDbCircle
 10
6215.6724657455
 20
5202.4325105256
 30
0.0
 40
1.765353851704063
100
AcDbArc
 50
14.2723990243
 51
99.7836484595
  0
ARC
  5
F7
330
1F
100
AcDbEntity
  8
0
  6
Continuous
 62
     7
370
    25
100
AcDbCircle
 10
6216.1314120213
 20
5200.3522489256
 30
0.0
 40
1.701435809412221
100
AcDbArc
 50
23.1834570491
 51
102.198580133
  0
LINE
  5
F8
330
1F
100
AcDbEntity
  8
0
  6
Continuous
 62
     7
370
    25
100
AcDbLine
 10
5813.2187553361
 20
5160.1994295927
 30
0.0
 11
5813.2187553361
 21
5155.1994295927
 31
0.0
  0
LINE
  5
F9
330
1F
100
AcDbEntity
  8
0
  6
Continuous
 62
     7
370
    25
100
AcDbLine
 10
5813.2187553361
 20
5160.1994295927
 30
0.0
 11
5816.7187553361
 21
5160.1994295927
 31
0.0
  0
LINE
  5
FA
330
1F
100
AcDbEntity
  8
0
  6
Continuous
 62
     7
370
    25
100
AcDbLine
 10
5826.7187553361
 20
5160.1994295927
 30
0.0
 11
5830.2187553361
 21
5160.1994295927
 31
0.0
  0
LINE
  5
FB
330
1F
100
AcDbEntity
  8
0
  6
Continuous
 62
     7
370
    25
100
AcDbLine
 10
5830.2187553361
 20
5160.1994295927
 30
0.0
 11
5830.2187553361
 21
5155.1994295927
 31
0.0
  0
LINE
  5
FC
330
1F
100
AcDbEntity
  8
0
  6
Continuous
 62
     7
370
    25
100
AcDbLine
 10
6717.8187553361
 20
5160.1994295927
 30
0.0
 11
6717.8187553361
 21
5153.1994295927
 31
0.0
  0
LINE
  5
FD
330
1F
100
AcDbEntity
  8
0
  6
Continuous
 62
     7
370
    25
100
AcDbLine
 10
6717.8187553361
 20
5160.1994295927
 30
0.0
 11
6726.3187553361
 21
5160.1994295927
 31
0.0
  0
LINE
  5
FE
330
1F
100
AcDbEntity
  8
0
  6
Continuous
 62
     7
370
    25
100
AcDbLine
 10
6726.3187553361
 20
5160.1994295927
 30
0.0
 11
6726.3187553361
 21
5153.1994295927
 31
0.0
  0
LINE
  5
FF
330
1F
100
AcDbEntity
  8
0
  6
Continuous
 62
     7
370
    25
100
AcDbLine
 10
6717.8187553361
 20
5153.1994295927
 30
0.0
 11
6726.3187553361
 21
5153.1994295927
 31
0.0
  0
LINE
  5
100
330
1F
100
AcDbEntity
  8
0
  6
Continuous
 62
     7
370
    25
100
AcDbLine
 10
6734.8187553361
 20
5160.1994295927
 30
0.0
 11
6734.8187553361
 21
5153.1994295927
 31
0.0
  0
LINE
  5
101
330
1F
100
AcDbEntity
  8
0
  6
Continuous
 62
     7
370
    25
100
AcDbLine
 10
6726.3187553361
 20
5160.1994295927
 30
0.0
 11
6734.8187553361
 21
5160.1994295927
 31
0.0
  0
LINE
  5
102
330
1F
100
AcDbEntity
  8
0
  6
Continuous
 62
     7
370
    25
100
AcDbLine
 10
6726.3187553361
 20
5153.1994295927
 30
0.0
 11
6734.8187553361
 21
5153.1994295927
 31
0.0
  0
LINE
  5
103
330
1F
100
AcDbEntity
  8
0
  6
Continuous
 62
     7
370
    25
100
AcDbLine
 10
6726.3187553361
 20
5240.1994295927
 30
0.0
 11
6730.3187553361
 21
5240.1994295927
 31
0.0
  0
LINE
  5
104
330
1F
100
AcDbEntity
  8
0
  6
Continuous
 62
     7
370
    25
100
AcDbLine
 10
6722.3187553361
 20
5240.1994295927
 30
0.0
 11
6726.3187553361
 21
5240.1994295927
 31
0.0
  0
LINE
  5
105
330
1F
100
AcDbEntity
  8
0
  6
Continuous
 62
     7
370
    25
100
AcDbLine
 10
6690.3187553361
 20
5155.1994295927
 30
0.0
 11
6717.8187553361
 21
5155.1994295927
 31
0.0
  0
LINE
  5
106
330
1F
100
AcDbEntity
  8
0
  6
Continuous
 62
     7
370
    25
100
AcDbLine
 10
6734.8187553361
 20
5155.1994295927
 30
0.0
 11
6740.3187553361
 21
5155.1994295927
 31
0.0
  0
LINE
  5
107
330
1F
100
AcDbEntity
  8
0
  6
Continuous
 62
     7
370
    25
100
AcDbLine
 10
6740.3187553361
 20
5155.1994295927
 30
0.0
 11
6740.3187553361
 21
5153.1994295927
 31
0.0
  0
LINE
  5
108
330
1F
100
AcDbEntity
  8
0
  6
Continuous
 62
     7
370
    25
100
AcDbLine
 10
6690.3187553361
 20
5153.1994295927
 30
0.0
 11
6717.8187553361
 21
5153.1994295927
 31
0.0
  0
LINE
  5
109
330
1F
100
AcDbEntity
  8
0
  6
Continuous
 62
     7
370
    25
100
AcDbLine
 10
6734.8187553361
 20
5153.1994295927
 30
0.0
 11
6740.3187553361
 21
5153.1994295927
 31
0.0
  0
LINE
  5
10A
330
1F
100
AcDbEntity
  8
0
  6
Continuous
 62
     7
370
    25
100
AcDbLine
 10
6690.3187553361
 20
5155.1994295927
 30
0.0
 11
6690.3187553361
 21
5153.1994295927
 31
0.0
  0
LINE
  5
10B
330
1F
100
AcDbEntity
  8
0
  6
Continuous
 62
     7
370
    25
100
AcDbLine
 10
5807.7187553361
 20
5155.1994295927
 30
0.0
 11
5807.7187553361
 21
5153.1994295927
 31
0.0
  0
LINE
  5
10C
330
1F
100
AcDbEntity
  8
0
  6
Continuous
 62
     7
370
    25
100
AcDbLine
 10
5807.7187553361
 20
5155.1994295927
 30
0.0
 11
5857.7187553361
 21
5155.1994295927
 31
0.0
  0
LINE
  5
10D
330
1F
100
AcDbEntity
  8
0
  6
Continuous
 62
     7
370
    25
100
AcDbLine
 10
5857.7187553361
 20
5155.1994295927
 30
0.0
 11
5857.7187553361
 21
5153.1994295927
 31
0.0
  0
LINE
  5
10E
330
1F
100
AcDbEntity
  8
0
  6
Continuous
 62
     7
370
    25
100
AcDbLine
 10
5807.7187553361
 20
5153.1994295927
 30
0.0
 11
5857.7187553361
 21
5153.1994295927
 31
0.0
  0
LINE
  5
10F
330
1F
100
AcDbEntity
  8
0
  6
Continuous
 62
     7
370
    25
100
AcDbLine
 10
5817.7187553361
 20
5240.1994295927
 30
0.0
 11
5825.7187553361
 21
5240.1994295927
 31
0.0
  0
LINE
  5
110
330
1F
100
AcDbEntity
  8
0
  6
Continuous
 62
     7
370
    25
100
AcDbLine
 10
6717.8187553361
 20
5239.1994295927
 30
0.0
 11
6717.8187553361
 21
5232.1994295927
 31
0.0
  0
LINE
  5
111
330
1F
100
AcDbEntity
  8
0
  6
Continuous
 62
     7
370
    25
100
AcDbLine
 10
6717.8187553361
 20
5239.1994295927
 30
0.0
 11
6726.3187553361
 21
5239.1994295927
 31
0.0
  0
LINE
  5
112
330
1F
100
AcDbEntity
  8
0
  6
Continuous
 62
     7
370
    25
100
AcDbLine
 10
6726.3187553361
 20
5239.1994295927
 30
0.0
 11
6726.3187553361
 21
5232.1994295927
 31
0.0
  0
LINE
  5
113
330
1F
100
AcDbEntity
  8
0
  6
Continuous
 62
     7
370
    25
100
AcDbLine
 10
6724.2867781706
 20
5232.1994295927
 30
0.0
 11
6726.3187553361
 21
5232.1994295927
 31
0.0
  0
LINE
  5
114
330
1F
100
AcDbEntity
  8
0
  6
Continuous
 62
     7
370
    25
100
AcDbLine
 10
5813.2187553361
 20
5239.1994295927
 30
0.0
 11
5813.2187553361
 21
5232.1994295927
 31
0.0
  0
LINE
  5
115
330
1F
100
AcDbEntity
  8
0
  6
Continuous
 62
     7
370
    25
100
AcDbLine
 10
5821.7187553361
 20
5239.1994295927
 30
0.0
 11
5813.2187553361
 21
5239.1994295927
 31
0.0
  0
LINE
  5
116
330
1F
100
AcDbEntity
  8
0
  6
Continuous
 62
     7
370
    25
100
AcDbLine
 10
5821.7187553361
 20
5239.1994295927
 30
0.0
 11
5821.7187553361
 21
5232.1994295927
 31
0.0
  0
LINE
  5
117
330
1F
100
AcDbEntity
  8
0
  6
Continuous
 62
     7
370
    25
100
AcDbLine
 10
5821.7187553361
 20
5232.1994295927
 30
0.0
 11
5819.6867781706
 21
5232.1994295927
 31
0.0
  0
LINE
  5
118
330
1F
100
AcDbEntity
  8
0
  6
Continuous
 62
     7
370
    25
100
AcDbLine
 10
5823.7507325016
 20
5232.1994295927
 30
0.0
 11
5821.7187553361
 21
5232.1994295927
 31
0.0
  0
LINE
  5
119
330
1F
100
AcDbEntity
  8
0
  6
Continuous
 62
     7
370
    25
100
AcDbLine
 10
5830.2187553361
 20
5239.1994295927
 30
0.0
 11
5830.2187553361
 21
5232.1994295927
 31
0.0
  0
LINE
  5
11A
330
1F
100
AcDbEntity
  8
0
  6
Continuous
 62
     7
370
    25
100
AcDbLine
 10
5830.2187553361
 20
5239.1994295927
 30
0.0
 11
5821.7187553361
 21
5239.1994295927
 31
0.0
  0
LINE
  5
11B
330
1F
100
AcDbEntity
  8
0
  6
Continuous
 62
     7
370
    25
100
AcDbLine
 10
6734.8187553361
 20
5239.1994295927
 30
0.0
 11
6734.8187553361
 21
5232.1994295927
 31
0.0
  0
LINE
  5
11C
330
1F
100
AcDbEntity
  8
0
  6
Continuous
 62
     7
370
    25
100
AcDbLine
 10
6726.3187553361
 20
5232.1994295927
 30
0.0
 11
6728.3507325016
 21
5232.1994295927
 31
0.0
  0
LINE
  5
11D
330
1F
100
AcDbEntity
  8
0
  6
Continuous
 62
     7
370
    25
100
AcDbLine
 10
6726.3187553361
 20
5239.1994295927
 30
0.0
 11
6734.8187553361
 21
5239.1994295927
 31
0.0
  0
LINE
  5
11E
330
1F
100
AcDbEntity
  8
0
  6
Continuous
 62
     7
370
    25
100
AcDbLine
 10
6716.3187553361
 20
5230.1994295927
 30
0.0
 11
6736.3187553361
 21
5230.1994295927
 31
0.0
  0
LINE
  5
11F
330
1F
100
AcDbEntity
  8
0
  6
Continuous
 62
     7
370
    25
100
AcDbLine
 10
6716.3187553361
 20
5232.1994295927
 30
0.0
 11
6716.3187553361
 21
5230.1994295927
 31
0.0
  0
LINE
  5
120
330
1F
100
AcDbEntity
  8
0
  6
Continuous
 62
     7
370
    25
100
AcDbLine
 10
6716.3187553361
 20
5232.1994295927
 30
0.0
 11
6724.2867781706
 21
5232.1994295927
 31
0.0
  0
LINE
  5
121
330
1F
100
AcDbEntity
  8
0
  6
Continuous
 62
     7
370
    25
100
AcDbLine
 10
6728.3507325016
 20
5232.1994295927
 30
0.0
 11
6736.3187553361
 21
5232.1994295927
 31
0.0
  0
LINE
  5
122
330
1F
100
AcDbEntity
  8
0
  6
Continuous
 62
     7
370
    25
100
AcDbLine
 10
6736.3187553361
 20
5232.1994295927
 30
0.0
 11
6736.3187553361
 21
5230.1994295927
 31
0.0
  0
LINE
  5
123
330
1F
100
AcDbEntity
  8
0
  6
Continuous
 62
     7
370
    25
100
AcDbLine
 10
5819.6867781706
 20
5232.1994295927
 30
0.0
 11
5811.7187553361
 21
5232.1994295927
 31
0.0
  0
LINE
  5
124
330
1F
100
AcDbEntity
  8
0
  6
Continuous
 62
     7
370
    25
100
AcDbLine
 10
5831.7187553361
 20
5232.1994295927
 30
0.0
 11
5823.7507325016
 21
5232.1994295927
 31
0.0
  0
LINE
  5
125
330
1F
100
AcDbEntity
  8
0
  6
Continuous
 62
     7
370
    25
100
AcDbLine
 10
5831.7187553361
 20
5230.1994295927
 30
0.0
 11
5811.7187553361
 21
5230.1994295927
 31
0.0
  0
LINE
  5
126
330
1F
100
AcDbEntity
  8
0
  6
Continuous
 62
     7
370
    25
100
AcDbLine
 10
5811.7187553361
 20
5232.1994295927
 30
0.0
 11
5811.7187553361
 21
5230.1994295927
 31
0.0
  0
LINE
  5
127
330
1F
100
AcDbEntity
  8
0
  6
Continuous
 62
     7
370
    25
100
AcDbLine
 10
5831.7187553361
 20
5232.1994295927
 30
0.0
 11
5831.7187553361
 21
5230.1994295927
 31
0.0
  0
LINE
  5
128
330
1F
100
AcDbEntity
  8
0
  6
Continuous
 62
     7
370
    25
100
AcDbLine
 10
6716.3187553361
 20
5232.4493156103
 30
0.0
 11
6716.3187553361
 21
5232.1994295927
 31
0.0
  0
LINE
  5
129
330
1F
100
AcDbEntity
  8
0
  6
Continuous
 62
     7
370
    25
100
AcDbLine
 10
6736.3187553361
 20
5232.4493156103
 30
0.0
 11
6736.3187553361
 21
5232.1994295927
 31
0.0
  0
LINE
  5
12A
330
1F
100
AcDbEntity
  8
0
  6
Continuous
 62
     7
370
    25
100
AcDbLine
 10
5811.7187553361
 20
5232.4493156103
 30
0.0
 11
5811.7187553361
 21
5232.1994295927
 31
0.0
  0
LINE
  5
12B
330
1F
100
AcDbEntity
  8
0
  6
Continuous
 62
     7
370
    25
100
AcDbLine
 10
5831.7187553361
 20
5232.4493156103
 30
0.0
 11
5831.7187553361
 21
5232.1994295927
 31
0.0
  0
LINE
  5
12C
330
1F
100
AcDbEntity
  8
0
  6
Continuous
 62
     7
370
    25
100
AcDbLine
 10
6716.3187553361
 20
5256.2497715399
 30
0.0
 11
6736.3187553361
 21
5256.2497715399
 31
0.0
  0
LINE
  5
12D
330
1F
100
AcDbEntity
  8
0
  6
Continuous
 62
     7
370
    25
100
AcDbLine
 10
6716.3187553361
 20
5256.2497715399
 30
0.0
 11
6716.3187553361
 21
5232.4493156103
 31
0.0
  0
LINE
  5
12E
330
1F
100
AcDbEntity
  8
0
  6
Continuous
 62
     7
370
    25
100
AcDbLine
 10
6736.3187553361
 20
5256.2497715399
 30
0.0
 11
6736.3187553361
 21
5232.4493156103
 31
0.0
  0
LINE
  5
12F
330
1F
100
AcDbEntity
  8
0
  6
Continuous
 62
     7
370
    25
100
AcDbLine
 10
5831.7187553361
 20
5256.2497715399
 30
0.0
 11
5811.7187553361
 21
5256.2497715399
 31
0.0
  0
LINE
  5
130
330
1F
100
AcDbEntity
  8
0
  6
Continuous
 62
     7
370
    25
100
AcDbLine
 10
5811.7187553361
 20
5256.2497715399
 30
0.0
 11
5811.7187553361
 21
5232.4493156103
 31
0.0
  0
LINE
  5
131
330
1F
100
AcDbEntity
  8
0
  6
Continuous
 62
     7
370
    25
100
AcDbLine
 10
5831.7187553361
 20
5256.2497715399
 30
0.0
 11
5831.7187553361
 21
5232.4493156103
 31
0.0
  0
LINE
  5
132
330
1F
100
AcDbEntity
  8
0
  6
Continuous
 62
     7
370
    25
100
AcDbLine
 10
6776.3187553361
 20
5258.1994295927
 30
0.0
 11
6776.3187553361
 21
5256.9994295927
 31
0.0
  0
LINE
  5
133
330
1F
100
AcDbEntity
  8
0
  6
Continuous
 62
     7
370
    25
100
AcDbLine
 10
5771.7187553361
 20
5258.1994295927
 30
0.0
 11
5771.7187553361
 21
5256.9994295927
 31
0.0
  0
LINE
  5
134
330
1F
100
AcDbEntity
  8
0
  6
Continuous
 62
     7
370
    25
100
AcDbLine
 10
5771.7187553361
 20
5258.1994295927
 30
0.0
 11
6776.3187553361
 21
5258.1994295927
 31
0.0
  0
LINE
  5
135
330
1F
100
AcDbEntity
  8
0
  6
Continuous
 62
     7
370
    25
100
AcDbLine
 10
5771.7187553361
 20
5256.9994295927
 30
0.0
 11
6776.3187553361
 21
5256.9994295927
 31
0.0
  0
LINE
  5
136
330
1F
100
AcDbEntity
  8
0
  6
Continuous
 62
     7
370
    25
100
AcDbLine
 10
6748.9820107862
 20
5272.1478882613
 30
0.0
 11
6744.6187553361
 21
5272.1478882613
 31
0.0
  0
ARC
  5
137
330
1F
100
AcDbEntity
  8
0
  6
Continuous
 62
     7
370
    25
100
AcDbCircle
 10
6747.3187553361
 20
5272.4994295927
 30
0.0
 40
1.699999999999818
100
AcDbArc
 50
348.0657534268
 51
90.0
  0
LINE
  5
138
330
1F
100
AcDbEntity
  8
0
  6
Continuous
 62
     7
370
    25
100
AcDbLine
 10
6744.6187553361
 20
5272.1478882613
 30
0.0
 11
5803.4187553361
 21
5272.1478882613
 31
0.0
  0
LINE
  5
139
330
1F
100
AcDbEntity
  8
0
  6
Continuous
 62
     7
370
    25
100
AcDbLine
 10
5803.4187553361
 20
5272.1478882613
 30
0.0
 11
5799.055499886
 21
5272.1478882613
 31
0.0
  0
ARC
  5
13A
330
1F
100
AcDbEntity
  8
0
  6
Continuous
 62
     7
370
    25
100
AcDbCircle
 10
5800.7187553361
 20
5272.4994295927
 30
0.0
 40
1.700000000000129
100
AcDbArc
 50
90.0
 51
191.9342465732
  0
LINE
  5
13B
330
1F
100
AcDbEntity
  8
0
  6
Continuous
 62
     7
370
    25
100
AcDbLine
 10
6748.0928180068
 20
5267.9408303581
 30
0.0
 11
6744.6187553361
 21
5267.9408303581
 31
0.0
  0
LINE
  5
13C
330
1F
100
AcDbEntity
  8
0
  6
Continuous
 62
     7
370
    25
100
AcDbLine
 10
6744.6187553361
 20
5272.1478882613
 30
0.0
 11
6744.6187553361
 21
5267.9408303581
 31
0.0
  0
LINE
  5
13D
330
1F
100
AcDbEntity
  8
0
  6
Continuous
 62
     7
370
    25
100
AcDbLine
 10
6748.9820107862
 20
5272.1478882613
 30
0.0
 11
6748.0928180068
 21
5267.9408303581
 31
0.0
  0
LINE
  5
13E
330
1F
100
AcDbEntity
  8
0
  6
Continuous
 62
     7
370
    25
100
AcDbLine
 10
6744.6187553361
 20
5267.9408303581
 30
0.0
 11
5803.4187553361
 21
5267.9408303581
 31
0.0
  0
LINE
  5
13F
330
1F
100
AcDbEntity
  8
0
  6
Continuous
 62
     7
370
    25
100
AcDbLine
 10
5803.4187553361
 20
5272.1478882613
 30
0.0
 11
5803.4187553361
 21
5267.9408303581
 31
0.0
  0
LINE
  5
140
330
1F
100
AcDbEntity
  8
0
  6
Continuous
 62
     7
370
    25
100
AcDbLine
 10
5803.4187553361
 20
5267.9408303581
 30
0.0
 11
5799.9446926654
 21
5267.9408303581
 31
0.0
  0
LINE
  5
141
330
1F
100
AcDbEntity
  8
0
  6
Continuous
 62
     7
370
    25
100
AcDbLine
 10
5799.055499886
 20
5272.1478882613
 30
0.0
 11
5799.9446926654
 21
5267.9408303581
 31
0.0
  0
LINE
  5
142
330
1F
100
AcDbEntity
  8
0
  6
Continuous
 62
     7
370
    25
100
AcDbLine
 10
6746.8187553361
 20
5267.9408303581
 30
0.0
 11
6746.8187553361
 21
5258.1994295927
 31
0.0
  0
LINE
  5
143
330
1F
100
AcDbEntity
  8
0
  6
Continuous
 62
     7
370
    25
100
AcDbLine
 10
5801.2187553361
 20
5267.9408303581
 30
0.0
 11
5801.2187553361
 21
5258.1994295927
 31
0.0
  0
LINE
  5
144
330
1F
100
AcDbEntity
  8
0
  6
Continuous
 62
     7
370
    25
100
AcDbLine
 10
5811.7187553361
 20
5256.9994295927
 30
0.0
 11
5811.7187553361
 21
5256.2497715399
 31
0.0
  0
LINE
  5
145
330
1F
100
AcDbEntity
  8
0
  6
Continuous
 62
     7
370
    25
100
AcDbLine
 10
5831.7187553361
 20
5256.9994295927
 30
0.0
 11
5831.7187553361
 21
5256.2497715399
 31
0.0
  0
LINE
  5
146
330
1F
100
AcDbEntity
  8
0
  6
Continuous
 62
     7
370
    25
100
AcDbLine
 10
6716.3187553361
 20
5256.9994295927
 30
0.0
 11
6716.3187553361
 21
5256.2497715399
 31
0.0
  0
LINE
  5
147
330
1F
100
AcDbEntity
  8
0
  6
Continuous
 62
     7
370
    25
100
AcDbLine
 10
6736.3187553361
 20
5256.9994295927
 30
0.0
 11
6736.3187553361
 21
5256.2497715399
 31
0.0
  0
LINE
  5
148
330
1F
100
AcDbEntity
  8
0
  6
Continuous
 62
     8
370
    25
100
AcDbLine
 10
6234.7165292035
 20
5252.923103519
 30
0.0
 11
6313.3209814687
 21
5252.923103519
 31
0.0
  0
LINE
  5
149
330
1F
100
AcDbEntity
  8
0
  6
Continuous
 62
     8
370
    25
100
AcDbLine
 10
6234.9556405887
 20
5253.3372565868
 30
0.0
 11
6313.0818700835
 21
5253.3372565868
 31
0.0
  0
LWPOLYLINE
  5
14A
330
1F
100
AcDbEntity
  8
0
  6
Continuous
 62
     8
370
    25
100
AcDbPolyline
 90
       21
 70
   128
 43
0.0
 10
6239.2281711583
 20
5206.0922647075
 10
6244.8184801106
 20
5207.1353732179
 10
6251.3617451663
 20
5208.5173712913
 10
6258.2381055483
 20
5210.1610893164
 10
6265.6601580369
 20
5212.1614387324
 10
6273.1951379386
 20
5214.4404027525
 10
6280.8705471193
 20
5217.0289802436
 10
6288.5790349941
 20
5219.9122435854
 10
6292.3725753885
 20
5221.4399276079
 10
6296.0256362785
 20
5222.9809736583
 10
6299.6547344444
 20
5224.5821730839
 10
6303.0844385434
 20
5226.1611725038
 10
6306.3851815572
 20
5227.7433096771
 10
6309.4223907289
 20
5229.2544697144
 10
6312.085423543
 20
5230.6246000666
 10
6314.4495177519
 20
5231.8769677283
 10
6316.5581699416
 20
5233.0234095748
 10
6318.2851979403
 20
5233.9834474385
 10
6320.0229739419
 20
5234.9689634832
 10
6320.8744351873
 20
5235.4590951625
 10
6320.8304561075
 20
5235.433671994
  0
LINE
  5
14B
330
1F
100
AcDbEntity
  8
0
  6
Continuous
 62
     8
370
    25
100
AcDbLine
 10
6323.0187553361
 20
5247.3994295927
 30
0.0
 11
6238.3006058891
 21
5247.3994295927
 31
0.0
  0
LINE
  5
14C
330
1F
100
AcDbEntity
  8
0
  6
Continuous
 62
     8
370
    25
100
AcDbLine
 10
6250.1743875592
 20
5177.2161909546
 30
0.0
 11
6306.2595003184
 21
5177.2161909546
 31
0.0
  0
LINE
  5
14D
330
1F
100
AcDbEntity
  8
0
  6
Continuous
 62
     8
370
    25
100
AcDbLine
 10
6207.4111392702
 20
5191.303718063
 30
0.0
 11
6206.9484158409
 21
5244.3265712016
 31
0.0
  0
LINE
  5
14E
330
1F
100
AcDbEntity
  8
0
  6
Continuous
 62
     8
370
    25
100
AcDbLine
 10
6181.9484158409
 20
5243.4467832338
 30
0.0
 11
6182.3995924741
 21
5191.7470618739
 31
0.0
  0
LINE
  5
14F
330
1F
100
AcDbEntity
  8
0
  6
Continuous
 62
     8
370
    25
100
AcDbLine
 10
6180.4353426467
 20
5193.7118429394
 30
0.0
 11
6180.0187553361
 21
5241.4480205277
 31
0.0
  0
LINE
  5
150
330
1F
100
AcDbEntity
  8
0
  6
Continuous
 62
     8
370
    25
100
AcDbLine
 10
6158.4387992462
 20
5240.6048519475
 30
0.0
 11
6158.8439579679
 21
5194.1782609364
 31
0.0
  0
LINE
  5
151
330
1F
100
AcDbEntity
  8
0
  6
Continuous
 62
     8
370
    25
100
AcDbLine
 10
6158.19381807
 20
5240.4046939311
 30
0.0
 11
6158.5955208645
 21
5194.3741129567
 31
0.0
  0
LINE
  5
152
330
1F
100
AcDbEntity
  8
0
  6
Continuous
 62
     8
370
    25
100
AcDbLine
 10
6159.2766178735
 20
5240.6048519475
 30
0.0
 11
6159.6816489914
 21
5194.1928828876
 31
0.0
  0
LINE
  5
153
330
1F
100
AcDbEntity
  8
0
  6
Continuous
 62
     8
370
    25
100
AcDbLine
 10
6159.5224316004
 20
5240.4004108288
 30
0.0
 11
6159.9238572901
 21
5194.4015829099
 31
0.0
  0
LINE
  5
154
330
1F
100
AcDbEntity
  8
0
  6
Continuous
 62
     8
370
    25
100
AcDbLine
 10
6157.7776256225
 20
5238.3590426963
 30
0.0
 11
6158.1436902683
 21
5196.4121890691
 31
0.0
  0
LINE
  5
155
330
1F
100
AcDbEntity
  8
0
  6
Continuous
 62
     8
370
    25
100
AcDbLine
 10
6155.4927501636
 20
5237.3988115063
 30
0.0
 11
6155.8424044621
 21
5197.3323974361
 31
0.0
  0
ARC
  5
156
330
1F
100
AcDbEntity
  8
0
  6
Continuous
 62
     8
370
    25
100
AcDbCircle
 10
6249.9684159886
 20
5172.72292204
 30
0.0
 40
4.497987308359088
100
AcDbArc
 50
87.3753972295
 51
107.4379694264
  0
LINE
  5
157
330
1F
100
AcDbEntity
  8
0
  6
Continuous
 62
     8
370
    25
100
AcDbLine
 10
6215.1303687679
 20
5231.6010703993
 30
0.0
 11
6215.075531391
 21
5237.8848113999
 31
0.0
  0
LWPOLYLINE
  5
158
330
1F
100
AcDbEntity
  8
0
  6
Continuous
 62
     8
370
    25
100
AcDbPolyline
 90
        6
 70
   128
 43
0.0
 10
6216.6493861121
 20
5197.9521689002
 10
6216.6553650177
 20
5197.9165433936
 10
6216.5931599036
 20
5198.2856125127
 10
6216.4438585374
 20
5199.1406172645
 10
6216.2041408676
 20
5200.3697669088
 10
6215.7718976569
 20
5202.0152682386
  0
ARC
  5
159
330
1F
100
AcDbEntity
  8
0
  6
Continuous
 62
     8
370
    25
100
AcDbCircle
 10
6203.8847664707
 20
5198.3277139701
 30
0.0
 40
14.07105711224698
100
AcDbArc
 50
356.7353387325
 51
11.0392685401
  0
LINE
  5
15A
330
1F
100
AcDbEntity
  8
0
  6
Continuous
 62
     8
370
    25
100
AcDbLine
 10
6716.3187553361
 20
5232.4493156103
 30
0.0
 11
6717.8187553361
 21
5232.4493156103
 31
0.0
  0
LINE
  5
15B
330
1F
100
AcDbEntity
  8
0
  6
Continuous
 62
     8
370
    25
100
AcDbLine
 10
6734.8187553361
 20
5232.4493156103
 30
0.0
 11
6736.3187553361
 21
5232.4493156103
 31
0.0
  0
LINE
  5
15C
330
1F
100
AcDbEntity
  8
0
  6
Continuous
 62
     8
370
    25
100
AcDbLine
 10
5831.7187553361
 20
5232.4493156103
 30
0.0
 11
5830.2187553361
 21
5232.4493156103
 31
0.0
  0
LINE
  5
15D
330
1F
100
AcDbEntity
  8
0
  6
Continuous
 62
     8
370
    25
100
AcDbLine
 10
5813.2187553361
 20
5232.4493156103
 30
0.0
 11
5811.7187553361
 21
5232.4493156103
 31
0.0
  0
LINE
  5
15E
330
1F
100
AcDbEntity
  8
0
  6
Continuous
 62
     8
370
    25
100
AcDbLine
 10
6744.6187553361
 20
5274.1994295927
 30
0.0
 11
6744.6187553361
 21
5272.1478882613
 31
0.0
  0
LINE
  5
15F
330
1F
100
AcDbEntity
  8
0
  6
Continuous
 62
     8
370
    25
100
AcDbLine
 10
5803.4187553361
 20
5274.1994295927
 30
0.0
 11
5803.4187553361
 21
5272.1478882613
 31
0.0
  0
LINE
  5
160
330
1F
100
AcDbEntity
  8
0
  6
Continuous
 62
     8
370
    25
100
AcDbLine
 10
5803.4187553361
 20
5267.9408303581
 30
0.0
 11
5803.4187553361
 21
5258.1994295927
 31
0.0
  0
LINE
  5
161
330
1F
100
AcDbEntity
  8
0
  6
Continuous
 62
     8
370
    25
100
AcDbLine
 10
6744.6187553361
 20
5267.9408303581
 30
0.0
 11
6744.6187553361
 21
5258.1994295927
 31
0.0
  0
LINE
  5
162
330
1F
100
AcDbEntity
  8
0
  6
Continuous
 62
     7
370
    25
100
AcDbLine
 10
7033.9600736396
 20
5254.9994295927
 30
0.0
 11
7033.9600736396
 21
5254.403793359
 31
0.0
  0
LINE
  5
163
330
1F
100
AcDbEntity
  8
0
  6
Continuous
 62
     7
370
    25
100
AcDbLine
 10
7100.4600736396
 20
5254.403793359
 30
0.0
 11
7100.4600736396
 21
5254.9994295927
 31
0.0
  0
LINE
  5
164
330
1F
100
AcDbEntity
  8
0
  6
Continuous
 62
     7
370
    25
100
AcDbLine
 10
7027.2100736396
 20
5252.895718745
 30
0.0
 11
7027.2100736396
 21
5252.3994295927
 31
0.0
  0
LINE
  5
165
330
1F
100
AcDbEntity
  8
0
  6
Continuous
 62
     7
370
    25
100
AcDbLine
 10
7107.2100736396
 20
5252.3994295927
 30
0.0
 11
7107.2100736396
 21
5252.895718745
 31
0.0
  0
ARC
  5
166
330
1F
100
AcDbEntity
  8
0
  6
Continuous
 62
     7
370
    25
100
AcDbCircle
 10
7027.860415687
 20
5252.950488293
 30
0.0
 40
0.0547695479950149
100
AcDbArc
 50
270.0
 51
330.0000000003
  0
ARC
  5
167
330
1F
100
AcDbEntity
  8
0
  6
Continuous
 62
     7
370
    25
100
AcDbCircle
 10
7106.5597315921
 20
5252.950488293
 30
0.0
 40
0.0547695479945105
100
AcDbArc
 50
210.0000000002
 51
270.0
  0
LINE
  5
168
330
1F
100
AcDbEntity
  8
0
  6
Continuous
 62
     7
370
    25
100
AcDbLine
 10
7106.5122997722
 20
5252.923103519
 30
0.0
 11
7106.273188387
 21
5253.3372565868
 31
0.0
  0
LINE
  5
169
330
1F
100
AcDbEntity
  8
0
  6
Continuous
 62
     7
370
    25
100
AcDbLine
 10
7028.1469588922
 20
5253.3372565868
 30
0.0
 11
7027.907847507
 21
5252.923103519
 31
0.0
  0
ARC
  5
16A
330
1F
100
AcDbEntity
  8
0
  6
Continuous
 62
     7
370
    25
100
AcDbCircle
 10
7028.2417909437
 20
5253.2825052764
 30
0.0
 40
0.1095026209371498
100
AcDbArc
 50
90.0
 51
150.0000000001
  0
ARC
  5
16B
330
1F
100
AcDbEntity
  8
0
  6
Continuous
 62
     7
370
    25
100
AcDbCircle
 10
7106.1783563355
 20
5253.2825052764
 30
0.0
 40
0.1095026209379374
100
AcDbArc
 50
29.9999999997
 51
90.0
  0
LINE
  5
16C
330
1F
100
AcDbEntity
  8
0
  6
Continuous
 62
     7
370
    25
100
AcDbLine
 10
7106.1783563355
 20
5253.3920078973
 30
0.0
 11
7072.9835763315
 21
5253.3920078973
 31
0.0
  0
LINE
  5
16D
330
1F
100
AcDbEntity
  8
0
  6
Continuous
 62
     7
370
    25
100
AcDbLine
 10
7061.4365709477
 20
5253.3920078973
 30
0.0
 11
7028.2417909437
 21
5253.3920078973
 31
0.0
  0
LINE
  5
16E
330
1F
100
AcDbEntity
  8
0
  6
Continuous
 62
     7
370
    25
100
AcDbLine
 10
7047.2101688355
 20
5217.0919961077
 30
0.0
 11
7047.2101688355
 21
5216.493757547
 31
0.0
  0
LINE
  5
16F
330
1F
100
AcDbEntity
  8
0
  6
Continuous
 62
     7
370
    25
100
AcDbLine
 10
7087.2099784436
 20
5216.493757547
 30
0.0
 11
7087.2099784436
 21
5217.0919961077
 31
0.0
  0
ARC
  5
170
330
1F
100
AcDbEntity
  8
0
  6
Continuous
 62
     7
370
    25
100
AcDbCircle
 10
7067.2100736396
 20
5217.2502820412
 30
0.0
 40
27.00000000000102
100
AcDbArc
 50
0.0
 51
83.6206297916
  0
ARC
  5
171
330
1F
100
AcDbEntity
  8
0
  6
Continuous
 62
     7
370
    25
100
AcDbCircle
 10
7067.2100736396
 20
5217.2502820412
 30
0.0
 40
27.00000000000072
100
AcDbArc
 50
96.3793702084
 51
0.0
  0
ARC
  5
172
330
1F
100
AcDbEntity
  8
0
  6
Continuous
 62
     7
370
    25
100
AcDbCircle
 10
7102.8343762306
 20
5147.068481144
 30
0.0
 40
52.79442234773465
100
AcDbArc
 50
98.6113344955
 51
109.5792512048
  0
ARC
  5
173
330
1F
100
AcDbEntity
  8
0
  6
Continuous
 62
     7
370
    25
100
AcDbCircle
 10
7031.8585796105
 20
5148.1091371518
 30
0.0
 40
51.72268379444537
100
AcDbArc
 50
70.3260562123
 51
81.523490746
  0
LINE
  5
174
330
1F
100
AcDbEntity
  8
0
  6
Continuous
 62
     7
370
    25
100
AcDbLine
 10
7108.9600736396
 20
5249.3994295927
 30
0.0
 11
7108.9600736396
 21
5252.3994295927
 31
0.0
  0
LINE
  5
175
330
1F
100
AcDbEntity
  8
0
  6
Continuous
 62
     7
370
    25
100
AcDbLine
 10
7025.4600736396
 20
5252.3994295927
 30
0.0
 11
7025.4600736396
 21
5249.3994295927
 31
0.0
  0
LWPOLYLINE
  5
176
330
1F
100
AcDbEntity
  8
0
  6
Continuous
 62
     7
370
    25
100
AcDbPolyline
 90
       14
 70
   128
 43
0.0
 10
7020.5055271345
 20
5214.733515774
 10
7020.5202377914
 20
5213.7232745704
 10
7020.8631830028
 20
5211.7426988402
 10
7021.5056496908
 20
5209.8926403822
 10
7022.4148674841
 20
5208.1922781254
 10
7023.5657759582
 20
5206.6442712646
 10
7024.9529991798
 20
5205.2357107882
 10
7026.5935242025
 20
5203.9494430714
 10
7028.5254470235
 20
5202.7712215909
 10
7030.7893390679
 20
5201.700109785
 10
7033.3842368439
 20
5200.755136546
 10
7036.2172431927
 20
5199.9664365693
 10
7039.2517568751
 20
5199.3152194412
 10
7039.5211422302
 20
5199.2702986762
  0
LWPOLYLINE
  5
177
330
1F
100
AcDbEntity
  8
0
  6
Continuous
 62
     7
370
    25
100
AcDbPolyline
 90
       13
 70
   128
 43
0.0
 10
7094.8785972224
 20
5199.2801391464
 10
7096.4402392248
 20
5199.5690056167
 10
7099.3177114258
 20
5200.2518949327
 10
7102.0830253922
 20
5201.1101520523
 10
7104.5879200776
 20
5202.1312013368
 10
7106.9523630832
 20
5203.4011049002
 10
7108.7784974798
 20
5204.6859753092
 10
7110.3060039629
 20
5206.0788049684
 10
7111.5607309004
 20
5207.5797981912
 10
7112.5556745751
 20
5209.1892791781
 10
7113.3518320849
 20
5211.0854736808
 10
7113.8094400444
 20
5213.0218019975
 10
7113.93134352
 20
5214.7427782335
  0
LINE
  5
178
330
1F
100
AcDbEntity
  8
0
  6
Continuous
 62
     7
370
    25
100
AcDbLine
 10
7020.3263696103
 20
5231.0732312898
 30
0.0
 11
7020.4691659399
 21
5214.7103926381
 31
0.0
  0
LINE
  5
179
330
1F
100
AcDbEntity
  8
0
  6
Continuous
 62
     7
370
    25
100
AcDbLine
 10
7113.9510331184
 20
5214.716325943
 30
0.0
 11
7114.2100736396
 21
5244.3994295927
 31
0.0
  0
ARC
  5
17A
330
1F
100
AcDbEntity
  8
0
  6
Continuous
 62
     7
370
    25
100
AcDbCircle
 10
7020.2100736396
 20
5247.3994295927
 30
0.0
 40
2.0
100
AcDbArc
 50
120.0010464823
 51
180.0
  0
ARC
  5
17B
330
1F
100
AcDbEntity
  8
0
  6
Continuous
 62
     7
370
    25
100
AcDbCircle
 10
7114.2100736396
 20
5247.3994295927
 30
0.0
 40
2.000000000000909
100
AcDbArc
 50
0.0
 51
90.0
  0
LINE
  5
17C
330
1F
100
AcDbEntity
  8
0
  6
Continuous
 62
     7
370
    25
100
AcDbLine
 10
7116.2100736396
 20
5244.3994295927
 30
0.0
 11
7116.2100736396
 21
5247.3994295927
 31
0.0
  0
LINE
  5
17D
330
1F
100
AcDbEntity
  8
0
  6
Continuous
 62
     7
370
    25
100
AcDbLine
 10
7018.2100736396
 20
5247.3994295927
 30
0.0
 11
7018.2100736396
 21
5244.3994295927
 31
0.0
  0
LINE
  5
17E
330
1F
100
AcDbEntity
  8
0
  6
Continuous
 62
     7
370
    25
100
AcDbLine
 10
7034.3600534529
 20
5200.4834722989
 30
0.0
 11
7034.9693286573
 21
5177.2161909546
 31
0.0
  0
LINE
  5
17F
330
1F
100
AcDbEntity
  8
0
  6
Continuous
 62
     7
370
    25
100
AcDbLine
 10
7099.4508186218
 20
5177.2161909546
 30
0.0
 11
7100.0600629976
 21
5200.4822949992
 31
0.0
  0
ARC
  5
180
330
1F
100
AcDbEntity
  8
0
  6
Continuous
 62
     7
370
    25
100
AcDbCircle
 10
7092.453217347
 20
5177.3994295927
 30
0.0
 40
6.999999999999502
100
AcDbArc
 50
270.0
 51
358.5
  0
ARC
  5
181
330
1F
100
AcDbEntity
  8
0
  6
Continuous
 62
     7
370
    25
100
AcDbCircle
 10
7041.9669299321
 20
5177.3994295927
 30
0.0
 40
7.000000000000411
100
AcDbArc
 50
181.5
 51
270.0
  0
LINE
  5
182
330
1F
100
AcDbEntity
  8
0
  6
Continuous
 62
     7
370
    25
100
AcDbLine
 10
7012.2100736396
 20
5160.1994295927
 30
0.0
 11
7012.2100736396
 21
5230.1994295927
 31
0.0
  0
LINE
  5
183
330
1F
100
AcDbEntity
  8
0
  6
Continuous
 62
     7
370
    25
100
AcDbLine
 10
7002.2100736396
 20
5230.1994295927
 30
0.0
 11
7002.2100736396
 21
5160.1994295927
 31
0.0
  0
LINE
  5
184
330
1F
100
AcDbEntity
  8
0
  6
Continuous
 62
     7
370
    25
100
AcDbLine
 10
7012.2100736396
 20
5239.1994295927
 30
0.0
 11
7011.2100736396
 21
5240.1994295927
 31
0.0
  0
LINE
  5
185
330
1F
100
AcDbEntity
  8
0
  6
Continuous
 62
     7
370
    25
100
AcDbLine
 10
7003.2100736396
 20
5240.1994295927
 30
0.0
 11
7002.2100736396
 21
5239.1994295927
 31
0.0
  0
LINE
  5
186
330
1F
100
AcDbEntity
  8
0
  6
Continuous
 62
     7
370
    25
100
AcDbLine
 10
7159.2100736396
 20
5155.1994295927
 30
0.0
 11
7159.2100736396
 21
5230.1994295927
 31
0.0
  0
LINE
  5
187
330
1F
100
AcDbEntity
  8
0
  6
Continuous
 62
     7
370
    25
100
AcDbLine
 10
7149.2100736396
 20
5230.1994295927
 30
0.0
 11
7149.2100736396
 21
5155.1994295927
 31
0.0
  0
LINE
  5
188
330
1F
100
AcDbEntity
  8
0
  6
Continuous
 62
     7
370
    25
100
AcDbLine
 10
7159.2100736396
 20
5239.1994295927
 30
0.0
 11
7158.2100736396
 21
5240.1994295927
 31
0.0
  0
LINE
  5
189
330
1F
100
AcDbEntity
  8
0
  6
Continuous
 62
     7
370
    25
100
AcDbLine
 10
7150.2100736396
 20
5240.1994295927
 30
0.0
 11
7149.2100736396
 21
5239.1994295927
 31
0.0
  0
LINE
  5
18A
330
1F
100
AcDbEntity
  8
0
  6
Continuous
 62
     7
370
    25
100
AcDbLine
 10
7017.2100736396
 20
5274.1994295927
 30
0.0
 11
7014.5100736396
 21
5274.1994295927
 31
0.0
  0
LINE
  5
18B
330
1F
100
AcDbEntity
  8
0
  6
Continuous
 62
     7
370
    25
100
AcDbLine
 10
7117.2100736396
 20
5274.1994295927
 30
0.0
 11
7017.2100736396
 21
5274.1994295927
 31
0.0
  0
LINE
  5
18C
330
1F
100
AcDbEntity
  8
0
  6
Continuous
 62
     7
370
    25
100
AcDbLine
 10
7119.9100736396
 20
5274.1994295927
 30
0.0
 11
7117.2100736396
 21
5274.1994295927
 31
0.0
  0
LINE
  5
18D
330
1F
100
AcDbEntity
  8
0
  6
Continuous
 62
     7
370
    25
100
AcDbLine
 10
7064.2100736396
 20
5249.9994295927
 30
0.0
 11
7064.2100736396
 21
5234.9994295927
 31
0.0
  0
LINE
  5
18E
330
1F
100
AcDbEntity
  8
0
  6
Continuous
 62
     7
370
    25
100
AcDbLine
 10
7070.2100736396
 20
5234.9994295927
 30
0.0
 11
7070.2100736396
 21
5249.9994295927
 31
0.0
  0
LINE
  5
18F
330
1F
100
AcDbEntity
  8
0
  6
Continuous
 62
     7
370
    25
100
AcDbLine
 10
7035.6701097765
 20
5254.403793359
 30
0.0
 11
7037.3250134735
 21
5253.3920078973
 31
0.0
  0
LINE
  5
190
330
1F
100
AcDbEntity
  8
0
  6
Continuous
 62
     7
370
    25
100
AcDbLine
 10
7097.0951338056
 20
5253.3920078973
 30
0.0
 11
7098.7500375026
 21
5254.403793359
 31
0.0
  0
LINE
  5
191
330
1F
100
AcDbEntity
  8
0
  6
Continuous
 62
     7
370
    25
100
AcDbLine
 10
7100.4600736396
 20
5254.403793359
 30
0.0
 11
7072.9835763315
 21
5254.403793359
 31
0.0
  0
LINE
  5
192
330
1F
100
AcDbEntity
  8
0
  6
Continuous
 62
     7
370
    25
100
AcDbLine
 10
7061.4365709477
 20
5254.403793359
 30
0.0
 11
7033.9600736396
 21
5254.403793359
 31
0.0
  0
LINE
  5
193
330
1F
100
AcDbEntity
  8
0
  6
Continuous
 62
     7
370
    25
100
AcDbLine
 10
7027.2100736396
 20
5252.895718745
 30
0.0
 11
7061.4365709477
 21
5252.895718745
 31
0.0
  0
LINE
  5
194
330
1F
100
AcDbEntity
  8
0
  6
Continuous
 62
     7
370
    25
100
AcDbLine
 10
7072.9835763315
 20
5252.895718745
 30
0.0
 11
7107.2100736396
 21
5252.895718745
 31
0.0
  0
LWPOLYLINE
  5
195
330
1F
100
AcDbEntity
  8
0
  6
Continuous
 62
     7
370
    25
100
AcDbPolyline
 90
        8
 70
   128
 43
0.0
 10
7077.2951124495
 20
5230.329193335
 10
7076.8543607039
 20
5230.3257872403
 10
7073.283629192
 20
5230.3000081795
 10
7069.5493385665
 20
5230.2747290932
 10
7065.7620735864
 20
5230.2504589573
 10
7062.0308528
 20
5230.225484533
 10
7058.4464397486
 20
5230.1997880934
 10
7057.1851719432
 20
5230.1900643358
  0
LINE
  5
196
330
1F
100
AcDbEntity
  8
0
  6
Continuous
 62
     7
370
    25
100
AcDbLine
 10
7067.2100736396
 20
5228.8994295927
 30
0.0
 11
7076.9009187832
 21
5228.8994295927
 31
0.0
  0
LINE
  5
197
330
1F
100
AcDbEntity
  8
0
  6
Continuous
 62
     7
370
    25
100
AcDbLine
 10
7057.519228496
 20
5228.8994295927
 30
0.0
 11
7067.2100736396
 21
5228.8994295927
 31
0.0
  0
LWPOLYLINE
  5
198
330
1F
100
AcDbEntity
  8
0
  6
Continuous
 62
     7
370
    25
100
AcDbPolyline
 90
        7
 70
   128
 43
0.0
 10
7058.0775356067
 20
5231.2401483872
 10
7058.3318180087
 20
5231.2431795886
 10
7062.727466128
 20
5231.2914319611
 10
7067.2100736396
 20
5231.3369295886
 10
7071.6926811511
 20
5231.3824272162
 10
7076.0883292704
 20
5231.4306795886
 10
7076.1555547001
 20
5231.4314809568
  0
LWPOLYLINE
  5
199
330
1F
100
AcDbEntity
  8
0
  6
Continuous
 62
     7
370
    25
100
AcDbPolyline
 90
        5
 70
   128
 43
0.0
 10
7058.4458850931
 20
5231.431931742
 10
7062.727466128
 20
5231.4789319651
 10
7067.2100736396
 20
5231.5244295927
 10
7071.6926811511
 20
5231.5699272203
 10
7075.750798338
 20
5231.6144744125
  0
LWPOLYLINE
  5
19A
330
1F
100
AcDbEntity
  8
0
  6
Continuous
 62
     7
370
    25
100
AcDbPolyline
 90
        7
 70
   128
 43
0.0
 10
7057.3182413251
 20
5230.7580709195
 10
7058.642518233
 20
5230.7744295907
 10
7062.8843378399
 20
5230.8226819631
 10
7067.2100736396
 20
5230.8681795907
 10
7071.5358094392
 20
5230.9136772182
 10
7075.7776290461
 20
5230.9619295907
 10
7076.8963820643
 20
5230.9757494441
  0
LWPOLYLINE
  5
19B
330
1F
100
AcDbEntity
  8
0
  6
Continuous
 62
     7
370
    25
100
AcDbPolyline
 90
        4
 70
   128
 43
0.0
 10
7060.0957832622
 20
5232.290961054
 10
7062.8843378399
 20
5232.3226819631
 10
7067.2100736396
 20
5232.3681795907
 10
7070.1812011427
 20
5232.3994295927
  0
LWPOLYLINE
  5
19C
330
1F
100
AcDbEntity
  8
0
  6
Continuous
 62
     7
370
    25
100
AcDbPolyline
 90
        7
 70
   128
 43
0.0
 10
7057.3065555849
 20
5230.3829265666
 10
7058.642518233
 20
5230.3994295907
 10
7062.8843378399
 20
5230.4476819631
 10
7067.2100736396
 20
5230.4931795907
 10
7071.5358094392
 20
5230.5386772182
 10
7075.7776290461
 20
5230.5869295907
 10
7077.1067163907
 20
5230.6033476847
  0
LWPOLYLINE
  5
19D
330
1F
100
AcDbEntity
  8
0
  6
Continuous
 62
     7
370
    25
100
AcDbPolyline
 90
        5
 70
   128
 43
0.0
 10
7059.3594504293
 20
5231.9075849774
 10
7062.8843378399
 20
5231.9476819631
 10
7067.2100736396
 20
5231.9931795907
 10
7071.5358094392
 20
5232.0386772182
 10
7074.7320988337
 20
5232.0750362718
  0
CIRCLE
  5
19E
330
1F
100
AcDbEntity
  8
0
  6
Continuous
 62
     7
370
    25
100
AcDbCircle
 10
7067.2100104205
 20
5216.4627056762
 30
0.0
 40
17.49968043750919
  0
ARC
  5
19F
330
1F
100
AcDbEntity
  8
0
  6
Continuous
 62
     7
370
    25
100
AcDbCircle
 10
7067.2100736396
 20
5216.4628407626
 30
0.0
 40
19.71434232641745
100
AcDbArc
 50
98.7529037444
 51
81.2470962556
  0
ARC
  5
1A0
330
1F
100
AcDbEntity
  8
0
  6
Continuous
 62
     7
370
    25
100
AcDbCircle
 10
7067.2100736396
 20
5216.4932748615
 30
0.0
 40
19.99963762810185
100
AcDbArc
 50
98.6270840614
 51
81.3729159386
  0
ARC
  5
1A1
330
1F
100
AcDbEntity
  8
0
  6
Continuous
 62
     7
370
    25
100
AcDbCircle
 10
7067.2106338945
 20
5217.0917248586
 30
0.0
 40
19.99934455095299
100
AcDbArc
 50
0.0007770969
 51
81.3744119802
  0
ARC
  5
1A2
330
1F
100
AcDbEntity
  8
0
  6
Continuous
 62
     7
370
    25
100
AcDbCircle
 10
7067.2095855234
 20
5217.0916628367
 30
0.0
 40
19.9994166906062
100
AcDbArc
 50
98.6257657018
 51
179.9990452211
  0
ARC
  5
1A3
330
1F
100
AcDbEntity
  8
0
  6
Continuous
 62
     7
370
    25
100
AcDbCircle
 10
7064.7704568954
 20
5217.3405010765
 30
0.0
 40
15.04056685107977
100
AcDbArc
 50
177.7865545129
 51
205.5322813903
  0
ARC
  5
1A4
330
1F
100
AcDbEntity
  8
0
  6
Continuous
 62
     7
370
    25
100
AcDbCircle
 10
7067.2100736396
 20
5217.9213422988
 30
0.0
 40
17.50023986067636
100
AcDbArc
 50
203.8052968746
 51
336.1947031254
  0
ARC
  5
1A5
330
1F
100
AcDbEntity
  8
0
  6
Continuous
 62
     7
370
    25
100
AcDbCircle
 10
7068.8637659139
 20
5217.4467341698
 30
0.0
 40
15.79739587785372
100
AcDbArc
 50
335.348694842
 51
1.7302785812
  0
ARC
  5
1A6
330
1F
100
AcDbEntity
  8
0
  6
Continuous
 62
     7
370
    25
100
AcDbCircle
 10
7067.2101242747
 20
5217.8134230062
 30
0.0
 40
26.51314433462076
100
AcDbArc
 50
59.5202020559
 51
83.5030967343
  0
ARC
  5
1A7
330
1F
100
AcDbEntity
  8
0
  6
Continuous
 62
     7
370
    25
100
AcDbCircle
 10
7067.2100167811
 20
5217.8134423661
 30
0.0
 40
26.51312449343374
100
AcDbArc
 50
96.248458015
 51
120.4798075851
  0
LINE
  5
1A8
330
1F
100
AcDbEntity
  8
0
  6
Continuous
 62
     7
370
    25
100
AcDbLine
 10
7043.1904573046
 20
5247.3994295927
 30
0.0
 11
7043.1904573046
 21
5244.3994295927
 31
0.0
  0
LINE
  5
1A9
330
1F
100
AcDbEntity
  8
0
  6
Continuous
 62
     7
370
    25
100
AcDbLine
 10
7050.0768091629
 20
5247.3994295927
 30
0.0
 11
7043.1904573046
 21
5247.3994295927
 31
0.0
  0
LINE
  5
1AA
330
1F
100
AcDbEntity
  8
0
  6
Continuous
 62
     7
370
    25
100
AcDbLine
 10
7050.0768091629
 20
5247.3994295927
 30
0.0
 11
7050.0768091629
 21
5244.3994295927
 31
0.0
  0
LINE
  5
1AB
330
1F
100
AcDbEntity
  8
0
  6
Continuous
 62
     7
370
    25
100
AcDbLine
 10
7043.1904573046
 20
5244.3994295927
 30
0.0
 11
7050.0768091629
 21
5244.3994295927
 31
0.0
  0
LINE
  5
1AC
330
1F
100
AcDbEntity
  8
0
  6
Continuous
 62
     7
370
    25
100
AcDbLine
 10
7045.157986407
 20
5249.3994295927
 30
0.0
 11
7050.0768091629
 21
5249.3994295927
 31
0.0
  0
LINE
  5
1AD
330
1F
100
AcDbEntity
  8
0
  6
Continuous
 62
     7
370
    25
100
AcDbLine
 10
7050.0768091629
 20
5249.3994295927
 30
0.0
 11
7050.0768091629
 21
5247.3994295927
 31
0.0
  0
ARC
  5
1AE
330
1F
100
AcDbEntity
  8
0
  6
Continuous
 62
     7
370
    25
100
AcDbCircle
 10
7045.1743558257
 20
5247.4155332466
 30
0.0
 40
1.983963878170862
100
AcDbArc
 50
90.4727451246
 51
180.4650697253
  0
LINE
  5
1AF
330
1F
100
AcDbEntity
  8
0
  6
Continuous
 62
     7
370
    25
100
AcDbLine
 10
7084.3433381162
 20
5247.3994295927
 30
0.0
 11
7084.3433381162
 21
5244.3994295927
 31
0.0
  0
LINE
  5
1B0
330
1F
100
AcDbEntity
  8
0
  6
Continuous
 62
     7
370
    25
100
AcDbLine
 10
7050.0768091629
 20
5244.3994295927
 30
0.0
 11
7064.2100736396
 21
5244.3994295927
 31
0.0
  0
LINE
  5
1B1
330
1F
100
AcDbEntity
  8
0
  6
Continuous
 62
     7
370
    25
100
AcDbLine
 10
7070.2100736396
 20
5244.3994295927
 30
0.0
 11
7084.3433381162
 21
5244.3994295927
 31
0.0
  0
LINE
  5
1B2
330
1F
100
AcDbEntity
  8
0
  6
Continuous
 62
     7
370
    25
100
AcDbLine
 10
7050.0768091629
 20
5249.3994295927
 30
0.0
 11
7064.2100736396
 21
5249.3994295927
 31
0.0
  0
LINE
  5
1B3
330
1F
100
AcDbEntity
  8
0
  6
Continuous
 62
     7
370
    25
100
AcDbLine
 10
7070.2100736396
 20
5249.3994295927
 30
0.0
 11
7084.3433381162
 21
5249.3994295927
 31
0.0
  0
LINE
  5
1B4
330
1F
100
AcDbEntity
  8
0
  6
Continuous
 62
     7
370
    25
100
AcDbLine
 10
7084.3433381162
 20
5249.3994295927
 30
0.0
 11
7084.3433381162
 21
5247.3994295927
 31
0.0
  0
LINE
  5
1B5
330
1F
100
AcDbEntity
  8
0
  6
Continuous
 62
     7
370
    25
100
AcDbLine
 10
7084.3433381162
 20
5249.3994295927
 30
0.0
 11
7089.2621608722
 21
5249.3994295927
 31
0.0
  0
ARC
  5
1B6
330
1F
100
AcDbEntity
  8
0
  6
Continuous
 62
     7
370
    25
100
AcDbCircle
 10
7089.2457914534
 20
5247.4155332466
 30
0.0
 40
1.983963878168156
100
AcDbArc
 50
359.5349302746
 51
89.5272548755
  0
LINE
  5
1B7
330
1F
100
AcDbEntity
  8
0
  6
Continuous
 62
     7
370
    25
100
AcDbLine
 10
7091.2296899745
 20
5247.3994295927
 30
0.0
 11
7084.3433381162
 21
5247.3994295927
 31
0.0
  0
LINE
  5
1B8
330
1F
100
AcDbEntity
  8
0
  6
Continuous
 62
     7
370
    25
100
AcDbLine
 10
7091.2296899745
 20
5247.3994295927
 30
0.0
 11
7091.2296899745
 21
5244.3994295927
 31
0.0
  0
LINE
  5
1B9
330
1F
100
AcDbEntity
  8
0
  6
Continuous
 62
     7
370
    25
100
AcDbLine
 10
7084.3433381162
 20
5244.3994295927
 30
0.0
 11
7091.2296899745
 21
5244.3994295927
 31
0.0
  0
LWPOLYLINE
  5
1BA
330
1F
100
AcDbEntity
  8
0
  6
Continuous
 62
     7
370
    25
100
AcDbPolyline
 90
        3
 70
   128
 43
0.0
 10
7084.9831144431
 20
5196.8008151112
 10
7084.6511190341
 20
5196.5803864899
 10
7084.2750684804
 20
5196.5149835099
  0
LWPOLYLINE
  5
1BB
330
1F
100
AcDbEntity
  8
0
  6
Continuous
 62
     7
370
    25
100
AcDbPolyline
 90
        3
 70
   128
 43
0.0
 10
7049.4370328361
 20
5196.8008151112
 10
7049.769028245
 20
5196.5803864899
 10
7050.1665697456
 20
5196.5112457891
  0
LINE
  5
1BC
330
1F
100
AcDbEntity
  8
0
  6
Continuous
 62
     7
370
    25
100
AcDbLine
 10
7043.1904573046
 20
5247.3994295927
 30
0.0
 11
7033.6658669851
 21
5247.3994295927
 31
0.0
  0
ARC
  5
1BD
330
1F
100
AcDbEntity
  8
0
  6
Continuous
 62
     7
370
    25
100
AcDbCircle
 10
7035.4238012836
 20
5247.6640171745
 30
0.0
 40
1.777734397020797
100
AcDbArc
 50
102.5271579556
 51
188.5593696972
  0
LINE
  5
1BE
330
1F
100
AcDbEntity
  8
0
  6
Continuous
 62
     7
370
    25
100
AcDbLine
 10
7035.0382065156
 20
5249.3994295927
 30
0.0
 11
7045.157986407
 21
5249.3994295927
 31
0.0
  0
LINE
  5
1BF
330
1F
100
AcDbEntity
  8
0
  6
Continuous
 62
     7
370
    25
100
AcDbLine
 10
7033.6658669851
 20
5247.3994295927
 30
0.0
 11
7033.6658669851
 21
5244.3994295927
 31
0.0
  0
LINE
  5
1C0
330
1F
100
AcDbEntity
  8
0
  6
Continuous
 62
     7
370
    25
100
AcDbLine
 10
7033.6658669851
 20
5244.3994295927
 30
0.0
 11
7043.1904573046
 21
5244.3994295927
 31
0.0
  0
ARC
  5
1C1
330
1F
100
AcDbEntity
  8
0
  6
Continuous
 62
     7
370
    25
100
AcDbCircle
 10
7098.993293339
 20
5247.6619225339
 30
0.0
 40
1.780443090937101
100
AcDbArc
 50
351.5219073503
 51
77.391564997
  0
LINE
  5
1C2
330
1F
100
AcDbEntity
  8
0
  6
Continuous
 62
     7
370
    25
100
AcDbLine
 10
7100.7542802941
 20
5247.3994295927
 30
0.0
 11
7091.2296899745
 21
5247.3994295927
 31
0.0
  0
LINE
  5
1C3
330
1F
100
AcDbEntity
  8
0
  6
Continuous
 62
     7
370
    25
100
AcDbLine
 10
7089.2621608722
 20
5249.3994295927
 30
0.0
 11
7099.3819407635
 21
5249.3994295927
 31
0.0
  0
LINE
  5
1C4
330
1F
100
AcDbEntity
  8
0
  6
Continuous
 62
     7
370
    25
100
AcDbLine
 10
7100.7542802941
 20
5247.3994295927
 30
0.0
 11
7100.7542802941
 21
5244.3994295927
 31
0.0
  0
LINE
  5
1C5
330
1F
100
AcDbEntity
  8
0
  6
Continuous
 62
     7
370
    25
100
AcDbLine
 10
7091.2296899745
 20
5244.3994295927
 30
0.0
 11
7100.7542802941
 21
5244.3994295927
 31
0.0
  0
LINE
  5
1C6
330
1F
100
AcDbEntity
  8
0
  6
Continuous
 62
     7
370
    25
100
AcDbLine
 10
7036.1085839141
 20
5206.0922647075
 30
0.0
 11
7035.8857805063
 21
5244.3994295927
 31
0.0
  0
LINE
  5
1C7
330
1F
100
AcDbEntity
  8
0
  6
Continuous
 62
     7
370
    25
100
AcDbLine
 10
7098.3115633651
 20
5206.0922647075
 30
0.0
 11
7098.5343667729
 21
5244.3994295927
 31
0.0
  0
LINE
  5
1C8
330
1F
100
AcDbEntity
  8
0
  6
Continuous
 62
     7
370
    25
100
AcDbLine
 10
7059.9808105693
 20
5232.3994295927
 30
0.0
 11
7074.4393367098
 21
5232.3994295927
 31
0.0
  0
LINE
  5
1C9
330
1F
100
AcDbEntity
  8
0
  6
Continuous
 62
     7
370
    25
100
AcDbLine
 10
7072.9835763315
 20
5252.3994295927
 30
0.0
 11
7108.9600736396
 21
5252.3994295927
 31
0.0
  0
LINE
  5
1CA
330
1F
100
AcDbEntity
  8
0
  6
Continuous
 62
     7
370
    25
100
AcDbLine
 10
7025.4600736396
 20
5252.3994295927
 30
0.0
 11
7061.4365709477
 21
5252.3994295927
 31
0.0
  0
LINE
  5
1CB
330
1F
100
AcDbEntity
  8
0
  6
Continuous
 62
     7
370
    25
100
AcDbLine
 10
7099.3819407635
 20
5249.3994295927
 30
0.0
 11
7114.2100736396
 21
5249.3994295927
 31
0.0
  0
LINE
  5
1CC
330
1F
100
AcDbEntity
  8
0
  6
Continuous
 62
     7
370
    25
100
AcDbLine
 10
7021.210043746
 20
5249.3994295927
 30
0.0
 11
7035.0382065156
 21
5249.3994295927
 31
0.0
  0
LINE
  5
1CD
330
1F
100
AcDbEntity
  8
0
  6
Continuous
 62
     7
370
    25
100
AcDbLine
 10
7100.7542802941
 20
5244.3994295927
 30
0.0
 11
7116.2100736396
 21
5244.3994295927
 31
0.0
  0
LINE
  5
1CE
330
1F
100
AcDbEntity
  8
0
  6
Continuous
 62
     7
370
    25
100
AcDbLine
 10
7018.2100736396
 20
5244.3994295927
 30
0.0
 11
7019.2100112531
 21
5244.3994295927
 31
0.0
  0
LINE
  5
1CF
330
1F
100
AcDbEntity
  8
0
  6
Continuous
 62
     7
370
    25
100
AcDbLine
 10
7021.2100736396
 20
5244.3994295927
 30
0.0
 11
7033.6658669851
 21
5244.3994295927
 31
0.0
  0
LINE
  5
1D0
330
1F
100
AcDbEntity
  8
0
  6
Continuous
 62
     7
370
    25
100
AcDbLine
 10
7055.9508186218
 20
5177.2161909546
 30
0.0
 11
7056.3518216364
 21
5192.5298782534
 31
0.0
  0
ARC
  5
1D1
330
1F
100
AcDbEntity
  8
0
  6
Continuous
 62
     7
370
    25
100
AcDbCircle
 10
7050.7301954155
 20
5225.6275626864
 30
0.0
 40
48.69205088742911
100
AcDbArc
 50
263.8450785085
 51
276.1549214915
  0
ARC
  5
1D2
330
1F
100
AcDbEntity
  8
0
  6
Continuous
 62
     7
370
    25
100
AcDbCircle
 10
7083.6899518636
 20
5225.6275626034
 30
0.0
 40
48.69205080488818
100
AcDbArc
 50
263.845078498
 51
276.154921502
  0
LINE
  5
1D3
330
1F
100
AcDbEntity
  8
0
  6
Continuous
 62
     7
370
    25
100
AcDbLine
 10
7078.4693286573
 20
5177.2161909546
 30
0.0
 11
7078.0683256428
 21
5192.5298782534
 31
0.0
  0
LINE
  5
1D4
330
1F
100
AcDbEntity
  8
0
  6
Continuous
 62
     7
370
    25
100
AcDbLine
 10
7056.6485808029
 20
5203.967341734
 30
0.0
 11
7057.519228496
 21
5228.8994295927
 31
0.0
  0
LINE
  5
1D5
330
1F
100
AcDbEntity
  8
0
  6
Continuous
 62
     7
370
    25
100
AcDbLine
 10
7077.7715664762
 20
5203.967341734
 30
0.0
 11
7076.9009187832
 21
5228.8994295927
 31
0.0
  0
LWPOLYLINE
  5
1D6
330
1F
100
AcDbEntity
  8
0
  6
Continuous
 62
     7
370
    25
100
AcDbPolyline
 90
        6
 70
   128
 43
0.0
 10
7048.953217347
 20
5170.3994295927
 10
7047.6755997246
 20
5170.8919921844
 10
7046.5710800645
 20
5172.3293369154
 10
7045.8070619312
 20
5174.538324184
 10
7045.5941511349
 20
5175.8420431363
 10
7045.5095722092
 20
5177.2161909546
  0
ARC
  5
1D7
330
1F
100
AcDbEntity
  8
0
  6
Continuous
 62
     7
370
    25
100
AcDbCircle
 10
7048.953217347
 20
5177.3994295927
 30
0.0
 40
6.999999999999091
100
AcDbArc
 50
270.0
 51
358.5
  0
LWPOLYLINE
  5
1D8
330
1F
100
AcDbEntity
  8
0
  6
Continuous
 62
     7
370
    25
100
AcDbPolyline
 90
        6
 70
   128
 43
0.0
 10
7088.9105750699
 20
5177.2161909546
 10
7088.8259988701
 20
5175.8420614451
 10
7088.6130921541
 20
5174.5383470362
 10
7087.8490672146
 20
5172.3293369154
 10
7086.7445475546
 20
5170.8919921844
 10
7085.4669299321
 20
5170.3994295927
  0
ARC
  5
1D9
330
1F
100
AcDbEntity
  8
0
  6
Continuous
 62
     7
370
    25
100
AcDbCircle
 10
7085.4669299321
 20
5177.3994295927
 30
0.0
 40
6.999999999999502
100
AcDbArc
 50
181.5
 51
270.0
  0
LINE
  5
1DA
330
1F
100
AcDbEntity
  8
0
  6
Continuous
 62
     7
370
    25
100
AcDbLine
 10
7048.953217347
 20
5170.3994295927
 30
0.0
 11
7041.9669299321
 21
5170.3994295927
 31
0.0
  0
LINE
  5
1DB
330
1F
100
AcDbEntity
  8
0
  6
Continuous
 62
     7
370
    25
100
AcDbLine
 10
7092.453217347
 20
5170.3994295927
 30
0.0
 11
7085.4669299321
 21
5170.3994295927
 31
0.0
  0
LINE
  5
1DC
330
1F
100
AcDbEntity
  8
0
  6
Continuous
 62
     7
370
    25
100
AcDbLine
 10
7055.9508186218
 20
5177.2161909546
 30
0.0
 11
7057.3447721431
 21
5177.2161909546
 31
0.0
  0
LWPOLYLINE
  5
1DD
330
1F
100
AcDbEntity
  8
0
  6
Continuous
 62
     7
370
    25
100
AcDbPolyline
 90
        9
 70
   128
 43
0.0
 10
7052.3967208297
 20
5170.3994295927
 10
7053.3464767444
 20
5170.5295003788
 10
7054.2609368024
 20
5170.9148789056
 10
7055.1061168499
 20
5171.5412433196
 10
7055.8506073917
 20
5172.3853159887
 10
7056.4667408649
 20
5173.4157285716
 10
7056.9316198509
 20
5174.594187761
 10
7057.227968014
 20
5175.8768983819
 10
7057.3447721431
 20
5177.2161909546
  0
LINE
  5
1DE
330
1F
100
AcDbEntity
  8
0
  6
Continuous
 62
     7
370
    25
100
AcDbLine
 10
7052.3967208297
 20
5170.3994295927
 30
0.0
 11
7048.953217347
 21
5170.3994295927
 31
0.0
  0
LINE
  5
1DF
330
1F
100
AcDbEntity
  8
0
  6
Continuous
 62
     7
370
    25
100
AcDbLine
 10
7077.075375136
 20
5177.2161909546
 30
0.0
 11
7078.4693286573
 21
5177.2161909546
 31
0.0
  0
LWPOLYLINE
  5
1E0
330
1F
100
AcDbEntity
  8
0
  6
Continuous
 62
     7
370
    25
100
AcDbPolyline
 90
        9
 70
   128
 43
0.0
 10
7077.075375136
 20
5177.2161909546
 10
7077.1921792652
 20
5175.8768983819
 10
7077.4885274282
 20
5174.594187761
 10
7077.9534064143
 20
5173.4157285716
 10
7078.5695398875
 20
5172.3853159887
 10
7079.3140304292
 20
5171.5412433196
 10
7080.1592104767
 20
5170.9148789056
 10
7081.0736705348
 20
5170.5295003788
 10
7082.0234264495
 20
5170.3994295927
  0
LINE
  5
1E1
330
1F
100
AcDbEntity
  8
0
  6
Continuous
 62
     7
370
    25
100
AcDbLine
 10
7085.4669299321
 20
5170.3994295927
 30
0.0
 11
7082.0234264495
 21
5170.3994295927
 31
0.0
  0
LINE
  5
1E2
330
1F
100
AcDbEntity
  8
0
  6
Continuous
 62
     7
370
    25
100
AcDbLine
 10
7057.3447721431
 20
5177.2161909546
 30
0.0
 11
7061.0874128302
 21
5177.2161909546
 31
0.0
  0
LINE
  5
1E3
330
1F
100
AcDbEntity
  8
0
  6
Continuous
 62
     7
370
    25
100
AcDbLine
 10
7073.3327344489
 20
5177.2161909546
 30
0.0
 11
7077.075375136
 21
5177.2161909546
 31
0.0
  0
LWPOLYLINE
  5
1E4
330
1F
100
AcDbEntity
  8
0
  6
Continuous
 62
     7
370
    25
100
AcDbPolyline
 90
        9
 70
   128
 43
0.0
 10
7056.1393615168
 20
5170.3994295927
 10
7057.0891174315
 20
5170.5295003788
 10
7058.0035774895
 20
5170.9148789056
 10
7058.848757537
 20
5171.5412433196
 10
7059.5932480788
 20
5172.3853159887
 10
7060.209381552
 20
5173.4157285716
 10
7060.674260538
 20
5174.594187761
 10
7060.9706087011
 20
5175.8768983819
 10
7061.0874128302
 20
5177.2161909546
  0
LINE
  5
1E5
330
1F
100
AcDbEntity
  8
0
  6
Continuous
 62
     7
370
    25
100
AcDbLine
 10
7056.1393615168
 20
5170.3994295927
 30
0.0
 11
7052.3967208297
 21
5170.3994295927
 31
0.0
  0
LWPOLYLINE
  5
1E6
330
1F
100
AcDbEntity
  8
0
  6
Continuous
 62
     7
370
    25
100
AcDbPolyline
 90
        9
 70
   128
 43
0.0
 10
7073.3327344489
 20
5177.2161909546
 10
7073.449538578
 20
5175.8768983819
 10
7073.7458867411
 20
5174.594187761
 10
7074.2107657271
 20
5173.4157285716
 10
7074.8268992004
 20
5172.3853159887
 10
7075.5713897421
 20
5171.5412433196
 10
7076.4165697896
 20
5170.9148789056
 10
7077.3310298477
 20
5170.5295003788
 10
7078.2807857624
 20
5170.3994295927
  0
LINE
  5
1E7
330
1F
100
AcDbEntity
  8
0
  6
Continuous
 62
     7
370
    25
100
AcDbLine
 10
7082.0234264495
 20
5170.3994295927
 30
0.0
 11
7078.2807857624
 21
5170.3994295927
 31
0.0
  0
LINE
  5
1E8
330
1F
100
AcDbEntity
  8
0
  6
Continuous
 62
     7
370
    25
100
AcDbLine
 10
7061.0874128302
 20
5177.2161909546
 30
0.0
 11
7064.4527143267
 21
5177.2161909546
 31
0.0
  0
LINE
  5
1E9
330
1F
100
AcDbEntity
  8
0
  6
Continuous
 62
     7
370
    25
100
AcDbLine
 10
7069.9674329524
 20
5177.2161909546
 30
0.0
 11
7073.3327344489
 21
5177.2161909546
 31
0.0
  0
LINE
  5
1EA
330
1F
100
AcDbEntity
  8
0
  6
Continuous
 62
     7
370
    25
100
AcDbLine
 10
7064.4527143267
 20
5170.3994295927
 30
0.0
 11
7064.4527143267
 21
5177.2161909546
 31
0.0
  0
LINE
  5
1EB
330
1F
100
AcDbEntity
  8
0
  6
Continuous
 62
     7
370
    25
100
AcDbLine
 10
7064.4527143267
 20
5170.3994295927
 30
0.0
 11
7056.1393615168
 21
5170.3994295927
 31
0.0
  0
LINE
  5
1EC
330
1F
100
AcDbEntity
  8
0
  6
Continuous
 62
     7
370
    25
100
AcDbLine
 10
7069.9674329524
 20
5177.2161909546
 30
0.0
 11
7069.9674329524
 21
5170.3994295927
 31
0.0
  0
LINE
  5
1ED
330
1F
100
AcDbEntity
  8
0
  6
Continuous
 62
     7
370
    25
100
AcDbLine
 10
7078.2807857624
 20
5170.3994295927
 30
0.0
 11
7069.9674329524
 21
5170.3994295927
 31
0.0
  0
LINE
  5
1EE
330
1F
100
AcDbEntity
  8
0
  6
Continuous
 62
     7
370
    25
100
AcDbLine
 10
7064.4527143267
 20
5177.2161909546
 30
0.0
 11
7069.9674329524
 21
5177.2161909546
 31
0.0
  0
LINE
  5
1EF
330
1F
100
AcDbEntity
  8
0
  6
Continuous
 62
     7
370
    25
100
AcDbLine
 10
7069.9674329524
 20
5170.3994295927
 30
0.0
 11
7064.4527143267
 21
5170.3994295927
 31
0.0
  0
LINE
  5
1F0
330
1F
100
AcDbEntity
  8
0
  6
Continuous
 62
     7
370
    25
100
AcDbLine
 10
7002.3025963515
 20
5160.1994295927
 30
0.0
 11
7002.3025963515
 21
5153.1994295927
 31
0.0
  0
LINE
  5
1F1
330
1F
100
AcDbEntity
  8
0
  6
Continuous
 62
     7
370
    25
100
AcDbLine
 10
7002.3025963515
 20
5160.1994295927
 30
0.0
 11
7012.1175509277
 21
5160.1994295927
 31
0.0
  0
LINE
  5
1F2
330
1F
100
AcDbEntity
  8
0
  6
Continuous
 62
     7
370
    25
100
AcDbLine
 10
7012.1175509277
 20
5160.1994295927
 30
0.0
 11
7012.1175509277
 21
5153.1994295927
 31
0.0
  0
LINE
  5
1F3
330
1F
100
AcDbEntity
  8
0
  6
Continuous
 62
     7
370
    25
100
AcDbLine
 10
7002.3025963515
 20
5153.1994295927
 30
0.0
 11
7012.1175509277
 21
5153.1994295927
 31
0.0
  0
LINE
  5
1F4
330
1F
100
AcDbEntity
  8
0
  6
Continuous
 62
     7
370
    25
100
AcDbLine
 10
6997.3951190633
 20
5160.1994295927
 30
0.0
 11
6997.3951190633
 21
5153.1994295927
 31
0.0
  0
LINE
  5
1F5
330
1F
100
AcDbEntity
  8
0
  6
Continuous
 62
     7
370
    25
100
AcDbLine
 10
6997.3951190633
 20
5160.1994295927
 30
0.0
 11
7002.3025963515
 21
5160.1994295927
 31
0.0
  0
LINE
  5
1F6
330
1F
100
AcDbEntity
  8
0
  6
Continuous
 62
     7
370
    25
100
AcDbLine
 10
6997.3951190633
 20
5153.1994295927
 30
0.0
 11
7002.3025963515
 21
5153.1994295927
 31
0.0
  0
LINE
  5
1F7
330
1F
100
AcDbEntity
  8
0
  6
Continuous
 62
     7
370
    25
100
AcDbLine
 10
7017.0250282158
 20
5160.1994295927
 30
0.0
 11
7017.0250282158
 21
5153.1994295927
 31
0.0
  0
LINE
  5
1F8
330
1F
100
AcDbEntity
  8
0
  6
Continuous
 62
     7
370
    25
100
AcDbLine
 10
7012.1175509277
 20
5153.1994295927
 30
0.0
 11
7017.0250282158
 21
5153.1994295927
 31
0.0
  0
LINE
  5
1F9
330
1F
100
AcDbEntity
  8
0
  6
Continuous
 62
     7
370
    25
100
AcDbLine
 10
7012.1175509277
 20
5160.1994295927
 30
0.0
 11
7017.0250282158
 21
5160.1994295927
 31
0.0
  0
LINE
  5
1FA
330
1F
100
AcDbEntity
  8
0
  6
Continuous
 62
     7
370
    25
100
AcDbLine
 10
7003.2100736396
 20
5240.1994295927
 30
0.0
 11
7011.2100736396
 21
5240.1994295927
 31
0.0
  0
LINE
  5
1FB
330
1F
100
AcDbEntity
  8
0
  6
Continuous
 62
     7
370
    25
100
AcDbLine
 10
7144.3951190633
 20
5160.1994295927
 30
0.0
 11
7144.3951190633
 21
5155.1994295927
 31
0.0
  0
LINE
  5
1FC
330
1F
100
AcDbEntity
  8
0
  6
Continuous
 62
     7
370
    25
100
AcDbLine
 10
7144.3951190633
 20
5160.1994295927
 30
0.0
 11
7149.2100736396
 21
5160.1994295927
 31
0.0
  0
LINE
  5
1FD
330
1F
100
AcDbEntity
  8
0
  6
Continuous
 62
     7
370
    25
100
AcDbLine
 10
7164.0250282158
 20
5160.1994295927
 30
0.0
 11
7164.0250282158
 21
5155.1994295927
 31
0.0
  0
LINE
  5
1FE
330
1F
100
AcDbEntity
  8
0
  6
Continuous
 62
     7
370
    25
100
AcDbLine
 10
7159.2100736396
 20
5160.1994295927
 30
0.0
 11
7164.0250282158
 21
5160.1994295927
 31
0.0
  0
LINE
  5
1FF
330
1F
100
AcDbEntity
  8
0
  6
Continuous
 62
     7
370
    25
100
AcDbLine
 10
6992.2100736396
 20
5155.1994295927
 30
0.0
 11
6992.2100736396
 21
5153.1994295927
 31
0.0
  0
LINE
  5
200
330
1F
100
AcDbEntity
  8
0
  6
Continuous
 62
     7
370
    25
100
AcDbLine
 10
6992.2100736396
 20
5155.1994295927
 30
0.0
 11
6997.3951190633
 21
5155.1994295927
 31
0.0
  0
LINE
  5
201
330
1F
100
AcDbEntity
  8
0
  6
Continuous
 62
     7
370
    25
100
AcDbLine
 10
7017.0250282158
 20
5155.1994295927
 30
0.0
 11
7022.2100736396
 21
5155.1994295927
 31
0.0
  0
LINE
  5
202
330
1F
100
AcDbEntity
  8
0
  6
Continuous
 62
     7
370
    25
100
AcDbLine
 10
7022.2100736396
 20
5155.1994295927
 30
0.0
 11
7022.2100736396
 21
5153.1994295927
 31
0.0
  0
LINE
  5
203
330
1F
100
AcDbEntity
  8
0
  6
Continuous
 62
     7
370
    25
100
AcDbLine
 10
6992.2100736396
 20
5153.1994295927
 30
0.0
 11
6997.3951190633
 21
5153.1994295927
 31
0.0
  0
LINE
  5
204
330
1F
100
AcDbEntity
  8
0
  6
Continuous
 62
     7
370
    25
100
AcDbLine
 10
7017.0250282158
 20
5153.1994295927
 30
0.0
 11
7022.2100736396
 21
5153.1994295927
 31
0.0
  0
LINE
  5
205
330
1F
100
AcDbEntity
  8
0
  6
Continuous
 62
     7
370
    25
100
AcDbLine
 10
7139.2100736396
 20
5155.1994295927
 30
0.0
 11
7139.2100736396
 21
5153.1994295927
 31
0.0
  0
LINE
  5
206
330
1F
100
AcDbEntity
  8
0
  6
Continuous
 62
     7
370
    25
100
AcDbLine
 10
7139.2100736396
 20
5153.1994295927
 30
0.0
 11
7169.2100736396
 21
5153.1994295927
 31
0.0
  0
LINE
  5
207
330
1F
100
AcDbEntity
  8
0
  6
Continuous
 62
     7
370
    25
100
AcDbLine
 10
7139.2100736396
 20
5155.1994295927
 30
0.0
 11
7169.2100736396
 21
5155.1994295927
 31
0.0
  0
LINE
  5
208
330
1F
100
AcDbEntity
  8
0
  6
Continuous
 62
     7
370
    25
100
AcDbLine
 10
7169.2100736396
 20
5155.1994295927
 30
0.0
 11
7169.2100736396
 21
5153.1994295927
 31
0.0
  0
LINE
  5
209
330
1F
100
AcDbEntity
  8
0
  6
Continuous
 62
     7
370
    25
100
AcDbLine
 10
7150.2100736396
 20
5240.1994295927
 30
0.0
 11
7158.2100736396
 21
5240.1994295927
 31
0.0
  0
LINE
  5
20A
330
1F
100
AcDbEntity
  8
0
  6
Continuous
 62
     7
370
    25
100
AcDbLine
 10
6996.0100736396
 20
5258.1994295927
 30
0.0
 11
6996.0100736396
 21
5256.9994295927
 31
0.0
  0
LINE
  5
20B
330
1F
100
AcDbEntity
  8
0
  6
Continuous
 62
     7
370
    25
100
AcDbLine
 10
7138.4100736396
 20
5258.1994295927
 30
0.0
 11
7138.4100736396
 21
5256.9994295927
 31
0.0
  0
LINE
  5
20C
330
1F
100
AcDbEntity
  8
0
  6
Continuous
 62
     7
370
    25
100
AcDbLine
 10
6996.0100736396
 20
5256.9994295927
 30
0.0
 11
7138.4100736396
 21
5256.9994295927
 31
0.0
  0
LINE
  5
20D
330
1F
100
AcDbEntity
  8
0
  6
Continuous
 62
     7
370
    25
100
AcDbLine
 10
6996.0100736396
 20
5258.1994295927
 30
0.0
 11
7138.4100736396
 21
5258.1994295927
 31
0.0
  0
LINE
  5
20E
330
1F
100
AcDbEntity
  8
0
  6
Continuous
 62
     7
370
    25
100
AcDbLine
 10
7017.2100736396
 20
5272.1478882613
 30
0.0
 11
7012.8468181895
 21
5272.1478882613
 31
0.0
  0
ARC
  5
20F
330
1F
100
AcDbEntity
  8
0
  6
Continuous
 62
     7
370
    25
100
AcDbCircle
 10
7014.4917043067
 20
5272.506664623
 30
0.0
 40
1.683558973215646
100
AcDbArc
 50
89.3750030156
 51
192.3044287047
  0
LINE
  5
210
330
1F
100
AcDbEntity
  8
0
  6
Continuous
 62
     7
370
    25
100
AcDbLine
 10
7117.2100736396
 20
5272.1478882613
 30
0.0
 11
7017.2100736396
 21
5272.1478882613
 31
0.0
  0
LINE
  5
211
330
1F
100
AcDbEntity
  8
0
  6
Continuous
 62
     7
370
    25
100
AcDbLine
 10
7121.5733290897
 20
5272.1478882613
 30
0.0
 11
7117.2100736396
 21
5272.1478882613
 31
0.0
  0
ARC
  5
212
330
1F
100
AcDbEntity
  8
0
  6
Continuous
 62
     7
370
    25
100
AcDbCircle
 10
7119.9100736396
 20
5272.4994295927
 30
0.0
 40
1.700000000000129
100
AcDbArc
 50
348.0657534268
 51
90.0
  0
LINE
  5
213
330
1F
100
AcDbEntity
  8
0
  6
Continuous
 62
     7
370
    25
100
AcDbLine
 10
7017.2100736396
 20
5267.9408303581
 30
0.0
 11
7013.7360109689
 21
5267.9408303581
 31
0.0
  0
LINE
  5
214
330
1F
100
AcDbEntity
  8
0
  6
Continuous
 62
     7
370
    25
100
AcDbLine
 10
7012.8468181895
 20
5272.1478882613
 30
0.0
 11
7013.7360109689
 21
5267.9408303581
 31
0.0
  0
LINE
  5
215
330
1F
100
AcDbEntity
  8
0
  6
Continuous
 62
     7
370
    25
100
AcDbLine
 10
7017.2100736396
 20
5272.1478882613
 30
0.0
 11
7017.2100736396
 21
5267.9408303581
 31
0.0
  0
LINE
  5
216
330
1F
100
AcDbEntity
  8
0
  6
Continuous
 62
     7
370
    25
100
AcDbLine
 10
7117.2100736396
 20
5267.9408303581
 30
0.0
 11
7017.2100736396
 21
5267.9408303581
 31
0.0
  0
LINE
  5
217
330
1F
100
AcDbEntity
  8
0
  6
Continuous
 62
     7
370
    25
100
AcDbLine
 10
7117.2100736396
 20
5272.1478882613
 30
0.0
 11
7117.2100736396
 21
5267.9408303581
 31
0.0
  0
LINE
  5
218
330
1F
100
AcDbEntity
  8
0
  6
Continuous
 62
     7
370
    25
100
AcDbLine
 10
7120.6841363102
 20
5267.9408303581
 30
0.0
 11
7117.2100736396
 21
5267.9408303581
 31
0.0
  0
LINE
  5
219
330
1F
100
AcDbEntity
  8
0
  6
Continuous
 62
     7
370
    25
100
AcDbLine
 10
7121.5733290897
 20
5272.1478882613
 30
0.0
 11
7120.6841363102
 21
5267.9408303581
 31
0.0
  0
LINE
  5
21A
330
1F
100
AcDbEntity
  8
0
  6
Continuous
 62
     7
370
    25
100
AcDbLine
 10
7015.0100736396
 20
5267.9408303581
 30
0.0
 11
7015.0100736396
 21
5258.1994295927
 31
0.0
  0
LINE
  5
21B
330
1F
100
AcDbEntity
  8
0
  6
Continuous
 62
     7
370
    25
100
AcDbLine
 10
7119.4100736396
 20
5267.9408303581
 30
0.0
 11
7119.4100736396
 21
5258.1994295927
 31
0.0
  0
LINE
  5
21C
330
1F
100
AcDbEntity
  8
0
  6
Continuous
 62
     7
370
    25
100
AcDbLine
 10
6997.2099384688
 20
5232.1994295927
 30
0.0
 11
7018.2099384688
 21
5232.1994295927
 31
0.0
  0
ARC
  5
21D
330
1F
100
AcDbEntity
  8
0
  6
Continuous
 62
     7
370
    25
100
AcDbCircle
 10
7018.2099384688
 20
5233.1994295927
 30
0.0
 40
1.000000000000909
100
AcDbArc
 50
270.0
 51
359.9996276583
  0
LINE
  5
21E
330
1F
100
AcDbEntity
  8
0
  6
Continuous
 62
     7
370
    25
100
AcDbLine
 10
7019.2099384688
 20
5233.1994230941
 30
0.0
 11
7019.2100736396
 21
5253.9994490885
 31
0.0
  0
ARC
  5
21F
330
1F
100
AcDbEntity
  8
0
  6
Continuous
 62
     7
370
    25
100
AcDbCircle
 10
7022.2100736396
 20
5253.9994295927
 30
0.0
 40
3.000000000000592
100
AcDbArc
 50
90.0
 51
179.9996276583
  0
ARC
  5
220
330
1F
100
AcDbEntity
  8
0
  6
Continuous
 62
     7
370
    25
100
AcDbCircle
 10
7112.2100736396
 20
5253.9994295927
 30
0.0
 40
3.000000000000181
100
AcDbArc
 50
48.6002523617
 51
90.0
  0
LINE
  5
221
330
1F
100
AcDbEntity
  8
0
  6
Continuous
 62
     7
370
    25
100
AcDbLine
 10
7114.1939993238
 20
5256.2497715399
 30
0.0
 11
7141.1905570909
 21
5232.4493156103
 31
0.0
  0
ARC
  5
222
330
1F
100
AcDbEntity
  8
0
  6
Continuous
 62
     7
370
    25
100
AcDbCircle
 10
7141.8518656523
 20
5233.1994295927
 30
0.0
 40
1.000000000000909
100
AcDbArc
 50
228.6002523617
 51
270.0
  0
LINE
  5
223
330
1F
100
AcDbEntity
  8
0
  6
Continuous
 62
     7
370
    25
100
AcDbLine
 10
7141.8518656523
 20
5232.1994295927
 30
0.0
 11
7162.8518656523
 21
5232.1994295927
 31
0.0
  0
LINE
  5
224
330
1F
100
AcDbEntity
  8
0
  6
Continuous
 62
     7
370
    25
100
AcDbLine
 10
7162.8518656523
 20
5232.1994295927
 30
0.0
 11
7162.8518656523
 21
5230.1994295927
 31
0.0
  0
LINE
  5
225
330
1F
100
AcDbEntity
  8
0
  6
Continuous
 62
     7
370
    25
100
AcDbLine
 10
7162.8518656523
 20
5230.1994295927
 30
0.0
 11
7141.8518656523
 21
5230.1994295927
 31
0.0
  0
ARC
  5
226
330
1F
100
AcDbEntity
  8
0
  6
Continuous
 62
     7
370
    25
100
AcDbCircle
 10
7141.8518656523
 20
5233.1994295927
 30
0.0
 40
3.000000000000782
100
AcDbArc
 50
228.6002523617
 51
270.0
  0
LINE
  5
227
330
1F
100
AcDbEntity
  8
0
  6
Continuous
 62
     7
370
    25
100
AcDbLine
 10
7139.867939968
 20
5230.9490876455
 30
0.0
 11
7112.871382201
 21
5254.7495435751
 31
0.0
  0
ARC
  5
228
330
1F
100
AcDbEntity
  8
0
  6
Continuous
 62
     7
370
    25
100
AcDbCircle
 10
7112.2100736396
 20
5253.9994295927
 30
0.0
 40
1.000000000000716
100
AcDbArc
 50
48.6002523617
 51
90.0
  0
LINE
  5
229
330
1F
100
AcDbEntity
  8
0
  6
Continuous
 62
     7
370
    25
100
AcDbLine
 10
7112.2100736396
 20
5254.9994295927
 30
0.0
 11
7022.2100736396
 21
5254.9994295927
 31
0.0
  0
ARC
  5
22A
330
1F
100
AcDbEntity
  8
0
  6
Continuous
 62
     7
370
    25
100
AcDbCircle
 10
7022.2100736396
 20
5253.9994295927
 30
0.0
 40
1.000000000000197
100
AcDbArc
 50
90.0
 51
179.9996276583
  0
LINE
  5
22B
330
1F
100
AcDbEntity
  8
0
  6
Continuous
 62
     7
370
    25
100
AcDbLine
 10
7021.2100736396
 20
5253.9994360913
 30
0.0
 11
7021.2099384688
 21
5233.199410097
 31
0.0
  0
ARC
  5
22C
330
1F
100
AcDbEntity
  8
0
  6
Continuous
 62
     7
370
    25
100
AcDbCircle
 10
7018.2099384688
 20
5233.1994295927
 30
0.0
 40
3.000000000000592
100
AcDbArc
 50
270.0
 51
359.9996276583
  0
LINE
  5
22D
330
1F
100
AcDbEntity
  8
0
  6
Continuous
 62
     7
370
    25
100
AcDbLine
 10
6997.2099384688
 20
5230.1994295927
 30
0.0
 11
6997.2099384688
 21
5232.1994295927
 31
0.0
  0
LINE
  5
22E
330
1F
100
AcDbEntity
  8
0
  6
Continuous
 62
     7
370
    25
100
AcDbLine
 10
7018.2099384688
 20
5230.1994295927
 30
0.0
 11
6997.2099384688
 21
5230.1994295927
 31
0.0
  0
LINE
  5
22F
330
1F
100
AcDbEntity
  8
0
  6
Continuous
 62
     7
370
    25
100
AcDbLine
 10
6997.3951190633
 20
5239.1994295927
 30
0.0
 11
6997.3951190633
 21
5232.1994295927
 31
0.0
  0
LINE
  5
230
330
1F
100
AcDbEntity
  8
0
  6
Continuous
 62
     7
370
    25
100
AcDbLine
 10
7002.3025963515
 20
5239.1994295927
 30
0.0
 11
7002.3025963515
 21
5232.1994295927
 31
0.0
  0
LINE
  5
231
330
1F
100
AcDbEntity
  8
0
  6
Continuous
 62
     7
370
    25
100
AcDbLine
 10
7002.3025963515
 20
5239.1994295927
 30
0.0
 11
6997.3951190633
 21
5239.1994295927
 31
0.0
  0
LINE
  5
232
330
1F
100
AcDbEntity
  8
0
  6
Continuous
 62
     7
370
    25
100
AcDbLine
 10
7012.1175509277
 20
5239.1994295927
 30
0.0
 11
7012.1175509277
 21
5232.1994295927
 31
0.0
  0
LINE
  5
233
330
1F
100
AcDbEntity
  8
0
  6
Continuous
 62
     7
370
    25
100
AcDbLine
 10
7012.1175509277
 20
5239.1994295927
 30
0.0
 11
7002.3025963515
 21
5239.1994295927
 31
0.0
  0
LINE
  5
234
330
1F
100
AcDbEntity
  8
0
  6
Continuous
 62
     7
370
    25
100
AcDbLine
 10
7017.0250282158
 20
5239.1994295927
 30
0.0
 11
7017.0250282158
 21
5232.1994295927
 31
0.0
  0
LINE
  5
235
330
1F
100
AcDbEntity
  8
0
  6
Continuous
 62
     7
370
    25
100
AcDbLine
 10
7017.0250282158
 20
5239.1994295927
 30
0.0
 11
7012.1175509277
 21
5239.1994295927
 31
0.0
  0
LINE
  5
236
330
1F
100
AcDbEntity
  8
0
  6
Continuous
 62
     7
370
    25
100
AcDbLine
 10
7144.3951190633
 20
5239.1994295927
 30
0.0
 11
7144.3951190633
 21
5232.1994295927
 31
0.0
  0
LINE
  5
237
330
1F
100
AcDbEntity
  8
0
  6
Continuous
 62
     7
370
    25
100
AcDbLine
 10
7149.3025963515
 20
5239.1994295927
 30
0.0
 11
7144.3951190633
 21
5239.1994295927
 31
0.0
  0
LINE
  5
238
330
1F
100
AcDbEntity
  8
0
  6
Continuous
 62
     7
370
    25
100
AcDbLine
 10
7149.3025963515
 20
5239.1994295927
 30
0.0
 11
7149.3025963515
 21
5232.1994295927
 31
0.0
  0
LINE
  5
239
330
1F
100
AcDbEntity
  8
0
  6
Continuous
 62
     7
370
    25
100
AcDbLine
 10
7159.1175509277
 20
5239.1994295927
 30
0.0
 11
7159.1175509277
 21
5232.1994295927
 31
0.0
  0
LINE
  5
23A
330
1F
100
AcDbEntity
  8
0
  6
Continuous
 62
     7
370
    25
100
AcDbLine
 10
7164.0250282158
 20
5239.1994295927
 30
0.0
 11
7164.0250282158
 21
5232.1994295927
 31
0.0
  0
LINE
  5
23B
330
1F
100
AcDbEntity
  8
0
  6
Continuous
 62
     7
370
    25
100
AcDbLine
 10
7164.0250282158
 20
5232.1994295927
 30
0.0
 11
7162.8518656523
 21
5232.1994295927
 31
0.0
  0
LINE
  5
23C
330
1F
100
AcDbEntity
  8
0
  6
Continuous
 62
     7
370
    25
100
AcDbLine
 10
7164.0250282158
 20
5239.1994295927
 30
0.0
 11
7159.1175509277
 21
5239.1994295927
 31
0.0
  0
LINE
  5
23D
330
1F
100
AcDbEntity
  8
0
  6
Continuous
 62
     7
370
    25
100
AcDbLine
 10
7159.1175509277
 20
5239.1994295927
 30
0.0
 11
7149.3025963515
 21
5239.1994295927
 31
0.0
  0
LINE
  5
23E
330
1F
100
AcDbEntity
  8
0
  6
Continuous
 62
     7
370
    25
100
AcDbLine
 10
7070.0968249855
 20
5249.9994295927
 30
0.0
 11
7070.0968249855
 21
5254.9994295927
 31
0.0
  0
LINE
  5
23F
330
1F
100
AcDbEntity
  8
0
  6
Continuous
 62
     7
370
    25
100
AcDbLine
 10
7064.3233222936
 20
5249.9994295927
 30
0.0
 11
7070.0968249855
 21
5249.9994295927
 31
0.0
  0
LINE
  5
240
330
1F
100
AcDbEntity
  8
0
  6
Continuous
 62
     7
370
    25
100
AcDbLine
 10
7064.3233222936
 20
5249.9994295927
 30
0.0
 11
7064.3233222936
 21
5254.9994295927
 31
0.0
  0
LINE
  5
241
330
1F
100
AcDbEntity
  8
0
  6
Continuous
 62
     7
370
    25
100
AcDbLine
 10
7072.9835763315
 20
5249.9994295927
 30
0.0
 11
7072.9835763315
 21
5254.9994295927
 31
0.0
  0
LINE
  5
242
330
1F
100
AcDbEntity
  8
0
  6
Continuous
 62
     7
370
    25
100
AcDbLine
 10
7070.0968249855
 20
5249.9994295927
 30
0.0
 11
7072.9835763315
 21
5249.9994295927
 31
0.0
  0
LINE
  5
243
330
1F
100
AcDbEntity
  8
0
  6
Continuous
 62
     7
370
    25
100
AcDbLine
 10
7061.4365709477
 20
5249.9994295927
 30
0.0
 11
7061.4365709477
 21
5254.9994295927
 31
0.0
  0
LINE
  5
244
330
1F
100
AcDbEntity
  8
0
  6
Continuous
 62
     7
370
    25
100
AcDbLine
 10
7061.4365709477
 20
5249.9994295927
 30
0.0
 11
7064.3233222936
 21
5249.9994295927
 31
0.0
  0
LINE
  5
245
330
1F
100
AcDbEntity
  8
0
  6
Continuous
 62
     7
370
    25
100
AcDbLine
 10
7064.2100736396
 20
5234.9994295927
 30
0.0
 11
7070.2100736396
 21
5234.9994295927
 31
0.0
  0
LINE
  5
246
330
1F
100
AcDbEntity
  8
0
  6
Continuous
 62
     8
370
    25
100
AcDbLine
 10
7027.907847507
 20
5252.923103519
 30
0.0
 11
7061.4365709477
 21
5252.923103519
 31
0.0
  0
LINE
  5
247
330
1F
100
AcDbEntity
  8
0
  6
Continuous
 62
     8
370
    25
100
AcDbLine
 10
7072.9835763315
 20
5252.923103519
 30
0.0
 11
7106.5122997722
 21
5252.923103519
 31
0.0
  0
LINE
  5
248
330
1F
100
AcDbEntity
  8
0
  6
Continuous
 62
     8
370
    25
100
AcDbLine
 10
7028.1469588922
 20
5253.3372565868
 30
0.0
 11
7061.4365709477
 21
5253.3372565868
 31
0.0
  0
LINE
  5
249
330
1F
100
AcDbEntity
  8
0
  6
Continuous
 62
     8
370
    25
100
AcDbLine
 10
7072.9835763315
 20
5253.3372565868
 30
0.0
 11
7106.273188387
 21
5253.3372565868
 31
0.0
  0
ARC
  5
24A
330
1F
100
AcDbEntity
  8
0
  6
Continuous
 62
     8
370
    25
100
AcDbCircle
 10
7067.2104068064
 20
5217.4059466657
 30
0.0
 40
17.49966683632861
100
AcDbArc
 50
269.9989091761
 51
359.9989091346
  0
ARC
  5
24B
330
1F
100
AcDbEntity
  8
0
  6
Continuous
 62
     8
370
    25
100
AcDbCircle
 10
7067.2097395677
 20
5217.4059448462
 30
0.0
 40
17.49966501687419
100
AcDbArc
 50
180.0011153103
 51
270.0010937871
  0
LINE
  5
24C
330
1F
100
AcDbEntity
  8
0
  6
Continuous
 62
     8
370
    25
100
AcDbLine
 10
7084.3433381162
 20
5247.3994295927
 30
0.0
 11
7070.2100736396
 21
5247.3994295927
 31
0.0
  0
LINE
  5
24D
330
1F
100
AcDbEntity
  8
0
  6
Continuous
 62
     8
370
    25
100
AcDbLine
 10
7064.2100736396
 20
5247.3994295927
 30
0.0
 11
7050.0768091629
 21
5247.3994295927
 31
0.0
  0
LINE
  5
24E
330
1F
100
AcDbEntity
  8
0
  6
Continuous
 62
     8
370
    25
100
AcDbLine
 10
7089.0380722068
 20
5233.141741337
 30
0.0
 11
7089.1348996395
 21
5244.3994295927
 31
0.0
  0
LINE
  5
24F
330
1F
100
AcDbEntity
  8
0
  6
Continuous
 62
     8
370
    25
100
AcDbLine
 10
7083.2214343414
 20
5238.9904827872
 30
0.0
 11
7083.2214343414
 21
5244.3994295927
 31
0.0
  0
LINE
  5
250
330
1F
100
AcDbEntity
  8
0
  6
Continuous
 62
     8
370
    25
100
AcDbLine
 10
7045.3820750724
 20
5233.141741337
 30
0.0
 11
7045.2852476397
 21
5244.3994295927
 31
0.0
  0
LINE
  5
251
330
1F
100
AcDbEntity
  8
0
  6
Continuous
 62
     8
370
    25
100
AcDbLine
 10
7051.1987129377
 20
5238.9904827872
 30
0.0
 11
7051.1987129377
 21
5244.3994295927
 31
0.0
  0
ARC
  5
252
330
1F
100
AcDbEntity
  8
0
  6
Continuous
 62
     8
370
    25
100
AcDbCircle
 10
7082.7704665448
 20
5202.2009778634
 30
0.0
 40
5.835886262689463
100
AcDbArc
 50
292.2807405458
 51
346.2292893366
  0
ARC
  5
253
330
1F
100
AcDbEntity
  8
0
  6
Continuous
 62
     8
370
    25
100
AcDbCircle
 10
7051.6512802958
 20
5202.2025756093
 30
0.0
 40
5.837971247898849
100
AcDbArc
 50
193.7452696728
 51
247.7106782337
  0
ARC
  5
254
330
1F
100
AcDbEntity
  8
0
  6
Continuous
 62
     8
370
    25
100
AcDbCircle
 10
7108.3570061403
 20
5158.2783709411
 30
0.0
 40
48.85774613773571
100
AcDbArc
 50
101.8649724379
 51
111.5369123433
  0
LWPOLYLINE
  5
255
330
1F
100
AcDbEntity
  8
0
  6
Continuous
 62
     8
370
    25
100
AcDbPolyline
 90
        8
 70
   128
 43
0.0
 10
7098.3115633651
 20
5206.0922647075
 10
7098.3473546766
 20
5204.6197544863
 10
7098.1683283761
 20
5203.2173246852
 10
7097.7826653918
 20
5201.9490618506
 10
7097.2079892858
 20
5200.8729215288
 10
7096.4705609141
 20
5200.0380798831
 10
7095.6040783895
 20
5199.4826865006
 10
7094.9268341192
 20
5199.2714681823
  0
ARC
  5
256
330
1F
100
AcDbEntity
  8
0
  6
Continuous
 62
     8
370
    25
100
AcDbCircle
 10
7026.1456495003
 20
5158.5529097061
 30
0.0
 40
48.57211479943119
100
AcDbArc
 50
68.5846849951
 51
78.1636904354
  0
LWPOLYLINE
  5
257
330
1F
100
AcDbEntity
  8
0
  6
Continuous
 62
     8
370
    25
100
AcDbPolyline
 90
        8
 70
   128
 43
0.0
 10
7036.1085839141
 20
5206.0922647075
 10
7036.0727926026
 20
5204.6197544863
 10
7036.251818903
 20
5203.2173246852
 10
7036.6374818874
 20
5201.9490618506
 10
7037.2121579934
 20
5200.8729215288
 10
7037.9495863651
 20
5200.0380798831
 10
7038.8160688897
 20
5199.4826865006
 10
7039.4850553703
 20
5199.2730378802
  0
LWPOLYLINE
  5
258
330
1F
100
AcDbEntity
  8
0
  6
Continuous
 62
     8
370
    25
100
AcDbPolyline
 90
        7
 70
   128
 43
0.0
 10
7098.3115633651
 20
5206.0922647075
 10
7103.6227228489
 20
5207.1353732179
 10
7108.0306931296
 20
5208.5173712913
 10
7111.1642973698
 20
5210.1610893164
 10
7113.1749227442
 20
5212.1614387324
 10
7113.9413677993
 20
5214.4404027525
 10
7113.8838584988
 20
5214.7538972554
  0
LWPOLYLINE
  5
259
330
1F
100
AcDbEntity
  8
0
  6
Continuous
 62
     8
370
    25
100
AcDbPolyline
 90
       11
 70
   128
 43
0.0
 10
7020.4977718921
 20
5214.7329127497
 10
7020.4765772967
 20
5214.4839267265
 10
7020.7489460363
 20
5213.1517066418
 10
7021.4504916375
 20
5211.8658221141
 10
7022.5784593906
 20
5210.6810998339
 10
7023.9596257327
 20
5209.7052991358
 10
7025.6790523759
 20
5208.8185440736
 10
7027.8026004698
 20
5207.9970582303
 10
7030.2628982576
 20
5207.2703342689
 10
7033.0249891723
 20
5206.6397536453
 10
7036.1085839141
 20
5206.0922647075
  0
LINE
  5
25A
330
1F
100
AcDbEntity
  8
0
  6
Continuous
 62
     8
370
    25
100
AcDbLine
 10
7033.6658669851
 20
5247.3994295927
 30
0.0
 11
7021.2100307489
 21
5247.3994295927
 31
0.0
  0
LINE
  5
25B
330
1F
100
AcDbEntity
  8
0
  6
Continuous
 62
     8
370
    25
100
AcDbLine
 10
7019.2100307488
 20
5247.3994295927
 30
0.0
 11
7018.2100736396
 21
5247.3994295927
 31
0.0
  0
LINE
  5
25C
330
1F
100
AcDbEntity
  8
0
  6
Continuous
 62
     8
370
    25
100
AcDbLine
 10
7116.2100736396
 20
5247.3994295927
 30
0.0
 11
7100.7542802941
 21
5247.3994295927
 31
0.0
  0
LINE
  5
25D
330
1F
100
AcDbEntity
  8
0
  6
Continuous
 62
     8
370
    25
100
AcDbLine
 10
7045.5095722092
 20
5177.2161909546
 30
0.0
 11
7045.1423100965
 21
5198.0535926867
 31
0.0
  0
LINE
  5
25E
330
1F
100
AcDbEntity
  8
0
  6
Continuous
 62
     8
370
    25
100
AcDbLine
 10
7088.9105750699
 20
5177.2161909546
 30
0.0
 11
7099.4508186218
 21
5177.2161909546
 31
0.0
  0
LINE
  5
25F
330
1F
100
AcDbEntity
  8
0
  6
Continuous
 62
     8
370
    25
100
AcDbLine
 10
7034.9693286573
 20
5177.2161909546
 30
0.0
 11
7045.5095722092
 21
5177.2161909546
 31
0.0
  0
LINE
  5
260
330
1F
100
AcDbEntity
  8
0
  6
Continuous
 62
     8
370
    25
100
AcDbLine
 10
7088.9105750699
 20
5177.2161909546
 30
0.0
 11
7089.277920356
 21
5198.0583117034
 31
0.0
  0
LINE
  5
261
330
1F
100
AcDbEntity
  8
0
  6
Continuous
 62
     8
370
    25
100
AcDbLine
 10
7057.3447721431
 20
5177.2161909546
 30
0.0
 11
7057.6187220611
 21
5192.0113047462
 31
0.0
  0
LINE
  5
262
330
1F
100
AcDbEntity
  8
0
  6
Continuous
 62
     8
370
    25
100
AcDbLine
 10
7077.075375136
 20
5177.2161909546
 30
0.0
 11
7076.8014252181
 21
5192.0113047462
 31
0.0
  0
LINE
  5
263
330
1F
100
AcDbEntity
  8
0
  6
Continuous
 62
     8
370
    25
100
AcDbLine
 10
7057.5298343736
 20
5203.3421807542
 30
0.0
 11
7058.160912182
 21
5228.8994295927
 31
0.0
  0
LINE
  5
264
330
1F
100
AcDbEntity
  8
0
  6
Continuous
 62
     8
370
    25
100
AcDbLine
 10
7076.8903129055
 20
5203.3421807542
 30
0.0
 11
7076.2592350971
 21
5228.8994295927
 31
0.0
  0
LINE
  5
265
330
1F
100
AcDbEntity
  8
0
  6
Continuous
 62
     8
370
    25
100
AcDbLine
 10
7061.6370570972
 20
5201.3322142491
 30
0.0
 11
7062.3177664315
 21
5228.8994295927
 31
0.0
  0
LINE
  5
266
330
1F
100
AcDbEntity
  8
0
  6
Continuous
 62
     8
370
    25
100
AcDbLine
 10
7072.7830901819
 20
5201.3322142491
 30
0.0
 11
7072.1023808477
 21
5228.8994295927
 31
0.0
  0
LINE
  5
267
330
1F
100
AcDbEntity
  8
0
  6
Continuous
 62
     8
370
    25
100
AcDbLine
 10
7061.0874128302
 20
5177.2161909546
 30
0.0
 11
7061.340710653
 21
5190.8959545383
 31
0.0
  0
LINE
  5
268
330
1F
100
AcDbEntity
  8
0
  6
Continuous
 62
     8
370
    25
100
AcDbLine
 10
7073.3327344489
 20
5177.2161909546
 30
0.0
 11
7073.0794366261
 21
5190.8959545383
 31
0.0
  0
LINE
  5
269
330
1F
100
AcDbEntity
  8
0
  6
Continuous
 62
     8
370
    25
100
AcDbLine
 10
7063.8669278891
 20
5200.743433178
 30
0.0
 11
7063.8669278891
 21
5228.8994295927
 31
0.0
  0
LINE
  5
26A
330
1F
100
AcDbEntity
  8
0
  6
Continuous
 62
     8
370
    25
100
AcDbLine
 10
7070.5532193901
 20
5200.743433178
 30
0.0
 11
7070.5532193901
 21
5228.8994295927
 31
0.0
  0
LINE
  5
26B
330
1F
100
AcDbEntity
  8
0
  6
Continuous
 62
     8
370
    25
100
AcDbLine
 10
7064.4527143267
 20
5177.2161909546
 30
0.0
 11
7064.4527143267
 21
5190.3914479336
 31
0.0
  0
LINE
  5
26C
330
1F
100
AcDbEntity
  8
0
  6
Continuous
 62
     8
370
    25
100
AcDbLine
 10
7069.9674329524
 20
5177.2161909546
 30
0.0
 11
7069.9674329524
 21
5190.3914479336
 31
0.0
  0
LINE
  5
26D
330
1F
100
AcDbEntity
  8
0
  6
Continuous
 62
     8
370
    25
100
AcDbLine
 10
7017.2100736396
 20
5274.1994295927
 30
0.0
 11
7017.2100736396
 21
5272.1478882613
 31
0.0
  0
LINE
  5
26E
330
1F
100
AcDbEntity
  8
0
  6
Continuous
 62
     8
370
    25
100
AcDbLine
 10
7117.2100736396
 20
5274.1994295927
 30
0.0
 11
7117.2100736396
 21
5272.1478882613
 31
0.0
  0
LINE
  5
26F
330
1F
100
AcDbEntity
  8
0
  6
Continuous
 62
     8
370
    25
100
AcDbLine
 10
7017.2100736396
 20
5267.9408303581
 30
0.0
 11
7017.2100736396
 21
5258.1994295927
 31
0.0
  0
LINE
  5
270
330
1F
100
AcDbEntity
  8
0
  6
Continuous
 62
     8
370
    25
100
AcDbLine
 10
7117.2100736396
 20
5267.9408303581
 30
0.0
 11
7117.2100736396
 21
5258.1994295927
 31
0.0
  0
ARC
  5
271
330
1F
100
AcDbEntity
  8
0
  6
Continuous
 62
     7
370
    25
100
AcDbCircle
 10
6274.0187553361
 20
4850.4116186763
 30
0.0
 40
18.15000000000018
100
AcDbArc
 50
151.45904119
 51
176.8328746966
  0
ARC
  5
272
330
1F
100
AcDbEntity
  8
0
  6
Continuous
 62
     7
370
    25
100
AcDbCircle
 10
6274.0187553361
 20
4850.4116186763
 30
0.0
 40
18.14999999999966
100
AcDbArc
 50
113.6781704681
 51
129.2666590911
  0
LINE
  5
273
330
1F
100
AcDbEntity
  8
0
  6
Continuous
 62
     7
370
    25
100
AcDbLine
 10
6294.0381315401
 20
4851.5193534829
 30
0.0
 11
6293.8848889592
 21
4853.1207209019
 31
0.0
  0
ARC
  5
274
330
1F
100
AcDbEntity
  8
0
  6
Continuous
 62
     7
370
    25
100
AcDbCircle
 10
6274.0187553361
 20
4850.4116186763
 30
0.0
 40
20.05000000000015
100
AcDbArc
 50
142.6768624425
 51
176.8328746966
  0
ARC
  5
275
330
1F
100
AcDbEntity
  8
0
  6
Continuous
 62
     7
370
    25
100
AcDbCircle
 10
6255.9464007579
 20
4851.4116186763
 30
0.0
 40
0.0499999999993724
100
AcDbArc
 50
176.8328746962
 51
270.0
  0
ARC
  5
276
330
1F
100
AcDbEntity
  8
0
  6
Continuous
 62
     7
370
    25
100
AcDbCircle
 10
6255.9464007579
 20
4851.4116186763
 30
0.0
 40
1.949999999999818
100
AcDbArc
 50
176.8328746966
 51
270.0
  0
ARC
  5
277
330
1F
100
AcDbEntity
  8
0
  6
Continuous
 62
     7
370
    25
100
AcDbCircle
 10
6292.0911099143
 20
4851.4116186763
 30
0.0
 40
1.950000000000246
100
AcDbArc
 50
336.909522362
 51
3.1671253034
  0
LINE
  5
278
330
1F
100
AcDbEntity
  8
0
  6
Continuous
 62
     7
370
    25
100
AcDbLine
 10
6287.5911099143
 20
4849.4616186763
 30
0.0
 11
6287.7180741075
 21
4849.4616186763
 31
0.0
  0
LINE
  5
279
330
1F
100
AcDbEntity
  8
0
  6
Continuous
 62
     7
370
    25
100
AcDbLine
 10
6287.7180741075
 20
4851.3616186763
 30
0.0
 11
6287.5911099143
 21
4851.3616186763
 31
0.0
  0
LINE
  5
27A
330
1F
100
AcDbEntity
  8
0
  6
Continuous
 62
     7
370
    25
100
AcDbLine
 10
6255.9464007579
 20
4849.4616186763
 30
0.0
 11
6256.1187553361
 21
4849.4616186763
 31
0.0
  0
LINE
  5
27B
330
1F
100
AcDbEntity
  8
0
  6
Continuous
 62
     7
370
    25
100
AcDbLine
 10
6256.1187553361
 20
4851.3616186763
 30
0.0
 11
6255.9464007579
 21
4851.3616186763
 31
0.0
  0
LINE
  5
27C
330
1F
100
AcDbEntity
  8
0
  6
Continuous
 62
     7
370
    25
100
AcDbLine
 10
6256.352086928
 20
4859.9980062836
 30
0.0
 11
6256.4089946153
 21
4859.9980062836
 31
0.0
  0
LINE
  5
27D
330
1F
100
AcDbEntity
  8
0
  6
Continuous
 62
     7
370
    25
100
AcDbLine
 10
6744.6187553361
 20
4904.8116186763
 30
0.0
 11
5803.4187053361
 21
4904.8116186763
 31
0.0
  0
ARC
  5
27E
330
1F
100
AcDbEntity
  8
0
  6
Continuous
 62
     7
370
    25
100
AcDbCircle
 10
5803.4187553361
 20
4900.4116186763
 30
0.0
 40
4.400000000000546
100
AcDbArc
 50
90.0
 51
180.0
  0
ARC
  5
27F
330
1F
100
AcDbEntity
  8
0
  6
Continuous
 62
     7
370
    25
100
AcDbCircle
 10
6744.6187553361
 20
4900.4116186763
 30
0.0
 40
4.399999999999636
100
AcDbArc
 50
0.0
 51
90.0
  0
LINE
  5
280
330
1F
100
AcDbEntity
  8
0
  6
Continuous
 62
     7
370
    25
100
AcDbLine
 10
5799.0187553361
 20
4900.4116186763
 30
0.0
 11
5799.0187553361
 21
4800.4116186763
 31
0.0
  0
LINE
  5
281
330
1F
100
AcDbEntity
  8
0
  6
Continuous
 62
     7
370
    25
100
AcDbLine
 10
6749.0187553361
 20
4800.4116186763
 30
0.0
 11
6749.0187553361
 21
4900.4116186763
 31
0.0
  0
ARC
  5
282
330
1F
100
AcDbEntity
  8
0
  6
Continuous
 62
     7
370
    25
100
AcDbCircle
 10
5803.4187553361
 20
4800.4116186763
 30
0.0
 40
4.400000000000546
100
AcDbArc
 50
180.0
 51
270.0
  0
ARC
  5
283
330
1F
100
AcDbEntity
  8
0
  6
Continuous
 62
     7
370
    25
100
AcDbCircle
 10
6744.6187553361
 20
4800.4116186763
 30
0.0
 40
4.400000000000546
100
AcDbArc
 50
270.0
 51
0.0
  0
LINE
  5
284
330
1F
100
AcDbEntity
  8
0
  6
Continuous
 62
     7
370
    25
100
AcDbLine
 10
5803.4187553361
 20
4796.0116186763
 30
0.0
 11
6744.6187553361
 21
4796.0116186763
 31
0.0
  0
LINE
  5
285
330
1F
100
AcDbEntity
  8
0
  6
Continuous
 62
     7
370
    25
100
AcDbLine
 10
5806.8955320313
 20
4899.4116186764
 30
0.0
 11
5807.7187553361
 21
4897.2116186764
 31
0.0
  0
LINE
  5
286
330
1F
100
AcDbEntity
  8
0
  6
Continuous
 62
     7
370
    25
100
AcDbLine
 10
5806.8955320313
 20
4899.4116186764
 30
0.0
 11
6741.141978641
 21
4899.4116186765
 31
0.0
  0
LINE
  5
287
330
1F
100
AcDbEntity
  8
0
  6
Continuous
 62
     7
370
    25
100
AcDbLine
 10
6740.3187553361
 20
4897.2116186765
 30
0.0
 11
6741.141978641
 21
4899.4116186765
 31
0.0
  0
LINE
  5
288
330
1F
100
AcDbEntity
  8
0
  6
Continuous
 62
     7
370
    25
100
AcDbLine
 10
5807.7187553361
 20
4897.2116186764
 30
0.0
 11
6740.3187553363
 21
4897.2116186764
 31
0.0
  0
LINE
  5
289
330
1F
100
AcDbEntity
  8
0
  6
Continuous
 62
     7
370
    25
100
AcDbLine
 10
6741.141978641
 20
4899.4116186765
 30
0.0
 11
6741.141978641
 21
4898.2116186765
 31
0.0
  0
LINE
  5
28A
330
1F
100
AcDbEntity
  8
0
  6
Continuous
 62
     7
370
    25
100
AcDbLine
 10
6740.3187553361
 20
4897.2116186765
 30
0.0
 11
6741.141978641
 21
4898.2116186765
 31
0.0
  0
LINE
  5
28B
330
1F
100
AcDbEntity
  8
0
  6
Continuous
 62
     7
370
    25
100
AcDbLine
 10
5806.8955320313
 20
4898.2116186764
 30
0.0
 11
5807.7187553361
 21
4897.2116186764
 31
0.0
  0
LINE
  5
28C
330
1F
100
AcDbEntity
  8
0
  6
Continuous
 62
     7
370
    25
100
AcDbLine
 10
5806.8955320313
 20
4899.4116186764
 30
0.0
 11
5806.8955320313
 21
4898.2116186764
 31
0.0
  0
LINE
  5
28D
330
1F
100
AcDbEntity
  8
0
  6
Continuous
 62
     7
370
    25
100
AcDbLine
 10
6742.5187553363
 20
4898.0348419813
 30
0.0
 11
6740.3187553363
 21
4897.2116186764
 31
0.0
  0
LINE
  5
28E
330
1F
100
AcDbEntity
  8
0
  6
Continuous
 62
     7
370
    25
100
AcDbLine
 10
6741.3187553363
 20
4898.0348419813
 30
0.0
 11
6740.3187553362
 21
4897.2116186763
 31
0.0
  0
LINE
  5
28F
330
1F
100
AcDbEntity
  8
0
  6
Continuous
 62
     7
370
    25
100
AcDbLine
 10
6742.5187553363
 20
4898.0348419813
 30
0.0
 11
6741.3187553363
 21
4898.0348419813
 31
0.0
  0
LINE
  5
290
330
1F
100
AcDbEntity
  8
0
  6
Continuous
 62
     7
370
    25
100
AcDbLine
 10
6742.5187553363
 20
4898.0348419813
 30
0.0
 11
6742.5187553363
 21
4802.7883953714
 31
0.0
  0
LINE
  5
291
330
1F
100
AcDbEntity
  8
0
  6
Continuous
 62
     7
370
    25
100
AcDbLine
 10
6740.3187553363
 20
4803.6116186763
 30
0.0
 11
6742.5187553363
 21
4802.7883953714
 31
0.0
  0
LINE
  5
292
330
1F
100
AcDbEntity
  8
0
  6
Continuous
 62
     7
370
    25
100
AcDbLine
 10
6740.3187553363
 20
4897.2116186764
 30
0.0
 11
6740.3187553363
 21
4803.6116186763
 31
0.0
  0
LINE
  5
293
330
1F
100
AcDbEntity
  8
0
  6
Continuous
 62
     7
370
    25
100
AcDbLine
 10
5805.518755336
 20
4898.0348419811
 30
0.0
 11
5806.718755336
 21
4898.0348419811
 31
0.0
  0
LINE
  5
294
330
1F
100
AcDbEntity
  8
0
  6
Continuous
 62
     7
370
    25
100
AcDbLine
 10
5807.718755336
 20
4897.2116186764
 30
0.0
 11
5806.718755336
 21
4898.0348419811
 31
0.0
  0
LINE
  5
295
330
1F
100
AcDbEntity
  8
0
  6
Continuous
 62
     7
370
    25
100
AcDbLine
 10
5807.718755336
 20
4897.2116186764
 30
0.0
 11
5805.518755336
 21
4898.0348419811
 31
0.0
  0
LINE
  5
296
330
1F
100
AcDbEntity
  8
0
  6
Continuous
 62
     7
370
    25
100
AcDbLine
 10
5805.518755336
 20
4802.7883953715
 30
0.0
 11
5807.718755336
 21
4803.6116186763
 31
0.0
  0
LINE
  5
297
330
1F
100
AcDbEntity
  8
0
  6
Continuous
 62
     7
370
    25
100
AcDbLine
 10
5805.518755336
 20
4802.7883953715
 30
0.0
 11
5805.518755336
 21
4898.0348419811
 31
0.0
  0
LINE
  5
298
330
1F
100
AcDbEntity
  8
0
  6
Continuous
 62
     7
370
    25
100
AcDbLine
 10
5807.718755336
 20
4803.6116186763
 30
0.0
 11
5807.7187553361
 21
4897.2116186764
 31
0.0
  0
LINE
  5
299
330
1F
100
AcDbEntity
  8
0
  6
Continuous
 62
     7
370
    25
100
AcDbLine
 10
6740.3187553363
 20
4803.6116186763
 30
0.0
 11
5807.718755336
 21
4803.6116186763
 31
0.0
  0
ARC
  5
29A
330
1F
100
AcDbEntity
  8
0
  6
Continuous
 62
     7
370
    25
100
AcDbCircle
 10
5819.518755336
 20
4838.4116186763
 30
0.0
 40
3.0
100
AcDbArc
 50
180.0
 51
0.0
  0
LINE
  5
29B
330
1F
100
AcDbEntity
  8
0
  6
Continuous
 62
     7
370
    25
100
AcDbLine
 10
5822.518755336
 20
4838.4116186763
 30
0.0
 11
5822.518755336
 21
4862.4116186763
 31
0.0
  0
ARC
  5
29C
330
1F
100
AcDbEntity
  8
0
  6
Continuous
 62
     7
370
    25
100
AcDbCircle
 10
5819.518755336
 20
4862.4116186763
 30
0.0
 40
3.0
100
AcDbArc
 50
0.0
 51
180.0
  0
LINE
  5
29D
330
1F
100
AcDbEntity
  8
0
  6
Continuous
 62
     7
370
    25
100
AcDbLine
 10
5816.518755336
 20
4862.4116186763
 30
0.0
 11
5816.518755336
 21
4838.4116186763
 31
0.0
  0
ARC
  5
29E
330
1F
100
AcDbEntity
  8
0
  6
Continuous
 62
     7
370
    25
100
AcDbCircle
 10
6722.5187553363
 20
4838.4116186763
 30
0.0
 40
3.0
100
AcDbArc
 50
180.0
 51
0.0
  0
LINE
  5
29F
330
1F
100
AcDbEntity
  8
0
  6
Continuous
 62
     7
370
    25
100
AcDbLine
 10
6725.5187553363
 20
4838.4116186763
 30
0.0
 11
6725.5187553363
 21
4862.4116186763
 31
0.0
  0
ARC
  5
2A0
330
1F
100
AcDbEntity
  8
0
  6
Continuous
 62
     7
370
    25
100
AcDbCircle
 10
6722.5187553363
 20
4862.4116186763
 30
0.0
 40
3.0
100
AcDbArc
 50
0.0
 51
180.0
  0
LINE
  5
2A1
330
1F
100
AcDbEntity
  8
0
  6
Continuous
 62
     7
370
    25
100
AcDbLine
 10
6719.5187553363
 20
4862.4116186763
 30
0.0
 11
6719.5187553363
 21
4838.4116186763
 31
0.0
  0
ARC
  5
2A2
330
1F
100
AcDbEntity
  8
0
  6
Continuous
 62
     7
370
    25
100
AcDbCircle
 10
6712.9808717971
 20
4843.7777261634
 30
0.0
 40
3.0
100
AcDbArc
 50
180.0
 51
0.0
  0
LINE
  5
2A3
330
1F
100
AcDbEntity
  8
0
  6
Continuous
 62
     7
370
    25
100
AcDbLine
 10
6715.9808717971
 20
4843.7777261634
 30
0.0
 11
6715.9808717971
 21
4867.7777261634
 31
0.0
  0
ARC
  5
2A4
330
1F
100
AcDbEntity
  8
0
  6
Continuous
 62
     7
370
    25
100
AcDbCircle
 10
6712.9808717971
 20
4867.7777261634
 30
0.0
 40
3.0
100
AcDbArc
 50
0.0
 51
180.0
  0
LINE
  5
2A5
330
1F
100
AcDbEntity
  8
0
  6
Continuous
 62
     7
370
    25
100
AcDbLine
 10
6709.9808717971
 20
4867.7777261634
 30
0.0
 11
6709.9808717971
 21
4843.7777261634
 31
0.0
  0
ARC
  5
2A6
330
1F
100
AcDbEntity
  8
0
  6
Continuous
 62
     7
370
    25
100
AcDbCircle
 10
6703.1295302704
 20
4848.5421541955
 30
0.0
 40
3.0
100
AcDbArc
 50
180.0
 51
0.0
  0
LINE
  5
2A7
330
1F
100
AcDbEntity
  8
0
  6
Continuous
 62
     7
370
    25
100
AcDbLine
 10
6706.1295302704
 20
4848.5421541955
 30
0.0
 11
6706.1295302704
 21
4872.5421541955
 31
0.0
  0
ARC
  5
2A8
330
1F
100
AcDbEntity
  8
0
  6
Continuous
 62
     7
370
    25
100
AcDbCircle
 10
6703.1295302704
 20
4872.5421541955
 30
0.0
 40
3.0
100
AcDbArc
 50
0.0
 51
180.0
  0
LINE
  5
2A9
330
1F
100
AcDbEntity
  8
0
  6
Continuous
 62
     7
370
    25
100
AcDbLine
 10
6700.1295302704
 20
4872.5421541955
 30
0.0
 11
6700.1295302704
 21
4848.5421541955
 31
0.0
  0
ARC
  5
2AA
330
1F
100
AcDbEntity
  8
0
  6
Continuous
 62
     7
370
    25
100
AcDbCircle
 10
6692.9906706295
 20
4852.6601432611
 30
0.0
 40
3.000000000000909
100
AcDbArc
 50
180.0
 51
0.0
  0
LINE
  5
2AB
330
1F
100
AcDbEntity
  8
0
  6
Continuous
 62
     7
370
    25
100
AcDbLine
 10
6695.9906706295
 20
4852.6601432611
 30
0.0
 11
6695.9906706295
 21
4876.6601432611
 31
0.0
  0
ARC
  5
2AC
330
1F
100
AcDbEntity
  8
0
  6
Continuous
 62
     7
370
    25
100
AcDbCircle
 10
6692.9906706295
 20
4876.6601432611
 30
0.0
 40
3.000000000000909
100
AcDbArc
 50
0.0
 51
180.0
  0
LINE
  5
2AD
330
1F
100
AcDbEntity
  8
0
  6
Continuous
 62
     7
370
    25
100
AcDbLine
 10
6689.9906706295
 20
4876.6601432611
 30
0.0
 11
6689.9906706295
 21
4852.6601432611
 31
0.0
  0
ARC
  5
2AE
330
1F
100
AcDbEntity
  8
0
  6
Continuous
 62
     7
370
    25
100
AcDbCircle
 10
6682.600579241
 20
4856.0969248473
 30
0.0
 40
3.0
100
AcDbArc
 50
180.0
 51
0.0
  0
LINE
  5
2AF
330
1F
100
AcDbEntity
  8
0
  6
Continuous
 62
     7
370
    25
100
AcDbLine
 10
6685.600579241
 20
4856.0969248473
 30
0.0
 11
6685.600579241
 21
4880.0969248473
 31
0.0
  0
ARC
  5
2B0
330
1F
100
AcDbEntity
  8
0
  6
Continuous
 62
     7
370
    25
100
AcDbCircle
 10
6682.600579241
 20
4880.0969248473
 30
0.0
 40
3.0
100
AcDbArc
 50
0.0
 51
180.0
  0
LINE
  5
2B1
330
1F
100
AcDbEntity
  8
0
  6
Continuous
 62
     7
370
    25
100
AcDbLine
 10
6679.600579241
 20
4880.0969248473
 30
0.0
 11
6679.600579241
 21
4856.0969248473
 31
0.0
  0
ARC
  5
2B2
330
1F
100
AcDbEntity
  8
0
  6
Continuous
 62
     7
370
    25
100
AcDbCircle
 10
6672.0041598178
 20
4858.8317286292
 30
0.0
 40
3.000000000000909
100
AcDbArc
 50
180.0
 51
0.0
  0
LINE
  5
2B3
330
1F
100
AcDbEntity
  8
0
  6
Continuous
 62
     7
370
    25
100
AcDbLine
 10
6675.0041598178
 20
4858.8317286292
 30
0.0
 11
6675.0041598178
 21
4882.8317286292
 31
0.0
  0
ARC
  5
2B4
330
1F
100
AcDbEntity
  8
0
  6
Continuous
 62
     7
370
    25
100
AcDbCircle
 10
6672.0041598178
 20
4882.8317286292
 30
0.0
 40
3.000000000000909
100
AcDbArc
 50
0.0
 51
180.0
  0
LINE
  5
2B5
330
1F
100
AcDbEntity
  8
0
  6
Continuous
 62
     7
370
    25
100
AcDbLine
 10
6669.0041598178
 20
4882.8317286292
 30
0.0
 11
6669.0041598178
 21
4858.8317286292
 31
0.0
  0
ARC
  5
2B6
330
1F
100
AcDbEntity
  8
0
  6
Continuous
 62
     7
370
    25
100
AcDbCircle
 10
6661.249754754
 20
4860.8608823856
 30
0.0
 40
3.000000000000909
100
AcDbArc
 50
180.0
 51
0.0
  0
LINE
  5
2B7
330
1F
100
AcDbEntity
  8
0
  6
Continuous
 62
     7
370
    25
100
AcDbLine
 10
6664.249754754
 20
4860.8608823856
 30
0.0
 11
6664.249754754
 21
4884.8608823856
 31
0.0
  0
ARC
  5
2B8
330
1F
100
AcDbEntity
  8
0
  6
Continuous
 62
     7
370
    25
100
AcDbCircle
 10
6661.249754754
 20
4884.8608823856
 30
0.0
 40
3.000000000000909
100
AcDbArc
 50
0.0
 51
180.0
  0
LINE
  5
2B9
330
1F
100
AcDbEntity
  8
0
  6
Continuous
 62
     7
370
    25
100
AcDbLine
 10
6658.249754754
 20
4884.8608823856
 30
0.0
 11
6658.249754754
 21
4860.8608823856
 31
0.0
  0
ARC
  5
2BA
330
1F
100
AcDbEntity
  8
0
  6
Continuous
 62
     7
370
    25
100
AcDbCircle
 10
6650.3874185126
 20
4862.1978205679
 30
0.0
 40
3.0
100
AcDbArc
 50
180.0
 51
0.0
  0
LINE
  5
2BB
330
1F
100
AcDbEntity
  8
0
  6
Continuous
 62
     7
370
    25
100
AcDbLine
 10
6653.3874185126
 20
4862.1978205679
 30
0.0
 11
6653.3874185126
 21
4886.1978205679
 31
0.0
  0
ARC
  5
2BC
330
1F
100
AcDbEntity
  8
0
  6
Continuous
 62
     7
370
    25
100
AcDbCircle
 10
6650.3874185126
 20
4886.1978205679
 30
0.0
 40
3.0
100
AcDbArc
 50
0.0
 51
180.0
  0
LINE
  5
2BD
330
1F
100
AcDbEntity
  8
0
  6
Continuous
 62
     7
370
    25
100
AcDbLine
 10
6647.3874185126
 20
4886.1978205679
 30
0.0
 11
6647.3874185126
 21
4862.1978205679
 31
0.0
  0
ARC
  5
2BE
330
1F
100
AcDbEntity
  8
0
  6
Continuous
 62
     7
370
    25
100
AcDbCircle
 10
6639.4654670338
 20
4862.8719917992
 30
0.0
 40
3.0
100
AcDbArc
 50
180.0
 51
0.0
  0
LINE
  5
2BF
330
1F
100
AcDbEntity
  8
0
  6
Continuous
 62
     7
370
    25
100
AcDbLine
 10
6642.4654670338
 20
4862.8719917992
 30
0.0
 11
6642.4654670338
 21
4886.8719917992
 31
0.0
  0
ARC
  5
2C0
330
1F
100
AcDbEntity
  8
0
  6
Continuous
 62
     7
370
    25
100
AcDbCircle
 10
6639.4654670338
 20
4886.8719917992
 30
0.0
 40
3.0
100
AcDbArc
 50
0.0
 51
180.0
  0
LINE
  5
2C1
330
1F
100
AcDbEntity
  8
0
  6
Continuous
 62
     7
370
    25
100
AcDbLine
 10
6636.4654670338
 20
4886.8719917992
 30
0.0
 11
6636.4654670338
 21
4862.8719917992
 31
0.0
  0
ARC
  5
2C2
330
1F
100
AcDbEntity
  8
0
  6
Continuous
 62
     7
370
    25
100
AcDbCircle
 10
6628.5218546366
 20
4862.9261247885
 30
0.0
 40
3.0
100
AcDbArc
 50
180.0
 51
0.0
  0
LINE
  5
2C3
330
1F
100
AcDbEntity
  8
0
  6
Continuous
 62
     7
370
    25
100
AcDbLine
 10
6631.5218546366
 20
4862.9261247885
 30
0.0
 11
6631.5218546366
 21
4886.9261247885
 31
0.0
  0
ARC
  5
2C4
330
1F
100
AcDbEntity
  8
0
  6
Continuous
 62
     7
370
    25
100
AcDbCircle
 10
6628.5218546366
 20
4886.9261247885
 30
0.0
 40
3.0
100
AcDbArc
 50
0.0
 51
180.0
  0
LINE
  5
2C5
330
1F
100
AcDbEntity
  8
0
  6
Continuous
 62
     7
370
    25
100
AcDbLine
 10
6625.5218546366
 20
4886.9261247885
 30
0.0
 11
6625.5218546366
 21
4862.9261247885
 31
0.0
  0
ARC
  5
2C6
330
1F
100
AcDbEntity
  8
0
  6
Continuous
 62
     7
370
    25
100
AcDbCircle
 10
6617.5893513162
 20
4862.4118289297
 30
0.0
 40
3.000000000000909
100
AcDbArc
 50
180.0
 51
0.0
  0
LINE
  5
2C7
330
1F
100
AcDbEntity
  8
0
  6
Continuous
 62
     7
370
    25
100
AcDbLine
 10
6620.5893513162
 20
4862.4118289297
 30
0.0
 11
6620.5893513162
 21
4886.4118289297
 31
0.0
  0
ARC
  5
2C8
330
1F
100
AcDbEntity
  8
0
  6
Continuous
 62
     7
370
    25
100
AcDbCircle
 10
6617.5893513162
 20
4886.4118289297
 30
0.0
 40
3.000000000000909
100
AcDbArc
 50
0.0
 51
180.0
  0
LINE
  5
2C9
330
1F
100
AcDbEntity
  8
0
  6
Continuous
 62
     7
370
    25
100
AcDbLine
 10
6614.5893513162
 20
4886.4118289297
 30
0.0
 11
6614.5893513162
 21
4862.4118289297
 31
0.0
  0
ARC
  5
2CA
330
1F
100
AcDbEntity
  8
0
  6
Continuous
 62
     7
370
    25
100
AcDbCircle
 10
6606.692095655
 20
4861.38622222
 30
0.0
 40
3.0
100
AcDbArc
 50
180.0
 51
0.0
  0
LINE
  5
2CB
330
1F
100
AcDbEntity
  8
0
  6
Continuous
 62
     7
370
    25
100
AcDbLine
 10
6609.692095655
 20
4861.38622222
 30
0.0
 11
6609.692095655
 21
4885.38622222
 31
0.0
  0
ARC
  5
2CC
330
1F
100
AcDbEntity
  8
0
  6
Continuous
 62
     7
370
    25
100
AcDbCircle
 10
6606.692095655
 20
4885.38622222
 30
0.0
 40
3.0
100
AcDbArc
 50
0.0
 51
180.0
  0
LINE
  5
2CD
330
1F
100
AcDbEntity
  8
0
  6
Continuous
 62
     7
370
    25
100
AcDbLine
 10
6603.692095655
 20
4885.38622222
 30
0.0
 11
6603.692095655
 21
4861.38622222
 31
0.0
  0
ARC
  5
2CE
330
1F
100
AcDbEntity
  8
0
  6
Continuous
 62
     7
370
    25
100
AcDbCircle
 10
6595.8473222277
 20
4859.9088834815
 30
0.0
 40
3.0
100
AcDbArc
 50
180.0
 51
0.0
  0
LINE
  5
2CF
330
1F
100
AcDbEntity
  8
0
  6
Continuous
 62
     7
370
    25
100
AcDbLine
 10
6598.8473222277
 20
4859.9088834815
 30
0.0
 11
6598.8473222277
 21
4883.9088834815
 31
0.0
  0
ARC
  5
2D0
330
1F
100
AcDbEntity
  8
0
  6
Continuous
 62
     7
370
    25
100
AcDbCircle
 10
6595.8473222277
 20
4883.9088834815
 30
0.0
 40
3.0
100
AcDbArc
 50
0.0
 51
180.0
  0
LINE
  5
2D1
330
1F
100
AcDbEntity
  8
0
  6
Continuous
 62
     7
370
    25
100
AcDbLine
 10
6592.8473222277
 20
4883.9088834815
 30
0.0
 11
6592.8473222277
 21
4859.9088834815
 31
0.0
  0
ARC
  5
2D2
330
1F
100
AcDbEntity
  8
0
  6
Continuous
 62
     7
370
    25
100
AcDbCircle
 10
6585.0636398268
 20
4858.039142985
 30
0.0
 40
3.000000000000909
100
AcDbArc
 50
180.0
 51
0.0
  0
LINE
  5
2D3
330
1F
100
AcDbEntity
  8
0
  6
Continuous
 62
     7
370
    25
100
AcDbLine
 10
6588.0636398268
 20
4858.039142985
 30
0.0
 11
6588.0636398268
 21
4882.039142985
 31
0.0
  0
ARC
  5
2D4
330
1F
100
AcDbEntity
  8
0
  6
Continuous
 62
     7
370
    25
100
AcDbCircle
 10
6585.0636398268
 20
4882.039142985
 30
0.0
 40
3.000000000000909
100
AcDbArc
 50
0.0
 51
180.0
  0
LINE
  5
2D5
330
1F
100
AcDbEntity
  8
0
  6
Continuous
 62
     7
370
    25
100
AcDbLine
 10
6582.0636398268
 20
4882.039142985
 30
0.0
 11
6582.0636398268
 21
4858.039142985
 31
0.0
  0
ARC
  5
2D6
330
1F
100
AcDbEntity
  8
0
  6
Continuous
 62
     7
370
    25
100
AcDbCircle
 10
6574.3427585716
 20
4855.8343460225
 30
0.0
 40
3.000000000000909
100
AcDbArc
 50
180.0
 51
0.0
  0
LINE
  5
2D7
330
1F
100
AcDbEntity
  8
0
  6
Continuous
 62
     7
370
    25
100
AcDbLine
 10
6577.3427585716
 20
4855.8343460225
 30
0.0
 11
6577.3427585716
 21
4879.8343460225
 31
0.0
  0
ARC
  5
2D8
330
1F
100
AcDbEntity
  8
0
  6
Continuous
 62
     7
370
    25
100
AcDbCircle
 10
6574.3427585716
 20
4879.8343460225
 30
0.0
 40
3.000000000000909
100
AcDbArc
 50
0.0
 51
180.0
  0
LINE
  5
2D9
330
1F
100
AcDbEntity
  8
0
  6
Continuous
 62
     7
370
    25
100
AcDbLine
 10
6571.3427585716
 20
4879.8343460225
 30
0.0
 11
6571.3427585716
 21
4855.8343460225
 31
0.0
  0
ARC
  5
2DA
330
1F
100
AcDbEntity
  8
0
  6
Continuous
 62
     7
370
    25
100
AcDbCircle
 10
6563.6829402539
 20
4853.3494398861
 30
0.0
 40
3.0
100
AcDbArc
 50
180.0
 51
0.0
  0
LINE
  5
2DB
330
1F
100
AcDbEntity
  8
0
  6
Continuous
 62
     7
370
    25
100
AcDbLine
 10
6566.6829402539
 20
4853.3494398861
 30
0.0
 11
6566.6829402539
 21
4877.3494398861
 31
0.0
  0
ARC
  5
2DC
330
1F
100
AcDbEntity
  8
0
  6
Continuous
 62
     7
370
    25
100
AcDbCircle
 10
6563.6829402539
 20
4877.3494398861
 30
0.0
 40
3.0
100
AcDbArc
 50
0.0
 51
180.0
  0
LINE
  5
2DD
330
1F
100
AcDbEntity
  8
0
  6
Continuous
 62
     7
370
    25
100
AcDbLine
 10
6560.6829402539
 20
4877.3494398861
 30
0.0
 11
6560.6829402539
 21
4853.3494398861
 31
0.0
  0
ARC
  5
2DE
330
1F
100
AcDbEntity
  8
0
  6
Continuous
 62
     7
370
    25
100
AcDbCircle
 10
6553.0789994923
 20
4850.6365655077
 30
0.0
 40
3.000000000000909
100
AcDbArc
 50
180.0
 51
0.0
  0
LINE
  5
2DF
330
1F
100
AcDbEntity
  8
0
  6
Continuous
 62
     7
370
    25
100
AcDbLine
 10
6556.0789994923
 20
4850.6365655077
 30
0.0
 11
6556.0789994923
 21
4874.6365655077
 31
0.0
  0
ARC
  5
2E0
330
1F
100
AcDbEntity
  8
0
  6
Continuous
 62
     7
370
    25
100
AcDbCircle
 10
6553.0789994923
 20
4874.6365655077
 30
0.0
 40
3.000000000000909
100
AcDbArc
 50
0.0
 51
180.0
  0
LINE
  5
2E1
330
1F
100
AcDbEntity
  8
0
  6
Continuous
 62
     7
370
    25
100
AcDbLine
 10
6550.0789994923
 20
4874.6365655077
 30
0.0
 11
6550.0789994923
 21
4850.6365655077
 31
0.0
  0
ARC
  5
2E2
330
1F
100
AcDbEntity
  8
0
  6
Continuous
 62
     7
370
    25
100
AcDbCircle
 10
6542.5240286272
 20
4847.7453754812
 30
0.0
 40
3.000000000000909
100
AcDbArc
 50
180.0
 51
0.0
  0
LINE
  5
2E3
330
1F
100
AcDbEntity
  8
0
  6
Continuous
 62
     7
370
    25
100
AcDbLine
 10
6545.5240286272
 20
4847.7453754812
 30
0.0
 11
6545.5240286272
 21
4871.7453754812
 31
0.0
  0
ARC
  5
2E4
330
1F
100
AcDbEntity
  8
0
  6
Continuous
 62
     7
370
    25
100
AcDbCircle
 10
6542.5240286272
 20
4871.7453754812
 30
0.0
 40
3.000000000000909
100
AcDbArc
 50
0.0
 51
180.0
  0
LINE
  5
2E5
330
1F
100
AcDbEntity
  8
0
  6
Continuous
 62
     7
370
    25
100
AcDbLine
 10
6539.5240286272
 20
4871.7453754812
 30
0.0
 11
6539.5240286272
 21
4847.7453754812
 31
0.0
  0
ARC
  5
2E6
330
1F
100
AcDbEntity
  8
0
  6
Continuous
 62
     7
370
    25
100
AcDbCircle
 10
6532.0042273012
 20
4844.721682293
 30
0.0
 40
3.000000000000909
100
AcDbArc
 50
180.0
 51
0.0
  0
LINE
  5
2E7
330
1F
100
AcDbEntity
  8
0
  6
Continuous
 62
     7
370
    25
100
AcDbLine
 10
6535.0042273012
 20
4844.721682293
 30
0.0
 11
6535.0042273012
 21
4868.721682293
 31
0.0
  0
ARC
  5
2E8
330
1F
100
AcDbEntity
  8
0
  6
Continuous
 62
     7
370
    25
100
AcDbCircle
 10
6532.0042273012
 20
4868.721682293
 30
0.0
 40
3.000000000000909
100
AcDbArc
 50
0.0
 51
180.0
  0
LINE
  5
2E9
330
1F
100
AcDbEntity
  8
0
  6
Continuous
 62
     7
370
    25
100
AcDbLine
 10
6529.0042273012
 20
4868.721682293
 30
0.0
 11
6529.0042273012
 21
4844.721682293
 31
0.0
  0
ARC
  5
2EA
330
1F
100
AcDbEntity
  8
0
  6
Continuous
 62
     7
370
    25
100
AcDbCircle
 10
6521.5092459262
 20
4841.6106510528
 30
0.0
 40
3.0
100
AcDbArc
 50
180.0
 51
0.0
  0
LINE
  5
2EB
330
1F
100
AcDbEntity
  8
0
  6
Continuous
 62
     7
370
    25
100
AcDbLine
 10
6524.5092459262
 20
4841.6106510528
 30
0.0
 11
6524.5092459262
 21
4865.6106510528
 31
0.0
  0
ARC
  5
2EC
330
1F
100
AcDbEntity
  8
0
  6
Continuous
 62
     7
370
    25
100
AcDbCircle
 10
6521.5092459262
 20
4865.6106510528
 30
0.0
 40
3.0
100
AcDbArc
 50
0.0
 51
180.0
  0
LINE
  5
2ED
330
1F
100
AcDbEntity
  8
0
  6
Continuous
 62
     7
370
    25
100
AcDbLine
 10
6518.5092459262
 20
4865.6106510528
 30
0.0
 11
6518.5092459262
 21
4841.6106510528
 31
0.0
  0
ARC
  5
2EE
330
1F
100
AcDbEntity
  8
0
  6
Continuous
 62
     7
370
    25
100
AcDbCircle
 10
6511.0287376585
 20
4838.4564262111
 30
0.0
 40
3.0
100
AcDbArc
 50
180.0
 51
0.0
  0
LINE
  5
2EF
330
1F
100
AcDbEntity
  8
0
  6
Continuous
 62
     7
370
    25
100
AcDbLine
 10
6514.0287376585
 20
4838.4564262111
 30
0.0
 11
6514.0287376585
 21
4862.4564262111
 31
0.0
  0
ARC
  5
2F0
330
1F
100
AcDbEntity
  8
0
  6
Continuous
 62
     7
370
    25
100
AcDbCircle
 10
6511.0287376585
 20
4862.4564262111
 30
0.0
 40
3.0
100
AcDbArc
 50
0.0
 51
180.0
  0
LINE
  5
2F1
330
1F
100
AcDbEntity
  8
0
  6
Continuous
 62
     7
370
    25
100
AcDbLine
 10
6508.0287376585
 20
4862.4564262111
 30
0.0
 11
6508.0287376585
 21
4838.4564262111
 31
0.0
  0
ARC
  5
2F2
330
1F
100
AcDbEntity
  8
0
  6
Continuous
 62
     7
370
    25
100
AcDbCircle
 10
6500.5471884237
 20
4835.301047745
 30
0.0
 40
3.0
100
AcDbArc
 50
180.0
 51
0.0
  0
LINE
  5
2F3
330
1F
100
AcDbEntity
  8
0
  6
Continuous
 62
     7
370
    25
100
AcDbLine
 10
6503.5471884237
 20
4835.301047745
 30
0.0
 11
6503.5471884237
 21
4859.301047745
 31
0.0
  0
ARC
  5
2F4
330
1F
100
AcDbEntity
  8
0
  6
Continuous
 62
     7
370
    25
100
AcDbCircle
 10
6500.5471884237
 20
4859.301047745
 30
0.0
 40
3.0
100
AcDbArc
 50
0.0
 51
180.0
  0
LINE
  5
2F5
330
1F
100
AcDbEntity
  8
0
  6
Continuous
 62
     7
370
    25
100
AcDbLine
 10
6497.5471884237
 20
4859.301047745
 30
0.0
 11
6497.5471884237
 21
4835.301047745
 31
0.0
  0
ARC
  5
2F6
330
1F
100
AcDbEntity
  8
0
  6
Continuous
 62
     7
370
    25
100
AcDbCircle
 10
6490.0542577991
 20
4832.1881125987
 30
0.0
 40
3.0
100
AcDbArc
 50
180.0
 51
0.0
  0
LINE
  5
2F7
330
1F
100
AcDbEntity
  8
0
  6
Continuous
 62
     7
370
    25
100
AcDbLine
 10
6493.0542577991
 20
4832.1881125987
 30
0.0
 11
6493.0542577991
 21
4856.1881125987
 31
0.0
  0
ARC
  5
2F8
330
1F
100
AcDbEntity
  8
0
  6
Continuous
 62
     7
370
    25
100
AcDbCircle
 10
6490.0542577991
 20
4856.1881125987
 30
0.0
 40
3.0
100
AcDbArc
 50
0.0
 51
180.0
  0
LINE
  5
2F9
330
1F
100
AcDbEntity
  8
0
  6
Continuous
 62
     7
370
    25
100
AcDbLine
 10
6487.0542577991
 20
4856.1881125987
 30
0.0
 11
6487.0542577991
 21
4832.1881125987
 31
0.0
  0
ARC
  5
2FA
330
1F
100
AcDbEntity
  8
0
  6
Continuous
 62
     7
370
    25
100
AcDbCircle
 10
6479.5361618597
 20
4829.1607506803
 30
0.0
 40
3.0
100
AcDbArc
 50
180.0
 51
0.0
  0
LINE
  5
2FB
330
1F
100
AcDbEntity
  8
0
  6
Continuous
 62
     7
370
    25
100
AcDbLine
 10
6482.5361618597
 20
4829.1607506803
 30
0.0
 11
6482.5361618597
 21
4853.1607506803
 31
0.0
  0
ARC
  5
2FC
330
1F
100
AcDbEntity
  8
0
  6
Continuous
 62
     7
370
    25
100
AcDbCircle
 10
6479.5361618597
 20
4853.1607506803
 30
0.0
 40
3.0
100
AcDbArc
 50
0.0
 51
180.0
  0
LINE
  5
2FD
330
1F
100
AcDbEntity
  8
0
  6
Continuous
 62
     7
370
    25
100
AcDbLine
 10
6476.5361618597
 20
4853.1607506803
 30
0.0
 11
6476.5361618597
 21
4829.1607506803
 31
0.0
  0
ARC
  5
2FE
330
1F
100
AcDbEntity
  8
0
  6
Continuous
 62
     7
370
    25
100
AcDbCircle
 10
6468.9808432349
 20
4826.2637354366
 30
0.0
 40
3.0
100
AcDbArc
 50
180.0
 51
0.0
  0
LINE
  5
2FF
330
1F
100
AcDbEntity
  8
0
  6
Continuous
 62
     7
370
    25
100
AcDbLine
 10
6471.9808432349
 20
4826.2637354366
 30
0.0
 11
6471.9808432349
 21
4850.2637354366
 31
0.0
  0
ARC
  5
300
330
1F
100
AcDbEntity
  8
0
  6
Continuous
 62
     7
370
    25
100
AcDbCircle
 10
6468.9808432349
 20
4850.2637354366
 30
0.0
 40
3.0
100
AcDbArc
 50
0.0
 51
180.0
  0
LINE
  5
301
330
1F
100
AcDbEntity
  8
0
  6
Continuous
 62
     7
370
    25
100
AcDbLine
 10
6465.9808432349
 20
4850.2637354366
 30
0.0
 11
6465.9808432349
 21
4826.2637354366
 31
0.0
  0
ARC
  5
302
330
1F
100
AcDbEntity
  8
0
  6
Continuous
 62
     7
370
    25
100
AcDbCircle
 10
6458.3779705536
 20
4823.5439394727
 30
0.0
 40
3.0
100
AcDbArc
 50
180.0
 51
0.0
  0
LINE
  5
303
330
1F
100
AcDbEntity
  8
0
  6
Continuous
 62
     7
370
    25
100
AcDbLine
 10
6461.3779705536
 20
4823.5439394727
 30
0.0
 11
6461.3779705536
 21
4847.5439394727
 31
0.0
  0
ARC
  5
304
330
1F
100
AcDbEntity
  8
0
  6
Continuous
 62
     7
370
    25
100
AcDbCircle
 10
6458.3779705536
 20
4847.5439394727
 30
0.0
 40
3.0
100
AcDbArc
 50
0.0
 51
180.0
  0
LINE
  5
305
330
1F
100
AcDbEntity
  8
0
  6
Continuous
 62
     7
370
    25
100
AcDbLine
 10
6455.3779705536
 20
4847.5439394727
 30
0.0
 11
6455.3779705536
 21
4823.5439394727
 31
0.0
  0
ARC
  5
306
330
1F
100
AcDbEntity
  8
0
  6
Continuous
 62
     7
370
    25
100
AcDbCircle
 10
6447.7206606492
 20
4821.0510655581
 30
0.0
 40
3.000000000000909
100
AcDbArc
 50
180.0
 51
0.0
  0
LINE
  5
307
330
1F
100
AcDbEntity
  8
0
  6
Continuous
 62
     7
370
    25
100
AcDbLine
 10
6450.7206606492
 20
4821.0510655581
 30
0.0
 11
6450.7206606492
 21
4845.0510655581
 31
0.0
  0
ARC
  5
308
330
1F
100
AcDbEntity
  8
0
  6
Continuous
 62
     7
370
    25
100
AcDbCircle
 10
6447.7206606492
 20
4845.0510655581
 30
0.0
 40
3.000000000000909
100
AcDbArc
 50
0.0
 51
180.0
  0
LINE
  5
309
330
1F
100
AcDbEntity
  8
0
  6
Continuous
 62
     7
370
    25
100
AcDbLine
 10
6444.7206606492
 20
4845.0510655581
 30
0.0
 11
6444.7206606492
 21
4821.0510655581
 31
0.0
  0
ARC
  5
30A
330
1F
100
AcDbEntity
  8
0
  6
Continuous
 62
     7
370
    25
100
AcDbCircle
 10
6437.0020321628
 20
4818.8369750436
 30
0.0
 40
3.0
100
AcDbArc
 50
180.0
 51
0.0
  0
LINE
  5
30B
330
1F
100
AcDbEntity
  8
0
  6
Continuous
 62
     7
370
    25
100
AcDbLine
 10
6440.0020321628
 20
4818.8369750436
 30
0.0
 11
6440.0020321628
 21
4842.8369750436
 31
0.0
  0
ARC
  5
30C
330
1F
100
AcDbEntity
  8
0
  6
Continuous
 62
     7
370
    25
100
AcDbCircle
 10
6437.0020321628
 20
4842.8369750436
 30
0.0
 40
3.0
100
AcDbArc
 50
0.0
 51
180.0
  0
LINE
  5
30D
330
1F
100
AcDbEntity
  8
0
  6
Continuous
 62
     7
370
    25
100
AcDbLine
 10
6434.0020321628
 20
4842.8369750436
 30
0.0
 11
6434.0020321628
 21
4818.8369750436
 31
0.0
  0
ARC
  5
30E
330
1F
100
AcDbEntity
  8
0
  6
Continuous
 62
     7
370
    25
100
AcDbCircle
 10
6426.2203731411
 20
4816.9568465859
 30
0.0
 40
3.000000000000909
100
AcDbArc
 50
180.0
 51
0.0
  0
LINE
  5
30F
330
1F
100
AcDbEntity
  8
0
  6
Continuous
 62
     7
370
    25
100
AcDbLine
 10
6429.2203731411
 20
4816.9568465859
 30
0.0
 11
6429.2203731411
 21
4840.9568465859
 31
0.0
  0
ARC
  5
310
330
1F
100
AcDbEntity
  8
0
  6
Continuous
 62
     7
370
    25
100
AcDbCircle
 10
6426.2203731411
 20
4840.9568465859
 30
0.0
 40
3.000000000000909
100
AcDbArc
 50
0.0
 51
180.0
  0
LINE
  5
311
330
1F
100
AcDbEntity
  8
0
  6
Continuous
 62
     7
370
    25
100
AcDbLine
 10
6423.2203731411
 20
4840.9568465859
 30
0.0
 11
6423.2203731411
 21
4816.9568465859
 31
0.0
  0
ARC
  5
312
330
1F
100
AcDbEntity
  8
0
  6
Continuous
 62
     7
370
    25
100
AcDbCircle
 10
6415.3774169281
 20
4815.4683122116
 30
0.0
 40
3.0
100
AcDbArc
 50
180.0
 51
0.0
  0
LINE
  5
313
330
1F
100
AcDbEntity
  8
0
  6
Continuous
 62
     7
370
    25
100
AcDbLine
 10
6418.3774169281
 20
4815.4683122116
 30
0.0
 11
6418.3774169281
 21
4839.4683122116
 31
0.0
  0
ARC
  5
314
330
1F
100
AcDbEntity
  8
0
  6
Continuous
 62
     7
370
    25
100
AcDbCircle
 10
6415.3774169281
 20
4839.4683122116
 30
0.0
 40
3.0
100
AcDbArc
 50
0.0
 51
180.0
  0
LINE
  5
315
330
1F
100
AcDbEntity
  8
0
  6
Continuous
 62
     7
370
    25
100
AcDbLine
 10
6412.3774169281
 20
4839.4683122116
 30
0.0
 11
6412.3774169281
 21
4815.4683122116
 31
0.0
  0
ARC
  5
316
330
1F
100
AcDbEntity
  8
0
  6
Continuous
 62
     7
370
    25
100
AcDbCircle
 10
6404.4817856258
 20
4814.431050331
 30
0.0
 40
3.0
100
AcDbArc
 50
180.0
 51
0.0
  0
LINE
  5
317
330
1F
100
AcDbEntity
  8
0
  6
Continuous
 62
     7
370
    25
100
AcDbLine
 10
6407.4817856258
 20
4814.431050331
 30
0.0
 11
6407.4817856258
 21
4838.431050331
 31
0.0
  0
ARC
  5
318
330
1F
100
AcDbEntity
  8
0
  6
Continuous
 62
     7
370
    25
100
AcDbCircle
 10
6404.4817856258
 20
4838.431050331
 30
0.0
 40
3.0
100
AcDbArc
 50
0.0
 51
180.0
  0
LINE
  5
319
330
1F
100
AcDbEntity
  8
0
  6
Continuous
 62
     7
370
    25
100
AcDbLine
 10
6401.4817856258
 20
4838.431050331
 30
0.0
 11
6401.4817856258
 21
4814.431050331
 31
0.0
  0
ARC
  5
31A
330
1F
100
AcDbEntity
  8
0
  6
Continuous
 62
     7
370
    25
100
AcDbCircle
 10
6393.5489877996
 20
4813.905013994
 30
0.0
 40
3.0
100
AcDbArc
 50
180.0
 51
0.0
  0
LINE
  5
31B
330
1F
100
AcDbEntity
  8
0
  6
Continuous
 62
     7
370
    25
100
AcDbLine
 10
6396.5489877996
 20
4813.905013994
 30
0.0
 11
6396.5489877996
 21
4837.905013994
 31
0.0
  0
ARC
  5
31C
330
1F
100
AcDbEntity
  8
0
  6
Continuous
 62
     7
370
    25
100
AcDbCircle
 10
6393.5489877996
 20
4837.905013994
 30
0.0
 40
3.0
100
AcDbArc
 50
0.0
 51
180.0
  0
LINE
  5
31D
330
1F
100
AcDbEntity
  8
0
  6
Continuous
 62
     7
370
    25
100
AcDbLine
 10
6390.5489877996
 20
4837.905013994
 30
0.0
 11
6390.5489877996
 21
4813.905013994
 31
0.0
  0
ARC
  5
31E
330
1F
100
AcDbEntity
  8
0
  6
Continuous
 62
     7
370
    25
100
AcDbCircle
 10
6382.6065823825
 20
4813.9479410408
 30
0.0
 40
3.0
100
AcDbArc
 50
180.0
 51
0.0
  0
LINE
  5
31F
330
1F
100
AcDbEntity
  8
0
  6
Continuous
 62
     7
370
    25
100
AcDbLine
 10
6385.6065823825
 20
4813.9479410408
 30
0.0
 11
6385.6065823825
 21
4837.9479410408
 31
0.0
  0
ARC
  5
320
330
1F
100
AcDbEntity
  8
0
  6
Continuous
 62
     7
370
    25
100
AcDbCircle
 10
6382.6065823825
 20
4837.9479410408
 30
0.0
 40
3.0
100
AcDbArc
 50
0.0
 51
180.0
  0
LINE
  5
321
330
1F
100
AcDbEntity
  8
0
  6
Continuous
 62
     7
370
    25
100
AcDbLine
 10
6379.6065823825
 20
4837.9479410408
 30
0.0
 11
6379.6065823825
 21
4813.9479410408
 31
0.0
  0
ARC
  5
322
330
1F
100
AcDbEntity
  8
0
  6
Continuous
 62
     7
370
    25
100
AcDbCircle
 10
6371.6803892063
 20
4814.5861822759
 30
0.0
 40
3.0
100
AcDbArc
 50
180.0
 51
0.0
  0
LINE
  5
323
330
1F
100
AcDbEntity
  8
0
  6
Continuous
 62
     7
370
    25
100
AcDbLine
 10
6374.6803892063
 20
4814.5861822759
 30
0.0
 11
6374.6803892063
 21
4838.5861822759
 31
0.0
  0
ARC
  5
324
330
1F
100
AcDbEntity
  8
0
  6
Continuous
 62
     7
370
    25
100
AcDbCircle
 10
6371.6803892063
 20
4838.5861822759
 30
0.0
 40
3.0
100
AcDbArc
 50
0.0
 51
180.0
  0
LINE
  5
325
330
1F
100
AcDbEntity
  8
0
  6
Continuous
 62
     7
370
    25
100
AcDbLine
 10
6368.6803892063
 20
4838.5861822759
 30
0.0
 11
6368.6803892063
 21
4814.5861822759
 31
0.0
  0
ARC
  5
326
330
1F
100
AcDbEntity
  8
0
  6
Continuous
 62
     7
370
    25
100
AcDbCircle
 10
6360.7996376415
 20
4815.7666044161
 30
0.0
 40
3.0
100
AcDbArc
 50
180.0
 51
0.0
  0
LINE
  5
327
330
1F
100
AcDbEntity
  8
0
  6
Continuous
 62
     7
370
    25
100
AcDbLine
 10
6363.7996376415
 20
4815.7666044161
 30
0.0
 11
6363.7996376415
 21
4839.7666044161
 31
0.0
  0
ARC
  5
328
330
1F
100
AcDbEntity
  8
0
  6
Continuous
 62
     7
370
    25
100
AcDbCircle
 10
6360.7996376415
 20
4839.7666044161
 30
0.0
 40
3.0
100
AcDbArc
 50
0.0
 51
180.0
  0
LINE
  5
329
330
1F
100
AcDbEntity
  8
0
  6
Continuous
 62
     7
370
    25
100
AcDbLine
 10
6357.7996376415
 20
4839.7666044161
 30
0.0
 11
6357.7996376415
 21
4815.7666044161
 31
0.0
  0
ARC
  5
32A
330
1F
100
AcDbEntity
  8
0
  6
Continuous
 62
     7
370
    25
100
AcDbCircle
 10
6349.979771976
 20
4817.4211294183
 30
0.0
 40
3.0
100
AcDbArc
 50
180.0
 51
0.0
  0
LINE
  5
32B
330
1F
100
AcDbEntity
  8
0
  6
Continuous
 62
     7
370
    25
100
AcDbLine
 10
6352.979771976
 20
4817.4211294183
 30
0.0
 11
6352.979771976
 21
4841.4211294183
 31
0.0
  0
ARC
  5
32C
330
1F
100
AcDbEntity
  8
0
  6
Continuous
 62
     7
370
    25
100
AcDbCircle
 10
6349.979771976
 20
4841.4211294183
 30
0.0
 40
3.0
100
AcDbArc
 50
0.0
 51
180.0
  0
LINE
  5
32D
330
1F
100
AcDbEntity
  8
0
  6
Continuous
 62
     7
370
    25
100
AcDbLine
 10
6346.979771976
 20
4841.4211294183
 30
0.0
 11
6346.979771976
 21
4817.4211294183
 31
0.0
  0
ARC
  5
32E
330
1F
100
AcDbEntity
  8
0
  6
Continuous
 62
     7
370
    25
100
AcDbCircle
 10
6339.2310694164
 20
4819.4820006789
 30
0.0
 40
3.0
100
AcDbArc
 50
180.0
 51
0.0
  0
LINE
  5
32F
330
1F
100
AcDbEntity
  8
0
  6
Continuous
 62
     7
370
    25
100
AcDbLine
 10
6342.2310694164
 20
4819.4820006789
 30
0.0
 11
6342.2310694164
 21
4843.4820006789
 31
0.0
  0
ARC
  5
330
330
1F
100
AcDbEntity
  8
0
  6
Continuous
 62
     7
370
    25
100
AcDbCircle
 10
6339.2310694164
 20
4843.4820006789
 30
0.0
 40
3.0
100
AcDbArc
 50
0.0
 51
180.0
  0
LINE
  5
331
330
1F
100
AcDbEntity
  8
0
  6
Continuous
 62
     7
370
    25
100
AcDbLine
 10
6336.2310694164
 20
4843.4820006789
 30
0.0
 11
6336.2310694164
 21
4819.4820006789
 31
0.0
  0
ARC
  5
332
330
1F
100
AcDbEntity
  8
0
  6
Continuous
 62
     7
370
    25
100
AcDbCircle
 10
6328.5534771389
 20
4821.8846457205
 30
0.0
 40
3.0
100
AcDbArc
 50
180.0
 51
0.0
  0
LINE
  5
333
330
1F
100
AcDbEntity
  8
0
  6
Continuous
 62
     7
370
    25
100
AcDbLine
 10
6331.5534771389
 20
4821.8846457205
 30
0.0
 11
6331.5534771389
 21
4845.8846457205
 31
0.0
  0
ARC
  5
334
330
1F
100
AcDbEntity
  8
0
  6
Continuous
 62
     7
370
    25
100
AcDbCircle
 10
6328.5534771389
 20
4845.8846457205
 30
0.0
 40
3.0
100
AcDbArc
 50
0.0
 51
180.0
  0
LINE
  5
335
330
1F
100
AcDbEntity
  8
0
  6
Continuous
 62
     7
370
    25
100
AcDbLine
 10
6325.5534771389
 20
4845.8846457205
 30
0.0
 11
6325.5534771389
 21
4821.8846457205
 31
0.0
  0
ARC
  5
336
330
1F
100
AcDbEntity
  8
0
  6
Continuous
 62
     7
370
    25
100
AcDbCircle
 10
6317.9417794612
 20
4824.5681363052
 30
0.0
 40
3.0
100
AcDbArc
 50
180.0
 51
0.0
  0
LINE
  5
337
330
1F
100
AcDbEntity
  8
0
  6
Continuous
 62
     7
370
    25
100
AcDbLine
 10
6320.9417794612
 20
4824.5681363052
 30
0.0
 11
6320.9417794612
 21
4848.5681363052
 31
0.0
  0
ARC
  5
338
330
1F
100
AcDbEntity
  8
0
  6
Continuous
 62
     7
370
    25
100
AcDbCircle
 10
6317.9417794612
 20
4848.5681363052
 30
0.0
 40
3.0
100
AcDbArc
 50
0.0
 51
180.0
  0
LINE
  5
339
330
1F
100
AcDbEntity
  8
0
  6
Continuous
 62
     7
370
    25
100
AcDbLine
 10
6314.9417794612
 20
4848.5681363052
 30
0.0
 11
6314.9417794612
 21
4824.5681363052
 31
0.0
  0
ARC
  5
33A
330
1F
100
AcDbEntity
  8
0
  6
Continuous
 62
     7
370
    25
100
AcDbCircle
 10
6307.3890417244
 20
4827.4746846823
 30
0.0
 40
3.0
100
AcDbArc
 50
180.0
 51
0.0
  0
LINE
  5
33B
330
1F
100
AcDbEntity
  8
0
  6
Continuous
 62
     7
370
    25
100
AcDbLine
 10
6310.3890417244
 20
4827.4746846823
 30
0.0
 11
6310.3890417244
 21
4851.4746846823
 31
0.0
  0
ARC
  5
33C
330
1F
100
AcDbEntity
  8
0
  6
Continuous
 62
     7
370
    25
100
AcDbCircle
 10
6307.3890417244
 20
4851.4746846823
 30
0.0
 40
3.0
100
AcDbArc
 50
0.0
 51
180.0
  0
LINE
  5
33D
330
1F
100
AcDbEntity
  8
0
  6
Continuous
 62
     7
370
    25
100
AcDbLine
 10
6304.3890417244
 20
4851.4746846823
 30
0.0
 11
6304.3890417244
 21
4827.4746846823
 31
0.0
  0
ARC
  5
33E
330
1F
100
AcDbEntity
  8
0
  6
Continuous
 62
     7
370
    25
100
AcDbCircle
 10
6296.8848889592
 20
4830.5499829905
 30
0.0
 40
3.0
100
AcDbArc
 50
180.0
 51
0.0
  0
LINE
  5
33F
330
1F
100
AcDbEntity
  8
0
  6
Continuous
 62
     7
370
    25
100
AcDbLine
 10
6299.8848889592
 20
4830.5499829905
 30
0.0
 11
6299.8848889592
 21
4854.5499829905
 31
0.0
  0
ARC
  5
340
330
1F
100
AcDbEntity
  8
0
  6
Continuous
 62
     7
370
    25
100
AcDbCircle
 10
6296.8848889592
 20
4854.5499829905
 30
0.0
 40
3.0
100
AcDbArc
 50
0.0
 51
180.0
  0
LINE
  5
341
330
1F
100
AcDbEntity
  8
0
  6
Continuous
 62
     7
370
    25
100
AcDbLine
 10
6293.8848889592
 20
4854.5499829905
 30
0.0
 11
6293.8848889592
 21
4830.5499829905
 31
0.0
  0
ARC
  5
342
330
1F
100
AcDbEntity
  8
0
  6
Continuous
 62
     7
370
    25
100
AcDbCircle
 10
6286.4155061245
 20
4833.7429883076
 30
0.0
 40
3.0
100
AcDbArc
 50
180.0
 51
0.0
  0
LINE
  5
343
330
1F
100
AcDbEntity
  8
0
  6
Continuous
 62
     7
370
    25
100
AcDbLine
 10
6289.4155061245
 20
4833.7429883076
 30
0.0
 11
6289.4155061245
 21
4857.7429883076
 31
0.0
  0
ARC
  5
344
330
1F
100
AcDbEntity
  8
0
  6
Continuous
 62
     7
370
    25
100
AcDbCircle
 10
6286.4155061245
 20
4857.7429883076
 30
0.0
 40
3.0
100
AcDbArc
 50
0.0
 51
180.0
  0
LINE
  5
345
330
1F
100
AcDbEntity
  8
0
  6
Continuous
 62
     7
370
    25
100
AcDbLine
 10
6283.4155061245
 20
4857.7429883076
 30
0.0
 11
6283.4155061245
 21
4833.7429883076
 31
0.0
  0
ARC
  5
346
330
1F
100
AcDbEntity
  8
0
  6
Continuous
 62
     7
370
    25
100
AcDbCircle
 10
6275.9670807576
 20
4837.0043781145
 30
0.0
 40
3.000000000000909
100
AcDbArc
 50
180.0
 51
0.0
  0
LINE
  5
347
330
1F
100
AcDbEntity
  8
0
  6
Continuous
 62
     7
370
    25
100
AcDbLine
 10
6278.9670807576
 20
4837.0043781145
 30
0.0
 11
6278.9670807576
 21
4861.0043781145
 31
0.0
  0
ARC
  5
348
330
1F
100
AcDbEntity
  8
0
  6
Continuous
 62
     7
370
    25
100
AcDbCircle
 10
6275.9670807576
 20
4861.0043781145
 30
0.0
 40
3.000000000000909
100
AcDbArc
 50
0.0
 51
180.0
  0
LINE
  5
349
330
1F
100
AcDbEntity
  8
0
  6
Continuous
 62
     7
370
    25
100
AcDbLine
 10
6272.9670807576
 20
4861.0043781145
 30
0.0
 11
6272.9670807576
 21
4837.0043781145
 31
0.0
  0
ARC
  5
34A
330
1F
100
AcDbEntity
  8
0
  6
Continuous
 62
     7
370
    25
100
AcDbCircle
 10
6265.5258024474
 20
4840.285847558
 30
0.0
 40
3.0
100
AcDbArc
 50
180.0
 51
0.0
  0
LINE
  5
34B
330
1F
100
AcDbEntity
  8
0
  6
Continuous
 62
     7
370
    25
100
AcDbLine
 10
6268.5258024474
 20
4840.285847558
 30
0.0
 11
6268.5258024474
 21
4864.285847558
 31
0.0
  0
ARC
  5
34C
330
1F
100
AcDbEntity
  8
0
  6
Continuous
 62
     7
370
    25
100
AcDbCircle
 10
6265.5258024474
 20
4864.285847558
 30
0.0
 40
3.0
100
AcDbArc
 50
0.0
 51
180.0
  0
LINE
  5
34D
330
1F
100
AcDbEntity
  8
0
  6
Continuous
 62
     7
370
    25
100
AcDbLine
 10
6262.5258024474
 20
4864.285847558
 30
0.0
 11
6262.5258024474
 21
4840.285847558
 31
0.0
  0
ARC
  5
34E
330
1F
100
AcDbEntity
  8
0
  6
Continuous
 62
     7
370
    25
100
AcDbCircle
 10
6255.0744198652
 20
4843.540477527
 30
0.0
 40
3.000000000000909
100
AcDbArc
 50
180.0
 51
0.0
  0
LINE
  5
34F
330
1F
100
AcDbEntity
  8
0
  6
Continuous
 62
     7
370
    25
100
AcDbLine
 10
6258.0744198652
 20
4843.540477527
 30
0.0
 11
6258.0744198652
 21
4867.540477527
 31
0.0
  0
ARC
  5
350
330
1F
100
AcDbEntity
  8
0
  6
Continuous
 62
     7
370
    25
100
AcDbCircle
 10
6255.0744198652
 20
4867.540477527
 30
0.0
 40
3.000000000000909
100
AcDbArc
 50
0.0
 51
180.0
  0
LINE
  5
351
330
1F
100
AcDbEntity
  8
0
  6
Continuous
 62
     7
370
    25
100
AcDbLine
 10
6252.0744198652
 20
4867.540477527
 30
0.0
 11
6252.0744198652
 21
4843.540477527
 31
0.0
  0
ARC
  5
352
330
1F
100
AcDbEntity
  8
0
  6
Continuous
 62
     7
370
    25
100
AcDbCircle
 10
6244.6008465217
 20
4846.7193015734
 30
0.0
 40
3.0
100
AcDbArc
 50
180.0
 51
0.0
  0
LINE
  5
353
330
1F
100
AcDbEntity
  8
0
  6
Continuous
 62
     7
370
    25
100
AcDbLine
 10
6247.6008465217
 20
4846.7193015734
 30
0.0
 11
6247.6008465217
 21
4870.7193015734
 31
0.0
  0
ARC
  5
354
330
1F
100
AcDbEntity
  8
0
  6
Continuous
 62
     7
370
    25
100
AcDbCircle
 10
6244.6008465217
 20
4870.7193015734
 30
0.0
 40
3.0
100
AcDbArc
 50
0.0
 51
180.0
  0
LINE
  5
355
330
1F
100
AcDbEntity
  8
0
  6
Continuous
 62
     7
370
    25
100
AcDbLine
 10
6241.6008465217
 20
4870.7193015734
 30
0.0
 11
6241.6008465217
 21
4846.7193015734
 31
0.0
  0
ARC
  5
356
330
1F
100
AcDbEntity
  8
0
  6
Continuous
 62
     7
370
    25
100
AcDbCircle
 10
6234.0912751068
 20
4849.7727818364
 30
0.0
 40
3.0
100
AcDbArc
 50
180.0
 51
0.0
  0
LINE
  5
357
330
1F
100
AcDbEntity
  8
0
  6
Continuous
 62
     7
370
    25
100
AcDbLine
 10
6237.0912751068
 20
4849.7727818364
 30
0.0
 11
6237.0912751068
 21
4873.7727818364
 31
0.0
  0
ARC
  5
358
330
1F
100
AcDbEntity
  8
0
  6
Continuous
 62
     7
370
    25
100
AcDbCircle
 10
6234.0912751068
 20
4873.7727818364
 30
0.0
 40
3.0
100
AcDbArc
 50
0.0
 51
180.0
  0
LINE
  5
359
330
1F
100
AcDbEntity
  8
0
  6
Continuous
 62
     7
370
    25
100
AcDbLine
 10
6231.0912751068
 20
4873.7727818364
 30
0.0
 11
6231.0912751068
 21
4849.7727818364
 31
0.0
  0
ARC
  5
35A
330
1F
100
AcDbEntity
  8
0
  6
Continuous
 62
     7
370
    25
100
AcDbCircle
 10
6223.5301771147
 20
4852.6500142007
 30
0.0
 40
3.0
100
AcDbArc
 50
180.0
 51
0.0
  0
LINE
  5
35B
330
1F
100
AcDbEntity
  8
0
  6
Continuous
 62
     7
370
    25
100
AcDbLine
 10
6226.5301771147
 20
4852.6500142007
 30
0.0
 11
6226.5301771147
 21
4876.6500142007
 31
0.0
  0
ARC
  5
35C
330
1F
100
AcDbEntity
  8
0
  6
Continuous
 62
     7
370
    25
100
AcDbCircle
 10
6223.5301771147
 20
4876.6500142007
 30
0.0
 40
3.0
100
AcDbArc
 50
0.0
 51
180.0
  0
LINE
  5
35D
330
1F
100
AcDbEntity
  8
0
  6
Continuous
 62
     7
370
    25
100
AcDbLine
 10
6220.5301771147
 20
4876.6500142007
 30
0.0
 11
6220.5301771147
 21
4852.6500142007
 31
0.0
  0
ARC
  5
35E
330
1F
100
AcDbEntity
  8
0
  6
Continuous
 62
     7
370
    25
100
AcDbCircle
 10
6212.9089081393
 20
4855.2957550791
 30
0.0
 40
3.0
100
AcDbArc
 50
180.0
 51
0.0
  0
LINE
  5
35F
330
1F
100
AcDbEntity
  8
0
  6
Continuous
 62
     7
370
    25
100
AcDbLine
 10
6215.9089081393
 20
4855.2957550791
 30
0.0
 11
6215.9089081393
 21
4879.2957550791
 31
0.0
  0
ARC
  5
360
330
1F
100
AcDbEntity
  8
0
  6
Continuous
 62
     7
370
    25
100
AcDbCircle
 10
6212.9089081393
 20
4879.2957550791
 30
0.0
 40
3.0
100
AcDbArc
 50
0.0
 51
180.0
  0
LINE
  5
361
330
1F
100
AcDbEntity
  8
0
  6
Continuous
 62
     7
370
    25
100
AcDbLine
 10
6209.9089081393
 20
4879.2957550791
 30
0.0
 11
6209.9089081393
 21
4855.2957550791
 31
0.0
  0
ARC
  5
362
330
1F
100
AcDbEntity
  8
0
  6
Continuous
 62
     7
370
    25
100
AcDbCircle
 10
6202.2205437858
 20
4857.6517191411
 30
0.0
 40
3.0
100
AcDbArc
 50
180.0
 51
0.0
  0
LINE
  5
363
330
1F
100
AcDbEntity
  8
0
  6
Continuous
 62
     7
370
    25
100
AcDbLine
 10
6205.2205437858
 20
4857.6517191411
 30
0.0
 11
6205.2205437858
 21
4881.6517191411
 31
0.0
  0
ARC
  5
364
330
1F
100
AcDbEntity
  8
0
  6
Continuous
 62
     7
370
    25
100
AcDbCircle
 10
6202.2205437858
 20
4881.6517191411
 30
0.0
 40
3.0
100
AcDbArc
 50
0.0
 51
180.0
  0
LINE
  5
365
330
1F
100
AcDbEntity
  8
0
  6
Continuous
 62
     7
370
    25
100
AcDbLine
 10
6199.2205437858
 20
4881.6517191411
 30
0.0
 11
6199.2205437858
 21
4857.6517191411
 31
0.0
  0
ARC
  5
366
330
1F
100
AcDbEntity
  8
0
  6
Continuous
 62
     7
370
    25
100
AcDbCircle
 10
6191.4616005055
 20
4859.6561185495
 30
0.0
 40
3.0
100
AcDbArc
 50
180.0
 51
0.0
  0
LINE
  5
367
330
1F
100
AcDbEntity
  8
0
  6
Continuous
 62
     7
370
    25
100
AcDbLine
 10
6194.4616005055
 20
4859.6561185495
 30
0.0
 11
6194.4616005055
 21
4883.6561185495
 31
0.0
  0
ARC
  5
368
330
1F
100
AcDbEntity
  8
0
  6
Continuous
 62
     7
370
    25
100
AcDbCircle
 10
6191.4616005055
 20
4883.6561185495
 30
0.0
 40
3.0
100
AcDbArc
 50
0.0
 51
180.0
  0
LINE
  5
369
330
1F
100
AcDbEntity
  8
0
  6
Continuous
 62
     7
370
    25
100
AcDbLine
 10
6188.4616005055
 20
4883.6561185495
 30
0.0
 11
6188.4616005055
 21
4859.6561185495
 31
0.0
  0
ARC
  5
36A
330
1F
100
AcDbEntity
  8
0
  6
Continuous
 62
     7
370
    25
100
AcDbCircle
 10
6180.6320354234
 20
4861.2439824882
 30
0.0
 40
3.000000000000909
100
AcDbArc
 50
180.0
 51
0.0
  0
LINE
  5
36B
330
1F
100
AcDbEntity
  8
0
  6
Continuous
 62
     7
370
    25
100
AcDbLine
 10
6183.6320354234
 20
4861.2439824882
 30
0.0
 11
6183.6320354234
 21
4885.2439824882
 31
0.0
  0
ARC
  5
36C
330
1F
100
AcDbEntity
  8
0
  6
Continuous
 62
     7
370
    25
100
AcDbCircle
 10
6180.6320354234
 20
4885.2439824882
 30
0.0
 40
3.000000000000909
100
AcDbArc
 50
0.0
 51
180.0
  0
LINE
  5
36D
330
1F
100
AcDbEntity
  8
0
  6
Continuous
 62
     7
370
    25
100
AcDbLine
 10
6177.6320354234
 20
4885.2439824882
 30
0.0
 11
6177.6320354234
 21
4861.2439824882
 31
0.0
  0
ARC
  5
36E
330
1F
100
AcDbEntity
  8
0
  6
Continuous
 62
     7
370
    25
100
AcDbCircle
 10
6169.7438523139
 20
4862.347096148
 30
0.0
 40
3.000000000000909
100
AcDbArc
 50
180.0
 51
0.0
  0
LINE
  5
36F
330
1F
100
AcDbEntity
  8
0
  6
Continuous
 62
     7
370
    25
100
AcDbLine
 10
6172.7438523139
 20
4862.347096148
 30
0.0
 11
6172.7438523139
 21
4886.347096148
 31
0.0
  0
ARC
  5
370
330
1F
100
AcDbEntity
  8
0
  6
Continuous
 62
     7
370
    25
100
AcDbCircle
 10
6169.7438523139
 20
4886.347096148
 30
0.0
 40
3.000000000000909
100
AcDbArc
 50
0.0
 51
180.0
  0
LINE
  5
371
330
1F
100
AcDbEntity
  8
0
  6
Continuous
 62
     7
370
    25
100
AcDbLine
 10
6166.7438523139
 20
4886.347096148
 30
0.0
 11
6166.7438523139
 21
4862.347096148
 31
0.0
  0
ARC
  5
372
330
1F
100
AcDbEntity
  8
0
  6
Continuous
 62
     7
370
    25
100
AcDbCircle
 10
6158.8142176241
 20
4862.897368319
 30
0.0
 40
3.0
100
AcDbArc
 50
180.0
 51
0.0
  0
LINE
  5
373
330
1F
100
AcDbEntity
  8
0
  6
Continuous
 62
     7
370
    25
100
AcDbLine
 10
6161.8142176241
 20
4862.897368319
 30
0.0
 11
6161.8142176241
 21
4886.897368319
 31
0.0
  0
ARC
  5
374
330
1F
100
AcDbEntity
  8
0
  6
Continuous
 62
     7
370
    25
100
AcDbCircle
 10
6158.8142176241
 20
4886.897368319
 30
0.0
 40
3.0
100
AcDbArc
 50
0.0
 51
180.0
  0
LINE
  5
375
330
1F
100
AcDbEntity
  8
0
  6
Continuous
 62
     7
370
    25
100
AcDbLine
 10
6155.8142176241
 20
4886.897368319
 30
0.0
 11
6155.8142176241
 21
4862.897368319
 31
0.0
  0
ARC
  5
376
330
1F
100
AcDbEntity
  8
0
  6
Continuous
 62
     7
370
    25
100
AcDbCircle
 10
6147.8689116056
 20
4862.8449155412
 30
0.0
 40
3.0
100
AcDbArc
 50
180.0
 51
0.0
  0
LINE
  5
377
330
1F
100
AcDbEntity
  8
0
  6
Continuous
 62
     7
370
    25
100
AcDbLine
 10
6150.8689116056
 20
4862.8449155412
 30
0.0
 11
6150.8689116056
 21
4886.8449155412
 31
0.0
  0
ARC
  5
378
330
1F
100
AcDbEntity
  8
0
  6
Continuous
 62
     7
370
    25
100
AcDbCircle
 10
6147.8689116056
 20
4886.8449155412
 30
0.0
 40
3.0
100
AcDbArc
 50
0.0
 51
180.0
  0
LINE
  5
379
330
1F
100
AcDbEntity
  8
0
  6
Continuous
 62
     7
370
    25
100
AcDbLine
 10
6144.8689116056
 20
4886.8449155412
 30
0.0
 11
6144.8689116056
 21
4862.8449155412
 31
0.0
  0
ARC
  5
37A
330
1F
100
AcDbEntity
  8
0
  6
Continuous
 62
     7
370
    25
100
AcDbCircle
 10
6136.942359017
 20
4862.2214791032
 30
0.0
 40
3.0
100
AcDbArc
 50
180.0
 51
0.0
  0
LINE
  5
37B
330
1F
100
AcDbEntity
  8
0
  6
Continuous
 62
     7
370
    25
100
AcDbLine
 10
6139.942359017
 20
4862.2214791032
 30
0.0
 11
6139.942359017
 21
4886.2214791032
 31
0.0
  0
ARC
  5
37C
330
1F
100
AcDbEntity
  8
0
  6
Continuous
 62
     7
370
    25
100
AcDbCircle
 10
6136.942359017
 20
4886.2214791032
 30
0.0
 40
3.0
100
AcDbArc
 50
0.0
 51
180.0
  0
LINE
  5
37D
330
1F
100
AcDbEntity
  8
0
  6
Continuous
 62
     7
370
    25
100
AcDbLine
 10
6133.942359017
 20
4886.2214791032
 30
0.0
 11
6133.942359017
 21
4862.2214791032
 31
0.0
  0
ARC
  5
37E
330
1F
100
AcDbEntity
  8
0
  6
Continuous
 62
     7
370
    25
100
AcDbCircle
 10
6126.0569486975
 20
4861.0865727218
 30
0.0
 40
3.0
100
AcDbArc
 50
180.0
 51
0.0
  0
LINE
  5
37F
330
1F
100
AcDbEntity
  8
0
  6
Continuous
 62
     7
370
    25
100
AcDbLine
 10
6129.0569486975
 20
4861.0865727218
 30
0.0
 11
6129.0569486975
 21
4885.0865727218
 31
0.0
  0
ARC
  5
380
330
1F
100
AcDbEntity
  8
0
  6
Continuous
 62
     7
370
    25
100
AcDbCircle
 10
6126.0569486975
 20
4885.0865727218
 30
0.0
 40
3.0
100
AcDbArc
 50
0.0
 51
180.0
  0
LINE
  5
381
330
1F
100
AcDbEntity
  8
0
  6
Continuous
 62
     7
370
    25
100
AcDbLine
 10
6123.0569486975
 20
4885.0865727218
 30
0.0
 11
6123.0569486975
 21
4861.0865727218
 31
0.0
  0
ARC
  5
382
330
1F
100
AcDbEntity
  8
0
  6
Continuous
 62
     7
370
    25
100
AcDbCircle
 10
6115.2281853242
 20
4859.5015594511
 30
0.0
 40
3.0
100
AcDbArc
 50
180.0
 51
0.0
  0
LINE
  5
383
330
1F
100
AcDbEntity
  8
0
  6
Continuous
 62
     7
370
    25
100
AcDbLine
 10
6118.2281853242
 20
4859.5015594511
 30
0.0
 11
6118.2281853242
 21
4883.5015594511
 31
0.0
  0
ARC
  5
384
330
1F
100
AcDbEntity
  8
0
  6
Continuous
 62
     7
370
    25
100
AcDbCircle
 10
6115.2281853242
 20
4883.5015594511
 30
0.0
 40
3.0
100
AcDbArc
 50
0.0
 51
180.0
  0
LINE
  5
385
330
1F
100
AcDbEntity
  8
0
  6
Continuous
 62
     7
370
    25
100
AcDbLine
 10
6112.2281853242
 20
4883.5015594511
 30
0.0
 11
6112.2281853242
 21
4859.5015594511
 31
0.0
  0
ARC
  5
386
330
1F
100
AcDbEntity
  8
0
  6
Continuous
 62
     7
370
    25
100
AcDbCircle
 10
6104.4629673901
 20
4857.526993551
 30
0.0
 40
3.0
100
AcDbArc
 50
180.0
 51
0.0
  0
LINE
  5
387
330
1F
100
AcDbEntity
  8
0
  6
Continuous
 62
     7
370
    25
100
AcDbLine
 10
6107.4629673901
 20
4857.526993551
 30
0.0
 11
6107.4629673901
 21
4881.526993551
 31
0.0
  0
ARC
  5
388
330
1F
100
AcDbEntity
  8
0
  6
Continuous
 62
     7
370
    25
100
AcDbCircle
 10
6104.4629673901
 20
4881.526993551
 30
0.0
 40
3.0
100
AcDbArc
 50
0.0
 51
180.0
  0
LINE
  5
389
330
1F
100
AcDbEntity
  8
0
  6
Continuous
 62
     7
370
    25
100
AcDbLine
 10
6101.4629673901
 20
4881.526993551
 30
0.0
 11
6101.4629673901
 21
4857.526993551
 31
0.0
  0
ARC
  5
38A
330
1F
100
AcDbEntity
  8
0
  6
Continuous
 62
     7
370
    25
100
AcDbCircle
 10
6093.7630292699
 20
4855.2213827469
 30
0.0
 40
3.0
100
AcDbArc
 50
180.0
 51
0.0
  0
LINE
  5
38B
330
1F
100
AcDbEntity
  8
0
  6
Continuous
 62
     7
370
    25
100
AcDbLine
 10
6096.7630292699
 20
4855.2213827469
 30
0.0
 11
6096.7630292699
 21
4879.2213827469
 31
0.0
  0
ARC
  5
38C
330
1F
100
AcDbEntity
  8
0
  6
Continuous
 62
     7
370
    25
100
AcDbCircle
 10
6093.7630292699
 20
4879.2213827469
 30
0.0
 40
3.0
100
AcDbArc
 50
0.0
 51
180.0
  0
LINE
  5
38D
330
1F
100
AcDbEntity
  8
0
  6
Continuous
 62
     7
370
    25
100
AcDbLine
 10
6090.7630292699
 20
4879.2213827469
 30
0.0
 11
6090.7630292699
 21
4855.2213827469
 31
0.0
  0
ARC
  5
38E
330
1F
100
AcDbEntity
  8
0
  6
Continuous
 62
     7
370
    25
100
AcDbCircle
 10
6083.1266622591
 20
4852.6406744691
 30
0.0
 40
3.0
100
AcDbArc
 50
180.0
 51
0.0
  0
LINE
  5
38F
330
1F
100
AcDbEntity
  8
0
  6
Continuous
 62
     7
370
    25
100
AcDbLine
 10
6086.1266622591
 20
4852.6406744691
 30
0.0
 11
6086.1266622591
 21
4876.6406744691
 31
0.0
  0
ARC
  5
390
330
1F
100
AcDbEntity
  8
0
  6
Continuous
 62
     7
370
    25
100
AcDbCircle
 10
6083.1266622591
 20
4876.6406744691
 30
0.0
 40
3.0
100
AcDbArc
 50
0.0
 51
180.0
  0
LINE
  5
391
330
1F
100
AcDbEntity
  8
0
  6
Continuous
 62
     7
370
    25
100
AcDbLine
 10
6080.1266622591
 20
4876.6406744691
 30
0.0
 11
6080.1266622591
 21
4852.6406744691
 31
0.0
  0
ARC
  5
392
330
1F
100
AcDbEntity
  8
0
  6
Continuous
 62
     7
370
    25
100
AcDbCircle
 10
6072.5452715984
 20
4849.8369117719
 30
0.0
 40
3.000000000000909
100
AcDbArc
 50
180.0
 51
0.0
  0
LINE
  5
393
330
1F
100
AcDbEntity
  8
0
  6
Continuous
 62
     7
370
    25
100
AcDbLine
 10
6075.5452715984
 20
4849.8369117719
 30
0.0
 11
6075.5452715984
 21
4873.8369117719
 31
0.0
  0
ARC
  5
394
330
1F
100
AcDbEntity
  8
0
  6
Continuous
 62
     7
370
    25
100
AcDbCircle
 10
6072.5452715984
 20
4873.8369117719
 30
0.0
 40
3.000000000000909
100
AcDbArc
 50
0.0
 51
180.0
  0
LINE
  5
395
330
1F
100
AcDbEntity
  8
0
  6
Continuous
 62
     7
370
    25
100
AcDbLine
 10
6069.5452715984
 20
4873.8369117719
 30
0.0
 11
6069.5452715984
 21
4849.8369117719
 31
0.0
  0
ARC
  5
396
330
1F
100
AcDbEntity
  8
0
  6
Continuous
 62
     7
370
    25
100
AcDbCircle
 10
6062.0137046822
 20
4846.8608099901
 30
0.0
 40
3.0
100
AcDbArc
 50
180.0
 51
0.0
  0
LINE
  5
397
330
1F
100
AcDbEntity
  8
0
  6
Continuous
 62
     7
370
    25
100
AcDbLine
 10
6065.0137046822
 20
4846.8608099901
 30
0.0
 11
6065.0137046822
 21
4870.8608099901
 31
0.0
  0
ARC
  5
398
330
1F
100
AcDbEntity
  8
0
  6
Continuous
 62
     7
370
    25
100
AcDbCircle
 10
6062.0137046822
 20
4870.8608099901
 30
0.0
 40
3.0
100
AcDbArc
 50
0.0
 51
180.0
  0
LINE
  5
399
330
1F
100
AcDbEntity
  8
0
  6
Continuous
 62
     7
370
    25
100
AcDbLine
 10
6059.0137046822
 20
4870.8608099901
 30
0.0
 11
6059.0137046822
 21
4846.8608099901
 31
0.0
  0
ARC
  5
39A
330
1F
100
AcDbEntity
  8
0
  6
Continuous
 62
     7
370
    25
100
AcDbCircle
 10
6051.5164798614
 20
4843.7582253398
 30
0.0
 40
3.0
100
AcDbArc
 50
180.0
 51
0.0
  0
LINE
  5
39B
330
1F
100
AcDbEntity
  8
0
  6
Continuous
 62
     7
370
    25
100
AcDbLine
 10
6054.5164798614
 20
4843.7582253398
 30
0.0
 11
6054.5164798614
 21
4867.7582253398
 31
0.0
  0
ARC
  5
39C
330
1F
100
AcDbEntity
  8
0
  6
Continuous
 62
     7
370
    25
100
AcDbCircle
 10
6051.5164798614
 20
4867.7582253398
 30
0.0
 40
3.0
100
AcDbArc
 50
0.0
 51
180.0
  0
LINE
  5
39D
330
1F
100
AcDbEntity
  8
0
  6
Continuous
 62
     7
370
    25
100
AcDbLine
 10
6048.5164798614
 20
4867.7582253398
 30
0.0
 11
6048.5164798614
 21
4843.7582253398
 31
0.0
  0
ARC
  5
39E
330
1F
100
AcDbEntity
  8
0
  6
Continuous
 62
     7
370
    25
100
AcDbCircle
 10
6041.0432790996
 20
4840.5748444913
 30
0.0
 40
3.0
100
AcDbArc
 50
180.0
 51
0.0
  0
LINE
  5
39F
330
1F
100
AcDbEntity
  8
0
  6
Continuous
 62
     7
370
    25
100
AcDbLine
 10
6044.0432790996
 20
4840.5748444913
 30
0.0
 11
6044.0432790996
 21
4864.5748444913
 31
0.0
  0
ARC
  5
3A0
330
1F
100
AcDbEntity
  8
0
  6
Continuous
 62
     7
370
    25
100
AcDbCircle
 10
6041.0432790996
 20
4864.5748444913
 30
0.0
 40
3.0
100
AcDbArc
 50
0.0
 51
180.0
  0
LINE
  5
3A1
330
1F
100
AcDbEntity
  8
0
  6
Continuous
 62
     7
370
    25
100
AcDbLine
 10
6038.0432790996
 20
4864.5748444913
 30
0.0
 11
6038.0432790996
 21
4840.5748444913
 31
0.0
  0
ARC
  5
3A2
330
1F
100
AcDbEntity
  8
0
  6
Continuous
 62
     7
370
    25
100
AcDbCircle
 10
6030.5837839248
 20
4837.3553488411
 30
0.0
 40
3.000000000000909
100
AcDbArc
 50
180.0
 51
0.0
  0
LINE
  5
3A3
330
1F
100
AcDbEntity
  8
0
  6
Continuous
 62
     7
370
    25
100
AcDbLine
 10
6033.5837839248
 20
4837.3553488411
 30
0.0
 11
6033.5837839248
 21
4861.3553488411
 31
0.0
  0
ARC
  5
3A4
330
1F
100
AcDbEntity
  8
0
  6
Continuous
 62
     7
370
    25
100
AcDbCircle
 10
6030.5837839248
 20
4861.3553488411
 30
0.0
 40
3.000000000000909
100
AcDbArc
 50
0.0
 51
180.0
  0
LINE
  5
3A5
330
1F
100
AcDbEntity
  8
0
  6
Continuous
 62
     7
370
    25
100
AcDbLine
 10
6027.5837839248
 20
4861.3553488411
 30
0.0
 11
6027.5837839248
 21
4837.3553488411
 31
0.0
  0
ARC
  5
3A6
330
1F
100
AcDbEntity
  8
0
  6
Continuous
 62
     7
370
    25
100
AcDbCircle
 10
6020.1207896976
 20
4834.1417840684
 30
0.0
 40
3.000000000000909
100
AcDbArc
 50
180.0
 51
0.0
  0
LINE
  5
3A7
330
1F
100
AcDbEntity
  8
0
  6
Continuous
 62
     7
370
    25
100
AcDbLine
 10
6023.1207896976
 20
4834.1417840684
 30
0.0
 11
6023.1207896976
 21
4858.1417840684
 31
0.0
  0
ARC
  5
3A8
330
1F
100
AcDbEntity
  8
0
  6
Continuous
 62
     7
370
    25
100
AcDbCircle
 10
6020.1207896976
 20
4858.1417840684
 30
0.0
 40
3.000000000000909
100
AcDbArc
 50
0.0
 51
180.0
  0
LINE
  5
3A9
330
1F
100
AcDbEntity
  8
0
  6
Continuous
 62
     7
370
    25
100
AcDbLine
 10
6017.1207896976
 20
4858.1417840684
 30
0.0
 11
6017.1207896976
 21
4834.1417840684
 31
0.0
  0
ARC
  5
3AA
330
1F
100
AcDbEntity
  8
0
  6
Continuous
 62
     7
370
    25
100
AcDbCircle
 10
6009.6422558212
 20
4830.9778734878
 30
0.0
 40
3.000000000000909
100
AcDbArc
 50
180.0
 51
0.0
  0
LINE
  5
3AB
330
1F
100
AcDbEntity
  8
0
  6
Continuous
 62
     7
370
    25
100
AcDbLine
 10
6012.6422558212
 20
4830.9778734878
 30
0.0
 11
6012.6422558212
 21
4854.9778734878
 31
0.0
  0
ARC
  5
3AC
330
1F
100
AcDbEntity
  8
0
  6
Continuous
 62
     7
370
    25
100
AcDbCircle
 10
6009.6422558212
 20
4854.9778734878
 30
0.0
 40
3.000000000000909
100
AcDbArc
 50
0.0
 51
180.0
  0
LINE
  5
3AD
330
1F
100
AcDbEntity
  8
0
  6
Continuous
 62
     7
370
    25
100
AcDbLine
 10
6006.6422558212
 20
4854.9778734878
 30
0.0
 11
6006.6422558212
 21
4830.9778734878
 31
0.0
  0
ARC
  5
3AE
330
1F
100
AcDbEntity
  8
0
  6
Continuous
 62
     7
370
    25
100
AcDbCircle
 10
5999.1361415706
 20
4827.9080123779
 30
0.0
 40
3.0
100
AcDbArc
 50
180.0
 51
0.0
  0
LINE
  5
3AF
330
1F
100
AcDbEntity
  8
0
  6
Continuous
 62
     7
370
    25
100
AcDbLine
 10
6002.1361415706
 20
4827.9080123779
 30
0.0
 11
6002.1361415706
 21
4851.9080123779
 31
0.0
  0
ARC
  5
3B0
330
1F
100
AcDbEntity
  8
0
  6
Continuous
 62
     7
370
    25
100
AcDbCircle
 10
5999.1361415706
 20
4851.9080123779
 30
0.0
 40
3.0
100
AcDbArc
 50
0.0
 51
180.0
  0
LINE
  5
3B1
330
1F
100
AcDbEntity
  8
0
  6
Continuous
 62
     7
370
    25
100
AcDbLine
 10
5996.1361415706
 20
4851.9080123779
 30
0.0
 11
5996.1361415706
 21
4827.9080123779
 31
0.0
  0
ARC
  5
3B2
330
1F
100
AcDbEntity
  8
0
  6
Continuous
 62
     7
370
    25
100
AcDbCircle
 10
5988.5904062048
 20
4824.9778198599
 30
0.0
 40
3.0
100
AcDbArc
 50
180.0
 51
0.0
  0
LINE
  5
3B3
330
1F
100
AcDbEntity
  8
0
  6
Continuous
 62
     7
370
    25
100
AcDbLine
 10
5991.5904062048
 20
4824.9778198599
 30
0.0
 11
5991.5904062048
 21
4848.9778198599
 31
0.0
  0
ARC
  5
3B4
330
1F
100
AcDbEntity
  8
0
  6
Continuous
 62
     7
370
    25
100
AcDbCircle
 10
5988.5904062048
 20
4848.9778198599
 30
0.0
 40
3.0
100
AcDbArc
 50
0.0
 51
180.0
  0
LINE
  5
3B5
330
1F
100
AcDbEntity
  8
0
  6
Continuous
 62
     7
370
    25
100
AcDbLine
 10
5985.5904062048
 20
4848.9778198599
 30
0.0
 11
5985.5904062048
 21
4824.9778198599
 31
0.0
  0
ARC
  5
3B6
330
1F
100
AcDbEntity
  8
0
  6
Continuous
 62
     7
370
    25
100
AcDbCircle
 10
5977.9930090795
 20
4822.2347007717
 30
0.0
 40
3.0
100
AcDbArc
 50
180.0
 51
0.0
  0
LINE
  5
3B7
330
1F
100
AcDbEntity
  8
0
  6
Continuous
 62
     7
370
    25
100
AcDbLine
 10
5980.9930090795
 20
4822.2347007717
 30
0.0
 11
5980.9930090795
 21
4846.2347007717
 31
0.0
  0
ARC
  5
3B8
330
1F
100
AcDbEntity
  8
0
  6
Continuous
 62
     7
370
    25
100
AcDbCircle
 10
5977.9930090795
 20
4846.2347007717
 30
0.0
 40
3.0
100
AcDbArc
 50
0.0
 51
180.0
  0
LINE
  5
3B9
330
1F
100
AcDbEntity
  8
0
  6
Continuous
 62
     7
370
    25
100
AcDbLine
 10
5974.9930090795
 20
4846.2347007717
 30
0.0
 11
5974.9930090795
 21
4822.2347007717
 31
0.0
  0
ARC
  5
3BA
330
1F
100
AcDbEntity
  8
0
  6
Continuous
 62
     7
370
    25
100
AcDbCircle
 10
5967.3387956663
 20
4819.7299480629
 30
0.0
 40
3.000000000000909
100
AcDbArc
 50
180.0
 51
0.0
  0
LINE
  5
3BB
330
1F
100
AcDbEntity
  8
0
  6
Continuous
 62
     7
370
    25
100
AcDbLine
 10
5970.3387956663
 20
4819.7299480629
 30
0.0
 11
5970.3387956663
 21
4843.7299480629
 31
0.0
  0
ARC
  5
3BC
330
1F
100
AcDbEntity
  8
0
  6
Continuous
 62
     7
370
    25
100
AcDbCircle
 10
5967.3387956663
 20
4843.7299480629
 30
0.0
 40
3.000000000000909
100
AcDbArc
 50
0.0
 51
180.0
  0
LINE
  5
3BD
330
1F
100
AcDbEntity
  8
0
  6
Continuous
 62
     7
370
    25
100
AcDbLine
 10
5964.3387956663
 20
4843.7299480629
 30
0.0
 11
5964.3387956663
 21
4819.7299480629
 31
0.0
  0
ARC
  5
3BE
330
1F
100
AcDbEntity
  8
0
  6
Continuous
 62
     7
370
    25
100
AcDbCircle
 10
5956.6191687984
 20
4817.5163002891
 30
0.0
 40
3.0
100
AcDbArc
 50
180.0
 51
0.0
  0
LINE
  5
3BF
330
1F
100
AcDbEntity
  8
0
  6
Continuous
 62
     7
370
    25
100
AcDbLine
 10
5959.6191687984
 20
4817.5163002891
 30
0.0
 11
5959.6191687984
 21
4841.5163002891
 31
0.0
  0
ARC
  5
3C0
330
1F
100
AcDbEntity
  8
0
  6
Continuous
 62
     7
370
    25
100
AcDbCircle
 10
5956.6191687984
 20
4841.5163002891
 30
0.0
 40
3.0
100
AcDbArc
 50
0.0
 51
180.0
  0
LINE
  5
3C1
330
1F
100
AcDbEntity
  8
0
  6
Continuous
 62
     7
370
    25
100
AcDbLine
 10
5953.6191687984
 20
4841.5163002891
 30
0.0
 11
5953.6191687984
 21
4817.5163002891
 31
0.0
  0
ARC
  5
3C2
330
1F
100
AcDbEntity
  8
0
  6
Continuous
 62
     7
370
    25
100
AcDbCircle
 10
5945.8358605274
 20
4815.650963367
 30
0.0
 40
3.0
100
AcDbArc
 50
180.0
 51
0.0
  0
LINE
  5
3C3
330
1F
100
AcDbEntity
  8
0
  6
Continuous
 62
     7
370
    25
100
AcDbLine
 10
5948.8358605274
 20
4815.650963367
 30
0.0
 11
5948.8358605274
 21
4839.650963367
 31
0.0
  0
ARC
  5
3C4
330
1F
100
AcDbEntity
  8
0
  6
Continuous
 62
     7
370
    25
100
AcDbCircle
 10
5945.8358605274
 20
4839.650963367
 30
0.0
 40
3.0
100
AcDbArc
 50
0.0
 51
180.0
  0
LINE
  5
3C5
330
1F
100
AcDbEntity
  8
0
  6
Continuous
 62
     7
370
    25
100
AcDbLine
 10
5942.8358605274
 20
4839.650963367
 30
0.0
 11
5942.8358605274
 21
4815.650963367
 31
0.0
  0
ARC
  5
3C6
330
1F
100
AcDbEntity
  8
0
  6
Continuous
 62
     7
370
    25
100
AcDbCircle
 10
5934.9888818053
 20
4814.1925781097
 30
0.0
 40
3.0
100
AcDbArc
 50
180.0
 51
0.0
  0
LINE
  5
3C7
330
1F
100
AcDbEntity
  8
0
  6
Continuous
 62
     7
370
    25
100
AcDbLine
 10
5937.9888818053
 20
4814.1925781097
 30
0.0
 11
5937.9888818053
 21
4838.1925781097
 31
0.0
  0
ARC
  5
3C8
330
1F
100
AcDbEntity
  8
0
  6
Continuous
 62
     7
370
    25
100
AcDbCircle
 10
5934.9888818053
 20
4838.1925781097
 30
0.0
 40
3.0
100
AcDbArc
 50
0.0
 51
180.0
  0
LINE
  5
3C9
330
1F
100
AcDbEntity
  8
0
  6
Continuous
 62
     7
370
    25
100
AcDbLine
 10
5931.9888818053
 20
4838.1925781097
 30
0.0
 11
5931.9888818053
 21
4814.1925781097
 31
0.0
  0
ARC
  5
3CA
330
1F
100
AcDbEntity
  8
0
  6
Continuous
 62
     7
370
    25
100
AcDbCircle
 10
5924.088572728
 20
4813.2023693057
 30
0.0
 40
3.000000000000909
100
AcDbArc
 50
180.0
 51
0.0
  0
LINE
  5
3CB
330
1F
100
AcDbEntity
  8
0
  6
Continuous
 62
     7
370
    25
100
AcDbLine
 10
5927.088572728
 20
4813.2023693057
 30
0.0
 11
5927.088572728
 21
4837.2023693057
 31
0.0
  0
ARC
  5
3CC
330
1F
100
AcDbEntity
  8
0
  6
Continuous
 62
     7
370
    25
100
AcDbCircle
 10
5924.088572728
 20
4837.2023693057
 30
0.0
 40
3.000000000000909
100
AcDbArc
 50
0.0
 51
180.0
  0
LINE
  5
3CD
330
1F
100
AcDbEntity
  8
0
  6
Continuous
 62
     7
370
    25
100
AcDbLine
 10
5921.088572728
 20
4837.2023693057
 30
0.0
 11
5921.088572728
 21
4813.2023693057
 31
0.0
  0
ARC
  5
3CE
330
1F
100
AcDbEntity
  8
0
  6
Continuous
 62
     7
370
    25
100
AcDbCircle
 10
5913.1538808425
 20
4812.7414943673
 30
0.0
 40
3.000000000000909
100
AcDbArc
 50
180.0
 51
0.0
  0
LINE
  5
3CF
330
1F
100
AcDbEntity
  8
0
  6
Continuous
 62
     7
370
    25
100
AcDbLine
 10
5916.1538808425
 20
4812.7414943673
 30
0.0
 11
5916.1538808425
 21
4836.7414943673
 31
0.0
  0
ARC
  5
3D0
330
1F
100
AcDbEntity
  8
0
  6
Continuous
 62
     7
370
    25
100
AcDbCircle
 10
5913.1538808425
 20
4836.7414943673
 30
0.0
 40
3.000000000000909
100
AcDbArc
 50
0.0
 51
180.0
  0
LINE
  5
3D1
330
1F
100
AcDbEntity
  8
0
  6
Continuous
 62
     7
370
    25
100
AcDbLine
 10
5910.1538808425
 20
4836.7414943673
 30
0.0
 11
5910.1538808425
 21
4812.7414943673
 31
0.0
  0
ARC
  5
3D2
330
1F
100
AcDbEntity
  8
0
  6
Continuous
 62
     7
370
    25
100
AcDbCircle
 10
5902.2106393531
 20
4812.8681780154
 30
0.0
 40
3.000000000000909
100
AcDbArc
 50
180.0
 51
0.0
  0
LINE
  5
3D3
330
1F
100
AcDbEntity
  8
0
  6
Continuous
 62
     7
370
    25
100
AcDbLine
 10
5905.2106393531
 20
4812.8681780154
 30
0.0
 11
5905.2106393531
 21
4836.8681780154
 31
0.0
  0
ARC
  5
3D4
330
1F
100
AcDbEntity
  8
0
  6
Continuous
 62
     7
370
    25
100
AcDbCircle
 10
5902.2106393531
 20
4836.8681780154
 30
0.0
 40
3.000000000000909
100
AcDbArc
 50
0.0
 51
180.0
  0
LINE
  5
3D5
330
1F
100
AcDbEntity
  8
0
  6
Continuous
 62
     7
370
    25
100
AcDbLine
 10
5899.2106393531
 20
4836.8681780154
 30
0.0
 11
5899.2106393531
 21
4812.8681780154
 31
0.0
  0
ARC
  5
3D6
330
1F
100
AcDbEntity
  8
0
  6
Continuous
 62
     7
370
    25
100
AcDbCircle
 10
5891.2932881255
 20
4813.6344842591
 30
0.0
 40
3.0
100
AcDbArc
 50
180.0
 51
0.0
  0
LINE
  5
3D7
330
1F
100
AcDbEntity
  8
0
  6
Continuous
 62
     7
370
    25
100
AcDbLine
 10
5894.2932881255
 20
4813.6344842591
 30
0.0
 11
5894.2932881255
 21
4837.6344842591
 31
0.0
  0
ARC
  5
3D8
330
1F
100
AcDbEntity
  8
0
  6
Continuous
 62
     7
370
    25
100
AcDbCircle
 10
5891.2932881255
 20
4837.6344842591
 30
0.0
 40
3.0
100
AcDbArc
 50
0.0
 51
180.0
  0
LINE
  5
3D9
330
1F
100
AcDbEntity
  8
0
  6
Continuous
 62
     7
370
    25
100
AcDbLine
 10
5888.2932881255
 20
4837.6344842591
 30
0.0
 11
5888.2932881255
 21
4813.6344842591
 31
0.0
  0
ARC
  5
3DA
330
1F
100
AcDbEntity
  8
0
  6
Continuous
 62
     7
370
    25
100
AcDbCircle
 10
5880.4465945105
 20
4815.0819395887
 30
0.0
 40
3.0
100
AcDbArc
 50
180.0
 51
0.0
  0
LINE
  5
3DB
330
1F
100
AcDbEntity
  8
0
  6
Continuous
 62
     7
370
    25
100
AcDbLine
 10
5883.4465945105
 20
4815.0819395887
 30
0.0
 11
5883.4465945105
 21
4839.0819395887
 31
0.0
  0
ARC
  5
3DC
330
1F
100
AcDbEntity
  8
0
  6
Continuous
 62
     7
370
    25
100
AcDbCircle
 10
5880.4465945105
 20
4839.0819395887
 30
0.0
 40
3.0
100
AcDbArc
 50
0.0
 51
180.0
  0
LINE
  5
3DD
330
1F
100
AcDbEntity
  8
0
  6
Continuous
 62
     7
370
    25
100
AcDbLine
 10
5877.4465945105
 20
4839.0819395887
 30
0.0
 11
5877.4465945105
 21
4815.0819395887
 31
0.0
  0
ARC
  5
3DE
330
1F
100
AcDbEntity
  8
0
  6
Continuous
 62
     7
370
    25
100
AcDbCircle
 10
5869.7170455504
 20
4817.2383774554
 30
0.0
 40
3.0
100
AcDbArc
 50
180.0
 51
0.0
  0
LINE
  5
3DF
330
1F
100
AcDbEntity
  8
0
  6
Continuous
 62
     7
370
    25
100
AcDbLine
 10
5872.7170455504
 20
4817.2383774554
 30
0.0
 11
5872.7170455504
 21
4841.2383774554
 31
0.0
  0
ARC
  5
3E0
330
1F
100
AcDbEntity
  8
0
  6
Continuous
 62
     7
370
    25
100
AcDbCircle
 10
5869.7170455504
 20
4841.2383774554
 30
0.0
 40
3.0
100
AcDbArc
 50
0.0
 51
180.0
  0
LINE
  5
3E1
330
1F
100
AcDbEntity
  8
0
  6
Continuous
 62
     7
370
    25
100
AcDbLine
 10
5866.7170455504
 20
4841.2383774554
 30
0.0
 11
5866.7170455504
 21
4817.2383774554
 31
0.0
  0
ARC
  5
3E2
330
1F
100
AcDbEntity
  8
0
  6
Continuous
 62
     7
370
    25
100
AcDbCircle
 10
5859.1580116547
 20
4820.11385894
 30
0.0
 40
3.0
100
AcDbArc
 50
180.0
 51
0.0
  0
LINE
  5
3E3
330
1F
100
AcDbEntity
  8
0
  6
Continuous
 62
     7
370
    25
100
AcDbLine
 10
5862.1580116547
 20
4820.11385894
 30
0.0
 11
5862.1580116547
 21
4844.11385894
 31
0.0
  0
ARC
  5
3E4
330
1F
100
AcDbEntity
  8
0
  6
Continuous
 62
     7
370
    25
100
AcDbCircle
 10
5859.1580116547
 20
4844.11385894
 30
0.0
 40
3.0
100
AcDbArc
 50
0.0
 51
180.0
  0
LINE
  5
3E5
330
1F
100
AcDbEntity
  8
0
  6
Continuous
 62
     7
370
    25
100
AcDbLine
 10
5856.1580116547
 20
4844.11385894
 30
0.0
 11
5856.1580116547
 21
4820.11385894
 31
0.0
  0
ARC
  5
3E6
330
1F
100
AcDbEntity
  8
0
  6
Continuous
 62
     7
370
    25
100
AcDbCircle
 10
5848.8194176655
 20
4823.7003902163
 30
0.0
 40
3.0
100
AcDbArc
 50
180.0
 51
0.0
  0
LINE
  5
3E7
330
1F
100
AcDbEntity
  8
0
  6
Continuous
 62
     7
370
    25
100
AcDbLine
 10
5851.8194176655
 20
4823.7003902163
 30
0.0
 11
5851.8194176655
 21
4847.7003902163
 31
0.0
  0
ARC
  5
3E8
330
1F
100
AcDbEntity
  8
0
  6
Continuous
 62
     7
370
    25
100
AcDbCircle
 10
5848.8194176655
 20
4847.7003902163
 30
0.0
 40
3.0
100
AcDbArc
 50
0.0
 51
180.0
  0
LINE
  5
3E9
330
1F
100
AcDbEntity
  8
0
  6
Continuous
 62
     7
370
    25
100
AcDbLine
 10
5845.8194176655
 20
4847.7003902163
 30
0.0
 11
5845.8194176655
 21
4823.7003902163
 31
0.0
  0
ARC
  5
3EA
330
1F
100
AcDbEntity
  8
0
  6
Continuous
 62
     7
370
    25
100
AcDbCircle
 10
5838.7442999878
 20
4827.9734070221
 30
0.0
 40
3.0
100
AcDbArc
 50
180.0
 51
0.0
  0
LINE
  5
3EB
330
1F
100
AcDbEntity
  8
0
  6
Continuous
 62
     7
370
    25
100
AcDbLine
 10
5841.7442999878
 20
4827.9734070221
 30
0.0
 11
5841.7442999878
 21
4851.9734070221
 31
0.0
  0
ARC
  5
3EC
330
1F
100
AcDbEntity
  8
0
  6
Continuous
 62
     7
370
    25
100
AcDbCircle
 10
5838.7442999878
 20
4851.9734070221
 30
0.0
 40
3.0
100
AcDbArc
 50
0.0
 51
180.0
  0
LINE
  5
3ED
330
1F
100
AcDbEntity
  8
0
  6
Continuous
 62
     7
370
    25
100
AcDbLine
 10
5835.7442999878
 20
4851.9734070221
 30
0.0
 11
5835.7442999878
 21
4827.9734070221
 31
0.0
  0
ARC
  5
3EE
330
1F
100
AcDbEntity
  8
0
  6
Continuous
 62
     7
370
    25
100
AcDbCircle
 10
5828.9688067272
 20
4832.893620461
 30
0.0
 40
3.0
100
AcDbArc
 50
180.0
 51
0.0
  0
LINE
  5
3EF
330
1F
100
AcDbEntity
  8
0
  6
Continuous
 62
     7
370
    25
100
AcDbLine
 10
5831.9688067272
 20
4832.893620461
 30
0.0
 11
5831.9688067272
 21
4856.893620461
 31
0.0
  0
ARC
  5
3F0
330
1F
100
AcDbEntity
  8
0
  6
Continuous
 62
     7
370
    25
100
AcDbCircle
 10
5828.9688067272
 20
4856.893620461
 30
0.0
 40
3.0
100
AcDbArc
 50
0.0
 51
180.0
  0
LINE
  5
3F1
330
1F
100
AcDbEntity
  8
0
  6
Continuous
 62
     7
370
    25
100
AcDbLine
 10
5825.9688067272
 20
4856.893620461
 30
0.0
 11
5825.9688067272
 21
4832.893620461
 31
0.0
  0
LINE
  5
3F2
330
1F
100
AcDbEntity
  8
0
  6
Continuous
 62
     7
370
    25
100
AcDbLine
 10
6741.1419786408
 20
4801.4116186763
 30
0.0
 11
6740.3187553361
 21
4803.6116186762
 31
0.0
  0
LINE
  5
3F3
330
1F
100
AcDbEntity
  8
0
  6
Continuous
 62
     7
370
    25
100
AcDbLine
 10
6741.1419786408
 20
4802.6116186763
 30
0.0
 11
6740.3187553362
 21
4803.6116186762
 31
0.0
  0
LINE
  5
3F4
330
1F
100
AcDbEntity
  8
0
  6
Continuous
 62
     7
370
    25
100
AcDbLine
 10
6741.1419786408
 20
4801.4116186763
 30
0.0
 11
6741.1419786408
 21
4802.6116186763
 31
0.0
  0
LINE
  5
3F5
330
1F
100
AcDbEntity
  8
0
  6
Continuous
 62
     7
370
    25
100
AcDbLine
 10
5806.8955320314
 20
4801.4116186763
 30
0.0
 11
5806.8955320313
 21
4802.6116186763
 31
0.0
  0
LINE
  5
3F6
330
1F
100
AcDbEntity
  8
0
  6
Continuous
 62
     7
370
    25
100
AcDbLine
 10
5807.7187553361
 20
4803.6116186763
 30
0.0
 11
5806.8955320313
 21
4802.6116186763
 31
0.0
  0
LINE
  5
3F7
330
1F
100
AcDbEntity
  8
0
  6
Continuous
 62
     7
370
    25
100
AcDbLine
 10
5807.7187553361
 20
4803.6116186763
 30
0.0
 11
5806.8955320313
 21
4801.4116186763
 31
0.0
  0
LINE
  5
3F8
330
1F
100
AcDbEntity
  8
0
  6
Continuous
 62
     7
370
    25
100
AcDbLine
 10
6741.1419786408
 20
4801.4116186763
 30
0.0
 11
5806.8955320314
 21
4801.4116186763
 31
0.0
  0
LINE
  5
3F9
330
1F
100
AcDbEntity
  8
0
  6
Continuous
 62
     7
370
    25
100
AcDbLine
 10
6742.5187553363
 20
4802.7883953714
 30
0.0
 11
6741.3187553363
 21
4802.7883953714
 31
0.0
  0
LINE
  5
3FA
330
1F
100
AcDbEntity
  8
0
  6
Continuous
 62
     7
370
    25
100
AcDbLine
 10
6740.3187553363
 20
4803.6116186763
 30
0.0
 11
6741.3187553363
 21
4802.7883953714
 31
0.0
  0
LINE
  5
3FB
330
1F
100
AcDbEntity
  8
0
  6
Continuous
 62
     7
370
    25
100
AcDbLine
 10
5806.718755336
 20
4802.7883953715
 30
0.0
 11
5807.7187553361
 21
4803.6116186764
 31
0.0
  0
LINE
  5
3FC
330
1F
100
AcDbEntity
  8
0
  6
Continuous
 62
     7
370
    25
100
AcDbLine
 10
5805.518755336
 20
4802.7883953715
 30
0.0
 11
5806.718755336
 21
4802.7883953715
 31
0.0
  0
LINE
  5
3FD
330
1F
100
AcDbEntity
  8
0
  6
Continuous
 62
     7
370
    25
100
AcDbLine
 10
6256.8187553361
 20
4853.9116186763
 30
0.0
 11
6256.8187553361
 21
4850.4116186763
 31
0.0
  0
LINE
  5
3FE
330
1F
100
AcDbEntity
  8
0
  6
Continuous
 62
     7
370
    25
100
AcDbLine
 10
6256.8187553361
 20
4853.9116186763
 30
0.0
 11
6258.0744198652
 21
4853.9116186763
 31
0.0
  0
LINE
  5
3FF
330
1F
100
AcDbEntity
  8
0
  6
Continuous
 62
     7
370
    25
100
AcDbLine
 10
6256.8187553361
 20
4850.4116186763
 30
0.0
 11
6256.1187553361
 21
4850.4116186763
 31
0.0
  0
LINE
  5
400
330
1F
100
AcDbEntity
  8
0
  6
Continuous
 62
     7
370
    25
100
AcDbLine
 10
6256.1187553361
 20
4850.4116186763
 30
0.0
 11
6256.1187553361
 21
4853.2116186763
 31
0.0
  0
ARC
  5
401
330
1F
100
AcDbEntity
  8
0
  6
Continuous
 62
     7
370
    25
100
AcDbCircle
 10
6256.8187553361
 20
4853.2116186763
 30
0.0
 40
0.7000000000007276
100
AcDbArc
 50
90.0
 51
180.0
  0
LINE
  5
402
330
1F
100
AcDbEntity
  8
0
  6
Continuous
 62
     7
370
    25
100
AcDbLine
 10
6288.4180741075
 20
4853.9116186763
 30
0.0
 11
6288.4180741075
 21
4850.4116186763
 31
0.0
  0
LINE
  5
403
330
1F
100
AcDbEntity
  8
0
  6
Continuous
 62
     7
370
    25
100
AcDbLine
 10
6288.4180741075
 20
4853.9116186763
 30
0.0
 11
6289.4155061245
 21
4853.9116186763
 31
0.0
  0
LINE
  5
404
330
1F
100
AcDbEntity
  8
0
  6
Continuous
 62
     7
370
    25
100
AcDbLine
 10
6287.7180741075
 20
4850.4116186763
 30
0.0
 11
6287.7180741075
 21
4853.2116186763
 31
0.0
  0
ARC
  5
405
330
1F
100
AcDbEntity
  8
0
  6
Continuous
 62
     7
370
    25
100
AcDbCircle
 10
6288.4180741075
 20
4853.2116186763
 30
0.0
 40
0.7000000000007276
100
AcDbArc
 50
90.0
 51
180.0
  0
LINE
  5
406
330
1F
100
AcDbEntity
  8
0
  6
Continuous
 62
     7
370
    25
100
AcDbLine
 10
6288.4180741075
 20
4850.4116186763
 30
0.0
 11
6287.7180741075
 21
4850.4116186763
 31
0.0
  0
LINE
  5
407
330
1F
100
AcDbEntity
  8
0
  6
Continuous
 62
     7
370
    25
100
AcDbLine
 10
6289.4155061245
 20
4846.9116186763
 30
0.0
 11
6288.4180741075
 21
4846.9116186763
 31
0.0
  0
LINE
  5
408
330
1F
100
AcDbEntity
  8
0
  6
Continuous
 62
     7
370
    25
100
AcDbLine
 10
6288.4180741075
 20
4850.4116186763
 30
0.0
 11
6288.4180741075
 21
4846.9116186763
 31
0.0
  0
LINE
  5
409
330
1F
100
AcDbEntity
  8
0
  6
Continuous
 62
     7
370
    25
100
AcDbLine
 10
6256.8187553361
 20
4850.4116186763
 30
0.0
 11
6256.8187553361
 21
4846.9116186763
 31
0.0
  0
ARC
  5
40A
330
1F
100
AcDbEntity
  8
0
  6
Continuous
 62
     7
370
    25
100
AcDbCircle
 10
6256.8187553361
 20
4847.6116186763
 30
0.0
 40
0.6999999999998181
100
AcDbArc
 50
180.0
 51
270.0
  0
LINE
  5
40B
330
1F
100
AcDbEntity
  8
0
  6
Continuous
 62
     7
370
    25
100
AcDbLine
 10
6256.1187553361
 20
4847.6116186763
 30
0.0
 11
6256.1187553361
 21
4850.4116186763
 31
0.0
  0
ARC
  5
40C
330
1F
100
AcDbEntity
  8
0
  6
Continuous
 62
     7
370
    25
100
AcDbCircle
 10
6288.4180741075
 20
4847.6116186763
 30
0.0
 40
0.7000000000007276
100
AcDbArc
 50
180.0
 51
270.0
  0
LINE
  5
40D
330
1F
100
AcDbEntity
  8
0
  6
Continuous
 62
     7
370
    25
100
AcDbLine
 10
6287.7180741075
 20
4847.6116186763
 30
0.0
 11
6287.7180741075
 21
4850.4116186763
 31
0.0
  0
LINE
  5
40E
330
1F
100
AcDbEntity
  8
0
  6
Continuous
 62
     7
370
    25
100
AcDbLine
 10
6258.0744198652
 20
4846.9116186763
 30
0.0
 11
6256.8187553361
 21
4846.9116186763
 31
0.0
  0
LINE
  5
40F
330
1F
100
AcDbEntity
  8
0
  6
Continuous
 62
     7
370
    25
100
AcDbLine
 10
6287.5911099143
 20
4851.3616186763
 30
0.0
 11
6287.5911099143
 21
4849.4616186763
 31
0.0
  0
LINE
  5
410
330
1F
100
AcDbEntity
  8
0
  6
Continuous
 62
     7
370
    25
100
AcDbLine
 10
6256.1187553361
 20
4847.6116186763
 30
0.0
 11
6255.4187553361
 21
4847.6116186763
 31
0.0
  0
LINE
  5
411
330
1F
100
AcDbEntity
  8
0
  6
Continuous
 62
     7
370
    25
100
AcDbLine
 10
6256.8187553361
 20
4853.9116186763
 30
0.0
 11
6256.8187553361
 21
4854.6116186763
 31
0.0
  0
LINE
  5
412
330
1F
100
AcDbEntity
  8
0
  6
Continuous
 62
     7
370
    25
100
AcDbLine
 10
6256.8187553361
 20
4854.6116186763
 30
0.0
 11
6257.8688085829
 21
4854.6116186763
 31
0.0
  0
ARC
  5
413
330
1F
100
AcDbEntity
  8
0
  6
Continuous
 62
     7
370
    25
100
AcDbCircle
 10
6272.5442175402
 20
4851.6228342577
 30
0.0
 40
14.9766638596673
100
AcDbArc
 50
168.488608232
 51
171.2094187131
  0
LINE
  5
414
330
1F
100
AcDbEntity
  8
0
  6
Continuous
 62
     7
370
    25
100
AcDbLine
 10
6256.8187553361
 20
4846.9116186763
 30
0.0
 11
6256.8187553361
 21
4846.2116186763
 31
0.0
  0
ARC
  5
415
330
1F
100
AcDbEntity
  8
0
  6
Continuous
 62
     7
370
    25
100
AcDbCircle
 10
6271.8811917649
 20
4850.2079982997
 30
0.0
 40
14.31782001679089
100
AcDbArc
 50
193.3105635105
 51
195.354313106
  0
ARC
  5
416
330
1F
100
AcDbEntity
  8
0
  6
Continuous
 62
     7
370
    25
100
AcDbCircle
 10
6256.8187553361
 20
4847.6116186763
 30
0.0
 40
1.400000000000546
100
AcDbArc
 50
180.0
 51
270.0
  0
ARC
  5
417
330
1F
100
AcDbEntity
  8
0
  6
Continuous
 62
     7
370
    25
100
AcDbCircle
 10
6274.0187553361
 20
4850.4116186763
 30
0.0
 40
19.95000000000028
100
AcDbArc
 50
298.5125702281
 51
320.5128262591
  0
LINE
  5
418
330
1F
100
AcDbEntity
  8
0
  6
Continuous
 62
     7
370
    25
100
AcDbLine
 10
6293.8848889592
 20
4848.5842613307
 30
0.0
 11
6293.9635540774
 21
4850.8671438321
 31
0.0
  0
ARC
  5
419
330
1F
100
AcDbEntity
  8
0
  6
Continuous
 62
     7
370
    25
100
AcDbCircle
 10
6274.0187553361
 20
4850.4116186763
 30
0.0
 40
19.94999999999995
100
AcDbArc
 50
178.6916322147
 51
208.7194141015
  0
ARC
  5
41A
330
1F
100
AcDbEntity
  8
0
  6
Continuous
 62
     7
370
    25
100
AcDbCircle
 10
6268.27011641
 20
4863.3556869027
 30
0.0
 40
2.114962488156814
100
AcDbArc
 50
113.9466658893
 51
122.6187463668
  0
LINE
  5
41B
330
1F
100
AcDbEntity
  8
0
  6
Continuous
 62
     7
370
    25
100
AcDbLine
 10
6257.8688085829
 20
4854.6116186763
 30
0.0
 11
6258.0744198652
 21
4855.3554724225
 31
0.0
  0
ARC
  5
41C
330
1F
100
AcDbEntity
  8
0
  6
Continuous
 62
     7
370
    25
100
AcDbCircle
 10
6273.3457864288
 20
4850.8230609366
 30
0.0
 40
15.6053250024242
100
AcDbArc
 50
113.4724744667
 51
133.896041423
  0
ARC
  5
41D
330
1F
100
AcDbEntity
  8
0
  6
Continuous
 62
     7
370
    25
100
AcDbCircle
 10
6274.0187553361
 20
4850.4116186763
 30
0.0
 40
16.27814545502484
100
AcDbArc
 50
18.9408615718
 51
39.3693632475
  0
LINE
  5
41E
330
1F
100
AcDbEntity
  8
0
  6
Continuous
 62
     7
370
    25
100
AcDbLine
 10
6268.2131688921
 20
4865.6192873174
 30
0.0
 11
6267.4116825597
 21
4865.2886011924
 31
0.0
  0
LWPOLYLINE
  5
41F
330
1F
100
AcDbEntity
  8
0
  6
Continuous
 62
     7
370
    25
100
AcDbPolyline
 90
        3
 70
   128
 43
0.0
 10
6275.0036273401
 20
4834.1632942522
 10
6277.4174237644
 20
4834.4922257115
 10
6277.6993337254
 20
4834.555031333
  0
ARC
  5
420
330
1F
100
AcDbEntity
  8
0
  6
Continuous
 62
     7
370
    25
100
AcDbCircle
 10
6274.0187553361
 20
4850.4116186763
 30
0.0
 40
16.27814545502534
100
AcDbArc
 50
305.2581785317
 51
341.0591384282
  0
ELLIPSE
  5
421
330
1F
100
AcDbEntity
  8
0
  6
Continuous
 62
     7
370
    25
100
AcDbEllipse
 10
6271.7669387685
 20
4863.3556869027
 30
0.0
 11
7.431956459165121
 21
0.0
 31
0.0
210
0.0
220
0.0
230
1.0
 40
0.9998720779
 41
3.118775151142044
 42
4.18784238573856
  0
ARC
  5
422
330
1F
100
AcDbEntity
  8
0
  6
Continuous
 62
     7
370
    25
100
AcDbCircle
 10
6264.8399617196
 20
4858.5178755666
 30
0.0
 40
3.579462495003865
100
AcDbArc
 50
333.554439929
 51
50.6354567782
  0
ARC
  5
423
330
1F
100
AcDbEntity
  8
0
  6
Continuous
 62
     7
370
    25
100
AcDbCircle
 10
6268.3906595839
 20
4863.3557447321
 30
0.0
 40
2.434420996735172
100
AcDbArc
 50
143.877510115
 51
238.2668902284
  0
ARC
  5
424
330
1F
100
AcDbEntity
  8
0
  6
Continuous
 62
     7
370
    25
100
AcDbCircle
 10
6264.8399617196
 20
4842.305361786
 30
0.0
 40
3.579462495001186
100
AcDbArc
 50
309.3645432218
 51
26.4455600711
  0
ARC
  5
425
330
1F
100
AcDbEntity
  8
0
  6
Continuous
 62
     7
370
    25
100
AcDbCircle
 10
6268.3348663451
 20
4837.5006913628
 30
0.0
 40
2.377029240851028
100
AcDbArc
 50
121.0101834253
 51
183.2047531704
  0
LINE
  5
426
330
1F
100
AcDbEntity
  8
0
  6
Continuous
 62
     7
370
    25
100
AcDbLine
 10
6267.1102436645
 20
4861.285251877
 30
0.0
 11
6268.5258024474
 21
4860.3035862787
 31
0.0
  0
ARC
  5
427
330
1F
100
AcDbEntity
  8
0
  6
Continuous
 62
     7
370
    25
100
AcDbCircle
 10
6262.6698411271
 20
4850.5198689806
 30
0.0
 40
10.75764643430644
100
AcDbArc
 50
343.1767043604
 51
17.500049001
  0
LINE
  5
428
330
1F
100
AcDbEntity
  8
0
  6
Continuous
 62
     7
370
    25
100
AcDbLine
 10
6268.5258024474
 20
4840.5031310427
 30
0.0
 11
6267.1102436645
 21
4839.5379854756
 31
0.0
  0
ARC
  5
429
330
1F
100
AcDbEntity
  8
0
  6
Continuous
 62
     7
370
    25
100
AcDbCircle
 10
6274.0187553361
 20
4850.4116186763
 30
0.0
 40
20.10000000000036
100
AcDbArc
 50
180.0
 51
208.4853935165
  0
ARC
  5
42A
330
1F
100
AcDbEntity
  8
0
  6
Continuous
 62
     7
370
    25
100
AcDbCircle
 10
6274.0187553361
 20
4850.4116186763
 30
0.0
 40
20.100000000001
100
AcDbArc
 50
298.4343788144
 51
319.9967073059
  0
ARC
  5
42B
330
1F
100
AcDbEntity
  8
0
  6
Continuous
 62
     7
370
    25
100
AcDbCircle
 10
6274.0187553361
 20
4850.4116186763
 30
0.0
 40
20.10000000000009
100
AcDbArc
 50
351.2512604801
 51
8.7487395199
  0
ARC
  5
42C
330
1F
100
AcDbEntity
  8
0
  6
Continuous
 62
     7
370
    25
100
AcDbCircle
 10
6274.0187553361
 20
4850.4116186763
 30
0.0
 40
20.10000000000036
100
AcDbArc
 50
142.4903238503
 51
180.0
  0
ARC
  5
42D
330
1F
100
AcDbEntity
  8
0
  6
Continuous
 62
     7
370
    25
100
AcDbCircle
 10
6301.0187553361
 20
4850.4116186763
 30
0.0
 40
2.449999999999362
100
AcDbArc
 50
128.2893063631
 51
231.7106936369
  0
ARC
  5
42E
330
1F
100
AcDbEntity
  8
0
  6
Continuous
 62
     7
370
    25
100
AcDbCircle
 10
6274.0187553361
 20
4850.4116186763
 30
0.0
 40
34.90000000000054
100
AcDbArc
 50
330.4829100369
 51
6.1740749092
  0
ARC
  5
42F
330
1F
100
AcDbEntity
  8
0
  6
Continuous
 62
     7
370
    25
100
AcDbCircle
 10
6274.0187553361
 20
4850.4116186763
 30
0.0
 40
34.90000000000011
100
AcDbArc
 50
140.7120252495
 51
158.260881047
  0
LINE
  5
430
330
1F
100
AcDbEntity
  8
0
  6
Continuous
 62
     7
370
    25
100
AcDbLine
 10
6299.5006555862
 20
4848.4886331981
 30
0.0
 11
6299.9261164472
 21
4848.2187574727
 31
0.0
  0
LINE
  5
431
330
1F
100
AcDbEntity
  8
0
  6
Continuous
 62
     7
370
    25
100
AcDbLine
 10
6299.9261164472
 20
4852.60447988
 30
0.0
 11
6299.5006555862
 21
4852.3346041545
 31
0.0
  0
ARC
  5
432
330
1F
100
AcDbEntity
  8
0
  6
Continuous
 62
     7
370
    25
100
AcDbCircle
 10
6247.0187553361
 20
4850.4116186763
 30
0.0
 40
2.450000000000383
100
AcDbArc
 50
76.255760126
 51
283.744239874
  0
LINE
  5
433
330
1F
100
AcDbEntity
  8
0
  6
Continuous
 62
     7
370
    25
100
AcDbLine
 10
6266.1242290867
 20
4862.1739466765
 30
0.0
 11
6267.5375811484
 21
4863.5872987381
 31
0.0
  0
LINE
  5
434
330
1F
100
AcDbEntity
  8
0
  6
Continuous
 62
     7
370
    25
100
AcDbLine
 10
6274.0453790552
 20
4853.7547644268
 30
0.0
 11
6274.0453790552
 21
4847.0684729258
 31
0.0
  0
ARC
  5
435
330
1F
100
AcDbEntity
  8
0
  6
Continuous
 62
     7
370
    25
100
AcDbCircle
 10
5821.7187553361
 20
4910.4116186763
 30
0.0
 40
3.999999999999714
100
AcDbArc
 50
270.0
 51
25.5142078116
  0
ARC
  5
436
330
1F
100
AcDbEntity
  8
0
  6
Continuous
 62
     7
370
    25
100
AcDbCircle
 10
5821.7187553361
 20
4910.4116186763
 30
0.0
 40
4.000000000000168
100
AcDbArc
 50
154.4857922183
 51
270.0
  0
CIRCLE
  5
437
330
1F
100
AcDbEntity
  8
0
  6
Continuous
 62
     7
370
    25
100
AcDbCircle
 10
6726.3187553361
 20
4763.4116186763
 30
0.0
 40
3.999999999999091
  0
CIRCLE
  5
438
330
1F
100
AcDbEntity
  8
0
  6
Continuous
 62
     7
370
    25
100
AcDbCircle
 10
6726.3187553361
 20
4763.4116186763
 30
0.0
 40
5.0
  0
ARC
  5
439
330
1F
100
AcDbEntity
  8
0
  6
Continuous
 62
     7
370
    25
100
AcDbCircle
 10
6726.3187553361
 20
4910.4116186763
 30
0.0
 40
4.000000000000271
100
AcDbArc
 50
270.0
 51
25.514208078
  0
ARC
  5
43A
330
1F
100
AcDbEntity
  8
0
  6
Continuous
 62
     7
370
    25
100
AcDbCircle
 10
6726.3187553361
 20
4910.4116186763
 30
0.0
 40
4.000000000000764
100
AcDbArc
 50
154.4857919014
 51
270.0
  0
LINE
  5
43B
330
1F
100
AcDbEntity
  8
0
  6
Continuous
 62
     7
370
    25
100
AcDbLine
 10
6740.3187553361
 20
4921.6116186763
 30
0.0
 11
6740.3187553361
 21
4925.4116186763
 31
0.0
  0
LINE
  5
43C
330
1F
100
AcDbEntity
  8
0
  6
Continuous
 62
     7
370
    25
100
AcDbLine
 10
6740.3187553361
 20
4925.4116186763
 30
0.0
 11
6690.3187553361
 21
4925.4116186763
 31
0.0
  0
LINE
  5
43D
330
1F
100
AcDbEntity
  8
0
  6
Continuous
 62
     7
370
    25
100
AcDbLine
 10
6690.3187553361
 20
4925.4116186763
 30
0.0
 11
6690.3187553361
 21
4921.6116186763
 31
0.0
  0
CIRCLE
  5
43E
330
1F
100
AcDbEntity
  8
0
  6
Continuous
 62
     7
370
    25
100
AcDbCircle
 10
5821.7187553361
 20
4763.4116186763
 30
0.0
 40
3.999999999999091
  0
CIRCLE
  5
43F
330
1F
100
AcDbEntity
  8
0
  6
Continuous
 62
     7
370
    25
100
AcDbCircle
 10
5821.7187553361
 20
4763.4116186763
 30
0.0
 40
5.0
  0
LINE
  5
440
330
1F
100
AcDbEntity
  8
0
  6
Continuous
 62
     7
370
    25
100
AcDbLine
 10
5807.7187553361
 20
4748.4116186763
 30
0.0
 11
5857.7187553361
 21
4748.4116186763
 31
0.0
  0
LINE
  5
441
330
1F
100
AcDbEntity
  8
0
  6
Continuous
 62
     7
370
    25
100
AcDbLine
 10
5807.7187553361
 20
4778.4116186763
 30
0.0
 11
5807.7187553361
 21
4748.4116186763
 31
0.0
  0
LINE
  5
442
330
1F
100
AcDbEntity
  8
0
  6
Continuous
 62
     7
370
    25
100
AcDbLine
 10
5857.7187553361
 20
4778.4116186763
 30
0.0
 11
5831.7187553361
 21
4778.4116186763
 31
0.0
  0
LINE
  5
443
330
1F
100
AcDbEntity
  8
0
  6
Continuous
 62
     7
370
    25
100
AcDbLine
 10
5811.7187553361
 20
4778.4116186763
 30
0.0
 11
5807.7187553361
 21
4778.4116186763
 31
0.0
  0
CIRCLE
  5
444
330
1F
100
AcDbEntity
  8
0
  6
Continuous
 62
     7
370
    25
100
AcDbCircle
 10
5843.7187553361
 20
4763.4116186763
 30
0.0
 40
2.75
  0
LINE
  5
445
330
1F
100
AcDbEntity
  8
0
  6
Continuous
 62
     7
370
    25
100
AcDbLine
 10
5857.7187553361
 20
4748.4116186763
 30
0.0
 11
5857.7187553361
 21
4778.4116186763
 31
0.0
  0
LINE
  5
446
330
1F
100
AcDbEntity
  8
0
  6
Continuous
 62
     7
370
    25
100
AcDbLine
 10
6744.6187553361
 20
4901.4116186763
 30
0.0
 11
5803.4187553361
 21
4901.4116186763
 31
0.0
  0
ARC
  5
447
330
1F
100
AcDbEntity
  8
0
  6
Continuous
 62
     7
370
    25
100
AcDbCircle
 10
5803.4187553361
 20
4900.4116186763
 30
0.0
 40
1.0
100
AcDbArc
 50
90.0
 51
180.0
  0
ARC
  5
448
330
1F
100
AcDbEntity
  8
0
  6
Continuous
 62
     7
370
    25
100
AcDbCircle
 10
6744.6187553361
 20
4900.4116186763
 30
0.0
 40
1.0
100
AcDbArc
 50
0.0
 51
90.0
  0
LINE
  5
449
330
1F
100
AcDbEntity
  8
0
  6
Continuous
 62
     7
370
    25
100
AcDbLine
 10
5802.4187553361
 20
4800.4116186763
 30
0.0
 11
5802.4187553361
 21
4900.4116186763
 31
0.0
  0
LINE
  5
44A
330
1F
100
AcDbEntity
  8
0
  6
Continuous
 62
     7
370
    25
100
AcDbLine
 10
6745.6187553361
 20
4900.4116186763
 30
0.0
 11
6745.6187553361
 21
4800.4116186763
 31
0.0
  0
ARC
  5
44B
330
1F
100
AcDbEntity
  8
0
  6
Continuous
 62
     7
370
    25
100
AcDbCircle
 10
5803.4187553361
 20
4800.4116186763
 30
0.0
 40
1.0
100
AcDbArc
 50
180.0000000001
 51
270.0
  0
ARC
  5
44C
330
1F
100
AcDbEntity
  8
0
  6
Continuous
 62
     7
370
    25
100
AcDbCircle
 10
6744.6187553361
 20
4800.4116186763
 30
0.0
 40
1.0
100
AcDbArc
 50
270.0
 51
0.0
  0
LINE
  5
44D
330
1F
100
AcDbEntity
  8
0
  6
Continuous
 62
     7
370
    25
100
AcDbLine
 10
6744.6187553361
 20
4799.4116186763
 30
0.0
 11
5803.4187553361
 21
4799.4116186763
 31
0.0
  0
LINE
  5
44E
330
1F
100
AcDbEntity
  8
0
  6
Continuous
 62
     7
370
    25
100
AcDbLine
 10
6776.3187553361
 20
4921.6116186763
 30
0.0
 11
5771.7187553361
 21
4921.6116186763
 31
0.0
  0
LINE
  5
44F
330
1F
100
AcDbEntity
  8
0
  6
Continuous
 62
     7
370
    25
100
AcDbLine
 10
6776.3187553361
 20
4779.2116186763
 30
0.0
 11
6776.3187553361
 21
4921.6116186763
 31
0.0
  0
LINE
  5
450
330
1F
100
AcDbEntity
  8
0
  6
Continuous
 62
     7
370
    25
100
AcDbLine
 10
5771.7187553361
 20
4779.2116186763
 30
0.0
 11
6776.3187553361
 21
4779.2116186763
 31
0.0
  0
LINE
  5
451
330
1F
100
AcDbEntity
  8
0
  6
Continuous
 62
     7
370
    25
100
AcDbLine
 10
5771.7187553361
 20
4921.6116186763
 30
0.0
 11
5771.7187553361
 21
4779.2116186763
 31
0.0
  0
CIRCLE
  5
452
330
1F
100
AcDbEntity
  8
0
  6
Continuous
 62
     7
370
    25
100
AcDbCircle
 10
6726.3187553361
 20
4909.8915645619
 30
0.0
 40
4.25
  0
CIRCLE
  5
453
330
1F
100
AcDbEntity
  8
0
  6
Continuous
 62
     7
370
    25
100
AcDbCircle
 10
5821.7187553361
 20
4909.8915645619
 30
0.0
 40
4.25
  0
LINE
  5
454
330
1F
100
AcDbEntity
  8
0
  6
Continuous
 62
     7
370
    25
100
AcDbLine
 10
6716.3187553361
 20
4776.431135225
 30
0.0
 11
6736.3187553361
 21
4776.431135225
 31
0.0
  0
LINE
  5
455
330
1F
100
AcDbEntity
  8
0
  6
Continuous
 62
     7
370
    25
100
AcDbLine
 10
6736.3187553361
 20
4779.2116186763
 30
0.0
 11
6736.3187553361
 21
4776.431135225
 31
0.0
  0
LINE
  5
456
330
1F
100
AcDbEntity
  8
0
  6
Continuous
 62
     7
370
    25
100
AcDbLine
 10
6716.3187553361
 20
4779.2116186763
 30
0.0
 11
6716.3187553361
 21
4776.431135225
 31
0.0
  0
LINE
  5
457
330
1F
100
AcDbEntity
  8
0
  6
Continuous
 62
     7
370
    25
100
AcDbLine
 10
5831.7187553361
 20
4776.431135225
 30
0.0
 11
5811.7187553361
 21
4776.431135225
 31
0.0
  0
LINE
  5
458
330
1F
100
AcDbEntity
  8
0
  6
Continuous
 62
     7
370
    25
100
AcDbLine
 10
5811.7187553361
 20
4779.2116186763
 30
0.0
 11
5811.7187553361
 21
4776.431135225
 31
0.0
  0
LINE
  5
459
330
1F
100
AcDbEntity
  8
0
  6
Continuous
 62
     7
370
    25
100
AcDbLine
 10
5831.7187553361
 20
4779.2116186763
 30
0.0
 11
5831.7187553361
 21
4776.431135225
 31
0.0
  0
LINE
  5
45A
330
1F
100
AcDbEntity
  8
0
  6
Continuous
 62
     7
370
    25
100
AcDbLine
 10
6726.3187553361
 20
4773.2265732525
 30
0.0
 11
6717.8187553361
 21
4768.3190959644
 31
0.0
  0
LINE
  5
45B
330
1F
100
AcDbEntity
  8
0
  6
Continuous
 62
     7
370
    25
100
AcDbLine
 10
6734.8187553361
 20
4768.3190959644
 30
0.0
 11
6726.3187553361
 21
4773.2265732525
 31
0.0
  0
LINE
  5
45C
330
1F
100
AcDbEntity
  8
0
  6
Continuous
 62
     7
370
    25
100
AcDbLine
 10
6734.8187553361
 20
4758.5041413882
 30
0.0
 11
6734.8187553361
 21
4768.3190959644
 31
0.0
  0
LINE
  5
45D
330
1F
100
AcDbEntity
  8
0
  6
Continuous
 62
     7
370
    25
100
AcDbLine
 10
6726.3187553361
 20
4753.5966641001
 30
0.0
 11
6734.8187553361
 21
4758.5041413882
 31
0.0
  0
LINE
  5
45E
330
1F
100
AcDbEntity
  8
0
  6
Continuous
 62
     7
370
    25
100
AcDbLine
 10
6717.8187553361
 20
4758.5041413882
 30
0.0
 11
6726.3187553361
 21
4753.5966641001
 31
0.0
  0
LINE
  5
45F
330
1F
100
AcDbEntity
  8
0
  6
Continuous
 62
     7
370
    25
100
AcDbLine
 10
6717.8187553361
 20
4768.3190959644
 30
0.0
 11
6717.8187553361
 21
4758.5041413882
 31
0.0
  0
LINE
  5
460
330
1F
100
AcDbEntity
  8
0
  6
Continuous
 62
     7
370
    25
100
AcDbLine
 10
5830.2187553361
 20
4758.5041413882
 30
0.0
 11
5821.7187553361
 21
4753.5966641001
 31
0.0
  0
LINE
  5
461
330
1F
100
AcDbEntity
  8
0
  6
Continuous
 62
     7
370
    25
100
AcDbLine
 10
5821.7187553361
 20
4753.5966641001
 30
0.0
 11
5813.2187553361
 21
4758.5041413882
 31
0.0
  0
LINE
  5
462
330
1F
100
AcDbEntity
  8
0
  6
Continuous
 62
     7
370
    25
100
AcDbLine
 10
5813.2187553361
 20
4758.5041413882
 30
0.0
 11
5813.2187553361
 21
4768.3190959644
 31
0.0
  0
LINE
  5
463
330
1F
100
AcDbEntity
  8
0
  6
Continuous
 62
     7
370
    25
100
AcDbLine
 10
5830.2187553361
 20
4768.3190959644
 30
0.0
 11
5830.2187553361
 21
4758.5041413882
 31
0.0
  0
LINE
  5
464
330
1F
100
AcDbEntity
  8
0
  6
Continuous
 62
     7
370
    25
100
AcDbLine
 10
5821.7187553361
 20
4773.2265732525
 30
0.0
 11
5830.2187553361
 21
4768.3190959644
 31
0.0
  0
LINE
  5
465
330
1F
100
AcDbEntity
  8
0
  6
Continuous
 62
     7
370
    25
100
AcDbLine
 10
5813.2187553361
 20
4768.3190959644
 30
0.0
 11
5821.7187553361
 21
4773.2265732525
 31
0.0
  0
LINE
  5
466
330
1F
100
AcDbEntity
  8
0
  6
Continuous
 62
     7
370
    25
100
AcDbLine
 10
6716.3187553361
 20
4775.7698266636
 30
0.0
 11
6736.3187553361
 21
4775.7698266636
 31
0.0
  0
LINE
  5
467
330
1F
100
AcDbEntity
  8
0
  6
Continuous
 62
     7
370
    25
100
AcDbLine
 10
6736.3187553361
 20
4776.431135225
 30
0.0
 11
6736.3187553361
 21
4775.7698266636
 31
0.0
  0
LINE
  5
468
330
1F
100
AcDbEntity
  8
0
  6
Continuous
 62
     7
370
    25
100
AcDbLine
 10
6716.3187553361
 20
4776.431135225
 30
0.0
 11
6716.3187553361
 21
4775.7698266636
 31
0.0
  0
LINE
  5
469
330
1F
100
AcDbEntity
  8
0
  6
Continuous
 62
     7
370
    25
100
AcDbLine
 10
5831.7187553361
 20
4775.7698266636
 30
0.0
 11
5811.7187553361
 21
4775.7698266636
 31
0.0
  0
LINE
  5
46A
330
1F
100
AcDbEntity
  8
0
  6
Continuous
 62
     7
370
    25
100
AcDbLine
 10
5811.7187553361
 20
4776.431135225
 30
0.0
 11
5811.7187553361
 21
4775.7698266636
 31
0.0
  0
LINE
  5
46B
330
1F
100
AcDbEntity
  8
0
  6
Continuous
 62
     7
370
    25
100
AcDbLine
 10
5831.7187553361
 20
4776.431135225
 30
0.0
 11
5831.7187553361
 21
4775.7698266636
 31
0.0
  0
LINE
  5
46C
330
1F
100
AcDbEntity
  8
0
  6
Continuous
 62
     7
370
    25
100
AcDbLine
 10
5831.7187553361
 20
4754.7698266636
 30
0.0
 11
5823.7507325016
 21
4754.7698266636
 31
0.0
  0
LINE
  5
46D
330
1F
100
AcDbEntity
  8
0
  6
Continuous
 62
     7
370
    25
100
AcDbLine
 10
5819.6867781706
 20
4754.7698266636
 30
0.0
 11
5811.7187553361
 21
4754.7698266636
 31
0.0
  0
LINE
  5
46E
330
1F
100
AcDbEntity
  8
0
  6
Continuous
 62
     7
370
    25
100
AcDbLine
 10
5811.7187553361
 20
4775.7698266636
 30
0.0
 11
5811.7187553361
 21
4754.7698266636
 31
0.0
  0
LINE
  5
46F
330
1F
100
AcDbEntity
  8
0
  6
Continuous
 62
     7
370
    25
100
AcDbLine
 10
5831.7187553361
 20
4775.7698266636
 30
0.0
 11
5831.7187553361
 21
4754.7698266636
 31
0.0
  0
LINE
  5
470
330
1F
100
AcDbEntity
  8
0
  6
Continuous
 62
     7
370
    25
100
AcDbLine
 10
6728.3507325016
 20
4754.7698266636
 30
0.0
 11
6736.3187553361
 21
4754.7698266636
 31
0.0
  0
LINE
  5
471
330
1F
100
AcDbEntity
  8
0
  6
Continuous
 62
     7
370
    25
100
AcDbLine
 10
6716.3187553361
 20
4754.7698266636
 30
0.0
 11
6724.2867781706
 21
4754.7698266636
 31
0.0
  0
LINE
  5
472
330
1F
100
AcDbEntity
  8
0
  6
Continuous
 62
     7
370
    25
100
AcDbLine
 10
6736.3187553361
 20
4775.7698266636
 30
0.0
 11
6736.3187553361
 21
4754.7698266636
 31
0.0
  0
LINE
  5
473
330
1F
100
AcDbEntity
  8
0
  6
Continuous
 62
     7
370
    25
100
AcDbLine
 10
6716.3187553361
 20
4775.7698266636
 30
0.0
 11
6716.3187553361
 21
4754.7698266636
 31
0.0
  0
LINE
  5
474
330
1F
100
AcDbEntity
  8
0
  6
Continuous
 62
     8
370
    25
100
AcDbLine
 10
6256.8187553361
 20
4850.4116186763
 30
0.0
 11
6258.0744198652
 21
4850.4116186763
 31
0.0
  0
LINE
  5
475
330
1F
100
AcDbEntity
  8
0
  6
Continuous
 62
     8
370
    25
100
AcDbLine
 10
6288.4180741075
 20
4850.4116186763
 30
0.0
 11
6289.4155061245
 21
4850.4116186763
 31
0.0
  0
LINE
  5
476
330
1F
100
AcDbEntity
  8
0
  6
Continuous
 62
     8
370
    25
100
AcDbLine
 10
6255.8964771265
 20
4851.4143811073
 30
0.0
 11
6253.9993791321
 21
4851.5193534829
 31
0.0
  0
LINE
  5
477
330
1F
100
AcDbEntity
  8
0
  6
Continuous
 62
     8
370
    25
100
AcDbLine
 10
6293.8848889592
 20
4851.5108740908
 30
0.0
 11
6294.0381315401
 21
4851.5193534829
 31
0.0
  0
LINE
  5
478
330
1F
100
AcDbEntity
  8
0
  6
Continuous
 62
     8
370
    25
100
AcDbLine
 10
6255.9464007579
 20
4851.3616186763
 30
0.0
 11
6255.9464007579
 21
4849.4616186763
 31
0.0
  0
LINE
  5
479
330
1F
100
AcDbEntity
  8
0
  6
Continuous
 62
     8
370
    25
100
AcDbLine
 10
6255.4187553361
 20
4847.6116186763
 30
0.0
 11
6255.4187553361
 21
4849.5343626179
 31
0.0
  0
LINE
  5
47A
330
1F
100
AcDbEntity
  8
0
  6
Continuous
 62
     8
370
    25
100
AcDbLine
 10
6256.1187553361
 20
4853.2116186763
 30
0.0
 11
6256.0860338472
 21
4853.2116186763
 31
0.0
  0
LINE
  5
47B
330
1F
100
AcDbEntity
  8
0
  6
Continuous
 62
     8
370
    25
100
AcDbLine
 10
6258.0744198652
 20
4846.2116186763
 30
0.0
 11
6256.8187553361
 21
4846.2116186763
 31
0.0
  0
LWPOLYLINE
  5
47C
330
1F
100
AcDbEntity
  8
0
  6
Continuous
 62
     8
370
    25
100
AcDbPolyline
 90
        3
 70
   128
 43
0.0
 10
6256.8187553361
 20
4854.6116186763
 10
6256.5456288853
 20
4854.5847180689
 10
6256.3416690966
 20
4854.527821062
  0
ELLIPSE
  5
47D
330
1F
100
AcDbEntity
  8
0
  6
Continuous
 62
     8
370
    25
100
AcDbEllipse
 10
6264.2763521413
 20
4850.4116186763
 30
0.0
 11
7.524669661681401
 21
0.0
 31
0.0
210
0.0
220
0.0
230
1.0
 40
0.9998720779
 41
5.236935575030721
 42
5.312502056278354
  0
ELLIPSE
  5
47E
330
1F
100
AcDbEntity
  8
0
  6
Continuous
 62
     8
370
    25
100
AcDbEllipse
 10
6264.2763521413
 20
4850.4116186763
 30
0.0
 11
7.524669661681401
 21
0.0
 31
0.0
210
0.0
220
0.0
230
1.0
 40
0.9998720779
 41
0.9706832509011777
 42
1.046249732148819
  0
ELLIPSE
  5
47F
330
1F
100
AcDbEntity
  8
0
  6
Continuous
 62
     8
370
    25
100
AcDbEllipse
 10
6271.7669387685
 20
4837.4675504499
 30
0.0
 11
7.431956459165121
 21
0.0
 31
0.0
210
0.0
220
0.0
230
1.0
 40
0.9998720779
 41
2.09534292144104
 42
3.132893601018568
  0
LWPOLYLINE
  5
480
330
1F
100
AcDbEntity
  8
0
  6
Continuous
 62
     8
370
    25
100
AcDbPolyline
 90
        3
 70
   128
 43
0.0
 10
6299.5006555862
 20
4852.3346041545
 10
6299.0953699545
 20
4855.3298005337
 10
6298.7320197884
 20
4856.9139008613
  0
ARC
  5
481
330
1F
100
AcDbEntity
  8
0
  6
Continuous
 62
     8
370
    25
100
AcDbCircle
 10
6274.0187553361
 20
4850.4116186763
 30
0.0
 40
25.55435605731772
100
AcDbArc
 50
321.0237661521
 51
355.6843677726
  0
ARC
  5
482
330
1F
100
AcDbEntity
  8
0
  6
Continuous
 62
     8
370
    25
100
AcDbCircle
 10
6274.0187553361
 20
4850.4116186763
 30
0.0
 40
25.55435605731818
100
AcDbArc
 50
131.1490861509
 51
149.1744744598
  0
LINE
  5
483
330
1F
100
AcDbEntity
  8
0
  6
Continuous
 62
     8
370
    25
100
AcDbLine
 10
6257.3130379268
 20
4861.4986158279
 30
0.0
 11
6257.2530613701
 21
4861.4986158279
 31
0.0
  0
LINE
  5
484
330
1F
100
AcDbEntity
  8
0
  6
Continuous
 62
     8
370
    25
100
AcDbLine
 10
6256.6327038857
 20
4860.4980062836
 30
0.0
 11
6256.6905331239
 21
4860.4980062836
 31
0.0
  0
LINE
  5
485
330
1F
100
AcDbEntity
  8
0
  6
Continuous
 62
     8
370
    25
100
AcDbLine
 10
6257.5944271793
 20
4861.9983112414
 30
0.0
 11
6257.6556549147
 21
4861.9983112414
 31
0.0
  0
LINE
  5
486
330
1F
100
AcDbEntity
  8
0
  6
Continuous
 62
     8
370
    25
100
AcDbLine
 10
6267.2148824851
 20
4861.0832932781
 30
0.0
 11
6266.1242290867
 21
4862.1739466765
 31
0.0
  0
LINE
  5
487
330
1F
100
AcDbEntity
  8
0
  6
Continuous
 62
     8
370
    25
100
AcDbLine
 10
6266.1242290867
 20
4838.6492906762
 30
0.0
 11
6267.2062416031
 21
4839.7313031926
 31
0.0
  0
LWPOLYLINE
  5
488
330
1F
100
AcDbEntity
  8
0
  6
Continuous
 62
     8
370
    25
100
AcDbPolyline
 90
        3
 70
   128
 43
0.0
 10
6266.3284016182
 20
4864.5807311607
 10
6266.9539372685
 20
4864.1162827164
 10
6267.5375811484
 20
4863.5872987381
  0
LINE
  5
489
330
1F
100
AcDbEntity
  8
0
  6
Continuous
 62
     8
370
    25
100
AcDbLine
 10
6267.5375811484
 20
4863.5872987381
 30
0.0
 11
6268.5258024474
 21
4862.5990774392
 31
0.0
  0
ARC
  5
48A
330
1F
100
AcDbEntity
  8
0
  6
Continuous
 62
     8
370
    25
100
AcDbCircle
 10
6266.0187553361
 20
4853.7547644268
 30
0.0
 40
8.026623719119016
100
AcDbArc
 50
0.0
 51
30.0418694965
  0
LINE
  5
48B
330
1F
100
AcDbEntity
  8
0
  6
Continuous
 62
     8
370
    25
100
AcDbLine
 10
6274.0453790552
 20
4853.7547644268
 30
0.0
 11
6272.9670807576
 21
4853.7547644268
 31
0.0
  0
LINE
  5
48C
330
1F
100
AcDbEntity
  8
0
  6
Continuous
 62
     8
370
    25
100
AcDbLine
 10
6274.0453790552
 20
4847.0684729258
 30
0.0
 11
6272.9670807576
 21
4847.0684729258
 31
0.0
  0
ARC
  5
48D
330
1F
100
AcDbEntity
  8
0
  6
Continuous
 62
     8
370
    25
100
AcDbCircle
 10
6266.0187553361
 20
4847.0684729258
 30
0.0
 40
8.026623719119016
100
AcDbArc
 50
329.9581305035
 51
0.0
  0
LINE
  5
48E
330
1F
100
AcDbEntity
  8
0
  6
Continuous
 62
     8
370
    25
100
AcDbLine
 10
6267.0635726137
 20
4837.7099471492
 30
0.0
 11
6266.1242290867
 21
4838.6492906762
 31
0.0
  0
LINE
  5
48F
330
1F
100
AcDbEntity
  8
0
  6
Continuous
 62
     8
370
    25
100
AcDbLine
 10
6744.6187553361
 20
4901.4116186763
 30
0.0
 11
6744.6187553361
 21
4904.8116186763
 31
0.0
  0
LINE
  5
490
330
1F
100
AcDbEntity
  8
0
  6
Continuous
 62
     8
370
    25
100
AcDbLine
 10
5803.4187553361
 20
4901.4116186763
 30
0.0
 11
5803.4187553361
 21
4904.8116176924
 31
0.0
  0
LINE
  5
491
330
1F
100
AcDbEntity
  8
0
  6
Continuous
 62
     8
370
    25
100
AcDbLine
 10
5802.4187553361
 20
4900.4116186763
 30
0.0
 11
5799.0187553361
 21
4900.4116186763
 31
0.0
  0
LINE
  5
492
330
1F
100
AcDbEntity
  8
0
  6
Continuous
 62
     8
370
    25
100
AcDbLine
 10
6745.6187553361
 20
4900.4116186763
 30
0.0
 11
6749.0187553361
 21
4900.4116186763
 31
0.0
  0
LINE
  5
493
330
1F
100
AcDbEntity
  8
0
  6
Continuous
 62
     8
370
    25
100
AcDbLine
 10
5802.4187553361
 20
4800.4116186763
 30
0.0
 11
5799.0187553361
 21
4800.4116186763
 31
0.0
  0
LINE
  5
494
330
1F
100
AcDbEntity
  8
0
  6
Continuous
 62
     8
370
    25
100
AcDbLine
 10
6745.6187553361
 20
4800.4116186763
 30
0.0
 11
6749.0187553361
 21
4800.4116186763
 31
0.0
  0
LINE
  5
495
330
1F
100
AcDbEntity
  8
0
  6
Continuous
 62
     8
370
    25
100
AcDbLine
 10
5803.4187553361
 20
4799.4116186763
 30
0.0
 11
5803.4187553361
 21
4796.0116186763
 31
0.0
  0
LINE
  5
496
330
1F
100
AcDbEntity
  8
0
  6
Continuous
 62
     8
370
    25
100
AcDbLine
 10
6744.6187553361
 20
4799.4116186763
 30
0.0
 11
6744.6187553361
 21
4796.0116186763
 31
0.0
  0
ARC
  5
497
330
1F
100
AcDbEntity
  8
0
  6
Continuous
 62
     8
370
    25
100
AcDbCircle
 10
6274.0187553361
 20
4850.4116186763
 30
0.0
 40
40.00000000000006
100
AcDbArc
 50
321.2836231782
 51
335.4028975167
  0
ARC
  5
498
330
1F
100
AcDbEntity
  8
0
  6
Continuous
 62
     8
370
    25
100
AcDbCircle
 10
6274.0187553361
 20
4850.4116186763
 30
0.0
 40
40.00000000000023
100
AcDbArc
 50
157.3965395943
 51
185.2173828256
  0
ARC
  5
499
330
1F
100
AcDbEntity
  8
0
  6
Continuous
 62
     8
370
    25
100
AcDbCircle
 10
6274.0187553361
 20
4850.4116186763
 30
0.0
 40
35.201087273158
100
AcDbArc
 50
329.6285344764
 51
5.8190712299
  0
ARC
  5
49A
330
1F
100
AcDbEntity
  8
0
  6
Continuous
 62
     8
370
    25
100
AcDbCircle
 10
6274.0187553361
 20
4850.4116186763
 30
0.0
 40
35.201087273158
100
AcDbArc
 50
140.6157993163
 51
157.0631388038
  0
ENDSEC
  0
SECTION
  2
OBJECTS
  0
DICTIONARY
  5
C
330
0
100
AcDbDictionary
281
     1
  3
ACAD_GROUP
350
D
  3
ACAD_LAYOUT
350
1A
  3
ACAD_MLINESTYLE
350
17
  3
ACAD_PLOTSETTINGS
350
19
  3
ACAD_PLOTSTYLENAME
350
E
  3
ACAD_SCALELIST
350
47
  3
DWGPROPS
350
49B
  0
DICTIONARY
  5
D
102
{ACAD_REACTORS
330
C
102
}
330
C
100
AcDbDictionary
281
     1
  0
DICTIONARY
  5
1A
102
{ACAD_REACTORS
330
C
102
}
330
C
100
AcDbDictionary
281
     1
  3
Layout1
350
1E
  3
Layout2
350
26
  3
Model
350
22
  0
DICTIONARY
  5
17
102
{ACAD_REACTORS
330
C
102
}
330
C
100
AcDbDictionary
281
     1
  3
Standard
350
18
  0
DICTIONARY
  5
19
102
{ACAD_REACTORS
330
C
102
}
330
C
100
AcDbDictionary
281
     1
  0
ACDBDICTIONARYWDFLT
  5
E
102
{ACAD_REACTORS
330
C
102
}
330
C
100
AcDbDictionary
281
     1
  3
Normal
350
F
100
AcDbDictionaryWithDefault
340
F
  0
DICTIONARY
  5
47
102
{ACAD_REACTORS
330
C
102
}
330
C
100
AcDbDictionary
281
     1
  3
A0
350
48
  3
A1
350
49
  3
A2
350
4A
  3
A3
350
4B
  3
A4
350
4C
  3
A5
350
4D
  3
A6
350
4E
  3
A7
350
4F
  3
A8
350
50
  3
A9
350
51
  3
B0
350
52
  3
B1
350
53
  3
B2
350
54
  3
B3
350
55
  3
B4
350
56
  3
B5
350
57
  3
B6
350
58
  3
B7
350
59
  3
B8
350
5A
  3
B9
350
5B
  3
C0
350
5C
  3
C1
350
5D
  3
C2
350
5E
  3
C3
350
5F
  3
C4
350
60
  3
C5
350
61
  3
C6
350
62
  3
C7
350
63
  3
C8
350
64
  3
C9
350
65
  3
D0
350
66
  3
D1
350
67
  3
D2
350
68
  0
XRECORD
  5
49B
102
{ACAD_REACTORS
330
C
102
}
330
C
100
AcDbXrecord
280
     1
  1
DWGPROPS COOKIE
  2

  3

  4

  6

  7

  8
radek.stransky
  9

300
=
301
=
302
=
303
=
304
=
305
=
306
=
307
=
308
=
309
=
 40
0.0
 41
2459107.446089467
 42
2459107.446089838
  1

 90
        0
  0
LAYOUT
  5
1E
102
{ACAD_REACTORS
330
1A
102
}
330
1A
100
AcDbPlotSettings
  1

  2
none_device
  4

  6

 40
0.0
 41
0.0
 42
0.0
 43
0.0
 44
0.0
 45
0.0
 46
0.0
 47
0.0
 48
0.0
 49
0.0
140
0.0
141
0.0
142
1.0
143
1.0
 70
   688
 72
     1
 73
     0
 74
     5
  7

 75
    16
147
1.0
148
0.0
149
0.0
100
AcDbLayout
  1
Layout1
 70
     1
 71
     1
 10
0.0
 20
0.0
 11
420.0
 21
297.0
 12
0.0
 22
0.0
 32
0.0
 14
1.0000000000E+20
 24
1.0000000000E+20
 34
1.0000000000E+20
 15
-1.0000000000E+20
 25
-1.0000000000E+20
 35
-1.0000000000E+20
146
0.0
 13
0.0
 23
0.0
 33
0.0
 16
1.0
 26
0.0
 36
0.0
 17
0.0
 27
1.0
 37
0.0
 76
     0
330
1B
  0
LAYOUT
  5
26
102
{ACAD_REACTORS
330
1A
102
}
330
1A
100
AcDbPlotSettings
  1

  2
none_device
  4

  6

 40
0.0
 41
0.0
 42
0.0
 43
0.0
 44
0.0
 45
0.0
 46
0.0
 47
0.0
 48
0.0
 49
0.0
140
0.0
141
0.0
142
1.0
143
1.0
 70
   688
 72
     1
 73
     0
 74
     5
  7

 75
    16
147
1.0
148
0.0
149
0.0
100
AcDbLayout
  1
Layout2
 70
     1
 71
     2
 10
0.0
 20
0.0
 11
0.0
 21
0.0
 12
0.0
 22
0.0
 32
0.0
 14
0.0
 24
0.0
 34
0.0
 15
0.0
 25
0.0
 35
0.0
146
0.0
 13
0.0
 23
0.0
 33
0.0
 16
1.0
 26
0.0
 36
0.0
 17
0.0
 27
1.0
 37
0.0
 76
     0
330
23
  0
LAYOUT
  5
22
102
{ACAD_REACTORS
330
1A
102
}
330
1A
100
AcDbPlotSettings
  1

  2
none_device
  4
Letter_(8.50_x_11.00_Inches)
  6

 40
6.35
 41
6.35
 42
6.35000508
 43
6.35000508
 44
215.9
 45
279.4
 46
0.0
 47
0.0
 48
0.0
 49
0.0
140
0.0
141
0.0
142
1.0
143
1.0
 70
  1712
 72
     1
 73
     0
 74
     0
  7

 75
     0
147
1.0
148
0.0
149
0.0
100
AcDbLayout
  1
Model
 70
     1
 71
     0
 10
0.0
 20
0.0
 11
20000.0
 21
10000.0
 12
0.0
 22
0.0
 32
0.0
 14
0.0
 24
0.0
 34
0.0
 15
20000.0
 25
10000.0
 35
0.0
146
0.0
 13
0.0
 23
0.0
 33
0.0
 16
1.0
 26
0.0
 36
0.0
 17
0.0
 27
1.0
 37
0.0
 76
     0
330
1F
331
29
  0
MLINESTYLE
  5
18
102
{ACAD_REACTORS
330
17
102
}
330
17
100
AcDbMlineStyle
  2
Standard
 70
     0
  3

 62
   256
 51
90.0
 52
90.0
 71
     2
 49
0.5
 62
   256
  6
BYLAYER
 49
-0.5
 62
   256
  6
BYLAYER
  0
ACDBPLACEHOLDER
  5
F
102
{ACAD_REACTORS
330
E
102
}
330
E
  0
SCALE
  5
48
102
{ACAD_REACTORS
330
47
102
}
330
47
100
AcDbScale
 70
     0
300
1:1
140
1.0
141
1.0
290
     1
  0
SCALE
  5
49
102
{ACAD_REACTORS
330
47
102
}
330
47
100
AcDbScale
 70
     0
300
1:2
140
1.0
141
2.0
290
     0
  0
SCALE
  5
4A
102
{ACAD_REACTORS
330
47
102
}
330
47
100
AcDbScale
 70
     0
300
1:4
140
1.0
141
4.0
290
     0
  0
SCALE
  5
4B
102
{ACAD_REACTORS
330
47
102
}
330
47
100
AcDbScale
 70
     0
300
1:5
140
1.0
141
5.0
290
     0
  0
SCALE
  5
4C
102
{ACAD_REACTORS
330
47
102
}
330
47
100
AcDbScale
 70
     0
300
1:8
140
1.0
141
8.0
290
     0
  0
SCALE
  5
4D
102
{ACAD_REACTORS
330
47
102
}
330
47
100
AcDbScale
 70
     0
300
1:10
140
1.0
141
10.0
290
     0
  0
SCALE
  5
4E
102
{ACAD_REACTORS
330
47
102
}
330
47
100
AcDbScale
 70
     0
300
1:16
140
1.0
141
16.0
290
     0
  0
SCALE
  5
4F
102
{ACAD_REACTORS
330
47
102
}
330
47
100
AcDbScale
 70
     0
300
1:20
140
1.0
141
20.0
290
     0
  0
SCALE
  5
50
102
{ACAD_REACTORS
330
47
102
}
330
47
100
AcDbScale
 70
     0
300
1:30
140
1.0
141
30.0
290
     0
  0
SCALE
  5
51
102
{ACAD_REACTORS
330
47
102
}
330
47
100
AcDbScale
 70
     0
300
1:40
140
1.0
141
40.0
290
     0
  0
SCALE
  5
52
102
{ACAD_REACTORS
330
47
102
}
330
47
100
AcDbScale
 70
     0
300
1:50
140
1.0
141
50.0
290
     0
  0
SCALE
  5
53
102
{ACAD_REACTORS
330
47
102
}
330
47
100
AcDbScale
 70
     0
300
1:100
140
1.0
141
100.0
290
     0
  0
SCALE
  5
54
102
{ACAD_REACTORS
330
47
102
}
330
47
100
AcDbScale
 70
     0
300
2:1
140
2.0
141
1.0
290
     0
  0
SCALE
  5
55
102
{ACAD_REACTORS
330
47
102
}
330
47
100
AcDbScale
 70
     0
300
4:1
140
4.0
141
1.0
290
     0
  0
SCALE
  5
56
102
{ACAD_REACTORS
330
47
102
}
330
47
100
AcDbScale
 70
     0
300
8:1
140
8.0
141
1.0
290
     0
  0
SCALE
  5
57
102
{ACAD_REACTORS
330
47
102
}
330
47
100
AcDbScale
 70
     0
300
10:1
140
10.0
141
1.0
290
     0
  0
SCALE
  5
58
102
{ACAD_REACTORS
330
47
102
}
330
47
100
AcDbScale
 70
     0
300
100:1
140
100.0
141
1.0
290
     0
  0
SCALE
  5
59
102
{ACAD_REACTORS
330
47
102
}
330
47
100
AcDbScale
 70
     0
300
1/128" = 1'-0"
140
0.0078125
141
12.0
290
     0
  0
SCALE
  5
5A
102
{ACAD_REACTORS
330
47
102
}
330
47
100
AcDbScale
 70
     0
300
1/64" = 1'-0"
140
0.015625
141
12.0
290
     0
  0
SCALE
  5
5B
102
{ACAD_REACTORS
330
47
102
}
330
47
100
AcDbScale
 70
     0
300
1/32" = 1'-0"
140
0.03125
141
12.0
290
     0
  0
SCALE
  5
5C
102
{ACAD_REACTORS
330
47
102
}
330
47
100
AcDbScale
 70
     0
300
1/16" = 1'-0"
140
0.0625
141
12.0
290
     0
  0
SCALE
  5
5D
102
{ACAD_REACTORS
330
47
102
}
330
47
100
AcDbScale
 70
     0
300
3/32" = 1'-0"
140
0.09375
141
12.0
290
     0
  0
SCALE
  5
5E
102
{ACAD_REACTORS
330
47
102
}
330
47
100
AcDbScale
 70
     0
300
1/8" = 1'-0"
140
0.125
141
12.0
290
     0
  0
SCALE
  5
5F
102
{ACAD_REACTORS
330
47
102
}
330
47
100
AcDbScale
 70
     0
300
3/16" = 1'-0"
140
0.1875
141
12.0
290
     0
  0
SCALE
  5
60
102
{ACAD_REACTORS
330
47
102
}
330
47
100
AcDbScale
 70
     0
300
1/4" = 1'-0"
140
0.25
141
12.0
290
     0
  0
SCALE
  5
61
102
{ACAD_REACTORS
330
47
102
}
330
47
100
AcDbScale
 70
     0
300
3/8" = 1'-0"
140
0.375
141
12.0
290
     0
  0
SCALE
  5
62
102
{ACAD_REACTORS
330
47
102
}
330
47
100
AcDbScale
 70
     0
300
1/2" = 1'-0"
140
0.5
141
12.0
290
     0
  0
SCALE
  5
63
102
{ACAD_REACTORS
330
47
102
}
330
47
100
AcDbScale
 70
     0
300
3/4" = 1'-0"
140
0.75
141
12.0
290
     0
  0
SCALE
  5
64
102
{ACAD_REACTORS
330
47
102
}
330
47
100
AcDbScale
 70
     0
300
1" = 1'-0"
140
1.0
141
12.0
290
     0
  0
SCALE
  5
65
102
{ACAD_REACTORS
330
47
102
}
330
47
100
AcDbScale
 70
     0
300
1-1/2" = 1'-0"
140
1.5
141
12.0
290
     0
  0
SCALE
  5
66
102
{ACAD_REACTORS
330
47
102
}
330
47
100
AcDbScale
 70
     0
300
3" = 1'-0"
140
3.0
141
12.0
290
     0
  0
SCALE
  5
67
102
{ACAD_REACTORS
330
47
102
}
330
47
100
AcDbScale
 70
     0
300
6" = 1'-0"
140
6.0
141
12.0
290
     0
  0
SCALE
  5
68
102
{ACAD_REACTORS
330
47
102
}
330
47
100
AcDbScale
 70
     0
300
1'-0" = 1'-0"
140
12.0
141
12.0
290
     0
  0
ENDSEC
  0
EOF
