  0
SECTION
  2
HEADER
  9
$ACADVER
  1
AC1015
  9
$ACADMAINTVER
 70
     6
  9
$DWGCODEPAGE
  3
ANSI_1250
  9
$INSBASE
 10
0.0
 20
0.0
 30
0.0
  9
$EXTMIN
 10
0.0
 20
0.0
 30
0.0
  9
$EXTMAX
 10
20000.0
 20
10000.0
 30
0.0
  9
$LIMMIN
 10
0.0
 20
0.0
  9
$LIMMAX
 10
20000.0
 20
10000.0
  9
$ORTHOMODE
 70
     0
  9
$REGENMODE
 70
     1
  9
$FILLMODE
 70
     1
  9
$QTEXTMODE
 70
     0
  9
$MIRRTEXT
 70
     1
  9
$LTSCALE
 40
1.0
  9
$ATTMODE
 70
     1
  9
$TEXTSIZE
 40
2.0
  9
$TRACEWID
 40
1.0
  9
$TEXTSTYLE
  7
Standard
  9
$CLAYER
  8
0
  9
$CELTYPE
  6
ByLayer
  9
$CECOLOR
 62
   256
  9
$CELTSCALE
 40
1.0
  9
$DISPSILH
 70
     0
  9
$DIMSCALE
 40
1.0
  9
$DIMASZ
 40
2.0
  9
$DIMEXO
 40
1.0
  9
$DIMDLI
 40
3.75
  9
$DIMRND
 40
0.0
  9
$DIMDLE
 40
0.0
  9
$DIMEXE
 40
1.0
  9
$DIMTP
 40
0.0
  9
$DIMTM
 40
0.0
  9
$DIMTXT
 40
2.0
  9
$DIMCEN
 40
2.5
  9
$DIMTSZ
 40
0.0
  9
$DIMTOL
 70
     0
  9
$DIMLIM
 70
     0
  9
$DIMTIH
 70
     1
  9
$DIMTOH
 70
     1
  9
$DIMSE1
 70
     0
  9
$DIMSE2
 70
     0
  9
$DIMTAD
 70
     1
  9
$DIMZIN
 70
     0
  9
$DIMBLK
  1

  9
$DIMASO
 70
     1
  9
$DIMSHO
 70
     1
  9
$DIMPOST
  1

  9
$DIMAPOST
  1

  9
$DIMALT
 70
     0
  9
$DIMALTD
 70
     3
  9
$DIMALTF
 40
0.0393700787
  9
$DIMLFAC
 40
1.0
  9
$DIMTOFL
 70
     1
  9
$DIMTVP
 40
0.0
  9
$DIMTIX
 70
     0
  9
$DIMSOXD
 70
     0
  9
$DIMSAH
 70
     0
  9
$DIMBLK1
  1

  9
$DIMBLK2
  1

  9
$DIMSTYLE
  2
ISO-25
  9
$DIMCLRD
 70
     0
  9
$DIMCLRE
 70
     0
  9
$DIMCLRT
 70
     0
  9
$DIMTFAC
 40
1.0
  9
$DIMGAP
 40
1.524
  9
$DIMJUST
 70
     0
  9
$DIMSD1
 70
     0
  9
$DIMSD2
 70
     0
  9
$DIMTOLJ
 70
     0
  9
$DIMTZIN
 70
     0
  9
$DIMALTZ
 70
     0
  9
$DIMALTTZ
 70
     0
  9
$DIMUPT
 70
     0
  9
$DIMDEC
 70
     2
  9
$DIMTDEC
 70
     0
  9
$DIMALTU
 70
     2
  9
$DIMALTTD
 70
     3
  9
$DIMTXSTY
  7
Standard
  9
$DIMAUNIT
 70
     0
  9
$DIMADEC
 70
     2
  9
$DIMALTRND
 40
0.0
  9
$DIMAZIN
 70
     0
  9
$DIMDSEP
 70
    44
  9
$DIMATFIT
 70
     3
  9
$DIMFRAC
 70
     0
  9
$DIMLDRBLK
  1

  9
$DIMLUNIT
 70
     2
  9
$DIMLWD
 70
    -2
  9
$DIMLWE
 70
    -2
  9
$DIMTMOVE
 70
     0
  9
$LUNITS
 70
     2
  9
$LUPREC
 70
     3
  9
$SKETCHINC
 40
1.0
  9
$FILLETRAD
 40
10.0
  9
$AUNITS
 70
     0
  9
$AUPREC
 70
     2
  9
$MENU
  1
.
  9
$ELEVATION
 40
0.0
  9
$PELEVATION
 40
0.0
  9
$THICKNESS
 40
0.0
  9
$LIMCHECK
 70
     0
  9
$CHAMFERA
 40
0.0
  9
$CHAMFERB
 40
0.0
  9
$CHAMFERC
 40
0.0
  9
$CHAMFERD
 40
0.0
  9
$SKPOLY
 70
     0
  9
$TDCREATE
 40
2459157.461280613
  9
$TDUCREATE
 40
2459157.419613947
  9
$TDUPDATE
 40
2459157.461280961
  9
$TDUUPDATE
 40
2459157.419614294
  9
$TDINDWG
 40
0.0000000116
  9
$TDUSRTIMER
 40
0.0000000116
  9
$USRTIMER
 70
     1
  9
$ANGBASE
 50
0.0
  9
$ANGDIR
 70
     0
  9
$PDMODE
 70
     0
  9
$PDSIZE
 40
-1.0
  9
$PLINEWID
 40
0.0
  9
$SPLFRAME
 70
     0
  9
$SPLINETYPE
 70
     6
  9
$SPLINESEGS
 70
     8
  9
$HANDSEED
  5
4BF
  9
$SURFTAB1
 70
     6
  9
$SURFTAB2
 70
     6
  9
$SURFTYPE
 70
     6
  9
$SURFU
 70
     6
  9
$SURFV
 70
     6
  9
$UCSBASE
  2

  9
$UCSNAME
  2

  9
$UCSORG
 10
0.0
 20
0.0
 30
0.0
  9
$UCSXDIR
 10
1.0
 20
0.0
 30
0.0
  9
$UCSYDIR
 10
0.0
 20
1.0
 30
0.0
  9
$UCSORTHOREF
  2

  9
$UCSORTHOVIEW
 70
     0
  9
$UCSORGTOP
 10
0.0
 20
0.0
 30
0.0
  9
$UCSORGBOTTOM
 10
0.0
 20
0.0
 30
0.0
  9
$UCSORGLEFT
 10
0.0
 20
0.0
 30
0.0
  9
$UCSORGRIGHT
 10
0.0
 20
0.0
 30
0.0
  9
$UCSORGFRONT
 10
0.0
 20
0.0
 30
0.0
  9
$UCSORGBACK
 10
0.0
 20
0.0
 30
0.0
  9
$PUCSBASE
  2

  9
$PUCSNAME
  2

  9
$PUCSORG
 10
0.0
 20
0.0
 30
0.0
  9
$PUCSXDIR
 10
1.0
 20
0.0
 30
0.0
  9
$PUCSYDIR
 10
0.0
 20
1.0
 30
0.0
  9
$PUCSORTHOREF
  2

  9
$PUCSORTHOVIEW
 70
     0
  9
$PUCSORGTOP
 10
0.0
 20
0.0
 30
0.0
  9
$PUCSORGBOTTOM
 10
0.0
 20
0.0
 30
0.0
  9
$PUCSORGLEFT
 10
0.0
 20
0.0
 30
0.0
  9
$PUCSORGRIGHT
 10
0.0
 20
0.0
 30
0.0
  9
$PUCSORGFRONT
 10
0.0
 20
0.0
 30
0.0
  9
$PUCSORGBACK
 10
0.0
 20
0.0
 30
0.0
  9
$USERI1
 70
     0
  9
$USERI2
 70
     0
  9
$USERI3
 70
     0
  9
$USERI4
 70
     0
  9
$USERI5
 70
     0
  9
$USERR1
 40
0.0
  9
$USERR2
 40
0.0
  9
$USERR3
 40
0.0
  9
$USERR4
 40
0.0
  9
$USERR5
 40
0.0
  9
$WORLDVIEW
 70
     1
  9
$SHADEDGE
 70
     3
  9
$SHADEDIF
 70
    70
  9
$TILEMODE
 70
     1
  9
$MAXACTVP
 70
    64
  9
$PINSBASE
 10
0.0
 20
0.0
 30
0.0
  9
$PLIMCHECK
 70
     0
  9
$PEXTMIN
 10
1.0000000000E+20
 20
1.0000000000E+20
 30
1.0000000000E+20
  9
$PEXTMAX
 10
-1.0000000000E+20
 20
-1.0000000000E+20
 30
-1.0000000000E+20
  9
$PLIMMIN
 10
0.0
 20
0.0
  9
$PLIMMAX
 10
420.0
 20
297.0
  9
$UNITMODE
 70
     0
  9
$VISRETAIN
 70
     1
  9
$PLINEGEN
 70
     0
  9
$PSLTSCALE
 70
     1
  9
$TREEDEPTH
 70
  3020
  9
$CMLSTYLE
  2
Standard
  9
$CMLJUST
 70
     0
  9
$CMLSCALE
 40
20.0
  9
$PROXYGRAPHICS
 70
     1
  9
$MEASUREMENT
 70
     1
  9
$CELWEIGHT
370
    -1
  9
$ENDCAPS
280
     0
  9
$JOINSTYLE
280
     0
  9
$LWDISPLAY
290
     1
  9
$INSUNITS
 70
     4
  9
$HYPERLINKBASE
  1

  9
$STYLESHEET
  1

  9
$XEDIT
290
     1
  9
$CEPSNTYPE
380
     0
  9
$PSTYLEMODE
290
     1
  9
$FINGERPRINTGUID
  2
{821d8983-6fc8-451a-9ce9-729ebe27175a}
  9
$VERSIONGUID
  2
{FAEB1C32-E019-11D5-929B-00C0DF256EC4}
  9
$EXTNAMES
290
     1
  9
$PSVPSCALE
 40
0.0
  9
$OLESTARTUP
290
     0
  0
ENDSEC
  0
SECTION
  2
CLASSES
  0
CLASS
  1
ACDBDICTIONARYWDFLT
  2
AcDbDictionaryWithDefault
  3
ObjectDBX Classes
 90
        0
280
     0
281
     0
  0
CLASS
  1
VISUALSTYLE
  2
AcDbVisualStyle
  3
ObjectDBX Classes
 90
     4095
280
     0
281
     0
  0
CLASS
  1
MATERIAL
  2
AcDbMaterial
  3
ObjectDBX Classes
 90
     1153
280
     0
281
     0
  0
CLASS
  1
SCALE
  2
AcDbScale
  3
ObjectDBX Classes
 90
     1153
280
     0
281
     0
  0
CLASS
  1
TABLESTYLE
  2
AcDbTableStyle
  3
ObjectDBX Classes
 90
     4095
280
     0
281
     0
  0
CLASS
  1
MLEADERSTYLE
  2
AcDbMLeaderStyle
  3
ACDB_MLEADERSTYLE_CLASS
 90
     4095
280
     0
281
     0
  0
CLASS
  1
SUN
  2
AcDbSun
  3
SCENEOE
 90
     1153
280
     0
281
     0
  0
CLASS
  1
ACDBPLACEHOLDER
  2
AcDbPlaceHolder
  3
ObjectDBX Classes
 90
        0
280
     0
281
     0
  0
CLASS
  1
LAYOUT
  2
AcDbLayout
  3
ObjectDBX Classes
 90
        0
280
     0
281
     0
  0
ENDSEC
  0
SECTION
  2
TABLES
  0
TABLE
  2
VPORT
  5
8
330
0
100
AcDbSymbolTable
 70
     1
  0
VPORT
  5
29
330
8
100
AcDbSymbolTableRecord
100
AcDbViewportTableRecord
  2
*Active
 70
     0
 10
0.0
 20
0.0
 11
1.0
 21
1.0
 12
10000.0
 22
5000.0
 13
0.0
 23
0.0
 14
10.0
 24
10.0
 15
10.0
 25
10.0
 16
0.0
 26
0.0
 36
1.0
 17
0.0
 27
0.0
 37
0.0
 40
10000.0
 41
2.0
 42
50.0
 43
0.0
 44
0.0
 50
0.0
 51
0.0
 71
     0
 72
  2000
 73
     1
 74
     3
 75
     0
 76
     0
 77
     0
 78
     0
281
     0
 65
     1
110
0.0
120
0.0
130
0.0
111
1.0
121
0.0
131
0.0
112
0.0
122
1.0
132
0.0
 79
     0
146
0.0
  0
ENDTAB
  0
TABLE
  2
LTYPE
  5
5
330
0
100
AcDbSymbolTable
 70
     6
  0
LTYPE
  5
14
330
5
100
AcDbSymbolTableRecord
100
AcDbLinetypeTableRecord
  2
ByBlock
 70
     0
  3

 72
    65
 73
     0
 40
0.0
  0
LTYPE
  5
15
330
5
100
AcDbSymbolTableRecord
100
AcDbLinetypeTableRecord
  2
ByLayer
 70
     0
  3

 72
    65
 73
     0
 40
0.0
  0
LTYPE
  5
16
330
5
100
AcDbSymbolTableRecord
100
AcDbLinetypeTableRecord
  2
Continuous
 70
     0
  3
Solid line
 72
    65
 73
     0
 40
0.0
  0
LTYPE
  5
6E
330
5
100
AcDbSymbolTableRecord
100
AcDbLinetypeTableRecord
  2
HIDDEN
 70
     0
  3
Hidden __ __ __ __ __ __ __ __ __ __ __ __ __ __
 72
    65
 73
     2
 40
1.905
 49
1.27
 74
     0
 49
-0.635
 74
     0
  0
LTYPE
  5
6F
330
5
100
AcDbSymbolTableRecord
100
AcDbLinetypeTableRecord
  2
PHANTOM
 70
     0
  3
Phantom ______  __  __  ______  __  __  ______
 72
    65
 73
     6
 40
12.7
 49
6.35
 74
     0
 49
-1.27
 74
     0
 49
1.27
 74
     0
 49
-1.27
 74
     0
 49
1.27
 74
     0
 49
-1.27
 74
     0
  0
LTYPE
  5
70
330
5
100
AcDbSymbolTableRecord
100
AcDbLinetypeTableRecord
  2
CENTER
 70
     0
  3
Center ____ _ ____ _ ____ _ ____ _ ____ _ ____
 72
    65
 73
     4
 40
10.16
 49
6.35
 74
     0
 49
-1.27
 74
     0
 49
1.27
 74
     0
 49
-1.27
 74
     0
  0
LTYPE
  5
71
330
5
100
AcDbSymbolTableRecord
100
AcDbLinetypeTableRecord
  2
CENTERX2
 70
     0
  3
Center (2x) ________  __  ________  __  _____
 72
    65
 73
     4
 40
20.32
 49
12.7
 74
     0
 49
-2.54
 74
     0
 49
2.54
 74
     0
 49
-2.54
 74
     0
  0
LTYPE
  5
72
330
5
100
AcDbSymbolTableRecord
100
AcDbLinetypeTableRecord
  2
DOT2
 70
     0
  3
Dot (.5x) ........................................
 72
    65
 73
     2
 40
0.635
 49
0.0
 74
     0
 49
-0.635
 74
     0
  0
ENDTAB
  0
TABLE
  2
LAYER
  5
2
330
0
100
AcDbSymbolTable
 70
    13
  0
LAYER
  5
10
330
2
100
AcDbSymbolTableRecord
100
AcDbLayerTableRecord
  2
0
 70
     0
 62
     7
  6
Continuous
370
    -3
390
F
  0
LAYER
  5
73
330
2
100
AcDbSymbolTableRecord
100
AcDbLayerTableRecord
  2
FORMAT
 70
     0
 62
     7
  6
Continuous
370
    -3
390
F
  0
LAYER
  5
74
330
2
100
AcDbSymbolTableRecord
100
AcDbLayerTableRecord
  2
OSA
 70
     0
 62
     7
  6
CENTER
370
    -3
390
F
  0
LAYER
  5
75
330
2
100
AcDbSymbolTableRecord
100
AcDbLayerTableRecord
  2
0_35
 70
     0
 62
     7
  6
Continuous
370
    35
390
F
  0
LAYER
  5
76
330
2
100
AcDbSymbolTableRecord
100
AcDbLayerTableRecord
  2
0_5
 70
     0
 62
     7
  6
Continuous
370
    50
390
F
  0
LAYER
  5
77
330
2
100
AcDbSymbolTableRecord
100
AcDbLayerTableRecord
  2
0_25
 70
     0
 62
     7
  6
Continuous
370
    25
390
F
  0
LAYER
  5
78
330
2
100
AcDbSymbolTableRecord
100
AcDbLayerTableRecord
  2
0_18
 70
     0
 62
     7
  6
Continuous
370
    -3
390
F
  0
LAYER
  5
79
330
2
100
AcDbSymbolTableRecord
100
AcDbLayerTableRecord
  2
SLD-0
 70
     0
 62
   179
  6
Continuous
370
    -3
390
F
  0
LAYER
  5
7A
330
2
100
AcDbSymbolTableRecord
100
AcDbLayerTableRecord
  2
KOTY
 70
     0
 62
     7
  6
Continuous
370
    -3
390
F
  0
LAYER
  5
7B
330
2
100
AcDbSymbolTableRecord
100
AcDbLayerTableRecord
  2
SILNA
 70
     0
 62
   179
  6
Continuous
370
    -3
390
F
  0
LAYER
  5
7C
330
2
100
AcDbSymbolTableRecord
100
AcDbLayerTableRecord
  2
0_18_1
 70
     0
 62
   179
  6
Continuous
370
    -3
390
F
  0
LAYER
  5
7D
330
2
100
AcDbSymbolTableRecord
100
AcDbLayerTableRecord
  2
0_35_1
 70
     0
 62
   179
  6
Continuous
370
    35
390
F
  0
LAYER
  5
7E
330
2
100
AcDbSymbolTableRecord
100
AcDbLayerTableRecord
  2
0_5_1
 70
     0
 62
   179
  6
Continuous
370
    50
390
F
  0
ENDTAB
  0
TABLE
  2
STYLE
  5
3
330
0
100
AcDbSymbolTable
 70
     1
  0
STYLE
  5
11
330
3
100
AcDbSymbolTableRecord
100
AcDbTextStyleTableRecord
  2
Standard
 70
     0
 40
0.0
 41
1.0
 50
0.0
 71
     0
 42
2.0
  3
txt
  4

  0
ENDTAB
  0
TABLE
  2
VIEW
  5
6
330
0
100
AcDbSymbolTable
 70
     0
  0
ENDTAB
  0
TABLE
  2
UCS
  5
7
330
0
100
AcDbSymbolTable
 70
     0
  0
ENDTAB
  0
TABLE
  2
APPID
  5
9
330
0
100
AcDbSymbolTable
 70
     1
  0
APPID
  5
12
330
9
100
AcDbSymbolTableRecord
100
AcDbRegAppTableRecord
  2
ACAD
 70
     0
  0
ENDTAB
  0
TABLE
  2
DIMSTYLE
  5
A
330
0
100
AcDbSymbolTable
 70
     1
100
AcDbDimStyleTable
  0
DIMSTYLE
105
27
330
A
100
AcDbSymbolTableRecord
100
AcDbDimStyleTableRecord
  2
ISO-25
 70
     0
 41
2.5
 42
0.625
 43
3.75
 44
1.25
 73
     0
 74
     0
 77
     1
 78
     8
140
2.5
141
2.5
143
0.0393700787
147
0.625
171
     3
172
     1
178
     0
271
     2
272
     2
274
     3
278
    44
283
     0
284
     8
340
11
  0
ENDTAB
  0
TABLE
  2
BLOCK_RECORD
  5
1
330
0
100
AcDbSymbolTable
 70
     1
  0
BLOCK_RECORD
  5
1F
330
1
100
AcDbSymbolTableRecord
100
AcDbBlockTableRecord
  2
*Model_Space
340
22
  0
BLOCK_RECORD
  5
1B
330
1
100
AcDbSymbolTableRecord
100
AcDbBlockTableRecord
  2
*Paper_Space
340
1E
  0
BLOCK_RECORD
  5
23
330
1
100
AcDbSymbolTableRecord
100
AcDbBlockTableRecord
  2
*Paper_Space0
340
26
  0
ENDTAB
  0
ENDSEC
  0
SECTION
  2
BLOCKS
  0
BLOCK
  5
20
330
1F
100
AcDbEntity
  8
0
100
AcDbBlockBegin
  2
*Model_Space
 70
     0
 10
0.0
 20
0.0
 30
0.0
  3
*Model_Space
  1

  0
ENDBLK
  5
21
330
1F
100
AcDbEntity
  8
0
100
AcDbBlockEnd
  0
BLOCK
  5
1C
330
1B
100
AcDbEntity
 67
     1
  8
0
100
AcDbBlockBegin
  2
*Paper_Space
 70
     0
 10
0.0
 20
0.0
 30
0.0
  3
*Paper_Space
  1

  0
ENDBLK
  5
1D
330
1B
100
AcDbEntity
 67
     1
  8
0
100
AcDbBlockEnd
  0
BLOCK
  5
24
330
23
100
AcDbEntity
  8
0
100
AcDbBlockBegin
  2
*Paper_Space0
 70
     0
 10
0.0
 20
0.0
 30
0.0
  3
*Paper_Space0
  1

  0
ENDBLK
  5
25
330
23
100
AcDbEntity
  8
0
100
AcDbBlockEnd
  0
ENDSEC
  0
SECTION
  2
ENTITIES
  0
LINE
  5
7F
330
1F
100
AcDbEntity
  8
0
  6
Continuous
 62
     7
370
    25
100
AcDbLine
 10
6508.7653438485
 20
5008.321588734
 30
0.0
 11
6508.7660578462
 21
5007.2760962973
 31
0.0
  0
LINE
  5
80
330
1F
100
AcDbEntity
  8
0
  6
Continuous
 62
     7
370
    25
100
AcDbLine
 10
6575.2660423386
 20
5007.3215110993
 30
0.0
 11
6575.265328341
 21
5008.367003536
 31
0.0
  0
LINE
  5
81
330
1F
100
AcDbEntity
  8
0
  6
Continuous
 62
     7
370
    25
100
AcDbLine
 10
6502.0170893287
 20
5005.7634122619
 30
0.0
 11
6502.0174282591
 21
5005.2671232254
 31
0.0
  0
LINE
  5
82
330
1F
100
AcDbEntity
  8
0
  6
Continuous
 62
     7
370
    25
100
AcDbLine
 10
6582.0174096034
 20
5005.3217575736
 30
0.0
 11
6582.017070673
 21
5005.8180466102
 31
0.0
  0
ARC
  5
83
330
1F
100
AcDbEntity
  8
0
  6
Continuous
 62
     7
370
    25
100
AcDbCircle
 10
6502.6673938208
 20
5005.8186259348
 30
0.0
 40
0.0547695479954405
100
AcDbArc
 50
270.0391289725
 51
330.0391289726
  0
ARC
  5
84
330
1F
100
AcDbEntity
  8
0
  6
Continuous
 62
     7
370
    25
100
AcDbCircle
 10
6581.3666913734
 20
5005.8723720077
 30
0.0
 40
0.0547695479945316
100
AcDbArc
 50
210.0391289737
 51
270.0391289734
  0
LINE
  5
85
330
1F
100
AcDbEntity
  8
0
  6
Continuous
 62
     7
370
    25
100
AcDbLine
 10
6581.3192782664
 20
5005.8449548475
 30
0.0
 11
6581.0798840997
 21
5006.2589445226
 31
0.0
  0
LINE
  5
86
330
1F
100
AcDbEntity
  8
0
  6
Continuous
 62
     7
370
    25
100
AcDbLine
 10
6502.9536728236
 20
5006.2055898272
 30
0.0
 11
6502.7148443315
 21
5005.7912735598
 31
0.0
  0
ARC
  5
87
330
1F
100
AcDbEntity
  8
0
  6
Continuous
 62
     7
370
    25
100
AcDbCircle
 10
6503.0485422443
 20
5006.1509032931
 30
0.0
 40
0.1095026209382956
100
AcDbArc
 50
90.0391289733
 51
150.0391289729
  0
ARC
  5
88
330
1F
100
AcDbEntity
  8
0
  6
Continuous
 62
     7
370
    25
100
AcDbCircle
 10
6580.9850894616
 20
5006.2041284613
 30
0.0
 40
0.1095026209368559
100
AcDbArc
 50
30.0391289723
 51
90.0391289723
  0
LINE
  5
89
330
1F
100
AcDbEntity
  8
0
  6
Continuous
 62
     7
370
    25
100
AcDbLine
 10
6580.985014679
 20
5006.3136310567
 30
0.0
 11
6503.0484674618
 21
5006.2604058885
 31
0.0
  0
LINE
  5
8A
330
1F
100
AcDbEntity
  8
0
  6
Continuous
 62
     7
370
    25
100
AcDbLine
 10
6564.4076703937
 20
5002.1534806249
 30
0.0
 11
6564.4076476147
 21
5002.1868354328
 31
0.0
  0
ARC
  5
8B
330
1F
100
AcDbEntity
  8
0
  6
Continuous
 62
     7
370
    25
100
AcDbCircle
 10
6582.0675353192
 20
4988.3837171355
 30
0.0
 40
6.853085275276149
100
AcDbArc
 50
305.7773854747
 51
359.8077807783
  0
LINE
  5
8C
330
1F
100
AcDbEntity
  8
0
  6
Continuous
 62
     7
370
    25
100
AcDbLine
 10
6588.9507433144
 20
4988.3597230908
 30
0.0
 11
6589.0228714059
 21
4997.3265399447
 31
0.0
  0
LINE
  5
8D
330
1F
100
AcDbEntity
  8
0
  6
Continuous
 62
     7
370
    25
100
AcDbLine
 10
6591.0228709395
 20
4997.3279058034
 30
0.0
 11
6591.0208221514
 21
5000.3279051038
 31
0.0
  0
ARC
  5
8E
330
1F
100
AcDbEntity
  8
0
  6
Continuous
 62
     7
370
    25
100
AcDbCircle
 10
6589.0208226178
 20
5000.3265392451
 30
0.0
 40
2.000000000000034
100
AcDbArc
 50
0.0391289727
 51
90.0391289727
  0
LINE
  5
8F
330
1F
100
AcDbEntity
  8
0
  6
Continuous
 62
     7
370
    25
100
AcDbLine
 10
6583.7694579834
 20
5002.3229533996
 30
0.0
 11
6583.7674091953
 21
5005.3229527
 31
0.0
  0
LINE
  5
90
330
1F
100
AcDbEntity
  8
0
  6
Continuous
 62
     7
370
    25
100
AcDbLine
 10
6500.2674286672
 20
5005.265928099
 30
0.0
 11
6500.2694774553
 21
5002.2659287986
 31
0.0
  0
LINE
  5
91
330
1F
100
AcDbEntity
  8
0
  6
Continuous
 62
     7
370
    25
100
AcDbLine
 10
6574.3095012356
 20
4930.1332374449
 30
0.0
 11
6575.4800196745
 21
4976.0313567233
 31
0.0
  0
ARC
  5
92
330
1F
100
AcDbEntity
  8
0
  6
Continuous
 62
     7
370
    25
100
AcDbCircle
 10
6567.3117764536
 20
4930.311697173
 30
0.0
 40
7.000000000000121
100
AcDbArc
 50
270.0391289727
 51
358.5391289727
  0
ARC
  5
93
330
1F
100
AcDbEntity
  8
0
  6
Continuous
 62
     7
370
    25
100
AcDbCircle
 10
6410.4756343931
 20
4970.0554508846
 30
0.0
 40
27.00000000000012
100
AcDbArc
 50
228.333381863
 51
287.8619202193
  0
ARC
  5
94
330
1F
100
AcDbEntity
  8
0
  6
Continuous
 62
     7
370
    25
100
AcDbCircle
 10
6410.4756343931
 20
4970.0554508846
 30
0.0
 40
27.0000000000009
100
AcDbArc
 50
73.2163377261
 51
132.7448760823
  0
ARC
  5
95
330
1F
100
AcDbEntity
  8
0
  6
Continuous
 62
     7
370
    25
100
AcDbCircle
 10
6475.0243127611
 20
4995.1770653843
 30
0.0
 40
2.000000000000676
100
AcDbArc
 50
0.5391289727
 51
92.0546227194
  0
ARC
  5
96
330
1F
100
AcDbEntity
  8
0
  6
Continuous
 62
     7
370
    25
100
AcDbCircle
 10
6475.4856223633
 20
4946.1529644398
 30
0.0
 40
1.999999999999813
100
AcDbArc
 50
269.0236352259
 51
0.5391289727
  0
LINE
  5
97
330
1F
100
AcDbEntity
  8
0
  6
Continuous
 62
     7
370
    25
100
AcDbLine
 10
6477.4855338238
 20
4946.1717833134
 30
0.0
 11
6477.0242242216
 21
4995.1958842579
 31
0.0
  0
LINE
  5
98
330
1F
100
AcDbEntity
  8
0
  6
Continuous
 62
     7
370
    25
100
AcDbLine
 10
6474.9526082686
 20
4997.1757795874
 30
0.0
 11
6449.9532149315
 21
4996.278918591
 31
0.0
  0
LINE
  5
99
330
1F
100
AcDbEntity
  8
0
  6
Continuous
 62
     7
370
    25
100
AcDbLine
 10
6450.4396987167
 20
4944.579517409
 30
0.0
 11
6475.4515424527
 21
4944.1532548209
 31
0.0
  0
ARC
  5
9A
330
1F
100
AcDbEntity
  8
0
  6
Continuous
 62
     7
370
    25
100
AcDbCircle
 10
6450.024919424
 20
4994.2802043878
 30
0.0
 40
2.000000000000676
100
AcDbArc
 50
92.0546227194
 51
180.0391289727
  0
ARC
  5
9B
330
1F
100
AcDbEntity
  8
0
  6
Continuous
 62
     7
370
    25
100
AcDbCircle
 10
6450.4737786273
 20
4946.5792270278
 30
0.0
 40
2.000000000000687
100
AcDbArc
 50
181.0391289726
 51
269.023635226
  0
LINE
  5
9C
330
1F
100
AcDbEntity
  8
0
  6
Continuous
 62
     7
370
    25
100
AcDbLine
 10
6448.0249198904
 20
4994.2788385291
 30
0.0
 11
6448.0275622431
 21
4990.4096944538
 31
0.0
  0
LINE
  5
9D
330
1F
100
AcDbEntity
  8
0
  6
Continuous
 62
     7
370
    25
100
AcDbLine
 10
6448.4039397156
 20
4950.411465243
 30
0.0
 11
6448.4741075408
 21
4946.5429565724
 31
0.0
  0
LINE
  5
9E
330
1F
100
AcDbEntity
  8
0
  6
Continuous
 62
     7
370
    25
100
AcDbLine
 10
6426.8824093664
 20
4946.9946290703
 30
0.0
 11
6427.7200902088
 21
4947.0098231019
 31
0.0
  0
LINE
  5
9F
330
1F
100
AcDbEntity
  8
0
  6
Continuous
 62
     7
370
    25
100
AcDbLine
 10
6427.2833630894
 20
4993.421504731
 30
0.0
 11
6426.4455446574
 21
4993.4209325601
 31
0.0
  0
ARC
  5
A0
330
1F
100
AcDbEntity
  8
0
  6
Continuous
 62
     7
370
    25
100
AcDbCircle
 10
6426.4457153898
 20
4993.1709326184
 30
0.0
 40
0.2500000000002436
100
AcDbArc
 50
90.0391289729
 51
168.5391289727
  0
ARC
  5
A1
330
1F
100
AcDbEntity
  8
0
  6
Continuous
 62
     7
370
    25
100
AcDbCircle
 10
6426.8778755595
 20
4947.2445879561
 30
0.0
 40
0.2500000000003318
100
AcDbArc
 50
192.5391289727
 51
271.0391289729
  0
ARC
  5
A2
330
1F
100
AcDbEntity
  8
0
  6
Continuous
 62
     7
370
    25
100
AcDbCircle
 10
6427.2835338217
 20
4993.1715047893
 30
0.0
 40
0.2500000000007108
100
AcDbArc
 50
10.5391289728
 51
90.0391289726
  0
ARC
  5
A3
330
1F
100
AcDbEntity
  8
0
  6
Continuous
 62
     7
370
    25
100
AcDbCircle
 10
6427.7155564019
 20
4947.2597819877
 30
0.0
 40
0.2500000000003152
100
AcDbArc
 50
271.0391289727
 51
350.5391289727
  0
LINE
  5
A4
330
1F
100
AcDbEntity
  8
0
  6
Continuous
 62
     7
370
    25
100
AcDbLine
 10
6426.2007002322
 20
4993.2206072855
 30
0.0
 11
6425.785904917
 21
4991.1746722977
 31
0.0
  0
LINE
  5
A5
330
1F
100
AcDbEntity
  8
0
  6
Continuous
 62
     7
370
    25
100
AcDbLine
 10
6426.1806162151
 20
4949.2280784487
 30
0.0
 11
6426.6338385679
 21
4947.1903113799
 31
0.0
  0
LINE
  5
A6
330
1F
100
AcDbEntity
  8
0
  6
Continuous
 62
     7
370
    25
100
AcDbLine
 10
6427.9621559237
 20
4947.2186884867
 30
0.0
 11
6428.462933498
 21
4950.2238232981
 31
0.0
  0
LINE
  5
A7
330
1F
100
AcDbEntity
  8
0
  6
Continuous
 62
     7
370
    25
100
AcDbLine
 10
6428.0865560255
 20
4990.2220525089
 30
0.0
 11
6427.5293163778
 21
4993.2172315335
 31
0.0
  0
ARC
  5
A8
330
1F
100
AcDbEntity
  8
0
  6
Continuous
 62
     7
370
    25
100
AcDbCircle
 10
6410.4756343931
 20
4970.0554508846
 30
0.0
 40
23.99999999999934
100
AcDbArc
 50
290.0404013193
 51
303.9494441624
  0
ARC
  5
A9
330
1F
100
AcDbEntity
  8
0
  6
Continuous
 62
     7
370
    25
100
AcDbCircle
 10
6410.4756343931
 20
4970.0554508846
 30
0.0
 40
24.00000000000066
100
AcDbArc
 50
57.128813783
 51
71.0378566261
  0
LINE
  5
AA
330
1F
100
AcDbEntity
  8
0
  6
Continuous
 62
     7
370
    25
100
AcDbLine
 10
6515.9934062509
 20
4952.6375180605
 30
0.0
 11
6516.6057331031
 21
4929.8484564785
 31
0.0
  0
LWPOLYLINE
  5
AB
330
1F
100
AcDbEntity
  8
0
  6
Continuous
 62
     7
370
    25
100
AcDbPolyline
 90
        7
 70
   128
 43
0.0
 10
6516.6047842516
 20
4929.8878809504
 10
6516.7807992017
 20
4928.7291285136
 10
6517.7345963103
 20
4926.8303670662
 10
6519.4880254474
 20
4925.0928953646
 10
6521.4267000681
 20
4923.9751834059
 10
6522.608150815
 20
4923.5588341618
 10
6524.6405949032
 20
4923.2825541314
  0
LINE
  5
AC
330
1F
100
AcDbEntity
  8
0
  6
Continuous
 62
     7
370
    25
100
AcDbLine
 10
6483.0841211903
 20
4990.7395715336
 30
0.0
 11
6477.0666902865
 21
4990.6829483911
 31
0.0
  0
LINE
  5
AD
330
1F
100
AcDbEntity
  8
0
  6
Continuous
 62
     7
370
    25
100
AcDbLine
 10
6477.443067759
 20
4950.6847191803
 30
0.0
 11
6484.6857655894
 21
4950.752871905
 31
0.0
  0
ARC
  5
AE
330
1F
100
AcDbEntity
  8
0
  6
Continuous
 62
     7
370
    25
100
AcDbCircle
 10
6424.3158139715
 20
4991.4727203006
 30
0.0
 40
1.500000000001015
100
AcDbArc
 50
237.128813783
 51
348.5391289727
  0
ARC
  5
AF
330
1F
100
AcDbEntity
  8
0
  6
Continuous
 62
     7
370
    25
100
AcDbCircle
 10
6424.7163942653
 20
4948.9024189917
 30
0.0
 40
1.50000000000071
100
AcDbArc
 50
12.5391289727
 51
123.9494441623
  0
LINE
  5
B0
330
1F
100
AcDbEntity
  8
0
  6
Continuous
 62
     7
370
    25
100
AcDbLine
 10
6448.0275622431
 20
4990.4096944538
 30
0.0
 11
6428.0865560255
 21
4990.2220525089
 31
0.0
  0
LINE
  5
B1
330
1F
100
AcDbEntity
  8
0
  6
Continuous
 62
     7
370
    25
100
AcDbLine
 10
6428.462933498
 20
4950.2238232981
 30
0.0
 11
6448.4039397156
 21
4950.411465243
 31
0.0
  0
LINE
  5
B2
330
1F
100
AcDbEntity
  8
0
  6
Continuous
 62
     7
370
    25
100
AcDbLine
 10
6323.5988628414
 20
4989.2387434354
 30
0.0
 11
6320.1133491024
 21
4988.9206334302
 31
0.0
  0
LINE
  5
B3
330
1F
100
AcDbEntity
  8
0
  6
Continuous
 62
     7
370
    25
100
AcDbLine
 10
6320.4843557738
 20
4949.4931677453
 30
0.0
 11
6323.9752385224
 21
4949.2407046082
 31
0.0
  0
LINE
  5
B4
330
1F
100
AcDbEntity
  8
0
  6
Continuous
 62
     7
370
    25
100
AcDbLine
 10
6392.1497874243
 20
4989.8837975851
 30
0.0
 11
6323.5988628413
 21
4989.2387434354
 31
0.0
  0
LINE
  5
B5
330
1F
100
AcDbEntity
  8
0
  6
Continuous
 62
     7
370
    25
100
AcDbLine
 10
6323.9752385224
 20
4949.2407046082
 30
0.0
 11
6392.5261631053
 21
4949.8857587578
 31
0.0
  0
LINE
  5
B6
330
1F
100
AcDbEntity
  8
0
  6
Continuous
 62
     7
370
    25
100
AcDbLine
 10
6320.1133491024
 20
4988.9206334302
 30
0.0
 11
6320.1148616442
 21
4986.7058488157
 31
0.0
  0
LINE
  5
B7
330
1F
100
AcDbEntity
  8
0
  6
Continuous
 62
     7
370
    25
100
AcDbLine
 10
6320.4441901411
 20
4951.7075886398
 30
0.0
 11
6320.4843557738
 21
4949.4931677453
 31
0.0
  0
ARC
  5
B8
330
1F
100
AcDbEntity
  8
0
  6
Continuous
 62
     7
370
    25
100
AcDbCircle
 10
6483.0653023167
 20
4992.7394829942
 30
0.0
 40
1.999999999999831
100
AcDbArc
 50
270.5391289727
 51
0.5391289727
  0
ARC
  5
B9
330
1F
100
AcDbEntity
  8
0
  6
Continuous
 62
     7
370
    25
100
AcDbCircle
 10
6484.8676505
 20
4949.1226939822
 30
0.0
 40
1.612651672040156
100
AcDbArc
 50
48.4751822877
 51
96.2460121568
  0
ARC
  5
BA
330
1F
100
AcDbEntity
  8
0
  6
Continuous
 62
     7
370
    25
100
AcDbCircle
 10
6490.996275684
 20
4957.5990761069
 30
0.0
 40
8.836610070373538
100
AcDbArc
 50
235.0483555272
 51
282.7969881199
  0
LWPOLYLINE
  5
BB
330
1F
100
AcDbEntity
  8
0
  6
Continuous
 62
     7
370
    25
100
AcDbPolyline
 90
        3
 70
   128
 43
0.0
 10
6493.0004784144
 20
4948.9863401033
 10
6493.0059438924
 20
4948.9868505042
 10
6492.9955902928
 20
4948.9859811143
  0
LINE
  5
BC
330
1F
100
AcDbEntity
  8
0
  6
Continuous
 62
     7
370
    25
100
AcDbLine
 10
6899.3803016966
 20
4913.338472558
 30
0.0
 11
6899.3324966419
 21
4983.3384562343
 31
0.0
  0
LINE
  5
BD
330
1F
100
AcDbEntity
  8
0
  6
Continuous
 62
     7
370
    25
100
AcDbLine
 10
6889.3324989738
 20
4983.3316269407
 30
0.0
 11
6889.3803040285
 21
4913.3316432645
 31
0.0
  0
LINE
  5
BE
330
1F
100
AcDbEntity
  8
0
  6
Continuous
 62
     7
370
    25
100
AcDbLine
 10
6899.3263502777
 20
4992.3384541355
 30
0.0
 11
6898.3256675815
 21
4993.337770973
 31
0.0
  0
LINE
  5
BF
330
1F
100
AcDbEntity
  8
0
  6
Continuous
 62
     7
370
    25
100
AcDbLine
 10
6890.3256694471
 20
4993.3323075381
 30
0.0
 11
6889.3263526097
 21
4992.331624842
 31
0.0
  0
LINE
  5
C0
330
1F
100
AcDbEntity
  8
0
  6
Continuous
 62
     7
370
    25
100
AcDbLine
 10
6194.7838806534
 20
4907.8572817019
 30
0.0
 11
6194.732660952
 21
4982.8572642122
 31
0.0
  0
LINE
  5
C1
330
1F
100
AcDbEntity
  8
0
  6
Continuous
 62
     7
370
    25
100
AcDbLine
 10
6184.7326632839
 20
4982.8504349186
 30
0.0
 11
6184.7838829854
 21
4907.8504524084
 31
0.0
  0
LINE
  5
C2
330
1F
100
AcDbEntity
  8
0
  6
Continuous
 62
     7
370
    25
100
AcDbLine
 10
6194.7265145878
 20
4991.8572621134
 30
0.0
 11
6193.7258318916
 21
4992.8565789508
 31
0.0
  0
LINE
  5
C3
330
1F
100
AcDbEntity
  8
0
  6
Continuous
 62
     7
370
    25
100
AcDbLine
 10
6185.7258337572
 20
4992.851115516
 30
0.0
 11
6184.7265169197
 21
4991.8504328199
 31
0.0
  0
LINE
  5
C4
330
1F
100
AcDbEntity
  8
0
  6
Continuous
 62
     7
370
    25
100
AcDbLine
 10
6912.6024446488
 20
5027.347528934
 30
0.0
 11
6171.4026174939
 21
5026.8413416976
 31
0.0
  0
LINE
  5
C5
330
1F
100
AcDbEntity
  8
0
  6
Continuous
 62
     7
370
    25
100
AcDbLine
 10
6915.3024440192
 20
5027.3493728433
 30
0.0
 11
6912.6024446488
 21
5027.347528934
 31
0.0
  0
LINE
  5
C6
330
1F
100
AcDbEntity
  8
0
  6
Continuous
 62
     7
370
    25
100
AcDbLine
 10
6171.4026174939
 20
5026.8413416976
 30
0.0
 11
6168.7026181235
 21
5026.8394977883
 31
0.0
  0
LINE
  5
C7
330
1F
100
AcDbEntity
  8
0
  6
Continuous
 62
     7
370
    25
100
AcDbLine
 10
6506.2288290326
 20
5009.870000388
 30
0.0
 11
6508.7653438485
 21
5008.321588734
 31
0.0
  0
LINE
  5
C8
330
1F
100
AcDbEntity
  8
0
  6
Continuous
 62
     7
370
    25
100
AcDbLine
 10
6510.4760935843
 20
5007.2772641312
 30
0.0
 11
6512.1316878734
 21
5006.2666090878
 31
0.0
  0
LINE
  5
C9
330
1F
100
AcDbEntity
  8
0
  6
Continuous
 62
     7
370
    25
100
AcDbLine
 10
6571.9017942674
 20
5006.3074278574
 30
0.0
 11
6573.5560066005
 21
5007.3203432654
 31
0.0
  0
LINE
  5
CA
330
1F
100
AcDbEntity
  8
0
  6
Continuous
 62
     7
370
    25
100
AcDbLine
 10
6575.265328341
 20
5008.367003536
 30
0.0
 11
6577.7997258799
 21
5009.9188782656
 31
0.0
  0
LINE
  5
CB
330
1F
100
AcDbEntity
  8
0
  6
Continuous
 62
     7
370
    25
100
AcDbLine
 10
6575.2660423386
 20
5007.3215110993
 30
0.0
 11
6508.7660578462
 21
5007.2760962973
 31
0.0
  0
LINE
  5
CC
330
1F
100
AcDbEntity
  8
0
  6
Continuous
 62
     7
370
    25
100
AcDbLine
 10
6502.0170893287
 20
5005.7634122619
 30
0.0
 11
6582.017070673
 21
5005.8180466102
 31
0.0
  0
LWPOLYLINE
  5
CD
330
1F
100
AcDbEntity
  8
0
  6
Continuous
 62
     7
370
    25
100
AcDbPolyline
 90
       18
 70
   128
 43
0.0
 10
6585.787026439
 20
4982.6237995449
 10
6585.8320825601
 20
4982.6547101592
 10
6585.0891220122
 20
4982.1511894907
 10
6583.5483683267
 20
4981.1239815609
 10
6581.4674608283
 20
4979.7688189622
 10
6578.8307753187
 20
4978.103326634
 10
6575.733106489
 20
4976.2181480943
 10
6572.1499451297
 20
4974.1338962789
 10
6568.1880397338
 20
4971.9414958841
 10
6563.9242987176
 20
4969.7090498124
 10
6557.4447658494
 20
4966.5643403658
 10
6550.5708350964
 20
4963.5320600762
 10
6543.9068203129
 20
4960.8831694882
 10
6537.1728432072
 20
4958.4788245483
 10
6530.7435536688
 20
4956.4349756543
 10
6524.5808061025
 20
4954.6939885037
 10
6518.9201232342
 20
4953.2824692236
 10
6513.8964845502
 20
4952.1736274618
  0
LWPOLYLINE
  5
CE
330
1F
100
AcDbEntity
  8
0
  6
Continuous
 62
     7
370
    25
100
AcDbPolyline
 90
        9
 70
   128
 43
0.0
 10
6507.2584673887
 20
4958.9635268018
 10
6507.5232447537
 20
4957.4911970615
 10
6508.0143892741
 20
4956.0891023504
 10
6508.7094572197
 20
4954.8213139025
 10
6509.5766862133
 20
4953.745765586
 10
6510.5764466697
 20
4952.9116065115
 10
6511.6630527407
 20
4952.3569550749
 10
6512.7868500119
 20
4952.107157069
 10
6513.8964845502
 20
4952.1736274618
  0
LINE
  5
CF
330
1F
100
AcDbEntity
  8
0
  6
Continuous
 62
     7
370
    25
100
AcDbLine
 10
6507.2584673887
 20
4958.9635268018
 30
0.0
 11
6506.9830751881
 21
4997.2705125466
 31
0.0
  0
LINE
  5
D0
330
1F
100
AcDbEntity
  8
0
  6
Continuous
 62
     7
370
    25
100
AcDbLine
 10
6506.3026924603
 20
5000.2700485928
 30
0.0
 11
6506.3047412484
 21
4997.2700492924
 31
0.0
  0
LINE
  5
D1
330
1F
100
AcDbEntity
  8
0
  6
Continuous
 62
     7
370
    25
100
AcDbLine
 10
6506.3047412484
 20
4997.2700492924
 30
0.0
 11
6591.0228709395
 21
4997.3279058034
 31
0.0
  0
ARC
  5
D2
330
1F
100
AcDbEntity
  8
0
  6
Continuous
 62
     7
370
    25
100
AcDbCircle
 10
6508.0783712243
 20
5000.508610728
 30
0.0
 40
1.791632486068199
100
AcDbArc
 50
100.3587510631
 51
187.6518592351
  0
LINE
  5
D3
330
1F
100
AcDbEntity
  8
0
  6
Continuous
 62
     7
370
    25
100
AcDbLine
 10
6507.7562160022
 20
5002.2710417133
 30
0.0
 11
6589.0194567591
 21
5002.3265387787
 31
0.0
  0
LINE
  5
D4
330
1F
100
AcDbEntity
  8
0
  6
Continuous
 62
     7
370
    25
100
AcDbLine
 10
6500.2674286672
 20
5005.265928099
 30
0.0
 11
6583.7674091953
 21
5005.3229527
 31
0.0
  0
LINE
  5
D5
330
1F
100
AcDbEntity
  8
0
  6
Continuous
 62
     7
370
    25
100
AcDbLine
 10
6518.2244015553
 20
4930.0949352752
 30
0.0
 11
6517.7648683979
 21
4953.0147729332
 31
0.0
  0
LINE
  5
D6
330
1F
100
AcDbEntity
  8
0
  6
Continuous
 62
     7
370
    25
100
AcDbLine
 10
6506.3026924603
 20
5000.2700485928
 30
0.0
 11
6488.7645983768
 21
5000.2580713107
 31
0.0
  0
ARC
  5
D7
330
1F
100
AcDbEntity
  8
0
  6
Continuous
 62
     7
370
    25
100
AcDbCircle
 10
6491.8195380453
 20
5000.7440540781
 30
0.0
 40
3.093353459927124
100
AcDbArc
 50
150.6908881429
 51
189.0389274219
  0
LINE
  5
D8
330
1F
100
AcDbEntity
  8
0
  6
Continuous
 62
     7
370
    25
100
AcDbLine
 10
6489.122160326
 20
5002.2583159667
 30
0.0
 11
6507.7562160022
 21
5002.2710417133
 31
0.0
  0
LINE
  5
D9
330
1F
100
AcDbEntity
  8
0
  6
Continuous
 62
     7
370
    25
100
AcDbLine
 10
6488.7645983768
 20
5000.2580713107
 30
0.0
 11
6488.7666471649
 21
4997.2580720103
 31
0.0
  0
LINE
  5
DA
330
1F
100
AcDbEntity
  8
0
  6
Continuous
 62
     7
370
    25
100
AcDbLine
 10
6488.7666471649
 20
4997.2580720103
 30
0.0
 11
6506.3047412484
 21
4997.2700492924
 31
0.0
  0
ARC
  5
DB
330
1F
100
AcDbEntity
  8
0
  6
Continuous
 62
     7
370
    25
100
AcDbCircle
 10
6475.3387559437
 20
5083.6655987988
 30
0.0
 40
128.7224717719312
100
AcDbArc
 50
276.5835806135
 51
284.3576035356
  0
LWPOLYLINE
  5
DC
330
1F
100
AcDbEntity
  8
0
  6
Continuous
 62
     7
370
    25
100
AcDbPolyline
 90
        6
 70
   128
 43
0.0
 10
6490.0971056119
 20
4955.7919664341
 10
6490.271192738
 20
4954.4486204539
 10
6490.5385995494
 20
4953.108367526
 10
6491.2665678824
 20
4950.8827578058
 10
6492.1671868571
 20
4949.4413400852
 10
6493.1035755176
 20
4948.9970196027
  0
ARC
  5
DD
330
1F
100
AcDbEntity
  8
0
  6
Continuous
 62
     7
370
    25
100
AcDbCircle
 10
6473.3375444174
 20
5148.0178828668
 30
0.0
 40
199.9999999995853
100
AcDbArc
 50
275.6718096185
 51
281.7004332959
  0
LINE
  5
DE
330
1F
100
AcDbEntity
  8
0
  6
Continuous
 62
     7
370
    25
100
AcDbLine
 10
6490.0971056119
 20
4955.7919664341
 30
0.0
 11
6490.0075481665
 21
4997.2589194582
 31
0.0
  0
LINE
  5
DF
330
1F
100
AcDbEntity
  8
0
  6
Continuous
 62
     7
370
    25
100
AcDbLine
 10
6567.316556959
 20
4923.3116988054
 30
0.0
 11
6524.6405949032
 21
4923.2825541314
 31
0.0
  0
ARC
  5
E0
330
1F
100
AcDbEntity
  8
0
  6
Continuous
 62
     7
370
    25
100
AcDbCircle
 10
6524.9355657726
 20
4929.9880842726
 30
0.0
 40
6.71201477116996
100
AcDbArc
 50
179.087849133
 51
267.4812286245
  0
LINE
  5
E1
330
1F
100
AcDbEntity
  8
0
  6
Continuous
 62
     7
370
    25
100
AcDbLine
 10
6418.2721222174
 20
4995.9053015148
 30
0.0
 11
6418.7571851908
 21
4944.3568922405
 31
0.0
  0
LINE
  5
E2
330
1F
100
AcDbEntity
  8
0
  6
Continuous
 62
     7
370
    25
100
AcDbLine
 10
6392.1497874243
 20
4989.8837975851
 30
0.0
 11
6392.5261631053
 21
4949.8857587578
 31
0.0
  0
LINE
  5
E3
330
1F
100
AcDbEntity
  8
0
  6
Continuous
 62
     7
370
    25
100
AcDbLine
 10
6488.7645983768
 20
5000.2580713107
 30
0.0
 11
6483.0208473366
 21
5000.2541487336
 31
0.0
  0
ARC
  5
E4
330
1F
100
AcDbEntity
  8
0
  6
Continuous
 62
     7
370
    25
100
AcDbCircle
 10
6485.0208468702
 20
5000.2555145924
 30
0.0
 40
2.000000000000034
100
AcDbArc
 50
90.0391289726
 51
180.0391289727
  0
LINE
  5
E5
330
1F
100
AcDbEntity
  8
0
  6
Continuous
 62
     7
370
    25
100
AcDbLine
 10
6485.0194810115
 20
5002.255514126
 30
0.0
 11
6489.122160326
 21
5002.2583159667
 31
0.0
  0
LINE
  5
E6
330
1F
100
AcDbEntity
  8
0
  6
Continuous
 62
     7
370
    25
100
AcDbLine
 10
6483.0208473366
 20
5000.2541487336
 30
0.0
 11
6483.0228961247
 21
4997.2541494332
 31
0.0
  0
LINE
  5
E7
330
1F
100
AcDbEntity
  8
0
  6
Continuous
 62
     7
370
    25
100
AcDbLine
 10
6483.0228961247
 20
4997.2541494332
 30
0.0
 11
6488.7666471649
 21
4997.2580720103
 31
0.0
  0
LINE
  5
E8
330
1F
100
AcDbEntity
  8
0
  6
Continuous
 62
     7
370
    25
100
AcDbLine
 10
6448.4039397156
 20
4950.411465243
 30
0.0
 11
6448.0275622431
 21
4990.4096944538
 31
0.0
  0
LINE
  5
E9
330
1F
100
AcDbEntity
  8
0
  6
Continuous
 62
     7
370
    25
100
AcDbLine
 10
6428.0865560255
 20
4990.2220525089
 30
0.0
 11
6428.462933498
 21
4950.2238232981
 31
0.0
  0
ARC
  5
EA
330
1F
100
AcDbEntity
  8
0
  6
Continuous
 62
     7
370
    25
100
AcDbCircle
 10
6488.6968347917
 20
4999.5311181982
 30
0.0
 40
43.76156024885967
100
AcDbArc
 50
265.6980167642
 51
271.8336481747
  0
LWPOLYLINE
  5
EB
330
1F
100
AcDbEntity
  8
0
  6
Continuous
 62
     7
370
    25
100
AcDbPolyline
 90
       11
 70
   128
 43
0.0
 10
6485.1302553641
 20
4985.846229574
 10
6485.2889475239
 20
4983.802220203
 10
6485.6545116551
 20
4981.6102652255
 10
6486.3682177873
 20
4978.1956855627
 10
6487.0434973357
 20
4974.580561752
 10
6487.3183138863
 20
4972.0466843557
 10
6487.3460740823
 20
4969.4472659241
 10
6486.731414775
 20
4964.4455474859
 10
6486.0830985501
 20
4961.0849341998
 10
6485.5478307517
 20
4957.8112747881
 10
6485.4141424178
 20
4955.8928503936
  0
LINE
  5
EC
330
1F
100
AcDbEntity
  8
0
  6
Continuous
 62
     7
370
    25
100
AcDbLine
 10
6485.1302553641
 20
4985.846229574
 30
0.0
 11
6485.0228956583
 21
4997.2555152919
 31
0.0
  0
ARC
  5
ED
330
1F
100
AcDbEntity
  8
0
  6
Continuous
 62
     7
370
    25
100
AcDbCircle
 10
6492.4117644291
 20
4955.9627498169
 30
0.0
 40
7.00000000000093
100
AcDbArc
 50
181.9540745397
 51
275.6718096185
  0
LWPOLYLINE
  5
EE
330
1F
100
AcDbEntity
  8
0
  6
Continuous
 62
     7
370
    25
100
AcDbPolyline
 90
        4
 70
   128
 43
0.0
 10
6485.4141510934
 20
4955.8928545815
 10
6485.4141504567
 20
4955.8928093269
 10
6485.4158381566
 20
4955.7241428045
 10
6485.4158396844
 20
4955.7240981003
  0
LWPOLYLINE
  5
EF
330
1F
100
AcDbEntity
  8
0
  6
Continuous
 62
     7
370
    25
100
AcDbPolyline
 90
       12
 70
   128
 43
0.0
 10
6483.4022335845
 20
4957.2255275383
 10
6483.591215482
 20
4958.9697587136
 10
6484.3092067973
 20
4961.8769582774
 10
6485.2160428196
 20
4965.0026245191
 10
6485.7493689512
 20
4967.2357964797
 10
6486.0611222458
 20
4969.5505411416
 10
6486.0262171713
 20
4971.9029871516
 10
6485.6697656004
 20
4974.2168186711
 10
6484.7743830802
 20
4977.5154629415
 10
6483.8290955068
 20
4980.6056510015
 10
6483.3466487757
 20
4982.6013847361
 10
6483.1432499057
 20
4984.4558694484
  0
ARC
  5
F0
330
1F
100
AcDbEntity
  8
0
  6
Continuous
 62
     7
370
    25
100
AcDbCircle
 10
6483.3915370031
 20
4986.2160595764
 30
0.0
 40
1.777615191626772
100
AcDbArc
 50
261.9710021197
 51
347.9919918357
  0
ARC
  5
F1
330
1F
100
AcDbEntity
  8
0
  6
Continuous
 62
     7
370
    25
100
AcDbCircle
 10
6483.656347288
 20
4955.4241541391
 30
0.0
 40
1.819208590990262
100
AcDbArc
 50
14.9299225825
 51
98.0295410886
  0
LINE
  5
F2
330
1F
100
AcDbEntity
  8
0
  6
Continuous
 62
     7
370
    25
100
AcDbLine
 10
6483.404102328
 20
4957.0271292066
 30
0.0
 11
6483.402250649
 21
4957.2255274465
 31
0.0
  0
LINE
  5
F3
330
1F
100
AcDbEntity
  8
0
  6
Continuous
 62
     7
370
    25
100
AcDbLine
 10
6483.8049836577
 20
4954.870512306
 30
0.0
 11
6483.4040964463
 21
4957.0271290665
 31
0.0
  0
LINE
  5
F4
330
1F
100
AcDbEntity
  8
0
  6
Continuous
 62
     7
370
    25
100
AcDbLine
 10
6323.5988628414
 20
4989.2387434354
 30
0.0
 11
6323.9752385224
 21
4949.2407046082
 31
0.0
  0
LINE
  5
F5
330
1F
100
AcDbEntity
  8
0
  6
Continuous
 62
     7
370
    25
100
AcDbLine
 10
6320.1133491024
 20
4988.9206334302
 30
0.0
 11
6320.4843557738
 21
4949.4931677453
 31
0.0
  0
LINE
  5
F6
330
1F
100
AcDbEntity
  8
0
  6
Continuous
 62
     7
370
    25
100
AcDbLine
 10
6320.1148616442
 20
4986.7058488158
 30
0.0
 11
6320.4441901411
 21
4951.7075886398
 31
0.0
  0
ARC
  5
F7
330
1F
100
AcDbEntity
  8
0
  6
Continuous
 62
     7
370
    25
100
AcDbCircle
 10
6483.7052668225
 20
4955.2876865907
 30
0.0
 40
1.765353851705117
100
AcDbArc
 50
14.311527997
 51
99.8227774322
  0
ARC
  5
F8
330
1F
100
AcDbEntity
  8
0
  6
Continuous
 62
     7
370
    25
100
AcDbCircle
 10
6484.165633663
 20
4953.2077389037
 30
0.0
 40
1.701435809413857
100
AcDbArc
 50
23.2225860217
 51
102.2377091056
  0
LINE
  5
F9
330
1F
100
AcDbEntity
  8
0
  6
Continuous
 62
     7
370
    25
100
AcDbLine
 10
6885.8803048447
 20
4913.3292530117
 30
0.0
 11
6885.8850853502
 21
4906.3292546441
 31
0.0
  0
LINE
  5
FA
330
1F
100
AcDbEntity
  8
0
  6
Continuous
 62
     7
370
    25
100
AcDbLine
 10
6885.8803048447
 20
4913.3292530117
 30
0.0
 11
6894.3803028626
 21
4913.3350579112
 31
0.0
  0
LINE
  5
FB
330
1F
100
AcDbEntity
  8
0
  6
Continuous
 62
     7
370
    25
100
AcDbLine
 10
6894.3803028626
 20
4913.3350579112
 30
0.0
 11
6894.385083368
 21
4906.3350595436
 31
0.0
  0
LINE
  5
FC
330
1F
100
AcDbEntity
  8
0
  6
Continuous
 62
     7
370
    25
100
AcDbLine
 10
6885.8850853502
 20
4906.3292546441
 30
0.0
 11
6894.385083368
 21
4906.3350595436
 31
0.0
  0
LINE
  5
FD
330
1F
100
AcDbEntity
  8
0
  6
Continuous
 62
     7
370
    25
100
AcDbLine
 10
6894.3803028626
 20
4913.3350579112
 30
0.0
 11
6902.8803008804
 21
4913.3408628107
 31
0.0
  0
LINE
  5
FE
330
1F
100
AcDbEntity
  8
0
  6
Continuous
 62
     7
370
    25
100
AcDbLine
 10
6902.8803008804
 20
4913.3408628107
 30
0.0
 11
6902.8850813859
 21
4906.3408644431
 31
0.0
  0
LINE
  5
FF
330
1F
100
AcDbEntity
  8
0
  6
Continuous
 62
     7
370
    25
100
AcDbLine
 10
6894.385083368
 20
4906.3350595436
 30
0.0
 11
6902.8850813859
 21
4906.3408644431
 31
0.0
  0
LINE
  5
100
330
1F
100
AcDbEntity
  8
0
  6
Continuous
 62
     7
370
    25
100
AcDbLine
 10
6894.3256685143
 20
4993.3350392555
 30
0.0
 11
6898.3256675815
 21
4993.337770973
 31
0.0
  0
LINE
  5
101
330
1F
100
AcDbEntity
  8
0
  6
Continuous
 62
     7
370
    25
100
AcDbLine
 10
6890.3256694471
 20
4993.3323075381
 30
0.0
 11
6894.3256685143
 21
4993.3350392555
 31
0.0
  0
LINE
  5
102
330
1F
100
AcDbEntity
  8
0
  6
Continuous
 62
     7
370
    25
100
AcDbLine
 10
6194.7804660067
 20
4912.8572805359
 30
0.0
 11
6198.2804651905
 21
4912.8596707886
 31
0.0
  0
LINE
  5
103
330
1F
100
AcDbEntity
  8
0
  6
Continuous
 62
     7
370
    25
100
AcDbLine
 10
6198.2804651905
 20
4912.8596707886
 30
0.0
 11
6198.2838798373
 21
4907.8596719546
 31
0.0
  0
LINE
  5
104
330
1F
100
AcDbEntity
  8
0
  6
Continuous
 62
     7
370
    25
100
AcDbLine
 10
6181.2804691548
 20
4912.8480609896
 30
0.0
 11
6181.2838838016
 21
4907.8480621556
 31
0.0
  0
LINE
  5
105
330
1F
100
AcDbEntity
  8
0
  6
Continuous
 62
     7
370
    25
100
AcDbLine
 10
6181.2804691548
 20
4912.8480609896
 30
0.0
 11
6184.7804683386
 21
4912.8504512424
 31
0.0
  0
LINE
  5
106
330
1F
100
AcDbEntity
  8
0
  6
Continuous
 62
     7
370
    25
100
AcDbLine
 10
6908.3837142446
 20
4908.3446200882
 30
0.0
 11
6908.3850801033
 21
4906.3446205546
 31
0.0
  0
LINE
  5
107
330
1F
100
AcDbEntity
  8
0
  6
Continuous
 62
     7
370
    25
100
AcDbLine
 10
6858.3850917631
 20
4906.3104740869
 30
0.0
 11
6885.8850853502
 21
4906.3292546441
 31
0.0
  0
LINE
  5
108
330
1F
100
AcDbEntity
  8
0
  6
Continuous
 62
     7
370
    25
100
AcDbLine
 10
6902.8850813859
 20
4906.3408644431
 30
0.0
 11
6908.3850801033
 21
4906.3446205546
 31
0.0
  0
LINE
  5
109
330
1F
100
AcDbEntity
  8
0
  6
Continuous
 62
     7
370
    25
100
AcDbLine
 10
6858.3837259044
 20
4908.3104736205
 30
0.0
 11
6858.3850917631
 21
4906.3104740869
 31
0.0
  0
LINE
  5
10A
330
1F
100
AcDbEntity
  8
0
  6
Continuous
 62
     7
370
    25
100
AcDbLine
 10
6858.3837259044
 20
4908.3104736205
 30
0.0
 11
6885.8837194915
 21
4908.3292541777
 31
0.0
  0
LINE
  5
10B
330
1F
100
AcDbEntity
  8
0
  6
Continuous
 62
     7
370
    25
100
AcDbLine
 10
6902.8837155272
 20
4908.3408639767
 30
0.0
 11
6908.3837142446
 21
4908.3446200882
 31
0.0
  0
LINE
  5
10C
330
1F
100
AcDbEntity
  8
0
  6
Continuous
 62
     7
370
    25
100
AcDbLine
 10
6175.7838850842
 20
4907.8443060442
 30
0.0
 11
6175.7852509429
 21
4905.8443065106
 31
0.0
  0
LINE
  5
10D
330
1F
100
AcDbEntity
  8
0
  6
Continuous
 62
     7
370
    25
100
AcDbLine
 10
6175.7838850842
 20
4907.8443060442
 30
0.0
 11
6225.7838734244
 21
4907.8784525118
 31
0.0
  0
LINE
  5
10E
330
1F
100
AcDbEntity
  8
0
  6
Continuous
 62
     7
370
    25
100
AcDbLine
 10
6225.7838734244
 20
4907.8784525118
 30
0.0
 11
6225.7852392831
 21
4905.8784529782
 31
0.0
  0
LINE
  5
10F
330
1F
100
AcDbEntity
  8
0
  6
Continuous
 62
     7
370
    25
100
AcDbLine
 10
6175.7852509429
 20
4905.8443065106
 30
0.0
 11
6225.7852392831
 21
4905.8784529782
 31
0.0
  0
LINE
  5
110
330
1F
100
AcDbEntity
  8
0
  6
Continuous
 62
     7
370
    25
100
AcDbLine
 10
6185.7258337572
 20
4992.851115516
 30
0.0
 11
6193.7258318916
 21
4992.8565789508
 31
0.0
  0
LINE
  5
111
330
1F
100
AcDbEntity
  8
0
  6
Continuous
 62
     7
370
    25
100
AcDbLine
 10
6894.3263514437
 20
4992.3350394887
 30
0.0
 11
6894.3311319491
 21
4985.3350411211
 31
0.0
  0
LINE
  5
112
330
1F
100
AcDbEntity
  8
0
  6
Continuous
 62
     7
370
    25
100
AcDbLine
 10
6894.3263514437
 20
4992.3350394887
 30
0.0
 11
6902.8263494615
 21
4992.3408443882
 31
0.0
  0
LINE
  5
113
330
1F
100
AcDbEntity
  8
0
  6
Continuous
 62
     7
370
    25
100
AcDbLine
 10
6902.8263494615
 20
4992.3408443882
 30
0.0
 11
6902.831129967
 21
4985.3408460206
 31
0.0
  0
LINE
  5
114
330
1F
100
AcDbEntity
  8
0
  6
Continuous
 62
     7
370
    25
100
AcDbLine
 10
6894.3311319491
 20
4985.3350411211
 30
0.0
 11
6896.3631086408
 21
4985.336428818
 31
0.0
  0
LINE
  5
115
330
1F
100
AcDbEntity
  8
0
  6
Continuous
 62
     7
370
    25
100
AcDbLine
 10
6885.8263534258
 20
4992.3292345892
 30
0.0
 11
6885.8311339313
 21
4985.3292362216
 31
0.0
  0
LINE
  5
116
330
1F
100
AcDbEntity
  8
0
  6
Continuous
 62
     7
370
    25
100
AcDbLine
 10
6885.8263534258
 20
4992.3292345892
 30
0.0
 11
6894.3263514437
 21
4992.3350394887
 31
0.0
  0
LINE
  5
117
330
1F
100
AcDbEntity
  8
0
  6
Continuous
 62
     7
370
    25
100
AcDbLine
 10
6892.2991552575
 20
4985.3336534243
 30
0.0
 11
6894.3311319491
 21
4985.3350411211
 31
0.0
  0
LINE
  5
118
330
1F
100
AcDbEntity
  8
0
  6
Continuous
 62
     7
370
    25
100
AcDbLine
 10
6191.7632729509
 20
4984.8552367959
 30
0.0
 11
6189.7312962592
 21
4984.853849099
 31
0.0
  0
LINE
  5
119
330
1F
100
AcDbEntity
  8
0
  6
Continuous
 62
     7
370
    25
100
AcDbLine
 10
6189.7265157538
 20
4991.8538474666
 30
0.0
 11
6189.7312962592
 21
4984.853849099
 31
0.0
  0
LINE
  5
11A
330
1F
100
AcDbEntity
  8
0
  6
Continuous
 62
     7
370
    25
100
AcDbLine
 10
6198.2265137716
 20
4991.8596523661
 30
0.0
 11
6198.2312942771
 21
4984.8596539985
 31
0.0
  0
LINE
  5
11B
330
1F
100
AcDbEntity
  8
0
  6
Continuous
 62
     7
370
    25
100
AcDbLine
 10
6198.2265137716
 20
4991.8596523661
 30
0.0
 11
6189.7265157538
 21
4991.8538474666
 31
0.0
  0
LINE
  5
11C
330
1F
100
AcDbEntity
  8
0
  6
Continuous
 62
     7
370
    25
100
AcDbLine
 10
6181.2265177359
 20
4991.8480425671
 30
0.0
 11
6181.2312982414
 21
4984.8480441995
 31
0.0
  0
LINE
  5
11D
330
1F
100
AcDbEntity
  8
0
  6
Continuous
 62
     7
370
    25
100
AcDbLine
 10
6189.7312962592
 20
4984.853849099
 30
0.0
 11
6187.6993195676
 21
4984.8524614022
 31
0.0
  0
LINE
  5
11E
330
1F
100
AcDbEntity
  8
0
  6
Continuous
 62
     7
370
    25
100
AcDbLine
 10
6189.7265157538
 20
4991.8538474666
 30
0.0
 11
6181.2265177359
 21
4991.8480425671
 31
0.0
  0
LINE
  5
11F
330
1F
100
AcDbEntity
  8
0
  6
Continuous
 62
     7
370
    25
100
AcDbLine
 10
6904.3311296172
 20
4985.3418704146
 30
0.0
 11
6904.3324954759
 21
4983.341870881
 31
0.0
  0
LINE
  5
120
330
1F
100
AcDbEntity
  8
0
  6
Continuous
 62
     7
370
    25
100
AcDbLine
 10
6884.3311342811
 20
4985.3282118276
 30
0.0
 11
6884.3325001398
 21
4983.328212294
 31
0.0
  0
LINE
  5
121
330
1F
100
AcDbEntity
  8
0
  6
Continuous
 62
     7
370
    25
100
AcDbLine
 10
6896.3631086408
 20
4985.336428818
 30
0.0
 11
6904.3311296172
 21
4985.3418704146
 31
0.0
  0
LINE
  5
122
330
1F
100
AcDbEntity
  8
0
  6
Continuous
 62
     7
370
    25
100
AcDbLine
 10
6884.3311342811
 20
4985.3282118276
 30
0.0
 11
6892.2991552575
 21
4985.3336534243
 31
0.0
  0
LINE
  5
123
330
1F
100
AcDbEntity
  8
0
  6
Continuous
 62
     7
370
    25
100
AcDbLine
 10
6884.3325001398
 20
4983.328212294
 30
0.0
 11
6904.3324954759
 21
4983.341870881
 31
0.0
  0
LINE
  5
124
330
1F
100
AcDbEntity
  8
0
  6
Continuous
 62
     7
370
    25
100
AcDbLine
 10
6187.6993195676
 20
4984.8524614022
 30
0.0
 11
6179.7312985912
 21
4984.8470198055
 31
0.0
  0
LINE
  5
125
330
1F
100
AcDbEntity
  8
0
  6
Continuous
 62
     7
370
    25
100
AcDbLine
 10
6199.7312939273
 20
4984.8606783925
 30
0.0
 11
6191.7632729509
 21
4984.8552367959
 31
0.0
  0
LINE
  5
126
330
1F
100
AcDbEntity
  8
0
  6
Continuous
 62
     7
370
    25
100
AcDbLine
 10
6179.7312985912
 20
4984.8470198055
 30
0.0
 11
6179.7326644499
 21
4982.8470202719
 31
0.0
  0
LINE
  5
127
330
1F
100
AcDbEntity
  8
0
  6
Continuous
 62
     7
370
    25
100
AcDbLine
 10
6199.732659786
 20
4982.8606788589
 30
0.0
 11
6179.7326644499
 21
4982.8470202719
 31
0.0
  0
LINE
  5
128
330
1F
100
AcDbEntity
  8
0
  6
Continuous
 62
     7
370
    25
100
AcDbLine
 10
6199.7312939273
 20
4984.8606783925
 30
0.0
 11
6199.732659786
 21
4982.8606788589
 31
0.0
  0
LINE
  5
129
330
1F
100
AcDbEntity
  8
0
  6
Continuous
 62
     7
370
    25
100
AcDbLine
 10
6904.3309589627
 20
4985.591756374
 30
0.0
 11
6904.3311296172
 21
4985.3418704146
 31
0.0
  0
LINE
  5
12A
330
1F
100
AcDbEntity
  8
0
  6
Continuous
 62
     7
370
    25
100
AcDbLine
 10
6884.3309636266
 20
4985.5780977869
 30
0.0
 11
6884.3311342811
 21
4985.3282118276
 31
0.0
  0
LINE
  5
12B
330
1F
100
AcDbEntity
  8
0
  6
Continuous
 62
     7
370
    25
100
AcDbLine
 10
6179.7311279367
 20
4985.0969057648
 30
0.0
 11
6179.7312985912
 21
4984.8470198055
 31
0.0
  0
LINE
  5
12C
330
1F
100
AcDbEntity
  8
0
  6
Continuous
 62
     7
370
    25
100
AcDbLine
 10
6199.7311232728
 20
4985.1105643519
 30
0.0
 11
6199.7312939273
 21
4984.8606783925
 31
0.0
  0
LINE
  5
12D
330
1F
100
AcDbEntity
  8
0
  6
Continuous
 62
     7
370
    25
100
AcDbLine
 10
6884.3147095966
 20
5009.3785481663
 30
0.0
 11
6904.3147049327
 21
5009.3922067534
 31
0.0
  0
LINE
  5
12E
330
1F
100
AcDbEntity
  8
0
  6
Continuous
 62
     7
370
    25
100
AcDbLine
 10
6904.3147049327
 20
5009.3922067534
 30
0.0
 11
6904.3309589627
 21
4985.591756374
 31
0.0
  0
LINE
  5
12F
330
1F
100
AcDbEntity
  8
0
  6
Continuous
 62
     7
370
    25
100
AcDbLine
 10
6884.3147095966
 20
5009.3785481663
 30
0.0
 11
6884.3309636266
 21
4985.5780977869
 31
0.0
  0
LINE
  5
130
330
1F
100
AcDbEntity
  8
0
  6
Continuous
 62
     7
370
    25
100
AcDbLine
 10
6199.7148692428
 20
5008.9110147313
 30
0.0
 11
6179.7148739067
 21
5008.8973561442
 31
0.0
  0
LINE
  5
131
330
1F
100
AcDbEntity
  8
0
  6
Continuous
 62
     7
370
    25
100
AcDbLine
 10
6179.7148739067
 20
5008.8973561442
 30
0.0
 11
6179.7311279367
 21
4985.0969057648
 31
0.0
  0
LINE
  5
132
330
1F
100
AcDbEntity
  8
0
  6
Continuous
 62
     7
370
    25
100
AcDbLine
 10
6199.7148692428
 20
5008.9110147313
 30
0.0
 11
6199.7311232728
 21
4985.1105643519
 31
0.0
  0
LINE
  5
133
330
1F
100
AcDbEntity
  8
0
  6
Continuous
 62
     7
370
    25
100
AcDbLine
 10
6139.7143712711
 20
5009.6196968481
 30
0.0
 11
6944.3141836414
 21
5010.1691818055
 31
0.0
  0
LINE
  5
134
330
1F
100
AcDbEntity
  8
0
  6
Continuous
 62
     7
370
    25
100
AcDbLine
 10
6944.3133641262
 20
5011.3691815257
 30
0.0
 11
6944.3141836414
 21
5010.1691818055
 31
0.0
  0
LINE
  5
135
330
1F
100
AcDbEntity
  8
0
  6
Continuous
 62
     7
370
    25
100
AcDbLine
 10
6139.7135517559
 20
5010.8196965683
 30
0.0
 11
6139.7143712711
 21
5009.6196968481
 31
0.0
  0
LINE
  5
136
330
1F
100
AcDbEntity
  8
0
  6
Continuous
 62
     7
370
    25
100
AcDbLine
 10
6139.7135517559
 20
5010.8196965683
 30
0.0
 11
6944.3133641262
 21
5011.3691815257
 31
0.0
  0
LINE
  5
137
330
1F
100
AcDbEntity
  8
0
  6
Continuous
 62
     7
370
    25
100
AcDbLine
 10
6912.6038457066
 20
5025.295988081
 30
0.0
 11
6171.4040185517
 21
5024.7898008446
 31
0.0
  0
LINE
  5
138
330
1F
100
AcDbEntity
  8
0
  6
Continuous
 62
     7
370
    25
100
AcDbLine
 10
6916.9671001392
 20
5025.2989678763
 30
0.0
 11
6912.6038457066
 21
5025.295988081
 31
0.0
  0
ARC
  5
139
330
1F
100
AcDbEntity
  8
0
  6
Continuous
 62
     7
370
    25
100
AcDbCircle
 10
6915.3036049991
 20
5025.6493732397
 30
0.0
 40
1.700000000000211
100
AcDbArc
 50
348.1048823995
 51
90.0391289727
  0
LINE
  5
13A
330
1F
100
AcDbEntity
  8
0
  6
Continuous
 62
     7
370
    25
100
AcDbLine
 10
6171.4040185517
 20
5024.7898008446
 30
0.0
 11
6167.0407641191
 21
5024.7868210494
 31
0.0
  0
ARC
  5
13B
330
1F
100
AcDbEntity
  8
0
  6
Continuous
 62
     7
370
    25
100
AcDbCircle
 10
6168.7037791034
 20
5025.1394981848
 30
0.0
 40
1.700000000000364
100
AcDbArc
 50
90.0391289727
 51
191.9733755459
  0
LINE
  5
13C
330
1F
100
AcDbEntity
  8
0
  6
Continuous
 62
     7
370
    25
100
AcDbLine
 10
6912.60671883
 20
5021.0889311589
 30
0.0
 11
6171.406891675
 21
5020.5827439225
 31
0.0
  0
LINE
  5
13D
330
1F
100
AcDbEntity
  8
0
  6
Continuous
 62
     7
370
    25
100
AcDbLine
 10
6171.4040185517
 20
5024.7898008446
 30
0.0
 11
6171.406891675
 21
5020.5827439225
 31
0.0
  0
LINE
  5
13E
330
1F
100
AcDbEntity
  8
0
  6
Continuous
 62
     7
370
    25
100
AcDbLine
 10
6912.6038457066
 20
5025.295988081
 30
0.0
 11
6912.60671883
 21
5021.0889311589
 31
0.0
  0
LINE
  5
13F
330
1F
100
AcDbEntity
  8
0
  6
Continuous
 62
     7
370
    25
100
AcDbLine
 10
6916.0807806905
 20
5021.0913036983
 30
0.0
 11
6912.60671883
 21
5021.0889311589
 31
0.0
  0
LINE
  5
140
330
1F
100
AcDbEntity
  8
0
  6
Continuous
 62
     7
370
    25
100
AcDbLine
 10
6916.9671001392
 20
5025.2989678763
 30
0.0
 11
6916.0807806905
 21
5021.0913036983
 31
0.0
  0
LINE
  5
141
330
1F
100
AcDbEntity
  8
0
  6
Continuous
 62
     7
370
    25
100
AcDbLine
 10
6171.406891675
 20
5020.5827439225
 30
0.0
 11
6167.9328298145
 21
5020.5803713831
 31
0.0
  0
LINE
  5
142
330
1F
100
AcDbEntity
  8
0
  6
Continuous
 62
     7
370
    25
100
AcDbLine
 10
6167.0407641191
 20
5024.7868210494
 30
0.0
 11
6167.9328298145
 21
5020.5803713831
 31
0.0
  0
LINE
  5
143
330
1F
100
AcDbEntity
  8
0
  6
Continuous
 62
     7
370
    25
100
AcDbLine
 10
6914.8067183169
 20
5021.0904336035
 30
0.0
 11
6914.8133710054
 21
5011.3490351097
 31
0.0
  0
LINE
  5
144
330
1F
100
AcDbEntity
  8
0
  6
Continuous
 62
     7
370
    25
100
AcDbLine
 10
6169.2068921881
 20
5020.5812414779
 30
0.0
 11
6169.2135448766
 21
5010.8398429842
 31
0.0
  0
LINE
  5
145
330
1F
100
AcDbEntity
  8
0
  6
Continuous
 62
     7
370
    25
100
AcDbLine
 10
6904.3141929692
 20
5010.1418646314
 30
0.0
 11
6904.3147049327
 21
5009.3922067534
 31
0.0
  0
LINE
  5
146
330
1F
100
AcDbEntity
  8
0
  6
Continuous
 62
     7
370
    25
100
AcDbLine
 10
6884.3141976332
 20
5010.1282060443
 30
0.0
 11
6884.3147095966
 21
5009.3785481663
 31
0.0
  0
LINE
  5
147
330
1F
100
AcDbEntity
  8
0
  6
Continuous
 62
     7
370
    25
100
AcDbLine
 10
6179.7143619432
 20
5009.6470140222
 30
0.0
 11
6179.7148739067
 21
5008.8973561442
 31
0.0
  0
LINE
  5
148
330
1F
100
AcDbEntity
  8
0
  6
Continuous
 62
     7
370
    25
100
AcDbLine
 10
6199.7143572793
 20
5009.6606726093
 30
0.0
 11
6199.7148692428
 21
5008.9110147313
 31
0.0
  0
LINE
  5
149
330
1F
100
AcDbEntity
  8
0
  6
Continuous
 62
     7
370
    25
100
AcDbLine
 10
6909.6928843142
 20
5041.3455451742
 30
0.0
 11
6929.6928796502
 21
5041.3592037612
 31
0.0
  0
ARC
  5
14A
330
1F
100
AcDbEntity
  8
0
  6
Continuous
 62
     7
370
    25
100
AcDbCircle
 10
6929.6894650035
 20
5046.3592025952
 30
0.0
 40
5.000000000000086
100
AcDbArc
 50
270.0391289727
 51
90.0391289727
  0
LINE
  5
14B
330
1F
100
AcDbEntity
  8
0
  6
Continuous
 62
     7
370
    25
100
AcDbLine
 10
6929.6860503567
 20
5051.3592014293
 30
0.0
 11
6909.6860550206
 21
5051.3455428422
 31
0.0
  0
ARC
  5
14C
330
1F
100
AcDbEntity
  8
0
  6
Continuous
 62
     7
370
    25
100
AcDbCircle
 10
6909.6894696674
 20
5046.3455440082
 30
0.0
 40
5.000000000000086
100
AcDbArc
 50
90.0391289727
 51
270.0391289727
  0
LINE
  5
14D
330
1F
100
AcDbEntity
  8
0
  6
Continuous
 62
     7
370
    25
100
AcDbLine
 10
6869.692893642
 20
5041.318228
 30
0.0
 11
6889.6928889781
 21
5041.3318865871
 31
0.0
  0
ARC
  5
14E
330
1F
100
AcDbEntity
  8
0
  6
Continuous
 62
     7
370
    25
100
AcDbCircle
 10
6889.6894743313
 20
5046.3318854211
 30
0.0
 40
5.000000000000086
100
AcDbArc
 50
270.0391289727
 51
90.0391289727
  0
LINE
  5
14F
330
1F
100
AcDbEntity
  8
0
  6
Continuous
 62
     7
370
    25
100
AcDbLine
 10
6889.6860596845
 20
5051.3318842551
 30
0.0
 11
6869.6860643485
 21
5051.3182256681
 31
0.0
  0
ARC
  5
150
330
1F
100
AcDbEntity
  8
0
  6
Continuous
 62
     7
370
    25
100
AcDbCircle
 10
6869.6894789952
 20
5046.3182268341
 30
0.0
 40
5.000000000000086
100
AcDbArc
 50
90.0391289727
 51
270.0391289727
  0
LINE
  5
151
330
1F
100
AcDbEntity
  8
0
  6
Continuous
 62
     7
370
    25
100
AcDbLine
 10
6829.6929029699
 20
5041.2909108259
 30
0.0
 11
6849.6928983059
 21
5041.304569413
 31
0.0
  0
ARC
  5
152
330
1F
100
AcDbEntity
  8
0
  6
Continuous
 62
     7
370
    25
100
AcDbCircle
 10
6849.6894836592
 20
5046.304568247
 30
0.0
 40
5.000000000000087
100
AcDbArc
 50
270.0391289727
 51
90.0391289727
  0
LINE
  5
153
330
1F
100
AcDbEntity
  8
0
  6
Continuous
 62
     7
370
    25
100
AcDbLine
 10
6849.6860690124
 20
5051.304567081
 30
0.0
 11
6829.6860736763
 21
5051.290908494
 31
0.0
  0
ARC
  5
154
330
1F
100
AcDbEntity
  8
0
  6
Continuous
 62
     7
370
    25
100
AcDbCircle
 10
6829.6894883231
 20
5046.2909096599
 30
0.0
 40
5.000000000000086
100
AcDbArc
 50
90.0391289727
 51
270.0391289727
  0
LINE
  5
155
330
1F
100
AcDbEntity
  8
0
  6
Continuous
 62
     7
370
    25
100
AcDbLine
 10
6789.6929122977
 20
5041.2635936518
 30
0.0
 11
6809.6929076338
 21
5041.2772522389
 31
0.0
  0
ARC
  5
156
330
1F
100
AcDbEntity
  8
0
  6
Continuous
 62
     7
370
    25
100
AcDbCircle
 10
6809.689492987
 20
5046.2772510729
 30
0.0
 40
5.000000000000087
100
AcDbArc
 50
270.0391289727
 51
90.0391289727
  0
LINE
  5
157
330
1F
100
AcDbEntity
  8
0
  6
Continuous
 62
     7
370
    25
100
AcDbLine
 10
6809.6860783403
 20
5051.2772499069
 30
0.0
 11
6789.6860830042
 21
5051.2635913198
 31
0.0
  0
ARC
  5
158
330
1F
100
AcDbEntity
  8
0
  6
Continuous
 62
     7
370
    25
100
AcDbCircle
 10
6789.6894976509
 20
5046.2635924858
 30
0.0
 40
5.000000000000086
100
AcDbArc
 50
90.0391289727
 51
270.0391289727
  0
LINE
  5
159
330
1F
100
AcDbEntity
  8
0
  6
Continuous
 62
     7
370
    25
100
AcDbLine
 10
6749.6929216256
 20
5041.2362764777
 30
0.0
 11
6769.6929169616
 21
5041.2499350647
 31
0.0
  0
ARC
  5
15A
330
1F
100
AcDbEntity
  8
0
  6
Continuous
 62
     7
370
    25
100
AcDbCircle
 10
6769.6895023149
 20
5046.2499338988
 30
0.0
 40
5.000000000000086
100
AcDbArc
 50
270.0391289727
 51
90.0391289727
  0
LINE
  5
15B
330
1F
100
AcDbEntity
  8
0
  6
Continuous
 62
     7
370
    25
100
AcDbLine
 10
6769.6860876681
 20
5051.2499327328
 30
0.0
 11
6749.686092332
 21
5051.2362741457
 31
0.0
  0
ARC
  5
15C
330
1F
100
AcDbEntity
  8
0
  6
Continuous
 62
     7
370
    25
100
AcDbCircle
 10
6749.6895069788
 20
5046.2362753117
 30
0.0
 40
5.000000000000086
100
AcDbArc
 50
90.0391289727
 51
270.0391289727
  0
LINE
  5
15D
330
1F
100
AcDbEntity
  8
0
  6
Continuous
 62
     7
370
    25
100
AcDbLine
 10
6709.6929309534
 20
5041.2089593036
 30
0.0
 11
6729.6929262895
 21
5041.2226178906
 31
0.0
  0
ARC
  5
15E
330
1F
100
AcDbEntity
  8
0
  6
Continuous
 62
     7
370
    25
100
AcDbCircle
 10
6729.6895116427
 20
5046.2226167246
 30
0.0
 40
5.000000000000086
100
AcDbArc
 50
270.0391289727
 51
90.0391289727
  0
LINE
  5
15F
330
1F
100
AcDbEntity
  8
0
  6
Continuous
 62
     7
370
    25
100
AcDbLine
 10
6729.686096996
 20
5051.2226155587
 30
0.0
 11
6709.6861016599
 21
5051.2089569716
 31
0.0
  0
ARC
  5
160
330
1F
100
AcDbEntity
  8
0
  6
Continuous
 62
     7
370
    25
100
AcDbCircle
 10
6709.6895163066
 20
5046.2089581376
 30
0.0
 40
5.000000000000996
100
AcDbArc
 50
90.0391289727
 51
270.0391289727
  0
LINE
  5
161
330
1F
100
AcDbEntity
  8
0
  6
Continuous
 62
     7
370
    25
100
AcDbLine
 10
6669.6929402813
 20
5041.1816421294
 30
0.0
 11
6689.6929356173
 21
5041.1953007165
 31
0.0
  0
ARC
  5
162
330
1F
100
AcDbEntity
  8
0
  6
Continuous
 62
     7
370
    25
100
AcDbCircle
 10
6689.6895209706
 20
5046.1952995505
 30
0.0
 40
5.000000000000997
100
AcDbArc
 50
270.0391289727
 51
90.0391289727
  0
LINE
  5
163
330
1F
100
AcDbEntity
  8
0
  6
Continuous
 62
     7
370
    25
100
AcDbLine
 10
6689.6861063238
 20
5051.1952983845
 30
0.0
 11
6669.6861109877
 21
5051.1816397975
 31
0.0
  0
ARC
  5
164
330
1F
100
AcDbEntity
  8
0
  6
Continuous
 62
     7
370
    25
100
AcDbCircle
 10
6669.6895256345
 20
5046.1816409635
 30
0.0
 40
5.000000000000996
100
AcDbArc
 50
90.0391289727
 51
270.0391289727
  0
LINE
  5
165
330
1F
100
AcDbEntity
  8
0
  6
Continuous
 62
     7
370
    25
100
AcDbLine
 10
6629.6929496091
 20
5041.1543249553
 30
0.0
 11
6649.6929449452
 21
5041.1679835424
 31
0.0
  0
ARC
  5
166
330
1F
100
AcDbEntity
  8
0
  6
Continuous
 62
     7
370
    25
100
AcDbCircle
 10
6649.6895302984
 20
5046.1679823764
 30
0.0
 40
5.000000000000996
100
AcDbArc
 50
270.0391289727
 51
90.0391289727
  0
LINE
  5
167
330
1F
100
AcDbEntity
  8
0
  6
Continuous
 62
     7
370
    25
100
AcDbLine
 10
6649.6861156517
 20
5051.1679812104
 30
0.0
 11
6629.6861203156
 21
5051.1543226234
 31
0.0
  0
ARC
  5
168
330
1F
100
AcDbEntity
  8
0
  6
Continuous
 62
     7
370
    25
100
AcDbCircle
 10
6629.6895349623
 20
5046.1543237893
 30
0.0
 40
5.000000000000996
100
AcDbArc
 50
90.0391289727
 51
270.0391289727
  0
LINE
  5
169
330
1F
100
AcDbEntity
  8
0
  6
Continuous
 62
     7
370
    25
100
AcDbLine
 10
6589.692958937
 20
5041.1270077812
 30
0.0
 11
6609.692954273
 21
5041.1406663683
 31
0.0
  0
ARC
  5
16A
330
1F
100
AcDbEntity
  8
0
  6
Continuous
 62
     7
370
    25
100
AcDbCircle
 10
6609.6895396263
 20
5046.1406652023
 30
0.0
 40
5.000000000000086
100
AcDbArc
 50
270.0391289727
 51
90.0391289727
  0
LINE
  5
16B
330
1F
100
AcDbEntity
  8
0
  6
Continuous
 62
     7
370
    25
100
AcDbLine
 10
6609.6861249795
 20
5051.1406640363
 30
0.0
 11
6589.6861296434
 21
5051.1270054492
 31
0.0
  0
ARC
  5
16C
330
1F
100
AcDbEntity
  8
0
  6
Continuous
 62
     7
370
    25
100
AcDbCircle
 10
6589.6895442902
 20
5046.1270066152
 30
0.0
 40
5.000000000000086
100
AcDbArc
 50
90.0391289727
 51
270.0391289727
  0
LINE
  5
16D
330
1F
100
AcDbEntity
  8
0
  6
Continuous
 62
     7
370
    25
100
AcDbLine
 10
6549.6929682648
 20
5041.0996906071
 30
0.0
 11
6569.6929636009
 21
5041.1133491941
 31
0.0
  0
ARC
  5
16E
330
1F
100
AcDbEntity
  8
0
  6
Continuous
 62
     7
370
    25
100
AcDbCircle
 10
6569.6895489541
 20
5046.1133480282
 30
0.0
 40
5.000000000000087
100
AcDbArc
 50
270.0391289727
 51
90.0391289727
  0
LINE
  5
16F
330
1F
100
AcDbEntity
  8
0
  6
Continuous
 62
     7
370
    25
100
AcDbLine
 10
6569.6861343074
 20
5051.1133468622
 30
0.0
 11
6549.6861389713
 21
5051.0996882751
 31
0.0
  0
ARC
  5
170
330
1F
100
AcDbEntity
  8
0
  6
Continuous
 62
     7
370
    25
100
AcDbCircle
 10
6549.689553618
 20
5046.0996894411
 30
0.0
 40
5.000000000000996
100
AcDbArc
 50
90.0391289727
 51
270.0391289727
  0
LINE
  5
171
330
1F
100
AcDbEntity
  8
0
  6
Continuous
 62
     7
370
    25
100
AcDbLine
 10
6509.6929775927
 20
5041.072373433
 30
0.0
 11
6529.6929729287
 21
5041.08603202
 31
0.0
  0
ARC
  5
172
330
1F
100
AcDbEntity
  8
0
  6
Continuous
 62
     7
370
    25
100
AcDbCircle
 10
6529.689558282
 20
5046.086030854
 30
0.0
 40
5.000000000000087
100
AcDbArc
 50
270.0391289727
 51
90.0391289727
  0
LINE
  5
173
330
1F
100
AcDbEntity
  8
0
  6
Continuous
 62
     7
370
    25
100
AcDbLine
 10
6529.6861436352
 20
5051.0860296881
 30
0.0
 11
6509.6861482991
 21
5051.072371101
 31
0.0
  0
ARC
  5
174
330
1F
100
AcDbEntity
  8
0
  6
Continuous
 62
     7
370
    25
100
AcDbCircle
 10
6509.6895629459
 20
5046.072372267
 30
0.0
 40
5.000000000000086
100
AcDbArc
 50
90.0391289727
 51
270.0391289727
  0
LINE
  5
175
330
1F
100
AcDbEntity
  8
0
  6
Continuous
 62
     7
370
    25
100
AcDbLine
 10
6469.6929869205
 20
5041.0450562588
 30
0.0
 11
6489.6929822566
 21
5041.0587148459
 31
0.0
  0
ARC
  5
176
330
1F
100
AcDbEntity
  8
0
  6
Continuous
 62
     7
370
    25
100
AcDbCircle
 10
6489.6895676098
 20
5046.0587136799
 30
0.0
 40
5.000000000000086
100
AcDbArc
 50
270.0391289727
 51
90.0391289727
  0
LINE
  5
177
330
1F
100
AcDbEntity
  8
0
  6
Continuous
 62
     7
370
    25
100
AcDbLine
 10
6489.6861529631
 20
5051.0587125139
 30
0.0
 11
6469.686157627
 21
5051.0450539269
 31
0.0
  0
ARC
  5
178
330
1F
100
AcDbEntity
  8
0
  6
Continuous
 62
     7
370
    25
100
AcDbCircle
 10
6469.6895722738
 20
5046.0450550929
 30
0.0
 40
5.000000000000086
100
AcDbArc
 50
90.0391289727
 51
270.0391289727
  0
LINE
  5
179
330
1F
100
AcDbEntity
  8
0
  6
Continuous
 62
     7
370
    25
100
AcDbLine
 10
6429.6929962484
 20
5041.0177390847
 30
0.0
 11
6449.6929915844
 21
5041.0313976718
 31
0.0
  0
ARC
  5
17A
330
1F
100
AcDbEntity
  8
0
  6
Continuous
 62
     7
370
    25
100
AcDbCircle
 10
6449.6895769377
 20
5046.0313965058
 30
0.0
 40
5.000000000000997
100
AcDbArc
 50
270.0391289727
 51
90.0391289727
  0
LINE
  5
17B
330
1F
100
AcDbEntity
  8
0
  6
Continuous
 62
     7
370
    25
100
AcDbLine
 10
6449.6861622909
 20
5051.0313953398
 30
0.0
 11
6429.6861669548
 21
5051.0177367528
 31
0.0
  0
ARC
  5
17C
330
1F
100
AcDbEntity
  8
0
  6
Continuous
 62
     7
370
    25
100
AcDbCircle
 10
6429.6895816016
 20
5046.0177379187
 30
0.0
 40
5.000000000000086
100
AcDbArc
 50
90.0391289727
 51
270.0391289727
  0
LINE
  5
17D
330
1F
100
AcDbEntity
  8
0
  6
Continuous
 62
     7
370
    25
100
AcDbLine
 10
6389.6930055762
 20
5040.9904219106
 30
0.0
 11
6409.6930009123
 21
5041.0040804977
 31
0.0
  0
ARC
  5
17E
330
1F
100
AcDbEntity
  8
0
  6
Continuous
 62
     7
370
    25
100
AcDbCircle
 10
6409.6895862655
 20
5046.0040793317
 30
0.0
 40
5.000000000000086
100
AcDbArc
 50
270.0391289727
 51
90.0391289727
  0
LINE
  5
17F
330
1F
100
AcDbEntity
  8
0
  6
Continuous
 62
     7
370
    25
100
AcDbLine
 10
6409.6861716188
 20
5051.0040781657
 30
0.0
 11
6389.6861762827
 21
5050.9904195786
 31
0.0
  0
ARC
  5
180
330
1F
100
AcDbEntity
  8
0
  6
Continuous
 62
     7
370
    25
100
AcDbCircle
 10
6389.6895909295
 20
5045.9904207446
 30
0.0
 40
5.000000000000086
100
AcDbArc
 50
90.0391289727
 51
270.0391289727
  0
LINE
  5
181
330
1F
100
AcDbEntity
  8
0
  6
Continuous
 62
     7
370
    25
100
AcDbLine
 10
6349.6930149041
 20
5040.9631047365
 30
0.0
 11
6369.6930102401
 21
5040.9767633235
 31
0.0
  0
ARC
  5
182
330
1F
100
AcDbEntity
  8
0
  6
Continuous
 62
     7
370
    25
100
AcDbCircle
 10
6369.6895955934
 20
5045.9767621576
 30
0.0
 40
5.000000000000086
100
AcDbArc
 50
270.0391289727
 51
90.0391289727
  0
LINE
  5
183
330
1F
100
AcDbEntity
  8
0
  6
Continuous
 62
     7
370
    25
100
AcDbLine
 10
6369.6861809466
 20
5050.9767609916
 30
0.0
 11
6349.6861856105
 21
5050.9631024045
 31
0.0
  0
ARC
  5
184
330
1F
100
AcDbEntity
  8
0
  6
Continuous
 62
     7
370
    25
100
AcDbCircle
 10
6349.6896002573
 20
5045.9631035705
 30
0.0
 40
5.000000000000086
100
AcDbArc
 50
90.0391289727
 51
270.0391289727
  0
LINE
  5
185
330
1F
100
AcDbEntity
  8
0
  6
Continuous
 62
     7
370
    25
100
AcDbLine
 10
6309.6930242319
 20
5040.9357875624
 30
0.0
 11
6329.693019568
 21
5040.9494461494
 31
0.0
  0
ARC
  5
186
330
1F
100
AcDbEntity
  8
0
  6
Continuous
 62
     7
370
    25
100
AcDbCircle
 10
6329.6896049212
 20
5045.9494449834
 30
0.0
 40
5.000000000000087
100
AcDbArc
 50
270.0391289727
 51
90.0391289727
  0
LINE
  5
187
330
1F
100
AcDbEntity
  8
0
  6
Continuous
 62
     7
370
    25
100
AcDbLine
 10
6329.6861902745
 20
5050.9494438175
 30
0.0
 11
6309.6861949384
 21
5050.9357852304
 31
0.0
  0
ARC
  5
188
330
1F
100
AcDbEntity
  8
0
  6
Continuous
 62
     7
370
    25
100
AcDbCircle
 10
6309.6896095852
 20
5045.9357863964
 30
0.0
 40
5.000000000000086
100
AcDbArc
 50
90.0391289727
 51
270.0391289727
  0
LINE
  5
189
330
1F
100
AcDbEntity
  8
0
  6
Continuous
 62
     7
370
    25
100
AcDbLine
 10
6269.6930335598
 20
5040.9084703882
 30
0.0
 11
6289.6930288958
 21
5040.9221289753
 31
0.0
  0
ARC
  5
18A
330
1F
100
AcDbEntity
  8
0
  6
Continuous
 62
     7
370
    25
100
AcDbCircle
 10
6289.6896142491
 20
5045.9221278093
 30
0.0
 40
5.000000000000086
100
AcDbArc
 50
270.0391289727
 51
90.0391289727
  0
LINE
  5
18B
330
1F
100
AcDbEntity
  8
0
  6
Continuous
 62
     7
370
    25
100
AcDbLine
 10
6289.6861996023
 20
5050.9221266433
 30
0.0
 11
6269.6862042662
 21
5050.9084680563
 31
0.0
  0
ARC
  5
18C
330
1F
100
AcDbEntity
  8
0
  6
Continuous
 62
     7
370
    25
100
AcDbCircle
 10
6269.689618913
 20
5045.9084692223
 30
0.0
 40
5.000000000000086
100
AcDbArc
 50
90.0391289727
 51
270.0391289727
  0
LINE
  5
18D
330
1F
100
AcDbEntity
  8
0
  6
Continuous
 62
     7
370
    25
100
AcDbLine
 10
6229.6930428876
 20
5040.8811532141
 30
0.0
 11
6249.6930382237
 21
5040.8948118012
 31
0.0
  0
ARC
  5
18E
330
1F
100
AcDbEntity
  8
0
  6
Continuous
 62
     7
370
    25
100
AcDbCircle
 10
6249.6896235769
 20
5045.8948106352
 30
0.0
 40
5.000000000000086
100
AcDbArc
 50
270.0391289727
 51
90.0391289727
  0
LINE
  5
18F
330
1F
100
AcDbEntity
  8
0
  6
Continuous
 62
     7
370
    25
100
AcDbLine
 10
6249.6862089302
 20
5050.8948094692
 30
0.0
 11
6229.6862135941
 21
5050.8811508822
 31
0.0
  0
ARC
  5
190
330
1F
100
AcDbEntity
  8
0
  6
Continuous
 62
     7
370
    25
100
AcDbCircle
 10
6229.6896282409
 20
5045.8811520481
 30
0.0
 40
5.000000000000086
100
AcDbArc
 50
90.0391289727
 51
270.0391289727
  0
LINE
  5
191
330
1F
100
AcDbEntity
  8
0
  6
Continuous
 62
     7
370
    25
100
AcDbLine
 10
6909.6792257271
 20
5061.3455405102
 30
0.0
 11
6929.6792210632
 21
5061.3591990973
 31
0.0
  0
ARC
  5
192
330
1F
100
AcDbEntity
  8
0
  6
Continuous
 62
     7
370
    25
100
AcDbCircle
 10
6929.6758064164
 20
5066.3591979313
 30
0.0
 40
5.000000000000086
100
AcDbArc
 50
270.0391289727
 51
90.0391289727
  0
LINE
  5
193
330
1F
100
AcDbEntity
  8
0
  6
Continuous
 62
     7
370
    25
100
AcDbLine
 10
6929.6723917696
 20
5071.3591967653
 30
0.0
 11
6909.6723964336
 21
5071.3455381783
 31
0.0
  0
ARC
  5
194
330
1F
100
AcDbEntity
  8
0
  6
Continuous
 62
     7
370
    25
100
AcDbCircle
 10
6909.6758110803
 20
5066.3455393442
 30
0.0
 40
5.000000000000086
100
AcDbArc
 50
90.0391289727
 51
270.0391289727
  0
LINE
  5
195
330
1F
100
AcDbEntity
  8
0
  6
Continuous
 62
     7
370
    25
100
AcDbLine
 10
6869.6792350549
 20
5061.3182233361
 30
0.0
 11
6889.679230391
 21
5061.3318819232
 31
0.0
  0
ARC
  5
196
330
1F
100
AcDbEntity
  8
0
  6
Continuous
 62
     7
370
    25
100
AcDbCircle
 10
6889.6758157443
 20
5066.3318807572
 30
0.0
 40
5.000000000000086
100
AcDbArc
 50
270.0391289727
 51
90.0391289727
  0
LINE
  5
197
330
1F
100
AcDbEntity
  8
0
  6
Continuous
 62
     7
370
    25
100
AcDbLine
 10
6889.6724010975
 20
5071.3318795912
 30
0.0
 11
6869.6724057614
 21
5071.3182210041
 31
0.0
  0
ARC
  5
198
330
1F
100
AcDbEntity
  8
0
  6
Continuous
 62
     7
370
    25
100
AcDbCircle
 10
6869.6758204082
 20
5066.3182221701
 30
0.0
 40
5.000000000000086
100
AcDbArc
 50
90.0391289727
 51
270.0391289727
  0
LINE
  5
199
330
1F
100
AcDbEntity
  8
0
  6
Continuous
 62
     7
370
    25
100
AcDbLine
 10
6829.6792443828
 20
5061.290906162
 30
0.0
 11
6849.6792397189
 21
5061.3045647491
 31
0.0
  0
ARC
  5
19A
330
1F
100
AcDbEntity
  8
0
  6
Continuous
 62
     7
370
    25
100
AcDbCircle
 10
6849.6758250721
 20
5066.3045635831
 30
0.0
 40
5.000000000000086
100
AcDbArc
 50
270.0391289727
 51
90.0391289727
  0
LINE
  5
19B
330
1F
100
AcDbEntity
  8
0
  6
Continuous
 62
     7
370
    25
100
AcDbLine
 10
6849.6724104253
 20
5071.3045624171
 30
0.0
 11
6829.6724150893
 21
5071.29090383
 31
0.0
  0
ARC
  5
19C
330
1F
100
AcDbEntity
  8
0
  6
Continuous
 62
     7
370
    25
100
AcDbCircle
 10
6829.675829736
 20
5066.290904996
 30
0.0
 40
5.000000000000086
100
AcDbArc
 50
90.0391289727
 51
270.0391289727
  0
LINE
  5
19D
330
1F
100
AcDbEntity
  8
0
  6
Continuous
 62
     7
370
    25
100
AcDbLine
 10
6789.6792537106
 20
5061.2635889879
 30
0.0
 11
6809.6792490467
 21
5061.2772475749
 31
0.0
  0
ARC
  5
19E
330
1F
100
AcDbEntity
  8
0
  6
Continuous
 62
     7
370
    25
100
AcDbCircle
 10
6809.6758344
 20
5066.277246409
 30
0.0
 40
5.000000000000087
100
AcDbArc
 50
270.0391289727
 51
90.0391289727
  0
LINE
  5
19F
330
1F
100
AcDbEntity
  8
0
  6
Continuous
 62
     7
370
    25
100
AcDbLine
 10
6809.6724197532
 20
5071.277245243
 30
0.0
 11
6789.6724244171
 21
5071.2635866559
 31
0.0
  0
ARC
  5
1A0
330
1F
100
AcDbEntity
  8
0
  6
Continuous
 62
     7
370
    25
100
AcDbCircle
 10
6789.6758390639
 20
5066.2635878219
 30
0.0
 40
5.000000000000086
100
AcDbArc
 50
90.0391289727
 51
270.0391289727
  0
LINE
  5
1A1
330
1F
100
AcDbEntity
  8
0
  6
Continuous
 62
     7
370
    25
100
AcDbLine
 10
6749.6792630385
 20
5061.2362718138
 30
0.0
 11
6769.6792583746
 21
5061.2499304008
 31
0.0
  0
ARC
  5
1A2
330
1F
100
AcDbEntity
  8
0
  6
Continuous
 62
     7
370
    25
100
AcDbCircle
 10
6769.6758437278
 20
5066.2499292348
 30
0.0
 40
5.000000000000086
100
AcDbArc
 50
270.0391289727
 51
90.0391289727
  0
LINE
  5
1A3
330
1F
100
AcDbEntity
  8
0
  6
Continuous
 62
     7
370
    25
100
AcDbLine
 10
6769.672429081
 20
5071.2499280689
 30
0.0
 11
6749.672433745
 21
5071.2362694818
 31
0.0
  0
ARC
  5
1A4
330
1F
100
AcDbEntity
  8
0
  6
Continuous
 62
     7
370
    25
100
AcDbCircle
 10
6749.6758483917
 20
5066.2362706478
 30
0.0
 40
5.000000000000086
100
AcDbArc
 50
90.0391289727
 51
270.0391289727
  0
LINE
  5
1A5
330
1F
100
AcDbEntity
  8
0
  6
Continuous
 62
     7
370
    25
100
AcDbLine
 10
6709.6792723663
 20
5061.2089546396
 30
0.0
 11
6729.6792677024
 21
5061.2226132267
 31
0.0
  0
ARC
  5
1A6
330
1F
100
AcDbEntity
  8
0
  6
Continuous
 62
     7
370
    25
100
AcDbCircle
 10
6729.6758530557
 20
5066.2226120607
 30
0.0
 40
5.000000000000086
100
AcDbArc
 50
270.0391289727
 51
90.0391289727
  0
LINE
  5
1A7
330
1F
100
AcDbEntity
  8
0
  6
Continuous
 62
     7
370
    25
100
AcDbLine
 10
6729.6724384089
 20
5071.2226108947
 30
0.0
 11
6709.6724430728
 21
5071.2089523077
 31
0.0
  0
ARC
  5
1A8
330
1F
100
AcDbEntity
  8
0
  6
Continuous
 62
     7
370
    25
100
AcDbCircle
 10
6709.6758577196
 20
5066.2089534737
 30
0.0
 40
5.000000000000086
100
AcDbArc
 50
90.0391289727
 51
270.0391289727
  0
LINE
  5
1A9
330
1F
100
AcDbEntity
  8
0
  6
Continuous
 62
     7
370
    25
100
AcDbLine
 10
6669.6792816942
 20
5061.1816374655
 30
0.0
 11
6689.6792770303
 21
5061.1952960526
 31
0.0
  0
ARC
  5
1AA
330
1F
100
AcDbEntity
  8
0
  6
Continuous
 62
     7
370
    25
100
AcDbCircle
 10
6689.6758623835
 20
5066.1952948866
 30
0.0
 40
5.000000000000087
100
AcDbArc
 50
270.0391289727
 51
90.0391289727
  0
LINE
  5
1AB
330
1F
100
AcDbEntity
  8
0
  6
Continuous
 62
     7
370
    25
100
AcDbLine
 10
6689.6724477367
 20
5071.1952937206
 30
0.0
 11
6669.6724524007
 21
5071.1816351336
 31
0.0
  0
ARC
  5
1AC
330
1F
100
AcDbEntity
  8
0
  6
Continuous
 62
     7
370
    25
100
AcDbCircle
 10
6669.6758670474
 20
5066.1816362995
 30
0.0
 40
5.000000000000086
100
AcDbArc
 50
90.0391289727
 51
270.0391289727
  0
LINE
  5
1AD
330
1F
100
AcDbEntity
  8
0
  6
Continuous
 62
     7
370
    25
100
AcDbLine
 10
6629.6792910221
 20
5061.1543202914
 30
0.0
 11
6649.6792863581
 21
5061.1679788785
 31
0.0
  0
ARC
  5
1AE
330
1F
100
AcDbEntity
  8
0
  6
Continuous
 62
     7
370
    25
100
AcDbCircle
 10
6649.6758717114
 20
5066.1679777125
 30
0.0
 40
5.000000000000086
100
AcDbArc
 50
270.0391289727
 51
90.0391289727
  0
LINE
  5
1AF
330
1F
100
AcDbEntity
  8
0
  6
Continuous
 62
     7
370
    25
100
AcDbLine
 10
6649.6724570646
 20
5071.1679765465
 30
0.0
 11
6629.6724617285
 21
5071.1543179594
 31
0.0
  0
ARC
  5
1B0
330
1F
100
AcDbEntity
  8
0
  6
Continuous
 62
     7
370
    25
100
AcDbCircle
 10
6629.6758763753
 20
5066.1543191254
 30
0.0
 40
5.000000000000086
100
AcDbArc
 50
90.0391289727
 51
270.0391289727
  0
LINE
  5
1B1
330
1F
100
AcDbEntity
  8
0
  6
Continuous
 62
     7
370
    25
100
AcDbLine
 10
6589.6793003499
 20
5061.1270031173
 30
0.0
 11
6609.679295686
 21
5061.1406617043
 31
0.0
  0
ARC
  5
1B2
330
1F
100
AcDbEntity
  8
0
  6
Continuous
 62
     7
370
    25
100
AcDbCircle
 10
6609.6758810392
 20
5066.1406605384
 30
0.0
 40
5.000000000000086
100
AcDbArc
 50
270.0391289727
 51
90.0391289727
  0
LINE
  5
1B3
330
1F
100
AcDbEntity
  8
0
  6
Continuous
 62
     7
370
    25
100
AcDbLine
 10
6609.6724663924
 20
5071.1406593724
 30
0.0
 11
6589.6724710564
 21
5071.1270007853
 31
0.0
  0
ARC
  5
1B4
330
1F
100
AcDbEntity
  8
0
  6
Continuous
 62
     7
370
    25
100
AcDbCircle
 10
6589.6758857031
 20
5066.1270019513
 30
0.0
 40
5.000000000000086
100
AcDbArc
 50
90.0391289727
 51
270.0391289727
  0
LINE
  5
1B5
330
1F
100
AcDbEntity
  8
0
  6
Continuous
 62
     7
370
    25
100
AcDbLine
 10
6549.6793096778
 20
5061.0996859432
 30
0.0
 11
6569.6793050138
 21
5061.1133445302
 31
0.0
  0
ARC
  5
1B6
330
1F
100
AcDbEntity
  8
0
  6
Continuous
 62
     7
370
    25
100
AcDbCircle
 10
6569.6758903671
 20
5066.1133433642
 30
0.0
 40
5.000000000000086
100
AcDbArc
 50
270.0391289727
 51
90.0391289727
  0
LINE
  5
1B7
330
1F
100
AcDbEntity
  8
0
  6
Continuous
 62
     7
370
    25
100
AcDbLine
 10
6569.6724757203
 20
5071.1133421983
 30
0.0
 11
6549.6724803842
 21
5071.0996836112
 31
0.0
  0
ARC
  5
1B8
330
1F
100
AcDbEntity
  8
0
  6
Continuous
 62
     7
370
    25
100
AcDbCircle
 10
6549.675895031
 20
5066.0996847772
 30
0.0
 40
5.000000000000086
100
AcDbArc
 50
90.0391289727
 51
270.0391289727
  0
LINE
  5
1B9
330
1F
100
AcDbEntity
  8
0
  6
Continuous
 62
     7
370
    25
100
AcDbLine
 10
6509.6793190056
 20
5061.072368769
 30
0.0
 11
6529.6793143417
 21
5061.0860273561
 31
0.0
  0
ARC
  5
1BA
330
1F
100
AcDbEntity
  8
0
  6
Continuous
 62
     7
370
    25
100
AcDbCircle
 10
6529.6758996949
 20
5066.0860261901
 30
0.0
 40
5.000000000000087
100
AcDbArc
 50
270.0391289727
 51
90.0391289727
  0
LINE
  5
1BB
330
1F
100
AcDbEntity
  8
0
  6
Continuous
 62
     7
370
    25
100
AcDbLine
 10
6529.6724850481
 20
5071.0860250241
 30
0.0
 11
6509.6724897121
 21
5071.0723664371
 31
0.0
  0
ARC
  5
1BC
330
1F
100
AcDbEntity
  8
0
  6
Continuous
 62
     7
370
    25
100
AcDbCircle
 10
6509.6759043588
 20
5066.0723676031
 30
0.0
 40
5.000000000000086
100
AcDbArc
 50
90.0391289727
 51
270.0391289727
  0
LINE
  5
1BD
330
1F
100
AcDbEntity
  8
0
  6
Continuous
 62
     7
370
    25
100
AcDbLine
 10
6469.6793283335
 20
5061.0450515949
 30
0.0
 11
6489.6793236695
 21
5061.058710182
 31
0.0
  0
ARC
  5
1BE
330
1F
100
AcDbEntity
  8
0
  6
Continuous
 62
     7
370
    25
100
AcDbCircle
 10
6489.6759090228
 20
5066.058709016
 30
0.0
 40
5.000000000000086
100
AcDbArc
 50
270.0391289727
 51
90.0391289727
  0
LINE
  5
1BF
330
1F
100
AcDbEntity
  8
0
  6
Continuous
 62
     7
370
    25
100
AcDbLine
 10
6489.672494376
 20
5071.05870785
 30
0.0
 11
6469.6724990399
 21
5071.045049263
 31
0.0
  0
ARC
  5
1C0
330
1F
100
AcDbEntity
  8
0
  6
Continuous
 62
     7
370
    25
100
AcDbCircle
 10
6469.6759136867
 20
5066.0450504289
 30
0.0
 40
5.000000000000086
100
AcDbArc
 50
90.0391289727
 51
270.0391289727
  0
LINE
  5
1C1
330
1F
100
AcDbEntity
  8
0
  6
Continuous
 62
     7
370
    25
100
AcDbLine
 10
6429.6793376613
 20
5061.0177344208
 30
0.0
 11
6449.6793329974
 21
5061.0313930079
 31
0.0
  0
ARC
  5
1C2
330
1F
100
AcDbEntity
  8
0
  6
Continuous
 62
     7
370
    25
100
AcDbCircle
 10
6449.6759183506
 20
5066.0313918419
 30
0.0
 40
5.000000000000086
100
AcDbArc
 50
270.0391289727
 51
90.0391289727
  0
LINE
  5
1C3
330
1F
100
AcDbEntity
  8
0
  6
Continuous
 62
     7
370
    25
100
AcDbLine
 10
6449.6725037039
 20
5071.0313906759
 30
0.0
 11
6429.6725083678
 21
5071.0177320888
 31
0.0
  0
ARC
  5
1C4
330
1F
100
AcDbEntity
  8
0
  6
Continuous
 62
     7
370
    25
100
AcDbCircle
 10
6429.6759230145
 20
5066.0177332548
 30
0.0
 40
5.000000000000086
100
AcDbArc
 50
90.0391289727
 51
270.0391289727
  0
LINE
  5
1C5
330
1F
100
AcDbEntity
  8
0
  6
Continuous
 62
     7
370
    25
100
AcDbLine
 10
6389.6793469892
 20
5060.9904172467
 30
0.0
 11
6409.6793423252
 21
5061.0040758337
 31
0.0
  0
ARC
  5
1C6
330
1F
100
AcDbEntity
  8
0
  6
Continuous
 62
     7
370
    25
100
AcDbCircle
 10
6409.6759276785
 20
5066.0040746678
 30
0.0
 40
5.000000000000086
100
AcDbArc
 50
270.0391289727
 51
90.0391289727
  0
LINE
  5
1C7
330
1F
100
AcDbEntity
  8
0
  6
Continuous
 62
     7
370
    25
100
AcDbLine
 10
6409.6725130317
 20
5071.0040735018
 30
0.0
 11
6389.6725176956
 21
5070.9904149147
 31
0.0
  0
ARC
  5
1C8
330
1F
100
AcDbEntity
  8
0
  6
Continuous
 62
     7
370
    25
100
AcDbCircle
 10
6389.6759323424
 20
5065.9904160807
 30
0.0
 40
5.000000000000086
100
AcDbArc
 50
90.0391289727
 51
270.0391289727
  0
LINE
  5
1C9
330
1F
100
AcDbEntity
  8
0
  6
Continuous
 62
     7
370
    25
100
AcDbLine
 10
6349.679356317
 20
5060.9631000726
 30
0.0
 11
6369.6793516531
 21
5060.9767586596
 31
0.0
  0
ARC
  5
1CA
330
1F
100
AcDbEntity
  8
0
  6
Continuous
 62
     7
370
    25
100
AcDbCircle
 10
6369.6759370063
 20
5065.9767574936
 30
0.0
 40
5.000000000000086
100
AcDbArc
 50
270.0391289727
 51
90.0391289727
  0
LINE
  5
1CB
330
1F
100
AcDbEntity
  8
0
  6
Continuous
 62
     7
370
    25
100
AcDbLine
 10
6369.6725223596
 20
5070.9767563277
 30
0.0
 11
6349.6725270235
 21
5070.9630977406
 31
0.0
  0
ARC
  5
1CC
330
1F
100
AcDbEntity
  8
0
  6
Continuous
 62
     7
370
    25
100
AcDbCircle
 10
6349.6759416702
 20
5065.9630989066
 30
0.0
 40
5.000000000000086
100
AcDbArc
 50
90.0391289727
 51
270.0391289727
  0
LINE
  5
1CD
330
1F
100
AcDbEntity
  8
0
  6
Continuous
 62
     7
370
    25
100
AcDbLine
 10
6309.6793656449
 20
5060.9357828984
 30
0.0
 11
6329.6793609809
 21
5060.9494414855
 31
0.0
  0
ARC
  5
1CE
330
1F
100
AcDbEntity
  8
0
  6
Continuous
 62
     7
370
    25
100
AcDbCircle
 10
6329.6759463342
 20
5065.9494403195
 30
0.0
 40
5.000000000000087
100
AcDbArc
 50
270.0391289727
 51
90.0391289727
  0
LINE
  5
1CF
330
1F
100
AcDbEntity
  8
0
  6
Continuous
 62
     7
370
    25
100
AcDbLine
 10
6329.6725316874
 20
5070.9494391535
 30
0.0
 11
6309.6725363513
 21
5070.9357805665
 31
0.0
  0
ARC
  5
1D0
330
1F
100
AcDbEntity
  8
0
  6
Continuous
 62
     7
370
    25
100
AcDbCircle
 10
6309.6759509981
 20
5065.9357817325
 30
0.0
 40
5.000000000000086
100
AcDbArc
 50
90.0391289727
 51
270.0391289727
  0
LINE
  5
1D1
330
1F
100
AcDbEntity
  8
0
  6
Continuous
 62
     7
370
    25
100
AcDbLine
 10
6269.6793749727
 20
5060.9084657243
 30
0.0
 11
6289.6793703088
 21
5060.9221243114
 31
0.0
  0
ARC
  5
1D2
330
1F
100
AcDbEntity
  8
0
  6
Continuous
 62
     7
370
    25
100
AcDbCircle
 10
6289.675955662
 20
5065.9221231454
 30
0.0
 40
5.000000000000087
100
AcDbArc
 50
270.0391289727
 51
90.0391289727
  0
LINE
  5
1D3
330
1F
100
AcDbEntity
  8
0
  6
Continuous
 62
     7
370
    25
100
AcDbLine
 10
6289.6725410153
 20
5070.9221219794
 30
0.0
 11
6269.6725456792
 21
5070.9084633924
 31
0.0
  0
ARC
  5
1D4
330
1F
100
AcDbEntity
  8
0
  6
Continuous
 62
     7
370
    25
100
AcDbCircle
 10
6269.6759603259
 20
5065.9084645583
 30
0.0
 40
5.000000000000086
100
AcDbArc
 50
90.0391289727
 51
270.0391289727
  0
LINE
  5
1D5
330
1F
100
AcDbEntity
  8
0
  6
Continuous
 62
     7
370
    25
100
AcDbLine
 10
6229.6793843006
 20
5060.8811485502
 30
0.0
 11
6249.6793796366
 21
5060.8948071373
 31
0.0
  0
ARC
  5
1D6
330
1F
100
AcDbEntity
  8
0
  6
Continuous
 62
     7
370
    25
100
AcDbCircle
 10
6249.6759649899
 20
5065.8948059713
 30
0.0
 40
5.000000000000086
100
AcDbArc
 50
270.0391289727
 51
90.0391289727
  0
LINE
  5
1D7
330
1F
100
AcDbEntity
  8
0
  6
Continuous
 62
     7
370
    25
100
AcDbLine
 10
6249.6725503431
 20
5070.8948048053
 30
0.0
 11
6229.672555007
 21
5070.8811462182
 31
0.0
  0
ARC
  5
1D8
330
1F
100
AcDbEntity
  8
0
  6
Continuous
 62
     7
370
    25
100
AcDbCircle
 10
6229.6759696538
 20
5065.8811473842
 30
0.0
 40
5.000000000000086
100
AcDbArc
 50
90.0391289727
 51
270.0391289727
  0
LINE
  5
1D9
330
1F
100
AcDbEntity
  8
0
  6
Continuous
 62
     7
370
    25
100
AcDbLine
 10
6916.1352609321
 20
5021.3499401994
 30
0.0
 11
6929.7065382373
 21
5021.3592084251
 31
0.0
  0
ARC
  5
1DA
330
1F
100
AcDbEntity
  8
0
  6
Continuous
 62
     7
370
    25
100
AcDbCircle
 10
6929.7031235905
 20
5026.3592072592
 30
0.0
 40
5.000000000000086
100
AcDbArc
 50
270.0391289727
 51
90.0391289727
  0
LINE
  5
1DB
330
1F
100
AcDbEntity
  8
0
  6
Continuous
 62
     7
370
    25
100
AcDbLine
 10
6929.6997089438
 20
5031.3592060932
 30
0.0
 11
6909.6997136077
 21
5031.3455475061
 31
0.0
  0
ARC
  5
1DC
330
1F
100
AcDbEntity
  8
0
  6
Continuous
 62
     7
370
    25
100
AcDbCircle
 10
6909.7031282544
 20
5026.3455486721
 30
0.0
 40
5.000000000000433
100
AcDbArc
 50
90.0391289727
 51
168.5021699399
  0
ARC
  5
1DD
330
1F
100
AcDbEntity
  8
0
  6
Continuous
 62
     7
370
    25
100
AcDbCircle
 10
6889.7031329184
 20
5026.331890085
 30
0.0
 40
5.000000000000086
100
AcDbArc
 50
11.5760880055
 51
90.0391289727
  0
LINE
  5
1DE
330
1F
100
AcDbEntity
  8
0
  6
Continuous
 62
     7
370
    25
100
AcDbLine
 10
6889.6997182716
 20
5031.3318889191
 30
0.0
 11
6869.6997229355
 21
5031.318230332
 31
0.0
  0
ARC
  5
1DF
330
1F
100
AcDbEntity
  8
0
  6
Continuous
 62
     7
370
    25
100
AcDbCircle
 10
6869.7031375823
 20
5026.318231498
 30
0.0
 40
5.000000000000433
100
AcDbArc
 50
90.0391289727
 51
168.5021699399
  0
ARC
  5
1E0
330
1F
100
AcDbEntity
  8
0
  6
Continuous
 62
     7
370
    25
100
AcDbCircle
 10
6849.7031422462
 20
5026.3045729109
 30
0.0
 40
5.000000000000532
100
AcDbArc
 50
11.5760880055
 51
90.0391289727
  0
LINE
  5
1E1
330
1F
100
AcDbEntity
  8
0
  6
Continuous
 62
     7
370
    25
100
AcDbLine
 10
6849.6997275995
 20
5031.3045717449
 30
0.0
 11
6829.6997322634
 21
5031.2909131579
 31
0.0
  0
ARC
  5
1E2
330
1F
100
AcDbEntity
  8
0
  6
Continuous
 62
     7
370
    25
100
AcDbCircle
 10
6829.7031469102
 20
5026.2909143239
 30
0.0
 40
5.000000000000251
100
AcDbArc
 50
90.0391289727
 51
168.5021699399
  0
ARC
  5
1E3
330
1F
100
AcDbEntity
  8
0
  6
Continuous
 62
     7
370
    25
100
AcDbCircle
 10
6809.7031515741
 20
5026.2772557368
 30
0.0
 40
4.999999999999641
100
AcDbArc
 50
11.5760880055
 51
90.0391289727
  0
LINE
  5
1E4
330
1F
100
AcDbEntity
  8
0
  6
Continuous
 62
     7
370
    25
100
AcDbLine
 10
6809.6997369273
 20
5031.2772545708
 30
0.0
 11
6789.6997415912
 21
5031.2635959838
 31
0.0
  0
ARC
  5
1E5
330
1F
100
AcDbEntity
  8
0
  6
Continuous
 62
     7
370
    25
100
AcDbCircle
 10
6789.703156238
 20
5026.2635971497
 30
0.0
 40
5.000000000000433
100
AcDbArc
 50
90.0391289727
 51
168.5021699399
  0
ARC
  5
1E6
330
1F
100
AcDbEntity
  8
0
  6
Continuous
 62
     7
370
    25
100
AcDbCircle
 10
6769.7031609019
 20
5026.2499385627
 30
0.0
 40
5.000000000000532
100
AcDbArc
 50
11.5760880055
 51
90.0391289727
  0
LINE
  5
1E7
330
1F
100
AcDbEntity
  8
0
  6
Continuous
 62
     7
370
    25
100
AcDbLine
 10
6769.6997462552
 20
5031.2499373967
 30
0.0
 11
6749.6997509191
 21
5031.2362788096
 31
0.0
  0
ARC
  5
1E8
330
1F
100
AcDbEntity
  8
0
  6
Continuous
 62
     7
370
    25
100
AcDbCircle
 10
6749.7031655659
 20
5026.2362799756
 30
0.0
 40
5.000000000001324
100
AcDbArc
 50
90.0391289727
 51
168.5021699399
  0
ARC
  5
1E9
330
1F
100
AcDbEntity
  8
0
  6
Continuous
 62
     7
370
    25
100
AcDbCircle
 10
6729.7031702298
 20
5026.2226213886
 30
0.0
 40
5.00000000000035
100
AcDbArc
 50
11.5760880055
 51
90.0391289727
  0
LINE
  5
1EA
330
1F
100
AcDbEntity
  8
0
  6
Continuous
 62
     7
370
    25
100
AcDbLine
 10
6729.699755583
 20
5031.2226202226
 30
0.0
 11
6709.6997602469
 21
5031.2089616355
 31
0.0
  0
ARC
  5
1EB
330
1F
100
AcDbEntity
  8
0
  6
Continuous
 62
     7
370
    25
100
AcDbCircle
 10
6709.7031748937
 20
5026.2089628015
 30
0.0
 40
5.000000000000433
100
AcDbArc
 50
90.0391289727
 51
168.5021699399
  0
ARC
  5
1EC
330
1F
100
AcDbEntity
  8
0
  6
Continuous
 62
     7
370
    25
100
AcDbCircle
 10
6689.7031795576
 20
5026.1953042144
 30
0.0
 40
5.000000000001241
100
AcDbArc
 50
11.5760880055
 51
90.0391289727
  0
LINE
  5
1ED
330
1F
100
AcDbEntity
  8
0
  6
Continuous
 62
     7
370
    25
100
AcDbLine
 10
6689.6997649109
 20
5031.1953030485
 30
0.0
 11
6669.6997695748
 21
5031.1816444614
 31
0.0
  0
ARC
  5
1EE
330
1F
100
AcDbEntity
  8
0
  6
Continuous
 62
     7
370
    25
100
AcDbCircle
 10
6669.7031842216
 20
5026.1816456274
 30
0.0
 40
5.000000000000433
100
AcDbArc
 50
90.0391289727
 51
168.5021699399
  0
ARC
  5
1EF
330
1F
100
AcDbEntity
  8
0
  6
Continuous
 62
     7
370
    25
100
AcDbCircle
 10
6649.7031888855
 20
5026.1679870403
 30
0.0
 40
5.00000000000035
100
AcDbArc
 50
11.5760880055
 51
90.0391289727
  0
LINE
  5
1F0
330
1F
100
AcDbEntity
  8
0
  6
Continuous
 62
     7
370
    25
100
AcDbLine
 10
6649.6997742387
 20
5031.1679858743
 30
0.0
 11
6629.6997789026
 21
5031.1543272873
 31
0.0
  0
ARC
  5
1F1
330
1F
100
AcDbEntity
  8
0
  6
Continuous
 62
     7
370
    25
100
AcDbCircle
 10
6629.7031935494
 20
5026.1543284533
 30
0.0
 40
5.000000000000433
100
AcDbArc
 50
90.0391289727
 51
168.5021699399
  0
ARC
  5
1F2
330
1F
100
AcDbEntity
  8
0
  6
Continuous
 62
     7
370
    25
100
AcDbCircle
 10
6609.7031982133
 20
5026.1406698662
 30
0.0
 40
5.00000000000035
100
AcDbArc
 50
11.5760880055
 51
90.0391289727
  0
LINE
  5
1F3
330
1F
100
AcDbEntity
  8
0
  6
Continuous
 62
     7
370
    25
100
AcDbLine
 10
6609.6997835666
 20
5031.1406687002
 30
0.0
 11
6589.6997882305
 21
5031.1270101132
 31
0.0
  0
ARC
  5
1F4
330
1F
100
AcDbEntity
  8
0
  6
Continuous
 62
     7
370
    25
100
AcDbCircle
 10
6589.7032028773
 20
5026.1270112791
 30
0.0
 40
5.000000000000433
100
AcDbArc
 50
90.0391289727
 51
168.5021699399
  0
ARC
  5
1F5
330
1F
100
AcDbEntity
  8
0
  6
Continuous
 62
     7
370
    25
100
AcDbCircle
 10
6569.7032075412
 20
5026.1133526921
 30
0.0
 40
5.000000000001241
100
AcDbArc
 50
11.5760880055
 51
90.0391289727
  0
LINE
  5
1F6
330
1F
100
AcDbEntity
  8
0
  6
Continuous
 62
     7
370
    25
100
AcDbLine
 10
6569.6997928944
 20
5031.1133515261
 30
0.0
 11
6549.6997975583
 21
5031.099692939
 31
0.0
  0
ARC
  5
1F7
330
1F
100
AcDbEntity
  8
0
  6
Continuous
 62
     7
370
    25
100
AcDbCircle
 10
6549.7032122051
 20
5026.099694105
 30
0.0
 40
5.000000000000086
100
AcDbArc
 50
90.0391289727
 51
168.5021699399
  0
ARC
  5
1F8
330
1F
100
AcDbEntity
  8
0
  6
Continuous
 62
     7
370
    25
100
AcDbCircle
 10
6529.703216869
 20
5026.086035518
 30
0.0
 40
5.000000000000532
100
AcDbArc
 50
11.5760880055
 51
90.0391289727
  0
LINE
  5
1F9
330
1F
100
AcDbEntity
  8
0
  6
Continuous
 62
     7
370
    25
100
AcDbLine
 10
6529.6998022223
 20
5031.086034352
 30
0.0
 11
6509.6998068862
 21
5031.0723757649
 31
0.0
  0
ARC
  5
1FA
330
1F
100
AcDbEntity
  8
0
  6
Continuous
 62
     7
370
    25
100
AcDbCircle
 10
6509.703221533
 20
5026.0723769309
 30
0.0
 40
5.000000000000086
100
AcDbArc
 50
90.0391289727
 51
168.5021699399
  0
ARC
  5
1FB
330
1F
100
AcDbEntity
  8
0
  6
Continuous
 62
     7
370
    25
100
AcDbCircle
 10
6489.7032261969
 20
5026.0587183438
 30
0.0
 40
5.000000000000087
100
AcDbArc
 50
11.5760880055
 51
90.0391289727
  0
LINE
  5
1FC
330
1F
100
AcDbEntity
  8
0
  6
Continuous
 62
     7
370
    25
100
AcDbLine
 10
6489.6998115501
 20
5031.0587171779
 30
0.0
 11
6469.699816214
 21
5031.0450585908
 31
0.0
  0
ARC
  5
1FD
330
1F
100
AcDbEntity
  8
0
  6
Continuous
 62
     7
370
    25
100
AcDbCircle
 10
6469.7032308608
 20
5026.0450597568
 30
0.0
 40
4.999999999999361
100
AcDbArc
 50
90.0391289727
 51
168.5021699399
  0
ARC
  5
1FE
330
1F
100
AcDbEntity
  8
0
  6
Continuous
 62
     7
370
    25
100
AcDbCircle
 10
6449.7032355247
 20
5026.0314011697
 30
0.0
 40
4.999999999999459
100
AcDbArc
 50
11.5760880055
 51
90.0391289727
  0
LINE
  5
1FF
330
1F
100
AcDbEntity
  8
0
  6
Continuous
 62
     7
370
    25
100
AcDbLine
 10
6449.699820878
 20
5031.0314000037
 30
0.0
 11
6429.6998255419
 21
5031.0177414167
 31
0.0
  0
ARC
  5
200
330
1F
100
AcDbEntity
  8
0
  6
Continuous
 62
     7
370
    25
100
AcDbCircle
 10
6429.7032401887
 20
5026.0177425827
 30
0.0
 40
4.999999999999361
100
AcDbArc
 50
90.0391289727
 51
168.5021699399
  0
ARC
  5
201
330
1F
100
AcDbEntity
  8
0
  6
Continuous
 62
     7
370
    25
100
AcDbCircle
 10
6409.7032448526
 20
5026.0040839956
 30
0.0
 40
5.00000000000035
100
AcDbArc
 50
11.5760880055
 51
90.0391289727
  0
LINE
  5
202
330
1F
100
AcDbEntity
  8
0
  6
Continuous
 62
     7
370
    25
100
AcDbLine
 10
6409.6998302058
 20
5031.0040828296
 30
0.0
 11
6389.6998348697
 21
5030.9904242426
 31
0.0
  0
ARC
  5
203
330
1F
100
AcDbEntity
  8
0
  6
Continuous
 62
     7
370
    25
100
AcDbCircle
 10
6389.7032495165
 20
5025.9904254086
 30
0.0
 40
5.000000000000086
100
AcDbArc
 50
90.0391289727
 51
168.5021699399
  0
ARC
  5
204
330
1F
100
AcDbEntity
  8
0
  6
Continuous
 62
     7
370
    25
100
AcDbCircle
 10
6369.7032541804
 20
5025.9767668215
 30
0.0
 40
5.000000000000086
100
AcDbArc
 50
11.5760880055
 51
90.0391289727
  0
LINE
  5
205
330
1F
100
AcDbEntity
  8
0
  6
Continuous
 62
     7
370
    25
100
AcDbLine
 10
6369.6998395337
 20
5030.9767656555
 30
0.0
 11
6349.6998441976
 21
5030.9631070685
 31
0.0
  0
ARC
  5
206
330
1F
100
AcDbEntity
  8
0
  6
Continuous
 62
     7
370
    25
100
AcDbCircle
 10
6349.7032588444
 20
5025.9631082344
 30
0.0
 40
5.000000000000086
100
AcDbArc
 50
90.0391289727
 51
168.5021699399
  0
ARC
  5
207
330
1F
100
AcDbEntity
  8
0
  6
Continuous
 62
     7
370
    25
100
AcDbCircle
 10
6329.7032635083
 20
5025.9494496474
 30
0.0
 40
5.000000000000087
100
AcDbArc
 50
11.5760880055
 51
90.0391289727
  0
LINE
  5
208
330
1F
100
AcDbEntity
  8
0
  6
Continuous
 62
     7
370
    25
100
AcDbLine
 10
6329.6998488615
 20
5030.9494484814
 30
0.0
 11
6309.6998535254
 21
5030.9357898943
 31
0.0
  0
ARC
  5
209
330
1F
100
AcDbEntity
  8
0
  6
Continuous
 62
     7
370
    25
100
AcDbCircle
 10
6309.7032681722
 20
5025.9357910603
 30
0.0
 40
5.000000000000251
100
AcDbArc
 50
90.0391289727
 51
168.5021699399
  0
ARC
  5
20A
330
1F
100
AcDbEntity
  8
0
  6
Continuous
 62
     7
370
    25
100
AcDbCircle
 10
6289.7032728361
 20
5025.9221324733
 30
0.0
 40
5.00000000000035
100
AcDbArc
 50
11.5760880055
 51
90.0391289727
  0
LINE
  5
20B
330
1F
100
AcDbEntity
  8
0
  6
Continuous
 62
     7
370
    25
100
AcDbLine
 10
6289.6998581894
 20
5030.9221313073
 30
0.0
 11
6269.6998628533
 21
5030.9084727202
 31
0.0
  0
ARC
  5
20C
330
1F
100
AcDbEntity
  8
0
  6
Continuous
 62
     7
370
    25
100
AcDbCircle
 10
6269.7032775001
 20
5025.9084738862
 30
0.0
 40
5.000000000000086
100
AcDbArc
 50
90.0391289727
 51
168.5021699399
  0
ARC
  5
20D
330
1F
100
AcDbEntity
  8
0
  6
Continuous
 62
     7
370
    25
100
AcDbCircle
 10
6249.703282164
 20
5025.8948152991
 30
0.0
 40
5.000000000000086
100
AcDbArc
 50
11.5760880055
 51
90.0391289727
  0
LINE
  5
20E
330
1F
100
AcDbEntity
  8
0
  6
Continuous
 62
     7
370
    25
100
AcDbLine
 10
6249.6998675172
 20
5030.8948141332
 30
0.0
 11
6229.6998721812
 21
5030.8811555461
 31
0.0
  0
ARC
  5
20F
330
1F
100
AcDbEntity
  8
0
  6
Continuous
 62
     7
370
    25
100
AcDbCircle
 10
6229.7032868279
 20
5025.8811567121
 30
0.0
 40
5.000000000000086
100
AcDbArc
 50
90.0391289727
 51
168.5021699399
  0
LINE
  5
210
330
1F
100
AcDbEntity
  8
0
  6
Continuous
 62
     7
370
    25
100
AcDbLine
 10
6139.6665662164
 20
5079.6196805243
 30
0.0
 11
6944.2663785867
 21
5080.1691654818
 31
0.0
  0
ARC
  5
211
330
1F
100
AcDbEntity
  8
0
  6
Continuous
 62
     7
370
    25
100
AcDbCircle
 10
6169.6759836456
 20
5065.840171623
 30
0.0
 40
5.000000000000086
100
AcDbArc
 50
270.0391289727
 51
90.0391289727
  0
LINE
  5
212
330
1F
100
AcDbEntity
  8
0
  6
Continuous
 62
     7
370
    25
100
AcDbLine
 10
6169.6725689988
 20
5070.8401704571
 30
0.0
 11
6149.6725736627
 21
5070.82651187
 31
0.0
  0
ARC
  5
213
330
1F
100
AcDbEntity
  8
0
  6
Continuous
 62
     7
370
    25
100
AcDbCircle
 10
6149.6759883095
 20
5065.826513036
 30
0.0
 40
5.000000000000086
100
AcDbArc
 50
90.0391289727
 51
270.0391289727
  0
LINE
  5
214
330
1F
100
AcDbEntity
  8
0
  6
Continuous
 62
     7
370
    25
100
AcDbLine
 10
6149.6794029563
 20
5060.826514202
 30
0.0
 11
6169.6793982923
 21
5060.840172789
 31
0.0
  0
ARC
  5
215
330
1F
100
AcDbEntity
  8
0
  6
Continuous
 62
     7
370
    25
100
AcDbCircle
 10
6169.6896422326
 20
5045.840176287
 30
0.0
 40
5.000000000000086
100
AcDbArc
 50
270.0391289727
 51
90.0391289727
  0
LINE
  5
216
330
1F
100
AcDbEntity
  8
0
  6
Continuous
 62
     7
370
    25
100
AcDbLine
 10
6169.6862275859
 20
5050.840175121
 30
0.0
 11
6149.6862322498
 21
5050.8265165339
 31
0.0
  0
ARC
  5
217
330
1F
100
AcDbEntity
  8
0
  6
Continuous
 62
     7
370
    25
100
AcDbCircle
 10
6149.6896468966
 20
5045.8265176999
 30
0.0
 40
5.000000000000086
100
AcDbArc
 50
90.0391289727
 51
270.0391289727
  0
LINE
  5
218
330
1F
100
AcDbEntity
  8
0
  6
Continuous
 62
     7
370
    25
100
AcDbLine
 10
6149.6930615433
 20
5040.8265188659
 30
0.0
 11
6169.6930568794
 21
5040.840177453
 31
0.0
  0
ARC
  5
219
330
1F
100
AcDbEntity
  8
0
  6
Continuous
 62
     7
370
    25
100
AcDbCircle
 10
6169.7033008197
 20
5025.8401809509
 30
0.0
 40
5.000000000000087
100
AcDbArc
 50
11.5760880055
 51
90.0391289727
  0
LINE
  5
21A
330
1F
100
AcDbEntity
  8
0
  6
Continuous
 62
     7
370
    25
100
AcDbLine
 10
6169.6998861729
 20
5030.8401797849
 30
0.0
 11
6149.6998908369
 21
5030.8265211979
 31
0.0
  0
ARC
  5
21B
330
1F
100
AcDbEntity
  8
0
  6
Continuous
 62
     7
370
    25
100
AcDbCircle
 10
6149.7033054836
 20
5025.8265223638
 30
0.0
 40
5.000000000000086
100
AcDbArc
 50
90.0391289727
 51
270.0391289727
  0
LINE
  5
21C
330
1F
100
AcDbEntity
  8
0
  6
Continuous
 62
     7
370
    25
100
AcDbLine
 10
6149.7067201304
 20
5020.8265235298
 30
0.0
 11
6167.8779963629
 21
5020.8389332306
 31
0.0
  0
ARC
  5
21D
330
1F
100
AcDbEntity
  8
0
  6
Continuous
 62
     7
370
    25
100
AcDbCircle
 10
6209.7032914918
 20
5025.867498125
 30
0.0
 40
5.000000000000087
100
AcDbArc
 50
11.5760880055
 51
90.0391289727
  0
LINE
  5
21E
330
1F
100
AcDbEntity
  8
0
  6
Continuous
 62
     7
370
    25
100
AcDbLine
 10
6209.6998768451
 20
5030.867496959
 30
0.0
 11
6189.699881509
 21
5030.853838372
 31
0.0
  0
ARC
  5
21F
330
1F
100
AcDbEntity
  8
0
  6
Continuous
 62
     7
370
    25
100
AcDbCircle
 10
6189.7032961558
 20
5025.853839538
 30
0.0
 40
5.000000000000086
100
AcDbArc
 50
90.0391289727
 51
168.5021699399
  0
ARC
  5
220
330
1F
100
AcDbEntity
  8
0
  6
Continuous
 62
     7
370
    25
100
AcDbCircle
 10
6209.6759743177
 20
5065.8674887972
 30
0.0
 40
5.000000000000086
100
AcDbArc
 50
270.0391289727
 51
90.0391289727
  0
LINE
  5
221
330
1F
100
AcDbEntity
  8
0
  6
Continuous
 62
     7
370
    25
100
AcDbLine
 10
6209.672559671
 20
5070.8674876312
 30
0.0
 11
6189.6725643349
 21
5070.8538290441
 31
0.0
  0
ARC
  5
222
330
1F
100
AcDbEntity
  8
0
  6
Continuous
 62
     7
370
    25
100
AcDbCircle
 10
6189.6759789816
 20
5065.8538302101
 30
0.0
 40
5.000000000000086
100
AcDbArc
 50
90.0391289727
 51
270.0391289727
  0
LINE
  5
223
330
1F
100
AcDbEntity
  8
0
  6
Continuous
 62
     7
370
    25
100
AcDbLine
 10
6189.6793936284
 20
5060.8538313761
 30
0.0
 11
6209.6793889645
 21
5060.8674899631
 31
0.0
  0
ARC
  5
224
330
1F
100
AcDbEntity
  8
0
  6
Continuous
 62
     7
370
    25
100
AcDbCircle
 10
6209.6896329048
 20
5045.8674934611
 30
0.0
 40
5.000000000000087
100
AcDbArc
 50
270.0391289727
 51
90.0391289727
  0
LINE
  5
225
330
1F
100
AcDbEntity
  8
0
  6
Continuous
 62
     7
370
    25
100
AcDbLine
 10
6209.686218258
 20
5050.8674922951
 30
0.0
 11
6189.6862229219
 21
5050.853833708
 31
0.0
  0
ARC
  5
226
330
1F
100
AcDbEntity
  8
0
  6
Continuous
 62
     7
370
    25
100
AcDbCircle
 10
6189.6896375687
 20
5045.853834874
 30
0.0
 40
5.000000000000086
100
AcDbArc
 50
90.0391289727
 51
270.0391289727
  0
LINE
  5
227
330
1F
100
AcDbEntity
  8
0
  6
Continuous
 62
     7
370
    25
100
AcDbLine
 10
6189.6930522155
 20
5040.85383604
 30
0.0
 11
6209.6930475515
 21
5040.8674946271
 31
0.0
  0
LINE
  5
228
330
1F
100
AcDbEntity
  8
0
  6
Continuous
 62
     7
370
    25
100
AcDbLine
 10
6944.2663785867
 20
5080.1691654818
 30
0.0
 11
6944.3133641262
 21
5011.3691815257
 31
0.0
  0
LINE
  5
229
330
1F
100
AcDbEntity
  8
0
  6
Continuous
 62
     7
370
    25
100
AcDbLine
 10
6139.7135517559
 20
5010.8196965683
 30
0.0
 11
6139.6665662164
 21
5079.6196805243
 31
0.0
  0
LINE
  5
22A
330
1F
100
AcDbEntity
  8
0
  6
Continuous
 62
     8
370
    25
100
AcDbLine
 10
6502.7148443315
 20
5005.7912735598
 30
0.0
 11
6581.3192782664
 21
5005.8449548475
 31
0.0
  0
LINE
  5
22B
330
1F
100
AcDbEntity
  8
0
  6
Continuous
 62
     8
370
    25
100
AcDbLine
 10
6502.9536728236
 20
5006.2055898272
 30
0.0
 11
6581.0798840997
 21
5006.2589445226
 31
0.0
  0
LWPOLYLINE
  5
22C
330
1F
100
AcDbEntity
  8
0
  6
Continuous
 62
     8
370
    25
100
AcDbPolyline
 90
       21
 70
   128
 43
0.0
 10
6507.2584673887
 20
4958.9635268018
 10
6512.8480626679
 20
4960.010452855
 10
6519.3903823907
 20
4961.3969191939
 10
6526.2656186258
 20
4963.045332904
 10
6533.6863032863
 20
4965.0507505911
 10
6541.2197250595
 20
4967.3348599387
 10
6548.8933646347
 20
4969.9286785883
 10
6556.5998816468
 20
4972.8172056104
 10
6560.3923778563
 20
4974.3474799968
 10
6564.0443854688
 20
4975.8910204703
 10
6567.6723892824
 20
4977.4946979402
 10
6571.1010142365
 20
4979.0760392375
 10
6574.4006759926
 20
4980.6604302161
 10
6577.4368524406
 20
4982.1736641003
 10
6580.0989489314
 20
4983.5456127963
 10
6582.4621873104
 20
4984.7995946753
 10
6584.5700560696
 20
4985.9474763149
 10
6586.2964280275
 20
4986.9086933928
 10
6588.0335305859
 20
4987.8953959859
 10
6588.8846569076
 20
4988.3861090388
 10
6588.8406952002
 20
4988.3606558416
  0
LINE
  5
22D
330
1F
100
AcDbEntity
  8
0
  6
Continuous
 62
     8
370
    25
100
AcDbLine
 10
6591.0208221514
 20
5000.3279051038
 30
0.0
 11
6506.3026924603
 21
5000.2700485928
 31
0.0
  0
LINE
  5
22E
330
1F
100
AcDbEntity
  8
0
  6
Continuous
 62
     8
370
    25
100
AcDbLine
 10
6518.2244015553
 20
4930.0949352751
 30
0.0
 11
6574.3095012356
 21
4930.1332374449
 31
0.0
  0
LINE
  5
22F
330
1F
100
AcDbEntity
  8
0
  6
Continuous
 62
     8
370
    25
100
AcDbLine
 10
6475.4515424527
 20
4944.1532548209
 30
0.0
 11
6474.9526082686
 21
4997.1757795874
 31
0.0
  0
LINE
  5
230
330
1F
100
AcDbEntity
  8
0
  6
Continuous
 62
     8
370
    25
100
AcDbLine
 10
6449.9532149315
 20
4996.278918591
 30
0.0
 11
6450.4396987167
 21
4944.579517409
 31
0.0
  0
LINE
  5
231
330
1F
100
AcDbEntity
  8
0
  6
Continuous
 62
     8
370
    25
100
AcDbLine
 10
6448.4741075408
 20
4946.5429565724
 30
0.0
 11
6448.0249198904
 21
4994.2788385291
 31
0.0
  0
LINE
  5
232
330
1F
100
AcDbEntity
  8
0
  6
Continuous
 62
     8
370
    25
100
AcDbLine
 10
6427.2833630894
 20
4993.421504731
 30
0.0
 11
6427.7200902088
 21
4947.0098231019
 31
0.0
  0
LINE
  5
233
330
1F
100
AcDbEntity
  8
0
  6
Continuous
 62
     8
370
    25
100
AcDbLine
 10
6426.4455446574
 20
4993.4209325601
 30
0.0
 11
6426.8824093664
 21
4946.9946290703
 31
0.0
  0
LINE
  5
234
330
1F
100
AcDbEntity
  8
0
  6
Continuous
 62
     8
370
    25
100
AcDbLine
 10
6426.2007002322
 20
4993.2206072855
 30
0.0
 11
6426.6338385679
 21
4947.1903113799
 31
0.0
  0
LINE
  5
235
330
1F
100
AcDbEntity
  8
0
  6
Continuous
 62
     8
370
    25
100
AcDbLine
 10
6427.5293163778
 20
4993.2172315335
 30
0.0
 11
6427.9621559237
 21
4947.2186884867
 31
0.0
  0
LINE
  5
236
330
1F
100
AcDbEntity
  8
0
  6
Continuous
 62
     8
370
    25
100
AcDbLine
 10
6425.785904917
 20
4991.1746722977
 30
0.0
 11
6426.1806162151
 21
4949.2280784487
 31
0.0
  0
LINE
  5
237
330
1F
100
AcDbEntity
  8
0
  6
Continuous
 62
     8
370
    25
100
AcDbLine
 10
6423.501685761
 20
4990.2128809232
 30
0.0
 11
6423.8787025081
 21
4950.1467149854
 31
0.0
  0
ARC
  5
238
330
1F
100
AcDbEntity
  8
0
  6
Continuous
 62
     8
370
    25
100
AcDbCircle
 10
6518.021498618
 20
4925.6015267442
 30
0.0
 40
4.497987308496384
100
AcDbArc
 50
87.4145262025
 51
107.4770983988
  0
LINE
  5
239
330
1F
100
AcDbEntity
  8
0
  6
Continuous
 62
     8
370
    25
100
AcDbLine
 10
6483.1432499057
 20
4984.4558694484
 30
0.0
 11
6483.0841211903
 21
4990.7395715336
 31
0.0
  0
LWPOLYLINE
  5
23A
330
1F
100
AcDbEntity
  8
0
  6
Continuous
 62
     8
370
    25
100
AcDbPolyline
 90
        6
 70
   128
 43
0.0
 10
6484.6852467181
 20
4950.8080131776
 10
6484.691249952
 20
4950.7723917625
 10
6484.6287928042
 20
4951.1414183139
 10
6484.4789075651
 20
4951.996320904
 10
6484.2383505288
 20
4953.2253065515
 10
6483.8049836577
 20
4954.870512306
  0
ARC
  5
23B
330
1F
100
AcDbEntity
  8
0
  6
Continuous
 62
     8
370
    25
100
AcDbCircle
 10
6471.9203735826
 20
4951.1748408266
 30
0.0
 40
14.07105711220403
100
AcDbArc
 50
356.7744677051
 51
11.0783975128
  0
LINE
  5
23C
330
1F
100
AcDbEntity
  8
0
  6
Continuous
 62
     8
370
    25
100
AcDbLine
 10
6884.3309636266
 20
4985.5780977869
 30
0.0
 11
6885.8309632768
 21
4985.5791221809
 31
0.0
  0
LINE
  5
23D
330
1F
100
AcDbEntity
  8
0
  6
Continuous
 62
     8
370
    25
100
AcDbLine
 10
6902.8309593125
 20
4985.5907319799
 30
0.0
 11
6904.3309589627
 21
4985.591756374
 31
0.0
  0
LINE
  5
23E
330
1F
100
AcDbEntity
  8
0
  6
Continuous
 62
     8
370
    25
100
AcDbLine
 10
6199.7311232728
 20
4985.1105643519
 30
0.0
 11
6198.2311236226
 21
4985.1095399578
 31
0.0
  0
LINE
  5
23F
330
1F
100
AcDbEntity
  8
0
  6
Continuous
 62
     8
370
    25
100
AcDbLine
 10
6181.2311275869
 20
4985.0979301588
 30
0.0
 11
6179.7311279367
 21
4985.0969057648
 31
0.0
  0
LINE
  5
240
330
1F
100
AcDbEntity
  8
0
  6
Continuous
 62
     8
370
    25
100
AcDbLine
 10
6171.4026174939
 20
5026.8413416976
 30
0.0
 11
6171.4040185517
 21
5024.7898008446
 31
0.0
  0
LINE
  5
241
330
1F
100
AcDbEntity
  8
0
  6
Continuous
 62
     8
370
    25
100
AcDbLine
 10
6912.6024446488
 20
5027.347528934
 30
0.0
 11
6912.6038457066
 21
5025.295988081
 31
0.0
  0
LINE
  5
242
330
1F
100
AcDbEntity
  8
0
  6
Continuous
 62
     8
370
    25
100
AcDbLine
 10
6171.406891675
 20
5020.5827439225
 30
0.0
 11
6171.4135443636
 21
5010.8413454287
 31
0.0
  0
LINE
  5
243
330
1F
100
AcDbEntity
  8
0
  6
Continuous
 62
     8
370
    25
100
AcDbLine
 10
6912.60671883
 20
5021.0889311589
 30
0.0
 11
6912.6133715185
 21
5011.3475326652
 31
0.0
  0
LINE
  5
244
330
1F
100
AcDbEntity
  8
0
  6
Continuous
 62
     7
370
    25
100
AcDbLine
 10
7231.9604310888
 20
5007.6470144886
 30
0.0
 11
7231.9604310888
 21
5007.2988036983
 31
0.0
  0
LINE
  5
245
330
1F
100
AcDbEntity
  8
0
  6
Continuous
 62
     7
370
    25
100
AcDbLine
 10
7298.4604310889
 20
5007.2988036983
 30
0.0
 11
7298.4604310889
 21
5007.6470144886
 31
0.0
  0
LINE
  5
246
330
1F
100
AcDbEntity
  8
0
  6
Continuous
 62
     7
370
    25
100
AcDbLine
 10
7225.2104310889
 20
5005.7907294361
 30
0.0
 11
7225.2104310889
 21
5005.2944403995
 31
0.0
  0
LINE
  5
247
330
1F
100
AcDbEntity
  8
0
  6
Continuous
 62
     7
370
    25
100
AcDbLine
 10
7305.2104310889
 20
5005.2944403995
 30
0.0
 11
7305.2104310889
 21
5005.7907294361
 31
0.0
  0
LINE
  5
248
330
1F
100
AcDbEntity
  8
0
  6
Continuous
 62
     7
370
    25
100
AcDbLine
 10
7304.5126541664
 20
5005.8181247867
 30
0.0
 11
7304.2735427998
 21
5006.2322776935
 31
0.0
  0
LINE
  5
249
330
1F
100
AcDbEntity
  8
0
  6
Continuous
 62
     7
370
    25
100
AcDbLine
 10
7226.1473193779
 20
5006.2322776935
 30
0.0
 11
7225.9082080113
 21
5005.8181247867
 31
0.0
  0
LINE
  5
24A
330
1F
100
AcDbEntity
  8
0
  6
Continuous
 62
     7
370
    25
100
AcDbLine
 10
7245.2105262848
 20
4969.8847781714
 30
0.0
 11
7245.2105262848
 21
4969.2397240218
 31
0.0
  0
LINE
  5
24B
330
1F
100
AcDbEntity
  8
0
  6
Continuous
 62
     7
370
    25
100
AcDbLine
 10
7285.2103358929
 20
4969.2397240218
 30
0.0
 11
7285.2103358929
 21
4969.8847781715
 31
0.0
  0
CIRCLE
  5
24C
330
1F
100
AcDbEntity
  8
0
  6
Continuous
 62
     7
370
    25
100
AcDbCircle
 10
7265.2104310889
 20
4970.0554508846
 30
0.0
 40
27.0
  0
ARC
  5
24D
330
1F
100
AcDbEntity
  8
0
  6
Continuous
 62
     7
370
    25
100
AcDbCircle
 10
7300.8487671805
 20
4900.1123719114
 30
0.0
 40
52.62877915764462
100
AcDbArc
 50
98.6463020948
 51
109.6412584054
  0
ARC
  5
24E
330
1F
100
AcDbEntity
  8
0
  6
Continuous
 62
     7
370
    25
100
AcDbCircle
 10
7229.8901212753
 20
4901.3391999622
 30
0.0
 40
51.36686230918387
100
AcDbArc
 50
70.2409348879
 51
81.5040799092
  0
LINE
  5
24F
330
1F
100
AcDbEntity
  8
0
  6
Continuous
 62
     7
370
    25
100
AcDbLine
 10
7306.9604310888
 20
5002.2944410991
 30
0.0
 11
7306.9604310888
 21
5005.2944403995
 31
0.0
  0
LINE
  5
250
330
1F
100
AcDbEntity
  8
0
  6
Continuous
 62
     7
370
    25
100
AcDbLine
 10
7223.4604310888
 20
5005.2944403995
 30
0.0
 11
7223.4604310888
 21
5002.2944410991
 31
0.0
  0
LINE
  5
251
330
1F
100
AcDbEntity
  8
0
  6
Continuous
 62
     7
370
    25
100
AcDbLine
 10
7218.3288676932
 20
4983.7229547123
 30
0.0
 11
7218.4695241906
 21
4967.6053203087
 31
0.0
  0
LINE
  5
252
330
1F
100
AcDbEntity
  8
0
  6
Continuous
 62
     7
370
    25
100
AcDbLine
 10
7311.9513897518
 20
4967.6112519483
 30
0.0
 11
7312.2103485061
 21
4997.2849791271
 31
0.0
  0
LWPOLYLINE
  5
253
330
1F
100
AcDbEntity
  8
0
  6
Continuous
 62
     7
370
    25
100
AcDbPolyline
 90
       14
 70
   128
 43
0.0
 10
7218.5058429377
 20
4967.6284730808
 10
7218.5212509714
 20
4966.6102314821
 10
7218.8653103314
 20
4964.6285423487
 10
7219.5088281384
 20
4962.7773317488
 10
7220.419136713
 20
4961.0756954503
 10
7221.5713129844
 20
4959.5262330076
 10
7222.9600827054
 20
4958.1160622084
 10
7224.6024536169
 20
4956.828109842
 10
7226.5363782056
 20
4955.6482595302
 10
7228.8020620446
 20
4954.5757137452
 10
7231.3981991561
 20
4953.6295271366
 10
7234.231785276
 20
4952.8397566598
 10
7237.2682699627
 20
4952.1871365575
 10
7237.5168950732
 20
4952.1456068165
  0
LWPOLYLINE
  5
254
330
1F
100
AcDbEntity
  8
0
  6
Continuous
 62
     7
370
    25
100
AcDbPolyline
 90
       13
 70
   128
 43
0.0
 10
7292.8829993411
 20
4952.1557482085
 10
7294.4449040176
 20
4952.4456088704
 10
7297.3230171409
 20
4953.1307505704
 10
7300.0887553284
 20
4953.9915765771
 10
7302.5935494419
 20
4955.0152248442
 10
7304.9571871217
 20
4956.2876223049
 10
7306.7826931177
 20
4957.5746781228
 10
7308.309786457
 20
4958.9697455415
 10
7309.5640682984
 20
4960.4729173155
 10
7310.5584346807
 20
4962.0844253857
 10
7311.3536659424
 20
4963.9821926886
 10
7311.8104721455
 20
4965.9200026812
 10
7311.931433692
 20
4967.6379160183
  0
ARC
  5
255
330
1F
100
AcDbEntity
  8
0
  6
Continuous
 62
     7
370
    25
100
AcDbCircle
 10
7217.9995332808
 20
5000.42318761
 30
0.0
 40
1.766756699415186
100
AcDbArc
 50
116.5294471245
 51
183.9821816636
  0
ARC
  5
256
330
1F
100
AcDbEntity
  8
0
  6
Continuous
 62
     7
370
    25
100
AcDbCircle
 10
7312.2257794556
 20
5000.332478515
 30
0.0
 40
1.96044992708793
100
AcDbArc
 50
359.4505092728
 51
83.8889281657
  0
LINE
  5
257
330
1F
100
AcDbEntity
  8
0
  6
Continuous
 62
     7
370
    25
100
AcDbLine
 10
7314.2104310888
 20
4997.2944422651
 30
0.0
 11
7314.2104310888
 21
5000.2944415655
 31
0.0
  0
LINE
  5
258
330
1F
100
AcDbEntity
  8
0
  6
Continuous
 62
     7
370
    25
100
AcDbLine
 10
7216.2104310888
 20
5000.2944415655
 30
0.0
 11
7216.2104310888
 21
4997.2944422651
 31
0.0
  0
LINE
  5
259
330
1F
100
AcDbEntity
  8
0
  6
Continuous
 62
     7
370
    25
100
AcDbLine
 10
7232.360863379
 20
4953.3612156225
 30
0.0
 11
7232.9696861117
 21
4930.1112189
 31
0.0
  0
LINE
  5
25A
330
1F
100
AcDbEntity
  8
0
  6
Continuous
 62
     7
370
    25
100
AcDbLine
 10
7297.451176066
 20
4930.1112189
 30
0.0
 11
7298.059970228
 21
4953.3601245531
 31
0.0
  0
ARC
  5
25B
330
1F
100
AcDbEntity
  8
0
  6
Continuous
 62
     7
370
    25
100
AcDbCircle
 10
7239.9418930566
 20
4930.2302480316
 30
0.0
 40
6.935095207284805
100
AcDbArc
 50
180.9830902485
 51
268.109930795
  0
ARC
  5
25C
330
1F
100
AcDbEntity
  8
0
  6
Continuous
 62
     7
370
    25
100
AcDbCircle
 10
7290.4813445809
 20
4930.2224938302
 30
0.0
 40
6.927387849472391
100
AcDbArc
 50
271.3239574927
 51
359.0693717493
  0
LWPOLYLINE
  5
25D
330
1F
100
AcDbEntity
  8
0
  6
Continuous
 62
     7
370
    25
100
AcDbPolyline
 90
        3
 70
   128
 43
0.0
 10
7247.0555086153
 20
4923.2867034742
 10
7247.0523020087
 20
4923.2866634698
 10
7247.092712739
 20
4923.2868776205
  0
LWPOLYLINE
  5
25E
330
1F
100
AcDbEntity
  8
0
  6
Continuous
 62
     7
370
    25
100
AcDbPolyline
 90
        3
 70
   128
 43
0.0
 10
7282.8275284094
 20
4923.2882818426
 10
7283.1900176821
 20
4923.287454161
 10
7283.3503649222
 20
4923.2867865667
  0
LINE
  5
25F
330
1F
100
AcDbEntity
  8
0
  6
Continuous
 62
     7
370
    25
100
AcDbLine
 10
7357.2104299229
 20
4992.3350418207
 30
0.0
 11
7356.2104301561
 21
4993.3350411211
 31
0.0
  0
LINE
  5
260
330
1F
100
AcDbEntity
  8
0
  6
Continuous
 62
     7
370
    25
100
AcDbLine
 10
7348.2104320216
 20
4993.3350411211
 30
0.0
 11
7347.2104322548
 21
4992.3350418207
 31
0.0
  0
LINE
  5
261
330
1F
100
AcDbEntity
  8
0
  6
Continuous
 62
     7
370
    25
100
AcDbLine
 10
7210.2104299229
 20
4991.8538497986
 30
0.0
 11
7209.2104301561
 21
4992.853849099
 31
0.0
  0
LINE
  5
262
330
1F
100
AcDbEntity
  8
0
  6
Continuous
 62
     7
370
    25
100
AcDbLine
 10
7201.2104320216
 20
4992.853849099
 30
0.0
 11
7200.2104322548
 21
4991.8538497986
 31
0.0
  0
LINE
  5
263
330
1F
100
AcDbEntity
  8
0
  6
Continuous
 62
     7
370
    25
100
AcDbLine
 10
7210.2104310888
 20
4912.8538658891
 30
0.0
 11
7210.2104310888
 21
4982.8470202719
 31
0.0
  0
LINE
  5
264
330
1F
100
AcDbEntity
  8
0
  6
Continuous
 62
     7
370
    25
100
AcDbLine
 10
7200.2104310888
 20
4982.8470202719
 30
0.0
 11
7200.2104310888
 21
4912.8538658891
 31
0.0
  0
LINE
  5
265
330
1F
100
AcDbEntity
  8
0
  6
Continuous
 62
     7
370
    25
100
AcDbLine
 10
7210.2104299229
 20
4992.3350418207
 30
0.0
 11
7209.2104301561
 21
4993.3350411211
 31
0.0
  0
LINE
  5
266
330
1F
100
AcDbEntity
  8
0
  6
Continuous
 62
     7
370
    25
100
AcDbLine
 10
7201.2104320216
 20
4993.3350411211
 30
0.0
 11
7200.2104322548
 21
4992.3350418207
 31
0.0
  0
LINE
  5
267
330
1F
100
AcDbEntity
  8
0
  6
Continuous
 62
     7
370
    25
100
AcDbLine
 10
7357.2104299229
 20
4991.8538497986
 30
0.0
 11
7356.2104301561
 21
4992.853849099
 31
0.0
  0
LINE
  5
268
330
1F
100
AcDbEntity
  8
0
  6
Continuous
 62
     7
370
    25
100
AcDbLine
 10
7348.2104320216
 20
4992.853849099
 30
0.0
 11
7347.2104322548
 21
4991.8538497986
 31
0.0
  0
LINE
  5
269
330
1F
100
AcDbEntity
  8
0
  6
Continuous
 62
     7
370
    25
100
AcDbLine
 10
7357.2104310888
 20
4907.8538670551
 30
0.0
 11
7357.2104310888
 21
4982.8470202719
 31
0.0
  0
LINE
  5
26A
330
1F
100
AcDbEntity
  8
0
  6
Continuous
 62
     7
370
    25
100
AcDbLine
 10
7347.2104310889
 20
4982.8470202719
 30
0.0
 11
7347.2104310889
 21
4907.8538670551
 31
0.0
  0
LWPOLYLINE
  5
26B
330
1F
100
AcDbEntity
  8
0
  6
Continuous
 62
     7
370
    25
100
AcDbPolyline
 90
        8
 70
   128
 43
0.0
 10
7215.2104310888
 20
5026.8394981848
 10
7214.7350188695
 20
5026.8395270065
 10
7213.8705414746
 20
5026.8397413848
 10
7213.1599049228
 20
5026.84014306
 10
7212.6903947482
 20
5026.8406828802
 10
7212.5613366489
 20
5026.8409966361
 10
7212.5343255112
 20
5026.8411269205
 10
7212.5358183808
 20
5026.8411065802
  0
LINE
  5
26C
330
1F
100
AcDbEntity
  8
0
  6
Continuous
 62
     7
370
    25
100
AcDbLine
 10
7315.2104310889
 20
5026.8394981848
 30
0.0
 11
7215.2104310888
 21
5026.8394981848
 31
0.0
  0
LWPOLYLINE
  5
26D
330
1F
100
AcDbEntity
  8
0
  6
Continuous
 62
     7
370
    25
100
AcDbPolyline
 90
        7
 70
   128
 43
0.0
 10
7317.8862777949
 20
5026.841126199
 10
7317.8787681938
 20
5026.8410798678
 10
7317.7788143363
 20
5026.8407772396
 10
7317.3955590565
 20
5026.8402597611
 10
7316.7403187048
 20
5026.8398229451
 10
7315.9025436304
 20
5026.8395598228
 10
7315.2104310889
 20
5026.8394981848
  0
LINE
  5
26E
330
1F
100
AcDbEntity
  8
0
  6
Continuous
 62
     7
370
    25
100
AcDbLine
 10
7210.8104310889
 20
5025.6475293305
 30
0.0
 11
7210.8104310889
 21
5025.1413420599
 31
0.0
  0
LINE
  5
26F
330
1F
100
AcDbEntity
  8
0
  6
Continuous
 62
     7
370
    25
100
AcDbLine
 10
7319.6104310888
 20
5025.141342094
 30
0.0
 11
7319.6104310888
 21
5025.6475293305
 31
0.0
  0
LINE
  5
270
330
1F
100
AcDbEntity
  8
0
  6
Continuous
 62
     7
370
    25
100
AcDbLine
 10
7233.6822444484
 20
5007.2915912418
 30
0.0
 11
7235.4173511634
 21
5006.2307716622
 31
0.0
  0
LINE
  5
271
330
1F
100
AcDbEntity
  8
0
  6
Continuous
 62
     7
370
    25
100
AcDbLine
 10
7295.0035110143
 20
5006.2307716622
 30
0.0
 11
7296.7386177293
 21
5007.2915912418
 31
0.0
  0
ARC
  5
272
330
1F
100
AcDbEntity
  8
0
  6
Continuous
 62
     7
370
    25
100
AcDbCircle
 10
7212.4452332919
 20
5025.6784878407
 30
0.0
 40
1.635095309881293
100
AcDbArc
 50
110.9519181658
 51
181.0848896492
  0
ARC
  5
273
330
1F
100
AcDbEntity
  8
0
  6
Continuous
 62
     7
370
    25
100
AcDbCircle
 10
7213.9555147125
 20
5017.4996488859
 30
0.0
 40
9.929344638924105
100
AcDbArc
 50
82.739277555
 51
102.180218819
  0
ARC
  5
274
330
1F
100
AcDbEntity
  8
0
  6
Continuous
 62
     7
370
    25
100
AcDbCircle
 10
7316.3778625727
 20
4967.9094389238
 30
0.0
 40
59.45139769386478
100
AcDbArc
 50
88.3449732559
 51
91.1251744951
  0
ARC
  5
275
330
1F
100
AcDbEntity
  8
0
  6
Continuous
 62
     7
370
    25
100
AcDbCircle
 10
7317.9275262374
 20
5025.6614187935
 30
0.0
 40
1.682962167158379
100
AcDbArc
 50
359.5271333712
 51
84.2918104768
  0
LINE
  5
276
330
1F
100
AcDbEntity
  8
0
  6
Continuous
 62
     7
370
    25
100
AcDbLine
 10
7315.2104310889
 20
5027.3493732397
 30
0.0
 11
7215.2104310889
 21
5027.3493732397
 31
0.0
  0
LWPOLYLINE
  5
277
330
1F
100
AcDbEntity
  8
0
  6
Continuous
 62
     7
370
    25
100
AcDbPolyline
 90
       33
 70
   128
 43
0.0
 10
7298.4604310889
 20
5007.2988036983
 10
7298.4163445775
 20
5007.2976347496
 10
7298.0643536339
 20
5007.2953092433
 10
7297.3641029382
 20
5007.2930207791
 10
7296.3230153219
 20
5007.2907936152
 10
7294.952126573
 20
5007.2886513603
 10
7293.265968453
 20
5007.2866167226
 10
7291.2824146575
 20
5007.28471127
 10
7289.0224913503
 20
5007.2829552005
 10
7286.5101542806
 20
5007.2813671291
 10
7283.7720348462
 20
5007.2799638897
 10
7280.8371577945
 20
5007.2787603569
 10
7277.7366335522
 20
5007.2777692885
 10
7274.5033284477
 20
5007.2770011901
 10
7271.1715163193
 20
5007.2764642037
 10
7267.7765152046
 20
5007.2761640216
 10
7264.3543129598
 20
5007.2761038256
 10
7260.9411857802
 20
5007.2762842539
 10
7257.573313663
 20
5007.2767033939
 10
7254.2863968903
 20
5007.2773568027
 10
7251.1152775977
 20
5007.2782375539
 10
7248.0935704386
 20
5007.2793363113
 10
7245.2533062606
 20
5007.2806414279
 10
7242.6245925705
 20
5007.282139069
 10
7240.2352943874
 20
5007.2838133594
 10
7238.1107388664
 20
5007.2856465511
 10
7236.2734468246
 20
5007.2876192118
 10
7234.7428940147
 20
5007.2897104309
 10
7233.5353046771
 20
5007.2918980409
 10
7232.6634795594
 20
5007.2941588525
 10
7232.1366602247
 20
5007.2964689007
 10
7231.9604310888
 20
5007.2988036983
 10
7231.9604310888
 20
5007.2988036983
  0
LWPOLYLINE
  5
278
330
1F
100
AcDbEntity
  8
0
  6
Continuous
 62
     7
370
    25
100
AcDbPolyline
 90
       35
 70
   128
 43
0.0
 10
7225.2104310889
 20
5005.7907294361
 10
7225.386191808
 20
5005.7881714152
 10
7225.9119293738
 20
5005.7856358743
 10
7226.7830235858
 20
5005.7831450958
 10
7227.9918192366
 20
5005.7807209688
 10
7229.5276933866
 20
5005.7783847965
 10
7231.3771487185
 20
5005.7761571094
 10
7233.5239321524
 20
5005.7740574844
 10
7235.9491776783
 20
5005.7721043731
 10
7238.6315721513
 20
5005.7703149395
 10
7241.5475425923
 20
5005.7687049093
 10
7244.6714633483
 20
5005.7672884314
 10
7247.9758812912
 20
5005.7660779539
 10
7251.4317570775
 20
5005.7650841145
 10
7255.0087203464
 20
5005.7643156471
 10
7258.6753366161
 20
5005.763779305
 10
7262.399383531
 20
5005.7634798017
 10
7266.148134033
 20
5005.7634197691
 10
7269.8886439677
 20
5005.7635997349
 10
7273.5880415995
 20
5005.7640181174
 10
7277.2138164889
 20
5005.76467124
 10
7280.7341051957
 20
5005.7655533629
 10
7284.1179712964
 20
5005.7666567341
 10
7287.3356772539
 20
5005.7679716571
 10
7290.3589457525
 20
5005.7694865762
 10
7293.1612082
 20
5005.7711881783
 10
7295.7178382133
 20
5005.7730615098
 10
7298.0063680358
 20
5005.7750901075
 10
7300.0066859852
 20
5005.7772561443
 10
7301.7012131954
 20
5005.7795405849
 10
7303.0750581005
 20
5005.7819233534
 10
7304.1161473018
 20
5005.7843835102
 10
7304.8153316702
 20
5005.7868994352
 10
7305.1664667483
 20
5005.7894490183
 10
7305.2104310889
 20
5005.7907294361
  0
LWPOLYLINE
  5
279
330
1F
100
AcDbEntity
  8
0
  6
Continuous
 62
     7
370
    25
100
AcDbPolyline
 90
       40
 70
   128
 43
0.0
 10
7225.8607731363
 20
5005.7907294361
 10
7226.0389514343
 20
5005.7881749915
 10
7226.5718727178
 20
5005.7856436805
 10
7227.4547107693
 20
5005.7831584268
 10
7228.6794704706
 20
5005.7807417373
 10
7230.2350602082
 20
5005.778415498
 10
7232.1073923206
 20
5005.7762007757
 10
7234.2795106782
 20
5005.7741176271
 10
7236.7317442408
 20
5005.7721849176
 10
7239.4418852016
 20
5005.7704201502
 10
7242.3853901042
 20
5005.7688393068
 10
7245.5356021126
 20
5005.7674567038
 10
7248.8639924189
 20
5005.7662848623
 10
7252.3404186051
 20
5005.7653343946
 10
7255.9333976173
 20
5005.7646139084
 10
7259.6103908812
 20
5005.7641299284
 10
7263.3380989765
 20
5005.7638868376
 10
7267.0827632012
 20
5005.7638868376
 10
7270.8104712965
 20
5005.7641299284
 10
7274.4874645604
 20
5005.7646139084
 10
7278.0804435726
 20
5005.7653343946
 10
7281.5568697588
 20
5005.7662848623
 10
7284.8852600651
 20
5005.7674567038
 10
7288.0354720735
 20
5005.7688393068
 10
7290.9789769761
 20
5005.7704201502
 10
7293.6891179369
 20
5005.7721849176
 10
7296.1413514995
 20
5005.7741176271
 10
7298.3134698571
 20
5005.7762007757
 10
7300.1858019695
 20
5005.778415498
 10
7301.7413917071
 20
5005.7807417373
 10
7302.9661514084
 20
5005.7831584268
 10
7303.8489894599
 20
5005.7856436805
 10
7304.3819107434
 20
5005.7881749915
 10
7304.5600890414
 20
5005.7907294361
 10
7304.3819107434
 20
5005.7932838806
 10
7303.8489894599
 20
5005.7958151916
 10
7302.9661514084
 20
5005.7983004453
 10
7301.7413917071
 20
5005.8007171348
 10
7300.1858019695
 20
5005.8030433741
 10
7299.0415728173
 20
5005.804453588
  0
LWPOLYLINE
  5
27A
330
1F
100
AcDbEntity
  8
0
  6
Continuous
 62
     7
370
    25
100
AcDbPolyline
 90
       35
 70
   128
 43
0.0
 10
7225.9082049562
 20
5005.8181142037
 10
7226.0861684792
 20
5005.8155628383
 10
7226.6184473829
 20
5005.8130345784
 10
7227.5002212672
 20
5005.8105523204
 10
7228.7235046512
 20
5005.8081385441
 10
7230.2772192911
 20
5005.8058151088
 10
7232.1472945067
 20
5005.803603056
 10
7234.316794607
 20
5005.8015224185
 10
7236.7660722634
 20
5005.7995920387
 10
7239.472946438
 20
5005.7978293985
 10
7242.4129032591
 20
5005.7962504606
 10
7245.5593180225
 20
5005.7948695242
 10
7248.883696309
 20
5005.7936990952
 10
7252.3559320338
 20
5005.7927497732
 10
7255.9445800927
 20
5005.7920301555
 10
7259.617141133
 20
5005.7915467589
 10
7263.3403558733
 20
5005.7913039612
 10
7267.0805063044
 20
5005.7913039612
 10
7270.8037210447
 20
5005.7915467589
 10
7274.476282085
 20
5005.7920301555
 10
7278.0649301439
 20
5005.7927497732
 10
7281.5371658687
 20
5005.7936990952
 10
7284.8615441552
 20
5005.7948695242
 10
7288.0079589186
 20
5005.7962504606
 10
7290.9479157397
 20
5005.7978293985
 10
7293.6547899143
 20
5005.7995920387
 10
7296.1040675707
 20
5005.8015224185
 10
7298.273567671
 20
5005.803603056
 10
7300.1436428866
 20
5005.8058151088
 10
7301.6973575265
 20
5005.8081385441
 10
7302.9206409105
 20
5005.8105523204
 10
7303.8024147948
 20
5005.8130345784
 10
7304.3346936985
 20
5005.8155628383
 10
7304.5126572215
 20
5005.8181142037
 10
7304.5126541664
 20
5005.8181247867
  0
LWPOLYLINE
  5
27B
330
1F
100
AcDbEntity
  8
0
  6
Continuous
 62
     7
370
    25
100
AcDbPolyline
 90
       35
 70
   128
 43
0.0
 10
7226.1473163414
 20
5006.2322671749
 10
7226.3241971496
 20
5006.2297313318
 10
7226.8532377139
 20
5006.2272184537
 10
7227.7296469612
 20
5006.2247512976
 10
7228.9454879936
 20
5006.2223522064
 10
7230.4897499665
 20
5006.2200429067
 10
7232.3484478042
 20
5006.2178443119
 10
7234.5047488514
 20
5006.2157763327
 10
7236.9391253117
 20
5006.2138576972
 10
7239.6295310952
 20
5006.2121057808
 10
7242.5516014702
 20
5006.210536449
 10
7245.6788737151
 20
5006.2091639141
 10
7248.9830267682
 20
5006.2080006059
 10
7252.4341377076
 20
5006.2070570595
 10
7256.0009527383
 20
5006.2063418198
 10
7259.6511702311
 20
5006.2058613642
 10
7263.3517332511
 20
5006.2056200436
 10
7267.0691289266
 20
5006.2056200436
 10
7270.7696919466
 20
5006.2058613642
 10
7274.4199094394
 20
5006.2063418198
 10
7277.9867244701
 20
5006.2070570595
 10
7281.4378354095
 20
5006.2080006059
 10
7284.7419884626
 20
5006.2091639141
 10
7287.8692607075
 20
5006.210536449
 10
7290.7913310825
 20
5006.2121057808
 10
7293.481736866
 20
5006.2138576972
 10
7295.9161133263
 20
5006.2157763327
 10
7298.0724143735
 20
5006.2178443119
 10
7299.9311122112
 20
5006.2200429067
 10
7301.4753741841
 20
5006.2223522064
 10
7302.6912152165
 20
5006.2247512976
 10
7303.5676244638
 20
5006.2272184537
 10
7304.0966650281
 20
5006.2297313318
 10
7304.2735458363
 20
5006.2322671749
 10
7304.2735427998
 20
5006.2322776935
  0
LWPOLYLINE
  5
27C
330
1F
100
AcDbEntity
  8
0
  6
Continuous
 62
     7
370
    25
100
AcDbPolyline
 90
       34
 70
   128
 43
0.0
 10
7226.3369804445
 20
5006.2322671749
 10
7226.5130024388
 20
5006.2297436442
 10
7227.0394743395
 20
5006.2272429669
 10
7227.9116283354
 20
5006.2247877896
 10
7229.1215660649
 20
5006.2224003468
 10
7230.6583301446
 20
5006.2201022595
 10
7232.5080034009
 20
5006.2179143396
 10
7234.6538349065
 20
5006.2158564011
 10
7237.0763916789
 20
5006.2139470812
 10
7239.7537346689
 20
5006.2122036709
 10
7242.6616174437
 20
5006.2106419588
 10
7245.7737057667
 20
5006.209276088
 10
7249.061816084
 20
5006.208118428
 10
7252.4961707595
 20
5006.2071794628
 10
7256.0456677454
 20
5006.2064676959
 10
7259.6781622473
 20
5006.205989573
 10
7263.3607578325
 20
5006.2057494241
 10
7267.0601043452
 20
5006.2057494241
 10
7270.7426999304
 20
5006.205989573
 10
7274.3751944323
 20
5006.2064676959
 10
7277.9246914182
 20
5006.2071794628
 10
7281.3590460937
 20
5006.208118428
 10
7284.647156411
 20
5006.209276088
 10
7287.759244734
 20
5006.2106419588
 10
7290.6671275088
 20
5006.2122036709
 10
7293.3444704988
 20
5006.2139470812
 10
7295.7670272712
 20
5006.2158564011
 10
7297.9128587768
 20
5006.2179143396
 10
7299.7625320331
 20
5006.2201022595
 10
7301.2992961128
 20
5006.2224003468
 10
7302.5092338423
 20
5006.2247877896
 10
7303.3813878382
 20
5006.2272429669
 10
7303.9078597389
 20
5006.2297436442
 10
7304.0838787115
 20
5006.2322567074
  0
LWPOLYLINE
  5
27D
330
1F
100
AcDbEntity
  8
0
  6
Continuous
 62
     7
370
    25
100
AcDbPolyline
 90
        8
 70
   128
 43
0.0
 10
7275.2954698988
 20
4983.2102251521
 10
7274.8547181532
 20
4983.2066498582
 10
7271.2839866413
 20
4983.1799927234
 10
7267.5496960158
 20
4983.1542512694
 10
7263.7624310357
 20
4983.1299470266
 10
7260.0312102493
 20
4983.1053660297
 10
7256.4467971978
 20
4983.0804793275
 10
7255.1855293925
 20
4983.0712129591
  0
LWPOLYLINE
  5
27E
330
1F
100
AcDbEntity
  8
0
  6
Continuous
 62
     7
370
    25
100
AcDbPolyline
 90
        5
 70
   128
 43
0.0
 10
7265.2104310889
 20
4981.7798091786
 10
7267.9511242195
 20
4981.7799293457
 10
7270.6468152446
 20
4981.7802878739
 10
7273.2532409923
 20
4981.7808788761
 10
7274.9014421993
 20
4981.7813909403
  0
LWPOLYLINE
  5
27F
330
1F
100
AcDbEntity
  8
0
  6
Continuous
 62
     7
370
    25
100
AcDbPolyline
 90
        5
 70
   128
 43
0.0
 10
7255.5194199784
 20
4981.7813909403
 10
7257.1676211854
 20
4981.7808788761
 10
7259.7740469331
 20
4981.7802878739
 10
7262.4697379582
 20
4981.7799293457
 10
7265.2104310889
 20
4981.7798091786
  0
LWPOLYLINE
  5
280
330
1F
100
AcDbEntity
  8
0
  6
Continuous
 62
     7
370
    25
100
AcDbPolyline
 90
        5
 70
   128
 43
0.0
 10
7256.3469566103
 20
4984.1237166233
 10
7260.7278235773
 20
4984.1709022884
 10
7265.2104310889
 20
4984.2161013461
 10
7269.6930386004
 20
4984.2618975223
 10
7273.8605242067
 20
4984.3085056603
  0
LWPOLYLINE
  5
281
330
1F
100
AcDbEntity
  8
0
  6
Continuous
 62
     7
370
    25
100
AcDbPolyline
 90
        5
 70
   128
 43
0.0
 10
7256.714688759
 20
4984.3151773718
 10
7260.7278235773
 20
4984.3584022487
 10
7265.2104310889
 20
4984.4036013065
 10
7269.6930386004
 20
4984.4493974827
 10
7273.4558089811
 20
4984.4914793848
  0
LWPOLYLINE
  5
282
330
1F
100
AcDbEntity
  8
0
  6
Continuous
 62
     7
370
    25
100
AcDbPolyline
 90
        7
 70
   128
 43
0.0
 10
7255.4191487752
 20
4983.6406509376
 10
7256.6428756823
 20
4983.6553197921
 10
7260.8846952892
 20
4983.702696421
 10
7265.2104310889
 20
4983.747905927
 10
7269.5361668885
 20
4983.7936916549
 10
7273.7779864954
 20
4983.8428197484
 10
7274.7380023836
 20
4983.8550299774
  0
LWPOLYLINE
  5
283
330
1F
100
AcDbEntity
  8
0
  6
Continuous
 62
     7
370
    25
100
AcDbPolyline
 90
        4
 70
   128
 43
0.0
 10
7258.3652695173
 20
4985.1745567558
 10
7260.8846952892
 20
4985.2026960712
 10
7265.2104310889
 20
4985.2479055772
 10
7266.775215345
 20
4985.264468028
  0
LWPOLYLINE
  5
284
330
1F
100
AcDbEntity
  8
0
  6
Continuous
 62
     7
370
    25
100
AcDbPolyline
 90
        7
 70
   128
 43
0.0
 10
7255.3069130342
 20
4983.2643056516
 10
7256.6428756823
 20
4983.2803198795
 10
7260.8846952892
 20
4983.3276965084
 10
7265.2104310889
 20
4983.3729060144
 10
7269.5361668885
 20
4983.4186917424
 10
7273.7779864954
 20
4983.4678198358
 10
7275.1699219453
 20
4983.4855235539
  0
LWPOLYLINE
  5
285
330
1F
100
AcDbEntity
  8
0
  6
Continuous
 62
     7
370
    25
100
AcDbPolyline
 90
        5
 70
   128
 43
0.0
 10
7257.6292305751
 20
4984.7913360684
 10
7260.8846952892
 20
4984.8276961586
 10
7265.2104310889
 20
4984.8729056646
 10
7269.5361668885
 20
4984.9186913926
 10
7272.4365675901
 20
4984.9522833814
  0
CIRCLE
  5
286
330
1F
100
AcDbEntity
  8
0
  6
Continuous
 62
     7
370
    25
100
AcDbCircle
 10
7265.2103536899
 20
4969.2391173595
 30
0.0
 40
19.99962607607419
  0
CIRCLE
  5
287
330
1F
100
AcDbEntity
  8
0
  6
Continuous
 62
     7
370
    25
100
AcDbCircle
 10
7265.210354794
 20
4969.2063025795
 30
0.0
 40
19.71433085080782
  0
CIRCLE
  5
288
330
1F
100
AcDbEntity
  8
0
  6
Continuous
 62
     7
370
    25
100
AcDbCircle
 10
7265.2103575881
 20
4969.2062048675
 30
0.0
 40
17.49964394837727
  0
ARC
  5
289
330
1F
100
AcDbEntity
  8
0
  6
Continuous
 62
     7
370
    25
100
AcDbCircle
 10
7265.2108836821
 20
4969.8843453747
 30
0.0
 40
19.99945221550913
100
AcDbArc
 50
0.0012399054
 51
90.0012966196
  0
ARC
  5
28A
330
1F
100
AcDbEntity
  8
0
  6
Continuous
 62
     7
370
    25
100
AcDbCircle
 10
7265.2099784956
 20
4969.8843453747
 30
0.0
 40
19.99945221551021
100
AcDbArc
 50
89.9987033805
 51
179.9987600948
  0
ARC
  5
28B
330
1F
100
AcDbEntity
  8
0
  6
Continuous
 62
     7
370
    25
100
AcDbCircle
 10
7262.7714899389
 20
4970.1983127249
 30
0.0
 40
15.04124211944789
100
AcDbArc
 50
177.7866363413
 51
205.5316956991
  0
ARC
  5
28C
330
1F
100
AcDbEntity
  8
0
  6
Continuous
 62
     7
370
    25
100
AcDbCircle
 10
7265.2104310888
 20
4970.7790982898
 30
0.0
 40
17.50027887422714
100
AcDbArc
 50
203.8055864032
 51
336.1944135968
  0
ARC
  5
28D
330
1F
100
AcDbEntity
  8
0
  6
Continuous
 62
     7
370
    25
100
AcDbCircle
 10
7266.8634016474
 20
4970.3045499076
 30
0.0
 40
15.7981170543002
100
AcDbArc
 50
335.3492710411
 51
1.7301743041
  0
ARC
  5
28E
330
1F
100
AcDbEntity
  8
0
  6
Continuous
 62
     7
370
    25
100
AcDbCircle
 10
7265.2104310888
 20
4970.6624551572
 30
0.0
 40
26.51333400675286
100
AcDbArc
 50
52.8503848833
 51
127.1496151167
  0
LWPOLYLINE
  5
28F
330
1F
100
AcDbEntity
  8
0
  6
Continuous
 62
     7
370
    25
100
AcDbPolyline
 90
        9
 70
   128
 43
0.0
 10
7243.1583438563
 20
5002.2583159667
 10
7243.3876075221
 20
5002.2577443213
 10
7243.7581606951
 20
5002.2572083616
 10
7244.258839154
 20
5002.2567242354
 10
7244.8745581944
 20
5002.2563065286
 10
7245.5867671085
 20
5002.2559678262
 10
7246.3740080911
 20
5002.2557183327
 10
7247.212562731
 20
5002.2555655651
 10
7248.0771666122
 20
5002.255514126
  0
LINE
  5
290
330
1F
100
AcDbEntity
  8
0
  6
Continuous
 62
     7
370
    25
100
AcDbLine
 10
7248.0771666122
 20
5002.255514126
 30
0.0
 11
7248.0771666122
 21
5000.2541487336
 31
0.0
  0
LWPOLYLINE
  5
291
330
1F
100
AcDbEntity
  8
0
  6
Continuous
 62
     7
370
    25
100
AcDbPolyline
 90
        9
 70
   128
 43
0.0
 10
7248.0771666122
 20
5000.2541487336
 10
7246.8667211786
 20
5000.2542207484
 10
7245.6927446827
 20
5000.2544346231
 10
7244.5906073071
 20
5000.254783914
 10
7243.5935148272
 20
5000.2552580973
 10
7242.7315081707
 20
5000.2558428868
 10
7242.0305583283
 20
5000.2565206635
 10
7241.5117838861
 20
5000.2572710071
 10
7241.1908147539
 20
5000.2580713107
  0
ARC
  5
292
330
1F
100
AcDbEntity
  8
0
  6
Continuous
 62
     7
370
    25
100
AcDbCircle
 10
7243.1750028909
 20
5000.2741327571
 30
0.0
 40
1.984253142384532
100
AcDbArc
 50
90.4810392222
 51
180.4637831314
  0
LINE
  5
293
330
1F
100
AcDbEntity
  8
0
  6
Continuous
 62
     7
370
    25
100
AcDbLine
 10
7248.0771666122
 20
5002.255514126
 30
0.0
 11
7282.3436955655
 21
5002.255514126
 31
0.0
  0
LINE
  5
294
330
1F
100
AcDbEntity
  8
0
  6
Continuous
 62
     7
370
    25
100
AcDbLine
 10
7282.3436955655
 20
5002.255514126
 30
0.0
 11
7282.3436955655
 21
5000.2541487336
 31
0.0
  0
LINE
  5
295
330
1F
100
AcDbEntity
  8
0
  6
Continuous
 62
     7
370
    25
100
AcDbLine
 10
7282.3436955655
 20
5000.2541487336
 30
0.0
 11
7248.0771666122
 21
5000.2541487336
 31
0.0
  0
LWPOLYLINE
  5
296
330
1F
100
AcDbEntity
  8
0
  6
Continuous
 62
     7
370
    25
100
AcDbPolyline
 90
        9
 70
   128
 43
0.0
 10
7282.3436955655
 20
5002.255514126
 10
7283.2082994467
 20
5002.2555655651
 10
7284.0468540866
 20
5002.2557183327
 10
7284.8340950692
 20
5002.2559678262
 10
7285.5463039833
 20
5002.2563065286
 10
7286.1620230237
 20
5002.2567242354
 10
7286.6627014826
 20
5002.2572083616
 10
7287.0332546556
 20
5002.2577443213
 10
7287.2625183214
 20
5002.2583159667
  0
ARC
  5
297
330
1F
100
AcDbEntity
  8
0
  6
Continuous
 62
     7
370
    25
100
AcDbCircle
 10
7287.2458592868
 20
5000.2741327571
 30
0.0
 40
1.984253142380923
100
AcDbArc
 50
359.5362168685
 51
89.5189607779
  0
LWPOLYLINE
  5
298
330
1F
100
AcDbEntity
  8
0
  6
Continuous
 62
     7
370
    25
100
AcDbPolyline
 90
        9
 70
   128
 43
0.0
 10
7289.2300474238
 20
5000.2580713107
 10
7288.9090782916
 20
5000.2572710071
 10
7288.3903038494
 20
5000.2565206635
 10
7287.689354007
 20
5000.2558428868
 10
7286.8273473505
 20
5000.2552580973
 10
7285.8302548706
 20
5000.254783914
 10
7284.728117495
 20
5000.2544346231
 10
7283.5541409991
 20
5000.2542207484
 10
7282.3436955655
 20
5000.2541487336
  0
LWPOLYLINE
  5
299
330
1F
100
AcDbEntity
  8
0
  6
Continuous
 62
     7
370
    25
100
AcDbPolyline
 90
        9
 70
   128
 43
0.0
 10
7241.1908147539
 20
4997.2580720103
 10
7241.5117838861
 20
4997.2572717067
 10
7242.0305583283
 20
4997.2565213631
 10
7242.7315081707
 20
4997.2558435864
 10
7243.5935148272
 20
4997.2552587969
 10
7244.5906073071
 20
4997.2547846136
 10
7245.6927446827
 20
4997.2544353227
 10
7246.8667211786
 20
4997.254221448
 10
7248.0771666122
 20
4997.2541494332
  0
LINE
  5
29A
330
1F
100
AcDbEntity
  8
0
  6
Continuous
 62
     7
370
    25
100
AcDbLine
 10
7241.1908147539
 20
5000.2580713107
 30
0.0
 11
7241.1908147539
 21
4997.2580720103
 31
0.0
  0
LINE
  5
29B
330
1F
100
AcDbEntity
  8
0
  6
Continuous
 62
     7
370
    25
100
AcDbLine
 10
7248.0771666122
 20
5000.2541487336
 30
0.0
 11
7248.0771666122
 21
4997.2541494332
 31
0.0
  0
LINE
  5
29C
330
1F
100
AcDbEntity
  8
0
  6
Continuous
 62
     7
370
    25
100
AcDbLine
 10
7248.0771666122
 20
4997.2541494332
 30
0.0
 11
7282.3436955655
 21
4997.2541494332
 31
0.0
  0
LINE
  5
29D
330
1F
100
AcDbEntity
  8
0
  6
Continuous
 62
     7
370
    25
100
AcDbLine
 10
7282.3436955655
 20
5000.2541487336
 30
0.0
 11
7282.3436955655
 21
4997.2541494332
 31
0.0
  0
LWPOLYLINE
  5
29E
330
1F
100
AcDbEntity
  8
0
  6
Continuous
 62
     7
370
    25
100
AcDbPolyline
 90
        9
 70
   128
 43
0.0
 10
7282.3436955655
 20
4997.2541494332
 10
7283.5541409991
 20
4997.254221448
 10
7284.728117495
 20
4997.2544353227
 10
7285.8302548706
 20
4997.2547846136
 10
7286.8273473505
 20
4997.2552587969
 10
7287.689354007
 20
4997.2558435864
 10
7288.3903038494
 20
4997.2565213631
 10
7288.9090782916
 20
4997.2572717067
 10
7289.2300474238
 20
4997.2580720103
  0
LINE
  5
29F
330
1F
100
AcDbEntity
  8
0
  6
Continuous
 62
     7
370
    25
100
AcDbLine
 10
7289.2300474238
 20
5000.2580713107
 30
0.0
 11
7289.2300474238
 21
4997.2580720103
 31
0.0
  0
LWPOLYLINE
  5
2A0
330
1F
100
AcDbEntity
  8
0
  6
Continuous
 62
     7
370
    25
100
AcDbPolyline
 90
        9
 70
   128
 43
0.0
 10
7233.0385639649
 20
5002.2710417133
 10
7234.9240828724
 20
5002.2697268547
 10
7236.6512238463
 20
5002.2683141599
 10
7238.2091401337
 20
5002.2668125007
 10
7239.5880477428
 20
5002.2652313078
 10
7240.7792868882
 20
5002.2635805115
 10
7241.7753763758
 20
5002.261870479
 10
7242.5700605862
 20
5002.2601119497
 10
7243.1583438563
 20
5002.2583159667
  0
LWPOLYLINE
  5
2A1
330
1F
100
AcDbEntity
  8
0
  6
Continuous
 62
     7
370
    25
100
AcDbPolyline
 90
       11
 70
   128
 43
0.0
 10
7297.3822982128
 20
5002.2710417133
 10
7300.232254016
 20
5002.2730350827
 10
7302.8183659195
 20
5002.2751897187
 10
7305.1211509328
 20
5002.2774893887
 10
7307.1232605648
 20
5002.2799167679
 10
7308.8096115226
 20
5002.282453569
 10
7310.1674993445
 20
5002.2850806806
 10
7311.1866941113
 20
5002.2877783107
 10
7311.8595175155
 20
5002.2905261363
 10
7312.1809007076
 20
5002.2933034561
 10
7312.2101813728
 20
5002.2943364676
  0
LWPOLYLINE
  5
2A2
330
1F
100
AcDbEntity
  8
0
  6
Continuous
 62
     7
370
    25
100
AcDbPolyline
 90
        7
 70
   128
 43
0.0
 10
7312.2094733806
 20
5002.2946460048
 10
7312.1484224832
 20
5002.2960893465
 10
7311.7623275234
 20
5002.2988628195
 10
7311.0255245518
 20
5002.3016029806
 10
7309.9435644206
 20
5002.3042891862
 10
7308.5245982929
 20
5002.3069011993
 10
7306.9604310888
 20
5002.309182529
  0
LWPOLYLINE
  5
2A3
330
1F
100
AcDbEntity
  8
0
  6
Continuous
 62
     7
370
    25
100
AcDbPolyline
 90
        5
 70
   128
 43
0.0
 10
7223.4604310888
 20
5002.309182529
 10
7221.8962638848
 20
5002.3069011993
 10
7220.4772977571
 20
5002.3042891862
 10
7219.3953376259
 20
5002.3016029806
 10
7219.210399719
 20
5002.3010269291
  0
LWPOLYLINE
  5
2A4
330
1F
100
AcDbEntity
  8
0
  6
Continuous
 62
     7
370
    25
100
AcDbPolyline
 90
        9
 70
   128
 43
0.0
 10
7219.2104027604
 20
5002.2878552592
 10
7219.2341680664
 20
5002.2877783107
 10
7220.2533628332
 20
5002.2850806806
 10
7221.6112506551
 20
5002.282453569
 10
7223.2976016129
 20
5002.2799167679
 10
7225.2997112449
 20
5002.2774893887
 10
7227.6024962582
 20
5002.2751897187
 10
7230.1886081617
 20
5002.2730350827
 10
7233.0385639649
 20
5002.2710417133
  0
LWPOLYLINE
  5
2A5
330
1F
100
AcDbEntity
  8
0
  6
Continuous
 62
     7
370
    25
100
AcDbPolyline
 90
        9
 70
   128
 43
0.0
 10
7287.2625183214
 20
5002.2583159667
 10
7287.8508064099
 20
5002.2601119488
 10
7288.6454905038
 20
5002.2618704779
 10
7289.6415798453
 20
5002.2635805101
 10
7290.832818816
 20
5002.2652313062
 10
7292.211726223
 20
5002.2668124988
 10
7293.769642282
 20
5002.2683141578
 10
7295.4967830027
 20
5002.2697268525
 10
7297.3822982128
 20
5002.2710417133
  0
LWPOLYLINE
  5
2A6
330
1F
100
AcDbEntity
  8
0
  6
Continuous
 62
     7
370
    25
100
AcDbPolyline
 90
       18
 70
   128
 43
0.0
 10
7265.2104310889
 20
5002.2659287986
 10
7269.0626350964
 20
5002.266050427
 10
7272.8819734577
 20
5002.2664142747
 10
7276.6358609244
 20
5002.2670172373
 10
7280.2922706522
 20
5002.2678541707
 10
7283.8200074425
 20
5002.2689179343
 10
7287.188973889
 20
5002.2701994526
 10
7290.3704271577
 20
5002.2716877921
 10
7293.3372242111
 20
5002.2733702548
 10
7296.0640533828
 20
5002.2752324865
 10
7298.5276503278
 20
5002.2772585992
 10
7300.7069965056
 20
5002.2794313071
 10
7302.5834985029
 20
5002.2817320731
 10
7304.1411466665
 20
5002.2841412681
 10
7305.3666516913
 20
5002.2866383377
 10
7306.2495580007
 20
5002.2892019776
 10
7306.7823329492
 20
5002.2918103159
 10
7306.9604310888
 20
5002.2944410991
  0
LWPOLYLINE
  5
2A7
330
1F
100
AcDbEntity
  8
0
  6
Continuous
 62
     7
370
    25
100
AcDbPolyline
 90
       18
 70
   128
 43
0.0
 10
7223.4604310888
 20
5002.2944410991
 10
7223.6385292285
 20
5002.2918103159
 10
7224.171304177
 20
5002.2892019776
 10
7225.0542104864
 20
5002.2866383377
 10
7226.2797155112
 20
5002.2841412681
 10
7227.8373636748
 20
5002.2817320731
 10
7229.7138656721
 20
5002.2794313071
 10
7231.8932118499
 20
5002.2772585992
 10
7234.3568087949
 20
5002.2752324865
 10
7237.0836379666
 20
5002.2733702548
 10
7240.05043502
 20
5002.2716877921
 10
7243.2318882887
 20
5002.2701994526
 10
7246.6008547352
 20
5002.2689179343
 10
7250.1285915255
 20
5002.2678541707
 10
7253.7850012533
 20
5002.2670172373
 10
7257.53888872
 20
5002.2664142747
 10
7261.3582270813
 20
5002.266050427
 10
7265.2104310889
 20
5002.2659287986
  0
LWPOLYLINE
  5
2A8
330
1F
100
AcDbEntity
  8
0
  6
Continuous
 62
     7
370
    25
100
AcDbPolyline
 90
        3
 70
   128
 43
0.0
 10
7282.9976721244
 20
4949.6710989766
 10
7282.6514764834
 20
4949.4413400852
 10
7282.5586651638
 20
4949.4252214694
  0
LWPOLYLINE
  5
2A9
330
1F
100
AcDbEntity
  8
0
  6
Continuous
 62
     7
370
    25
100
AcDbPolyline
 90
        3
 70
   128
 43
0.0
 10
7247.4231900534
 20
4949.6710989766
 10
7247.7693856943
 20
4949.4413400852
 10
7248.1155806817
 20
4949.3812161258
  0
LWPOLYLINE
  5
2AA
330
1F
100
AcDbEntity
  8
0
  6
Continuous
 62
     7
370
    25
100
AcDbPolyline
 90
        9
 70
   128
 43
0.0
 10
7241.1908147539
 20
5000.2580713107
 10
7240.6371267093
 20
5000.2597616625
 10
7239.8891817984
 20
5000.2614167641
 10
7238.9516772484
 20
5000.2630262211
 10
7237.8305007549
 20
5000.2645799259
 10
7236.5326935061
 20
5000.266068121
 10
7235.0664059626
 20
5000.2674814602
 10
7233.4408466714
 20
5000.2688110675
 10
7231.6662244344
 20
5000.2700485928
  0
ARC
  5
2AB
330
1F
100
AcDbEntity
  8
0
  6
Continuous
 62
     7
370
    25
100
AcDbCircle
 10
7233.4256634438
 20
5000.5344657554
 30
0.0
 40
1.779197027887055
100
AcDbArc
 50
102.5663335719
 51
188.5467308099
  0
ARC
  5
2AC
330
1F
100
AcDbEntity
  8
0
  6
Continuous
 62
     7
370
    25
100
AcDbCircle
 10
7296.992139432
 20
5000.5323675969
 30
0.0
 40
1.781912331531633
100
AcDbArc
 50
351.5346036349
 51
77.3523319832
  0
LWPOLYLINE
  5
2AD
330
1F
100
AcDbEntity
  8
0
  6
Continuous
 62
     7
370
    25
100
AcDbPolyline
 90
        9
 70
   128
 43
0.0
 10
7298.7546377433
 20
5000.2700485928
 10
7296.9800155063
 20
5000.2688110675
 10
7295.3544562151
 20
5000.2674814602
 10
7293.8881686716
 20
5000.266068121
 10
7292.5903614228
 20
5000.2645799259
 10
7291.4691849293
 20
5000.2630262211
 10
7290.5316803793
 20
5000.2614167641
 10
7289.7837354684
 20
5000.2597616625
 10
7289.2300474238
 20
5000.2580713107
  0
LINE
  5
2AE
330
1F
100
AcDbEntity
  8
0
  6
Continuous
 62
     7
370
    25
100
AcDbLine
 10
7231.6662244344
 20
5000.2700485928
 30
0.0
 11
7231.6662244344
 21
4997.2700492924
 31
0.0
  0
LWPOLYLINE
  5
2AF
330
1F
100
AcDbEntity
  8
0
  6
Continuous
 62
     7
370
    25
100
AcDbPolyline
 90
        9
 70
   128
 43
0.0
 10
7231.6662244344
 20
4997.2700492924
 10
7233.4408466714
 20
4997.2688117671
 10
7235.0664059626
 20
4997.2674821598
 10
7236.5326935061
 20
4997.2660688206
 10
7237.8305007549
 20
4997.2645806255
 10
7238.9516772484
 20
4997.2630269207
 10
7239.8891817984
 20
4997.2614174636
 10
7240.6371267093
 20
4997.2597623621
 10
7241.1908147539
 20
4997.2580720103
  0
LINE
  5
2B0
330
1F
100
AcDbEntity
  8
0
  6
Continuous
 62
     7
370
    25
100
AcDbLine
 10
7298.7546377433
 20
5000.2700485928
 30
0.0
 11
7298.7546377433
 21
4997.2700492924
 31
0.0
  0
LWPOLYLINE
  5
2B1
330
1F
100
AcDbEntity
  8
0
  6
Continuous
 62
     7
370
    25
100
AcDbPolyline
 90
        9
 70
   128
 43
0.0
 10
7289.2300474238
 20
4997.2580720103
 10
7289.7837354684
 20
4997.2597623621
 10
7290.5316803793
 20
4997.2614174636
 10
7291.4691849293
 20
4997.2630269207
 10
7292.5903614228
 20
4997.2645806255
 10
7293.8881686716
 20
4997.2660688206
 10
7295.3544562151
 20
4997.2674821598
 10
7296.9800155063
 20
4997.2688117671
 10
7298.7546377433
 20
4997.2700492924
  0
LINE
  5
2B2
330
1F
100
AcDbEntity
  8
0
  6
Continuous
 62
     7
370
    25
100
AcDbLine
 10
7258.2553952133
 20
4985.264468028
 30
0.0
 11
7272.1654669644
 21
4985.264468028
 31
0.0
  0
LWPOLYLINE
  5
2B3
330
1F
100
AcDbEntity
  8
0
  6
Continuous
 62
     7
370
    25
100
AcDbPolyline
 90
       22
 70
   128
 43
0.0
 10
7265.2104310889
 20
5005.265928099
 10
7269.0626350964
 20
5005.2660497275
 10
7272.8819734577
 20
5005.2664135751
 10
7276.6358609244
 20
5005.2670165377
 10
7280.2922706522
 20
5005.2678534711
 10
7283.8200074425
 20
5005.2689172347
 10
7287.188973889
 20
5005.270198753
 10
7290.3704271577
 20
5005.2716870925
 10
7293.3372242111
 20
5005.2733695552
 10
7296.0640533828
 20
5005.2752317869
 10
7298.5276503278
 20
5005.2772578997
 10
7300.7069965056
 20
5005.2794306075
 10
7302.5834985029
 20
5005.2817313736
 10
7304.1411466665
 20
5005.2841405686
 10
7305.3666516913
 20
5005.2866376381
 10
7306.2495580007
 20
5005.289201278
 10
7306.7823329492
 20
5005.2918096163
 10
7306.9604310888
 20
5005.2944403995
 10
7306.7823329492
 20
5005.2970711827
 10
7306.2495580007
 20
5005.299679521
 10
7305.3666516913
 20
5005.3022431609
 10
7305.2104310889
 20
5005.3026088312
  0
LWPOLYLINE
  5
2B4
330
1F
100
AcDbEntity
  8
0
  6
Continuous
 62
     7
370
    25
100
AcDbPolyline
 90
       22
 70
   128
 43
0.0
 10
7225.2104310889
 20
5005.3026088312
 10
7225.0542104864
 20
5005.3022431609
 10
7224.171304177
 20
5005.299679521
 10
7223.6385292285
 20
5005.2970711827
 10
7223.4604310888
 20
5005.2944403995
 10
7223.6385292285
 20
5005.2918096163
 10
7224.171304177
 20
5005.289201278
 10
7225.0542104864
 20
5005.2866376381
 10
7226.2797155112
 20
5005.2841405686
 10
7227.8373636748
 20
5005.2817313736
 10
7229.7138656721
 20
5005.2794306075
 10
7231.8932118499
 20
5005.2772578997
 10
7234.3568087949
 20
5005.2752317869
 10
7237.0836379666
 20
5005.2733695552
 10
7240.05043502
 20
5005.2716870925
 10
7243.2318882887
 20
5005.270198753
 10
7246.6008547352
 20
5005.2689172347
 10
7250.1285915255
 20
5005.2678534711
 10
7253.7850012533
 20
5005.2670165377
 10
7257.53888872
 20
5005.2664135751
 10
7261.3582270813
 20
5005.2660497275
 10
7265.2104310889
 20
5005.265928099
  0
LWPOLYLINE
  5
2B5
330
1F
100
AcDbEntity
  8
0
  6
Continuous
 62
     7
370
    25
100
AcDbPolyline
 90
       11
 70
   128
 43
0.0
 10
7298.7546377433
 20
4997.2700492924
 10
7301.67477237
 20
4997.2720889554
 10
7304.3299338685
 20
4997.2742910518
 10
7306.7008281443
 20
4997.2766395798
 10
7308.7702267695
 20
4997.2791174734
 10
7310.5230921758
 20
4997.2817067267
 10
7311.9466869266
 20
4997.2843885246
 10
7313.0306662759
 20
4997.2871433793
 10
7313.7671533392
 20
4997.2899512724
 10
7314.1507963325
 20
4997.2927917999
 10
7314.2104310888
 20
4997.2944422651
  0
ARC
  5
2B6
330
1F
100
AcDbEntity
  8
0
  6
Continuous
 62
     7
370
    25
100
AcDbCircle
 10
7217.0608009226
 20
5049.3854339877
 30
0.0
 40
52.0979322766194
100
AcDbArc
 50
269.0647466393
 51
270.1644887691
  0
LWPOLYLINE
  5
2B7
330
1F
100
AcDbEntity
  8
0
  6
Continuous
 62
     7
370
    25
100
AcDbPolyline
 90
        7
 70
   128
 43
0.0
 10
7219.2103671083
 20
4997.2829132097
 10
7219.8977700019
 20
4997.2817067267
 10
7221.6506354082
 20
4997.2791174734
 10
7223.7200340334
 20
4997.2766395798
 10
7226.0909283092
 20
4997.2742910518
 10
7228.7460898077
 20
4997.2720889554
 10
7231.6662244344
 20
4997.2700492924
  0
LINE
  5
2B8
330
1F
100
AcDbEntity
  8
0
  6
Continuous
 62
     7
370
    25
100
AcDbLine
 10
7253.9511760711
 20
4930.0980873241
 30
0.0
 11
7254.3501928459
 21
4945.3359196329
 31
0.0
  0
ARC
  5
2B9
330
1F
100
AcDbEntity
  8
0
  6
Continuous
 62
     7
370
    25
100
AcDbCircle
 10
7248.7161053576
 20
4977.9542643893
 30
0.0
 40
48.14166229649545
100
AcDbArc
 50
263.7917309822
 51
276.2428624162
  0
ARC
  5
2BA
330
1F
100
AcDbEntity
  8
0
  6
Continuous
 62
     7
370
    25
100
AcDbCircle
 10
7281.70475682
 20
4977.9542643072
 30
0.0
 40
48.14166221483804
100
AcDbArc
 50
263.7571375732
 51
276.2082690284
  0
LINE
  5
2BB
330
1F
100
AcDbEntity
  8
0
  6
Continuous
 62
     7
370
    25
100
AcDbLine
 10
7276.4696861066
 20
4930.0980873241
 30
0.0
 11
7276.0706693318
 21
4945.3359196329
 31
0.0
  0
LINE
  5
2BC
330
1F
100
AcDbEntity
  8
0
  6
Continuous
 62
     7
370
    25
100
AcDbLine
 10
7254.6480833809
 20
4956.8256908033
 30
0.0
 11
7255.5195558345
 21
4981.7813908932
 31
0.0
  0
LINE
  5
2BD
330
1F
100
AcDbEntity
  8
0
  6
Continuous
 62
     7
370
    25
100
AcDbLine
 10
7275.7727787968
 20
4956.8256908033
 30
0.0
 11
7274.9013063432
 21
4981.7813908932
 31
0.0
  0
LWPOLYLINE
  5
2BE
330
1F
100
AcDbEntity
  8
0
  6
Continuous
 62
     7
370
    25
100
AcDbPolyline
 90
        6
 70
   128
 43
0.0
 10
7246.9535747963
 20
4923.2825541314
 10
7245.6759571738
 20
4923.7734921049
 10
7244.5714375138
 20
4925.2094320932
 10
7243.8074193805
 20
4927.4174469381
 10
7243.5945085842
 20
4928.7208950291
 10
7243.5099296585
 20
4930.0949352751
  0
ARC
  5
2BF
330
1F
100
AcDbEntity
  8
0
  6
Continuous
 62
     7
370
    25
100
AcDbCircle
 10
7246.9550188204
 20
4930.2811046627
 30
0.0
 40
6.998550680202929
100
AcDbArc
 50
269.9881780543
 51
358.5015016538
  0
LWPOLYLINE
  5
2C0
330
1F
100
AcDbEntity
  8
0
  6
Continuous
 62
     7
370
    25
100
AcDbPolyline
 90
        6
 70
   128
 43
0.0
 10
7286.9109325192
 20
4930.0949352751
 10
7286.8263563193
 20
4928.7209133357
 10
7286.6134496034
 20
4927.4174697851
 10
7285.8494246639
 20
4925.2094320932
 10
7284.7449050039
 20
4923.7734921049
 10
7283.4672873814
 20
4923.2825541314
  0
ARC
  5
2C1
330
1F
100
AcDbEntity
  8
0
  6
Continuous
 62
     7
370
    25
100
AcDbCircle
 10
7283.4658433573
 20
4930.2811046627
 30
0.0
 40
6.998550680203539
100
AcDbArc
 50
181.4984983462
 51
270.0118219457
  0
LWPOLYLINE
  5
2C2
330
1F
100
AcDbEntity
  8
0
  6
Continuous
 62
     7
370
    25
100
AcDbPolyline
 90
        8
 70
   128
 43
0.0
 10
7246.9535747963
 20
4923.2825541314
 10
7245.0032885485
 20
4923.2841274596
 10
7243.3419291661
 20
4923.2858485183
 10
7241.9932511883
 20
4923.2876926992
 10
7240.976538356
 20
4923.2896336339
 10
7240.3063278879
 20
4923.2916435704
 10
7239.9922026239
 20
4923.2936937701
 10
7239.9720748436
 20
4923.2941237882
  0
LWPOLYLINE
  5
2C3
330
1F
100
AcDbEntity
  8
0
  6
Continuous
 62
     7
370
    25
100
AcDbPolyline
 90
        8
 70
   128
 43
0.0
 10
7290.4447272519
 20
4923.2940031319
 10
7290.4286595538
 20
4923.2936937701
 10
7290.1145342898
 20
4923.2916435704
 10
7289.4443238217
 20
4923.2896336339
 10
7288.4276109894
 20
4923.2876926992
 10
7287.0789330116
 20
4923.2858485183
 10
7285.4175736292
 20
4923.2841274596
 10
7283.4672873814
 20
4923.2825541314
  0
ARC
  5
2C4
330
1F
100
AcDbEntity
  8
0
  6
Continuous
 62
     7
370
    25
100
AcDbCircle
 10
7255.1446407444
 20
4628.971453738
 30
0.0
 40
301.1334282364145
100
AcDbArc
 50
89.9618535685
 51
90.2270776386
  0
ARC
  5
2C5
330
1F
100
AcDbEntity
  8
0
  6
Continuous
 62
     7
370
    25
100
AcDbCircle
 10
7275.2762214334
 20
4628.9714537393
 30
0.0
 40
301.1334282351431
100
AcDbArc
 50
89.7729223614
 51
90.0381464315
  0
LWPOLYLINE
  5
2C6
330
1F
100
AcDbEntity
  8
0
  6
Continuous
 62
     7
370
    25
100
AcDbPolyline
 90
        9
 70
   128
 43
0.0
 10
7250.3970782789
 20
4923.2914346309
 10
7251.3468341936
 20
4923.4208567704
 10
7252.2612942517
 20
4923.8056106957
 10
7253.1064742992
 20
4924.4313977654
 10
7253.8509648409
 20
4925.2749618033
 10
7254.4670983142
 20
4926.3049533702
 10
7254.9319773002
 20
4927.4830948053
 10
7255.2283254633
 20
4928.7656027422
 10
7255.3451295924
 20
4930.1048152336
  0
LWPOLYLINE
  5
2C7
330
1F
100
AcDbEntity
  8
0
  6
Continuous
 62
     7
370
    25
100
AcDbPolyline
 90
        8
 70
   128
 43
0.0
 10
7250.3970782789
 20
4923.2914346309
 10
7249.622258276
 20
4923.2908508068
 10
7248.9349623454
 20
4923.2902179284
 10
7248.3418095225
 20
4923.2895420908
 10
7247.8485121935
 20
4923.2888298026
 10
7247.4598210811
 20
4923.2880879236
 10
7247.1794794933
 20
4923.2873235984
 10
7247.0416690552
 20
4923.2867382572
  0
LWPOLYLINE
  5
2C8
330
1F
100
AcDbEntity
  8
0
  6
Continuous
 62
     7
370
    25
100
AcDbPolyline
 90
        9
 70
   128
 43
0.0
 10
7275.0757325853
 20
4930.1048152336
 10
7275.1925367144
 20
4928.7656027422
 10
7275.4888848775
 20
4927.4830948053
 10
7275.9537638636
 20
4926.3049533702
 10
7276.5698973368
 20
4925.2749618033
 10
7277.3143878785
 20
4924.4313977654
 10
7278.159567926
 20
4923.8056106957
 10
7279.0740279841
 20
4923.4208567704
 10
7280.0237838988
 20
4923.2914346309
  0
LWPOLYLINE
  5
2C9
330
1F
100
AcDbEntity
  8
0
  6
Continuous
 62
     7
370
    25
100
AcDbPolyline
 90
        6
 70
   128
 43
0.0
 10
7282.8773070433
 20
4923.2882687215
 10
7282.5723499842
 20
4923.2888298026
 10
7282.0790526552
 20
4923.2895420908
 10
7281.4858998323
 20
4923.2902179284
 10
7280.7986039017
 20
4923.2908508068
 10
7280.0237838988
 20
4923.2914346309
  0
LINE
  5
2CA
330
1F
100
AcDbEntity
  8
0
  6
Continuous
 62
     7
370
    25
100
AcDbLine
 10
7255.3451295924
 20
4930.1048152336
 30
0.0
 11
7259.0877702795
 21
4930.1073711928
 31
0.0
  0
LINE
  5
2CB
330
1F
100
AcDbEntity
  8
0
  6
Continuous
 62
     7
370
    25
100
AcDbLine
 10
7271.3330918982
 20
4930.1073711928
 30
0.0
 11
7275.0757325853
 21
4930.1048152336
 31
0.0
  0
LWPOLYLINE
  5
2CC
330
1F
100
AcDbEntity
  8
0
  6
Continuous
 62
     7
370
    25
100
AcDbPolyline
 90
        9
 70
   128
 43
0.0
 10
7254.1397189661
 20
4923.2939905901
 10
7255.0894748808
 20
4923.4234127296
 10
7256.0039349388
 20
4923.8081666549
 10
7256.8491149863
 20
4924.4339537246
 10
7257.5936055281
 20
4925.2775177625
 10
7258.2097390013
 20
4926.3075093294
 10
7258.6746179873
 20
4927.4856507645
 10
7258.9709661504
 20
4928.7681587014
 10
7259.0877702795
 20
4930.1073711928
  0
LINE
  5
2CD
330
1F
100
AcDbEntity
  8
0
  6
Continuous
 62
     7
370
    25
100
AcDbLine
 10
7254.1397189661
 20
4923.2939905901
 30
0.0
 11
7250.3970782789
 21
4923.2914346309
 31
0.0
  0
LWPOLYLINE
  5
2CE
330
1F
100
AcDbEntity
  8
0
  6
Continuous
 62
     7
370
    25
100
AcDbPolyline
 90
        9
 70
   128
 43
0.0
 10
7271.3330918982
 20
4930.1073711928
 10
7271.4498960273
 20
4928.7681587014
 10
7271.7462441904
 20
4927.4856507645
 10
7272.2111231764
 20
4926.3075093294
 10
7272.8272566496
 20
4925.2775177625
 10
7273.5717471914
 20
4924.4339537246
 10
7274.4169272389
 20
4923.8081666549
 10
7275.3313872969
 20
4923.4234127296
 10
7276.2811432116
 20
4923.2939905901
  0
LINE
  5
2CF
330
1F
100
AcDbEntity
  8
0
  6
Continuous
 62
     7
370
    25
100
AcDbLine
 10
7280.0237838988
 20
4923.2914346309
 30
0.0
 11
7276.2811432116
 21
4923.2939905901
 31
0.0
  0
LWPOLYLINE
  5
2D0
330
1F
100
AcDbEntity
  8
0
  6
Continuous
 62
     7
370
    25
100
AcDbPolyline
 90
        9
 70
   128
 43
0.0
 10
7259.0877702795
 20
4930.1073711928
 10
7259.4338323551
 20
4930.1075853952
 10
7259.8089713568
 20
4930.1077754012
 10
7260.2095744909
 20
4930.1079393809
 10
7260.6317837303
 20
4930.1080757552
 10
7261.0715329692
 20
4930.1081832105
 10
7261.524587182
 20
4930.1082607122
 10
7261.986583209
 20
4930.1083075138
 10
7262.453071776
 20
4930.1083231646
  0
LWPOLYLINE
  5
2D1
330
1F
100
AcDbEntity
  8
0
  6
Continuous
 62
     7
370
    25
100
AcDbPolyline
 90
        9
 70
   128
 43
0.0
 10
7267.9677904017
 20
4930.1083231646
 10
7268.4342789687
 20
4930.1083075138
 10
7268.8962749957
 20
4930.1082607122
 10
7269.3493292085
 20
4930.1081832105
 10
7269.7890784474
 20
4930.1080757552
 10
7270.2112876868
 20
4930.1079393809
 10
7270.6118908209
 20
4930.1077754012
 10
7270.9870298226
 20
4930.1075853952
 10
7271.3330918982
 20
4930.1073711928
  0
LINE
  5
2D2
330
1F
100
AcDbEntity
  8
0
  6
Continuous
 62
     7
370
    25
100
AcDbLine
 10
7262.453071776
 20
4923.2963422597
 30
0.0
 11
7262.453071776
 21
4930.1083231646
 31
0.0
  0
LWPOLYLINE
  5
2D3
330
1F
100
AcDbEntity
  8
0
  6
Continuous
 62
     7
370
    25
100
AcDbPolyline
 90
        9
 70
   128
 43
0.0
 10
7262.453071776
 20
4923.2963422597
 10
7261.3006983429
 20
4923.2963035973
 10
7260.159422896
 20
4923.2961879827
 10
7259.0402365416
 20
4923.2959965292
 10
7257.9539176561
 20
4923.2957310807
 10
7256.9109280843
 20
4923.2953941934
 10
7255.9213123859
 20
4923.294989112
 10
7254.9946011011
 20
4923.2945197374
 10
7254.1397189661
 20
4923.2939905901
  0
LINE
  5
2D4
330
1F
100
AcDbEntity
  8
0
  6
Continuous
 62
     7
370
    25
100
AcDbLine
 10
7267.9677904017
 20
4930.1083231646
 30
0.0
 11
7267.9677904017
 21
4923.2963422597
 31
0.0
  0
LWPOLYLINE
  5
2D5
330
1F
100
AcDbEntity
  8
0
  6
Continuous
 62
     7
370
    25
100
AcDbPolyline
 90
        9
 70
   128
 43
0.0
 10
7276.2811432116
 20
4923.2939905901
 10
7275.4262610766
 20
4923.2945197374
 10
7274.4995497918
 20
4923.294989112
 10
7273.5099340934
 20
4923.2953941934
 10
7272.4669445216
 20
4923.2957310807
 10
7271.3806256361
 20
4923.2959965292
 10
7270.2614392817
 20
4923.2961879827
 10
7269.1201638348
 20
4923.2963035973
 10
7267.9677904017
 20
4923.2963422597
  0
LINE
  5
2D6
330
1F
100
AcDbEntity
  8
0
  6
Continuous
 62
     7
370
    25
100
AcDbLine
 10
7262.453071776
 20
4930.1083231646
 30
0.0
 11
7267.9677904017
 21
4930.1083231646
 31
0.0
  0
LINE
  5
2D7
330
1F
100
AcDbEntity
  8
0
  6
Continuous
 62
     7
370
    25
100
AcDbLine
 10
7267.9677904017
 20
4923.2963422597
 30
0.0
 11
7262.453071776
 21
4923.2963422597
 31
0.0
  0
LINE
  5
2D8
330
1F
100
AcDbEntity
  8
0
  6
Continuous
 62
     7
370
    25
100
AcDbLine
 10
7342.3954765126
 20
4913.3350579112
 30
0.0
 11
7342.3954765126
 21
4907.8784525118
 31
0.0
  0
LINE
  5
2D9
330
1F
100
AcDbEntity
  8
0
  6
Continuous
 62
     7
370
    25
100
AcDbLine
 10
7342.3954765126
 20
4913.3350579112
 30
0.0
 11
7347.2104310889
 21
4913.3293624539
 31
0.0
  0
LINE
  5
2DA
330
1F
100
AcDbEntity
  8
0
  6
Continuous
 62
     7
370
    25
100
AcDbLine
 10
7347.2104310889
 20
4913.3407533686
 30
0.0
 11
7342.3954765126
 21
4913.3350579112
 31
0.0
  0
LINE
  5
2DB
330
1F
100
AcDbEntity
  8
0
  6
Continuous
 62
     7
370
    25
100
AcDbLine
 10
7362.0253856651
 20
4913.3350579112
 30
0.0
 11
7357.2104310888
 21
4913.3407533686
 31
0.0
  0
LINE
  5
2DC
330
1F
100
AcDbEntity
  8
0
  6
Continuous
 62
     7
370
    25
100
AcDbLine
 10
7357.2104310889
 20
4913.3293624539
 30
0.0
 11
7362.0253856651
 21
4913.3350579112
 31
0.0
  0
LINE
  5
2DD
330
1F
100
AcDbEntity
  8
0
  6
Continuous
 62
     7
370
    25
100
AcDbLine
 10
7362.0253856651
 20
4913.3350579112
 30
0.0
 11
7362.0253856651
 21
4907.8784525118
 31
0.0
  0
LWPOLYLINE
  5
2DE
330
1F
100
AcDbEntity
  8
0
  6
Continuous
 62
     7
370
    25
100
AcDbPolyline
 90
       22
 70
   128
 43
0.0
 10
7356.2104310888
 20
4993.3350392555
 10
7356.032722312
 20
4993.3358444434
 10
7355.5153861861
 20
4993.3365780868
 10
7354.7043902963
 20
4993.3371749982
 10
7353.6717951863
 20
4993.3375821396
 10
7352.5093514632
 20
4993.3377633345
 10
7351.320347353
 20
4993.3377024831
 10
7350.2104310889
 20
4993.3374049922
 10
7349.2782236015
 20
4993.3368972953
 10
7348.6065556172
 20
4993.3362245033
 10
7348.2551077839
 20
4993.3354463969
 10
7348.2551077839
 20
4993.3346321142
 10
7348.6065556172
 20
4993.3338540078
 10
7349.2782236015
 20
4993.3331812158
 10
7350.2104310889
 20
4993.3326735189
 10
7351.320347353
 20
4993.332376028
 10
7352.5093514632
 20
4993.3323151766
 10
7353.6717951863
 20
4993.3324963715
 10
7354.7043902963
 20
4993.3329035129
 10
7355.5153861861
 20
4993.3335004243
 10
7356.032722312
 20
4993.3342340677
 10
7356.2104310888
 20
4993.3350392555
  0
LWPOLYLINE
  5
2DF
330
1F
100
AcDbEntity
  8
0
  6
Continuous
 62
     7
370
    25
100
AcDbPolyline
 90
        3
 70
   128
 43
0.0
 10
7357.2104310888
 20
4992.3350394887
 10
7357.0250175256
 20
4992.3341182281
 10
7356.7306994937
 20
4992.3335800041
  0
ARC
  5
2E0
330
1F
100
AcDbEntity
  8
0
  6
Continuous
 62
     7
370
    25
100
AcDbCircle
 10
7347.7021532487
 20
5074.9868670741
 30
0.0
 40
82.65328793975966
100
AcDbArc
 50
269.6591339009
 51
269.9916880651
  0
LINE
  5
2E1
330
1F
100
AcDbEntity
  8
0
  6
Continuous
 62
     7
370
    25
100
AcDbLine
 10
7195.3954765126
 20
4912.8538658891
 30
0.0
 11
7195.3954765126
 21
4905.8538675215
 31
0.0
  0
LINE
  5
2E2
330
1F
100
AcDbEntity
  8
0
  6
Continuous
 62
     7
370
    25
100
AcDbLine
 10
7195.3954765126
 20
4912.8538658891
 30
0.0
 11
7200.3029538007
 21
4912.8480609896
 31
0.0
  0
LINE
  5
2E3
330
1F
100
AcDbEntity
  8
0
  6
Continuous
 62
     7
370
    25
100
AcDbLine
 10
7200.3029538007
 20
4912.8480609896
 30
0.0
 11
7200.3029538007
 21
4905.848062622
 31
0.0
  0
LINE
  5
2E4
330
1F
100
AcDbEntity
  8
0
  6
Continuous
 62
     7
370
    25
100
AcDbLine
 10
7195.3954765126
 20
4905.8538675215
 30
0.0
 11
7200.3029538007
 21
4905.848062622
 31
0.0
  0
LWPOLYLINE
  5
2E5
330
1F
100
AcDbEntity
  8
0
  6
Continuous
 62
     7
370
    25
100
AcDbPolyline
 90
       13
 70
   128
 43
0.0
 10
7200.2104310888
 20
4912.8538658891
 10
7200.2570013587
 20
4912.8534009281
 10
7200.6243745813
 20
4912.8525054901
 10
7201.3318746353
 20
4912.8517109467
 10
7202.3270294783
 20
4912.8510762255
 10
7203.536033028
 20
4912.8506484009
 10
7204.869219022
 20
4912.8504592027
 10
7206.2277111541
 20
4912.8505226628
 10
7207.5107562775
 20
4912.8508340747
 10
7208.6231968049
 20
4912.8513703425
 10
7209.4825281116
 20
4912.8520916935
 10
7210.0250175256
 20
4912.8529446285
 10
7210.2104310888
 20
4912.8538658891
  0
LINE
  5
2E6
330
1F
100
AcDbEntity
  8
0
  6
Continuous
 62
     7
370
    25
100
AcDbLine
 10
7200.2104310888
 20
4912.8595613464
 30
0.0
 11
7195.3954765126
 21
4912.8538658891
 31
0.0
  0
LINE
  5
2E7
330
1F
100
AcDbEntity
  8
0
  6
Continuous
 62
     7
370
    25
100
AcDbLine
 10
7215.0253856651
 20
4912.8538658891
 30
0.0
 11
7210.2104310888
 21
4912.8595613464
 31
0.0
  0
LINE
  5
2E8
330
1F
100
AcDbEntity
  8
0
  6
Continuous
 62
     7
370
    25
100
AcDbLine
 10
7210.117908377
 20
4912.8480609896
 30
0.0
 11
7215.0253856651
 21
4912.8538658891
 31
0.0
  0
LINE
  5
2E9
330
1F
100
AcDbEntity
  8
0
  6
Continuous
 62
     7
370
    25
100
AcDbLine
 10
7200.3029538007
 20
4912.8480609896
 30
0.0
 11
7210.117908377
 21
4912.8480609896
 31
0.0
  0
LINE
  5
2EA
330
1F
100
AcDbEntity
  8
0
  6
Continuous
 62
     7
370
    25
100
AcDbLine
 10
7210.117908377
 20
4912.8480609896
 30
0.0
 11
7210.117908377
 21
4905.848062622
 31
0.0
  0
LINE
  5
2EB
330
1F
100
AcDbEntity
  8
0
  6
Continuous
 62
     7
370
    25
100
AcDbLine
 10
7200.3029538007
 20
4905.848062622
 30
0.0
 11
7210.117908377
 21
4905.848062622
 31
0.0
  0
LINE
  5
2EC
330
1F
100
AcDbEntity
  8
0
  6
Continuous
 62
     7
370
    25
100
AcDbLine
 10
7215.0253856651
 20
4912.8538658891
 30
0.0
 11
7215.0253856651
 21
4905.8538675215
 31
0.0
  0
LINE
  5
2ED
330
1F
100
AcDbEntity
  8
0
  6
Continuous
 62
     7
370
    25
100
AcDbLine
 10
7210.117908377
 20
4905.848062622
 30
0.0
 11
7215.0253856651
 21
4905.8538675215
 31
0.0
  0
LWPOLYLINE
  5
2EE
330
1F
100
AcDbEntity
  8
0
  6
Continuous
 62
     7
370
    25
100
AcDbPolyline
 90
       22
 70
   128
 43
0.0
 10
7209.2104310889
 20
4992.8538472334
 10
7209.032722312
 20
4992.8546524213
 10
7208.5153861861
 20
4992.8553860646
 10
7207.7043902963
 20
4992.8559829761
 10
7206.6717951863
 20
4992.8563901175
 10
7205.5093514632
 20
4992.8565713124
 10
7204.320347353
 20
4992.856510461
 10
7203.2104310888
 20
4992.8562129701
 10
7202.2782236015
 20
4992.8557052731
 10
7201.6065556172
 20
4992.8550324812
 10
7201.2551077839
 20
4992.8542543748
 10
7201.2551077839
 20
4992.8534400921
 10
7201.6065556172
 20
4992.8526619857
 10
7202.2782236015
 20
4992.8519891937
 10
7203.2104310888
 20
4992.8514814968
 10
7204.320347353
 20
4992.8511840059
 10
7205.5093514632
 20
4992.8511231545
 10
7206.6717951863
 20
4992.8513043494
 10
7207.7043902963
 20
4992.8517114908
 10
7208.5153861861
 20
4992.8523084022
 10
7209.032722312
 20
4992.8530420456
 10
7209.2104310889
 20
4992.8538472334
  0
LWPOLYLINE
  5
2EF
330
1F
100
AcDbEntity
  8
0
  6
Continuous
 62
     7
370
    25
100
AcDbPolyline
 90
       13
 70
   128
 43
0.0
 10
7210.2104310888
 20
4991.8538474666
 10
7210.0250175256
 20
4991.852926206
 10
7209.4825281116
 20
4991.852073271
 10
7208.6231968049
 20
4991.85135192
 10
7207.5107562775
 20
4991.8508156522
 10
7206.2277111541
 20
4991.8505042403
 10
7204.869219022
 20
4991.8504407802
 10
7203.536033028
 20
4991.8506299784
 10
7202.3270294783
 20
4991.851057803
 10
7201.3318746353
 20
4991.8516925242
 10
7200.6243745813
 20
4991.8524870676
 10
7200.2570013587
 20
4991.8533825056
 10
7200.2104322548
 20
4991.8538497986
  0
LINE
  5
2F0
330
1F
100
AcDbEntity
  8
0
  6
Continuous
 62
     7
370
    25
100
AcDbLine
 10
7190.2104310889
 20
4908.3104736205
 30
0.0
 11
7190.2104310889
 21
4906.3104740869
 31
0.0
  0
LINE
  5
2F1
330
1F
100
AcDbEntity
  8
0
  6
Continuous
 62
     7
370
    25
100
AcDbLine
 10
7190.2104310889
 20
4908.3104736205
 30
0.0
 11
7195.3954765126
 21
4908.3104736205
 31
0.0
  0
LINE
  5
2F2
330
1F
100
AcDbEntity
  8
0
  6
Continuous
 62
     7
370
    25
100
AcDbLine
 10
7215.0253856651
 20
4908.3104736205
 30
0.0
 11
7220.2104310889
 21
4908.3104736205
 31
0.0
  0
LINE
  5
2F3
330
1F
100
AcDbEntity
  8
0
  6
Continuous
 62
     7
370
    25
100
AcDbLine
 10
7220.2104310889
 20
4908.3104736205
 30
0.0
 11
7220.2104310889
 21
4906.3104740869
 31
0.0
  0
LINE
  5
2F4
330
1F
100
AcDbEntity
  8
0
  6
Continuous
 62
     7
370
    25
100
AcDbLine
 10
7190.2104310889
 20
4906.3104740869
 30
0.0
 11
7195.3954765126
 21
4906.3104740869
 31
0.0
  0
LINE
  5
2F5
330
1F
100
AcDbEntity
  8
0
  6
Continuous
 62
     7
370
    25
100
AcDbLine
 10
7215.0253856651
 20
4906.3104740869
 30
0.0
 11
7220.2104310889
 21
4906.3104740869
 31
0.0
  0
LINE
  5
2F6
330
1F
100
AcDbEntity
  8
0
  6
Continuous
 62
     7
370
    25
100
AcDbLine
 10
7190.2104310889
 20
4908.3446200882
 30
0.0
 11
7190.2104310889
 21
4908.3104736205
 31
0.0
  0
LINE
  5
2F7
330
1F
100
AcDbEntity
  8
0
  6
Continuous
 62
     7
370
    25
100
AcDbLine
 10
7220.2104310889
 20
4908.3446200882
 30
0.0
 11
7215.0253856651
 21
4908.3446200882
 31
0.0
  0
LINE
  5
2F8
330
1F
100
AcDbEntity
  8
0
  6
Continuous
 62
     7
370
    25
100
AcDbLine
 10
7195.3954765126
 20
4908.3446200882
 30
0.0
 11
7190.2104310889
 21
4908.3446200882
 31
0.0
  0
LINE
  5
2F9
330
1F
100
AcDbEntity
  8
0
  6
Continuous
 62
     7
370
    25
100
AcDbLine
 10
7220.2104310889
 20
4908.3104736205
 30
0.0
 11
7220.2104310889
 21
4908.3446200882
 31
0.0
  0
LWPOLYLINE
  5
2FA
330
1F
100
AcDbEntity
  8
0
  6
Continuous
 62
     7
370
    25
100
AcDbPolyline
 90
       22
 70
   128
 43
0.0
 10
7209.2104310889
 20
4993.3350392555
 10
7209.032722312
 20
4993.3358444434
 10
7208.5153861861
 20
4993.3365780868
 10
7207.7043902963
 20
4993.3371749982
 10
7206.6717951863
 20
4993.3375821396
 10
7205.5093514632
 20
4993.3377633345
 10
7204.320347353
 20
4993.3377024831
 10
7203.2104310888
 20
4993.3374049922
 10
7202.2782236015
 20
4993.3368972953
 10
7201.6065556172
 20
4993.3362245033
 10
7201.2551077839
 20
4993.3354463969
 10
7201.2551077839
 20
4993.3346321142
 10
7201.6065556172
 20
4993.3338540078
 10
7202.2782236015
 20
4993.3331812158
 10
7203.2104310888
 20
4993.3326735189
 10
7204.320347353
 20
4993.332376028
 10
7205.5093514632
 20
4993.3323151766
 10
7206.6717951863
 20
4993.3324963715
 10
7207.7043902963
 20
4993.3329035129
 10
7208.5153861861
 20
4993.3335004243
 10
7209.032722312
 20
4993.3342340677
 10
7209.2104310889
 20
4993.3350392555
  0
LWPOLYLINE
  5
2FB
330
1F
100
AcDbEntity
  8
0
  6
Continuous
 62
     7
370
    25
100
AcDbPolyline
 90
        3
 70
   128
 43
0.0
 10
7210.2104310888
 20
4992.3350394887
 10
7210.0250175256
 20
4992.3341182281
 10
7209.7306994936
 20
4992.3335800041
  0
ARC
  5
2FC
330
1F
100
AcDbEntity
  8
0
  6
Continuous
 62
     7
370
    25
100
AcDbCircle
 10
7200.7021532503
 20
5074.9868675548
 30
0.0
 40
82.65328842047059
100
AcDbArc
 50
269.6591339017
 51
269.991688064
  0
LWPOLYLINE
  5
2FD
330
1F
100
AcDbEntity
  8
0
  6
Continuous
 62
     7
370
    25
100
AcDbPolyline
 90
       13
 70
   128
 43
0.0
 10
7347.2104310889
 20
4907.8538670551
 10
7347.2570013587
 20
4907.8534020941
 10
7347.6243745813
 20
4907.8525066561
 10
7348.3318746353
 20
4907.8517121127
 10
7349.3270294783
 20
4907.8510773915
 10
7350.536033028
 20
4907.8506495669
 10
7351.869219022
 20
4907.8504603687
 10
7353.2277111541
 20
4907.8505238288
 10
7354.5107562775
 20
4907.8508352407
 10
7355.6231968049
 20
4907.8513715085
 10
7356.4825281116
 20
4907.8520928595
 10
7357.0250175256
 20
4907.8529457944
 10
7357.2104310888
 20
4907.8538670551
  0
LINE
  5
2FE
330
1F
100
AcDbEntity
  8
0
  6
Continuous
 62
     7
370
    25
100
AcDbLine
 10
7367.2104310888
 20
4907.8443060442
 30
0.0
 11
7367.2104310888
 21
4907.8784525118
 31
0.0
  0
LINE
  5
2FF
330
1F
100
AcDbEntity
  8
0
  6
Continuous
 62
     7
370
    25
100
AcDbLine
 10
7337.2104310888
 20
4907.8443060442
 30
0.0
 11
7367.2104310888
 21
4907.8443060442
 31
0.0
  0
LINE
  5
300
330
1F
100
AcDbEntity
  8
0
  6
Continuous
 62
     7
370
    25
100
AcDbLine
 10
7337.2104310888
 20
4907.8784525118
 30
0.0
 11
7337.2104310888
 21
4907.8443060442
 31
0.0
  0
LINE
  5
301
330
1F
100
AcDbEntity
  8
0
  6
Continuous
 62
     7
370
    25
100
AcDbLine
 10
7367.2104310888
 20
4907.8784525118
 30
0.0
 11
7357.2104310888
 21
4907.8784525118
 31
0.0
  0
LINE
  5
302
330
1F
100
AcDbEntity
  8
0
  6
Continuous
 62
     7
370
    25
100
AcDbLine
 10
7347.2104310889
 20
4907.8784525118
 30
0.0
 11
7337.2104310888
 21
4907.8784525118
 31
0.0
  0
LINE
  5
303
330
1F
100
AcDbEntity
  8
0
  6
Continuous
 62
     7
370
    25
100
AcDbLine
 10
7367.2104310888
 20
4907.8443060442
 30
0.0
 11
7367.2104310888
 21
4905.8443065106
 31
0.0
  0
LINE
  5
304
330
1F
100
AcDbEntity
  8
0
  6
Continuous
 62
     7
370
    25
100
AcDbLine
 10
7337.2104310888
 20
4905.8443065106
 30
0.0
 11
7367.2104310888
 21
4905.8443065106
 31
0.0
  0
LINE
  5
305
330
1F
100
AcDbEntity
  8
0
  6
Continuous
 62
     7
370
    25
100
AcDbLine
 10
7337.2104310888
 20
4907.8443060442
 30
0.0
 11
7337.2104310888
 21
4905.8443065106
 31
0.0
  0
LWPOLYLINE
  5
306
330
1F
100
AcDbEntity
  8
0
  6
Continuous
 62
     7
370
    25
100
AcDbPolyline
 90
       22
 70
   128
 43
0.0
 10
7348.2104310888
 20
4992.8538472334
 10
7348.3881398657
 20
4992.8530420456
 10
7348.9054759916
 20
4992.8523084022
 10
7349.7164718814
 20
4992.8517114908
 10
7350.7490669914
 20
4992.8513043494
 10
7351.9115107145
 20
4992.8511231545
 10
7353.1005148247
 20
4992.8511840059
 10
7354.2104310888
 20
4992.8514814968
 10
7355.1426385762
 20
4992.8519891937
 10
7355.8143065605
 20
4992.8526619857
 10
7356.1657543938
 20
4992.8534400921
 10
7356.1657543938
 20
4992.8542543748
 10
7355.8143065605
 20
4992.8550324812
 10
7355.1426385762
 20
4992.8557052731
 10
7354.2104310888
 20
4992.8562129701
 10
7353.1005148247
 20
4992.856510461
 10
7351.9115107145
 20
4992.8565713124
 10
7350.7490669914
 20
4992.8563901175
 10
7349.7164718814
 20
4992.8559829761
 10
7348.9054759916
 20
4992.8553860646
 10
7348.3881398657
 20
4992.8546524213
 10
7348.2104310888
 20
4992.8538472334
  0
LWPOLYLINE
  5
307
330
1F
100
AcDbEntity
  8
0
  6
Continuous
 62
     7
370
    25
100
AcDbPolyline
 90
       14
 70
   128
 43
0.0
 10
7357.2104299229
 20
4991.8538497986
 10
7357.163860819
 20
4991.8533825056
 10
7356.7964875964
 20
4991.8524870676
 10
7356.0889875424
 20
4991.8516925242
 10
7355.0938326994
 20
4991.851057803
 10
7353.8848291497
 20
4991.8506299784
 10
7352.5516431557
 20
4991.8504407802
 10
7351.1931510236
 20
4991.8505042403
 10
7349.9101059002
 20
4991.8508156522
 10
7348.7976653728
 20
4991.85135192
 10
7347.9383340661
 20
4991.852073271
 10
7347.3958446521
 20
4991.852926206
 10
7347.2104310889
 20
4991.8538474666
 10
7347.2104310889
 20
4991.8538474666
  0
LINE
  5
308
330
1F
100
AcDbEntity
  8
0
  6
Continuous
 62
     7
370
    25
100
AcDbLine
 10
7192.5104310889
 20
5009.6196968481
 30
0.0
 11
7192.5104310889
 21
5079.6196805243
 31
0.0
  0
LINE
  5
309
330
1F
100
AcDbEntity
  8
0
  6
Continuous
 62
     7
370
    25
100
AcDbLine
 10
7192.5104310889
 20
5079.6196805243
 30
0.0
 11
7194.0104310889
 21
5079.6196805243
 31
0.0
  0
LINE
  5
30A
330
1F
100
AcDbEntity
  8
0
  6
Continuous
 62
     7
370
    25
100
AcDbLine
 10
7194.0104310889
 20
5010.8196965683
 30
0.0
 11
7194.0104310889
 21
5079.6196805243
 31
0.0
  0
LINE
  5
30B
330
1F
100
AcDbEntity
  8
0
  6
Continuous
 62
     7
370
    25
100
AcDbLine
 10
7194.0104310889
 20
5010.8196965683
 30
0.0
 11
7336.4104310888
 21
5010.8196965683
 31
0.0
  0
LINE
  5
30C
330
1F
100
AcDbEntity
  8
0
  6
Continuous
 62
     7
370
    25
100
AcDbLine
 10
7336.4104310888
 20
5010.8196965683
 30
0.0
 11
7336.4104310888
 21
5009.6196968481
 31
0.0
  0
LINE
  5
30D
330
1F
100
AcDbEntity
  8
0
  6
Continuous
 62
     7
370
    25
100
AcDbLine
 10
7192.5104310889
 20
5009.6196968481
 30
0.0
 11
7336.4104310888
 21
5009.6196968481
 31
0.0
  0
LINE
  5
30E
330
1F
100
AcDbEntity
  8
0
  6
Continuous
 62
     7
370
    25
100
AcDbLine
 10
7192.5104310889
 20
5079.6196805243
 30
0.0
 11
7192.5104310889
 21
5080.1691654818
 31
0.0
  0
LINE
  5
30F
330
1F
100
AcDbEntity
  8
0
  6
Continuous
 62
     7
370
    25
100
AcDbLine
 10
7192.5104310889
 20
5080.1691654818
 30
0.0
 11
7194.0104310889
 21
5080.1691654818
 31
0.0
  0
LINE
  5
310
330
1F
100
AcDbEntity
  8
0
  6
Continuous
 62
     7
370
    25
100
AcDbLine
 10
7194.0104310889
 20
5079.6196805243
 30
0.0
 11
7194.0104310889
 21
5080.1691654818
 31
0.0
  0
LWPOLYLINE
  5
311
330
1F
100
AcDbEntity
  8
0
  6
Continuous
 62
     7
370
    25
100
AcDbPolyline
 90
        9
 70
   128
 43
0.0
 10
7317.4104310889
 20
5010.8413454287
 10
7317.3681587057
 20
5010.8410523163
 10
7317.2429660604
 20
5010.8407704681
 10
7317.0396642359
 20
5010.8405107153
 10
7316.7660660075
 20
5010.84028304
 10
7316.4326856015
 20
5010.8400961917
 10
7316.0523346401
 20
5010.8399573509
 10
7315.6396297973
 20
5010.8398718532
 10
7315.2104310889
 20
5010.8398429842
  0
LWPOLYLINE
  5
312
330
1F
100
AcDbEntity
  8
0
  6
Continuous
 62
     7
370
    25
100
AcDbPolyline
 90
        9
 70
   128
 43
0.0
 10
7215.2104310888
 20
5010.8398429842
 10
7214.7812323804
 20
5010.8398718532
 10
7214.3685275376
 20
5010.8399573509
 10
7213.9881765762
 20
5010.8400961917
 10
7213.6547961702
 20
5010.84028304
 10
7213.3811979418
 20
5010.8405107153
 10
7213.1778961173
 20
5010.8407704681
 10
7213.052703472
 20
5010.8410523163
 10
7213.0104310889
 20
5010.8413454287
  0
LINE
  5
313
330
1F
100
AcDbEntity
  8
0
  6
Continuous
 62
     7
370
    25
100
AcDbLine
 10
7315.2104310889
 20
5010.8398429842
 30
0.0
 11
7215.2104310888
 21
5010.8398429842
 31
0.0
  0
LINE
  5
314
330
1F
100
AcDbEntity
  8
0
  6
Continuous
 62
     7
370
    25
100
AcDbLine
 10
7336.4104310888
 20
5011.3691815257
 30
0.0
 11
7317.4104310889
 21
5011.3691815257
 31
0.0
  0
LINE
  5
315
330
1F
100
AcDbEntity
  8
0
  6
Continuous
 62
     7
370
    25
100
AcDbLine
 10
7213.0104310889
 20
5011.3691815257
 30
0.0
 11
7194.0104310889
 21
5011.3691815257
 31
0.0
  0
LINE
  5
316
330
1F
100
AcDbEntity
  8
0
  6
Continuous
 62
     7
370
    25
100
AcDbLine
 10
7336.4104310888
 20
5010.8196965683
 30
0.0
 11
7336.4104310888
 21
5011.3691815257
 31
0.0
  0
LWPOLYLINE
  5
317
330
1F
100
AcDbEntity
  8
0
  6
Continuous
 62
     7
370
    25
100
AcDbPolyline
 90
       22
 70
   128
 43
0.0
 10
7209.9804852033
 20
5011.335035058
 10
7209.7916696279
 20
5011.3358905701
 10
7209.2419999942
 20
5011.3366700662
 10
7208.3803168612
 20
5011.3373042846
 10
7207.2831845569
 20
5011.3377368723
 10
7206.0480881011
 20
5011.3379293919
 10
7204.784771234
 20
5011.3378647373
 10
7203.6054852033
 20
5011.3375486532
 10
7202.615014748
 20
5011.3370092252
 10
7201.9013675147
 20
5011.3362943838
 10
7201.5279541919
 20
5011.3354676457
 10
7201.5279541919
 20
5011.3346024703
 10
7201.9013675147
 20
5011.3337757323
 10
7202.615014748
 20
5011.3330608908
 10
7203.6054852033
 20
5011.3325214628
 10
7204.784771234
 20
5011.3322053787
 10
7206.0480881011
 20
5011.3321407241
 10
7207.2831845569
 20
5011.3323332437
 10
7208.3803168612
 20
5011.3327658314
 10
7209.2419999942
 20
5011.3334000498
 10
7209.7916696279
 20
5011.3341795459
 10
7209.9804852033
 20
5011.335035058
  0
LWPOLYLINE
  5
318
330
1F
100
AcDbEntity
  8
0
  6
Continuous
 62
     7
370
    25
100
AcDbPolyline
 90
       22
 70
   128
 43
0.0
 10
7209.9804852033
 20
5010.8538430359
 10
7209.7916696279
 20
5010.854698548
 10
7209.2419999942
 20
5010.8554780441
 10
7208.3803168612
 20
5010.8561122625
 10
7207.2831845569
 20
5010.8565448502
 10
7206.0480881011
 20
5010.8567373698
 10
7204.784771234
 20
5010.8566727152
 10
7203.6054852033
 20
5010.8563566311
 10
7202.615014748
 20
5010.8558172031
 10
7201.9013675147
 20
5010.8551023617
 10
7201.5279541919
 20
5010.8542756236
 10
7201.5279541919
 20
5010.8534104482
 10
7201.9013675147
 20
5010.8525837102
 10
7202.615014748
 20
5010.8518688687
 10
7203.6054852033
 20
5010.8513294407
 10
7204.784771234
 20
5010.8510133566
 10
7206.0480881011
 20
5010.850948702
 10
7207.2831845569
 20
5010.8511412216
 10
7208.3803168612
 20
5010.8515738093
 10
7209.2419999942
 20
5010.8522080277
 10
7209.7916696279
 20
5010.8529875238
 10
7209.9804852033
 20
5010.8538430359
  0
LWPOLYLINE
  5
319
330
1F
100
AcDbEntity
  8
0
  6
Continuous
 62
     7
370
    25
100
AcDbPolyline
 90
        9
 70
   128
 43
0.0
 10
7215.2104310888
 20
5024.7868210494
 10
7214.3592021781
 20
5024.7868783053
 10
7213.5406855169
 20
5024.7870478728
 10
7212.7863362417
 20
5024.7873232354
 10
7212.125143572
 20
5024.7876938112
 10
7211.5825167714
 20
5024.7881453591
 10
7211.1793086834
 20
5024.7886605263
 10
7210.9310143687
 20
5024.7892195154
 10
7210.8471756387
 20
5024.7898008446
  0
LINE
  5
31A
330
1F
100
AcDbEntity
  8
0
  6
Continuous
 62
     7
370
    25
100
AcDbLine
 10
7210.8104320728
 20
5025.1431711027
 30
0.0
 11
7210.8471756387
 21
5024.7898008446
 31
0.0
  0
LINE
  5
31B
330
1F
100
AcDbEntity
  8
0
  6
Continuous
 62
     7
370
    25
100
AcDbLine
 10
7315.2104310889
 20
5024.7868210494
 30
0.0
 11
7215.2104310888
 21
5024.7868210494
 31
0.0
  0
LWPOLYLINE
  5
31C
330
1F
100
AcDbEntity
  8
0
  6
Continuous
 62
     7
370
    25
100
AcDbPolyline
 90
        9
 70
   128
 43
0.0
 10
7319.573686539
 20
5024.7898008446
 10
7319.489847809
 20
5024.7892195154
 10
7319.2415534943
 20
5024.7886605263
 10
7318.8383454063
 20
5024.7881453591
 10
7318.2957186057
 20
5024.7876938112
 10
7317.634525936
 20
5024.7873232354
 10
7316.8801766608
 20
5024.7870478728
 10
7316.0616599997
 20
5024.7868783053
 10
7315.2104310889
 20
5024.7868210494
  0
LINE
  5
31D
330
1F
100
AcDbEntity
  8
0
  6
Continuous
 62
     7
370
    25
100
AcDbLine
 10
7319.6104310888
 20
5025.141342094
 30
0.0
 11
7319.573686539
 21
5024.7898008446
 31
0.0
  0
LWPOLYLINE
  5
31E
330
1F
100
AcDbEntity
  8
0
  6
Continuous
 62
     7
370
    25
100
AcDbPolyline
 90
        9
 70
   128
 43
0.0
 10
7215.2104310888
 20
5020.5803713831
 10
7214.5326750837
 20
5020.5804169708
 10
7213.8809648618
 20
5020.5805519819
 10
7213.2803452814
 20
5020.5807712281
 10
7212.7538978162
 20
5020.5810662838
 10
7212.321853547
 20
5020.5814258102
 10
7212.0008156928
 20
5020.581835991
 10
7211.8031215583
 20
5020.582281063
 10
7211.7363684182
 20
5020.5827439225
  0
LINE
  5
31F
330
1F
100
AcDbEntity
  8
0
  6
Continuous
 62
     7
370
    25
100
AcDbLine
 10
7210.8471756387
 20
5024.7898008446
 30
0.0
 11
7211.7363684182
 21
5020.5827439225
 31
0.0
  0
LINE
  5
320
330
1F
100
AcDbEntity
  8
0
  6
Continuous
 62
     7
370
    25
100
AcDbLine
 10
7215.2104310888
 20
5024.7868210494
 30
0.0
 11
7215.2104310888
 21
5020.5803713831
 31
0.0
  0
LINE
  5
321
330
1F
100
AcDbEntity
  8
0
  6
Continuous
 62
     7
370
    25
100
AcDbLine
 10
7315.2104310889
 20
5020.5803713831
 30
0.0
 11
7215.2104310888
 21
5020.5803713831
 31
0.0
  0
LINE
  5
322
330
1F
100
AcDbEntity
  8
0
  6
Continuous
 62
     7
370
    25
100
AcDbLine
 10
7315.2104310889
 20
5024.7868210494
 30
0.0
 11
7315.2104310889
 21
5020.5803713831
 31
0.0
  0
LWPOLYLINE
  5
323
330
1F
100
AcDbEntity
  8
0
  6
Continuous
 62
     7
370
    25
100
AcDbPolyline
 90
        9
 70
   128
 43
0.0
 10
7318.6844937595
 20
5020.5827439225
 10
7318.6177406194
 20
5020.582281063
 10
7318.4200464849
 20
5020.581835991
 10
7318.0990086307
 20
5020.5814258102
 10
7317.6669643615
 20
5020.5810662838
 10
7317.1405168963
 20
5020.5807712281
 10
7316.5398973159
 20
5020.5805519819
 10
7315.888187094
 20
5020.5804169708
 10
7315.2104310889
 20
5020.5803713831
  0
LINE
  5
324
330
1F
100
AcDbEntity
  8
0
  6
Continuous
 62
     7
370
    25
100
AcDbLine
 10
7319.573686539
 20
5024.7898008446
 30
0.0
 11
7318.6844937595
 21
5020.5827439225
 31
0.0
  0
LINE
  5
325
330
1F
100
AcDbEntity
  8
0
  6
Continuous
 62
     7
370
    25
100
AcDbLine
 10
7213.0104310889
 20
5020.5809549353
 30
0.0
 11
7213.0104310889
 21
5010.8413454287
 31
0.0
  0
LINE
  5
326
330
1F
100
AcDbEntity
  8
0
  6
Continuous
 62
     7
370
    25
100
AcDbLine
 10
7317.4104310889
 20
5020.5809077298
 30
0.0
 11
7317.4104310889
 21
5010.8413454287
 31
0.0
  0
LINE
  5
327
330
1F
100
AcDbEntity
  8
0
  6
Continuous
 62
     7
370
    25
100
AcDbLine
 10
7195.2102959181
 20
4984.8470198055
 30
0.0
 11
7216.2102959181
 21
4984.8470198055
 31
0.0
  0
ARC
  5
328
330
1F
100
AcDbEntity
  8
0
  6
Continuous
 62
     7
370
    25
100
AcDbCircle
 10
7216.2102960347
 20
4985.8470196889
 30
0.0
 40
0.999999883404605
100
AcDbArc
 50
269.9999933195
 51
359.9996209777
  0
LINE
  5
329
330
1F
100
AcDbEntity
  8
0
  6
Continuous
 62
     7
370
    25
100
AcDbLine
 10
7217.2102959181
 20
4985.8470130737
 30
0.0
 11
7217.2104310889
 21
5006.6470342176
 31
0.0
  0
ARC
  5
32A
330
1F
100
AcDbEntity
  8
0
  6
Continuous
 62
     7
370
    25
100
AcDbCircle
 10
7220.2104306582
 20
5006.6470144047
 30
0.0
 40
2.999999569361476
100
AcDbArc
 50
97.7379271129
 51
179.9996216014
  0
ARC
  5
32B
330
1F
100
AcDbEntity
  8
0
  6
Continuous
 62
     7
370
    25
100
AcDbCircle
 10
7310.210431184
 20
5006.647013712
 30
0.0
 40
3.000000300864526
100
AcDbArc
 50
48.6002598511
 51
82.2620683199
  0
LINE
  5
32C
330
1F
100
AcDbEntity
  8
0
  6
Continuous
 62
     7
370
    25
100
AcDbLine
 10
7312.1943567731
 20
5008.8973561442
 30
0.0
 11
7339.1909145402
 21
4985.0969057648
 31
0.0
  0
ARC
  5
32D
330
1F
100
AcDbEntity
  8
0
  6
Continuous
 62
     7
370
    25
100
AcDbCircle
 10
7339.8522230856
 20
4985.8470199382
 30
0.0
 40
1.000000132717105
100
AcDbArc
 50
228.6002602837
 51
270.0000009138
  0
LINE
  5
32E
330
1F
100
AcDbEntity
  8
0
  6
Continuous
 62
     7
370
    25
100
AcDbLine
 10
7339.8522231016
 20
4984.8470198055
 30
0.0
 11
7360.8522231016
 21
4984.8470198055
 31
0.0
  0
LINE
  5
32F
330
1F
100
AcDbEntity
  8
0
  6
Continuous
 62
     7
370
    25
100
AcDbLine
 10
7360.8522231016
 20
4984.8470198055
 30
0.0
 11
7360.8522231016
 21
4982.8470202719
 31
0.0
  0
LINE
  5
330
330
1F
100
AcDbEntity
  8
0
  6
Continuous
 62
     7
370
    25
100
AcDbLine
 10
7360.8522231016
 20
4982.8470202719
 30
0.0
 11
7339.8522231016
 21
4982.8470202719
 31
0.0
  0
ARC
  5
331
330
1F
100
AcDbEntity
  8
0
  6
Continuous
 62
     7
370
    25
100
AcDbCircle
 10
7339.8522230538
 20
4985.84702067
 30
0.0
 40
3.000000398168595
100
AcDbArc
 50
228.6002602839
 51
270.0000009137
  0
LINE
  5
332
330
1F
100
AcDbEntity
  8
0
  6
Continuous
 62
     7
370
    25
100
AcDbLine
 10
7337.8682974173
 20
4983.5966781499
 30
0.0
 11
7310.8717396503
 21
5007.3971285293
 31
0.0
  0
ARC
  5
333
330
1F
100
AcDbEntity
  8
0
  6
Continuous
 62
     7
370
    25
100
AcDbCircle
 10
7310.2104311048
 20
5006.6470143559
 30
0.0
 40
1.000000132716195
100
AcDbArc
 50
48.6002602838
 51
90.0000009138
  0
LINE
  5
334
330
1F
100
AcDbEntity
  8
0
  6
Continuous
 62
     7
370
    25
100
AcDbLine
 10
7310.2104310889
 20
5007.6470144886
 30
0.0
 11
7220.2104310889
 21
5007.6470144886
 31
0.0
  0
ARC
  5
335
330
1F
100
AcDbEntity
  8
0
  6
Continuous
 62
     7
370
    25
100
AcDbCircle
 10
7220.2104309723
 20
5006.6470146052
 30
0.0
 40
0.9999998834046506
100
AcDbArc
 50
89.9999933195
 51
179.9996209776
  0
LINE
  5
336
330
1F
100
AcDbEntity
  8
0
  6
Continuous
 62
     7
370
    25
100
AcDbLine
 10
7219.2104310889
 20
5006.6470212204
 30
0.0
 11
7219.2102959181
 21
4985.8470000765
 31
0.0
  0
ARC
  5
337
330
1F
100
AcDbEntity
  8
0
  6
Continuous
 62
     7
370
    25
100
AcDbCircle
 10
7216.2102962679
 20
4985.8470199221
 30
0.0
 40
2.999999650211224
100
AcDbArc
 50
269.9999933195
 51
359.9996209777
  0
LINE
  5
338
330
1F
100
AcDbEntity
  8
0
  6
Continuous
 62
     7
370
    25
100
AcDbLine
 10
7216.2102959181
 20
4982.8470202719
 30
0.0
 11
7195.2102959181
 21
4982.8470202719
 31
0.0
  0
LINE
  5
339
330
1F
100
AcDbEntity
  8
0
  6
Continuous
 62
     7
370
    25
100
AcDbLine
 10
7195.2102959181
 20
4982.8470202719
 30
0.0
 11
7195.2102959181
 21
4984.8470198055
 31
0.0
  0
LINE
  5
33A
330
1F
100
AcDbEntity
  8
0
  6
Continuous
 62
     7
370
    25
100
AcDbLine
 10
7217.2104310889
 20
5006.6606928046
 30
0.0
 11
7217.2104310889
 21
5006.6470342176
 31
0.0
  0
ARC
  5
33B
330
1F
100
AcDbEntity
  8
0
  6
Continuous
 62
     7
370
    25
100
AcDbCircle
 10
7220.2104306396
 20
5006.6606729993
 30
0.0
 40
2.999999550712955
100
AcDbArc
 50
99.4805994651
 51
179.9996217463
  0
ARC
  5
33C
330
1F
100
AcDbEntity
  8
0
  6
Continuous
 62
     7
370
    25
100
AcDbCircle
 10
7310.210431192
 20
5006.6606723109
 30
0.0
 40
3.000000286752525
100
AcDbArc
 50
48.600259816
 51
80.5193961799
  0
LINE
  5
33D
330
1F
100
AcDbEntity
  8
0
  6
Continuous
 62
     7
370
    25
100
AcDbLine
 10
7312.1943567731
 20
5008.9110147313
 30
0.0
 11
7312.1943567731
 21
5008.8973561442
 31
0.0
  0
LINE
  5
33E
330
1F
100
AcDbEntity
  8
0
  6
Continuous
 62
     7
370
    25
100
AcDbLine
 10
7312.1943567731
 20
5008.9110147313
 30
0.0
 11
7339.1909145402
 21
4985.1105643519
 31
0.0
  0
LINE
  5
33F
330
1F
100
AcDbEntity
  8
0
  6
Continuous
 62
     7
370
    25
100
AcDbLine
 10
7339.1909145402
 20
4985.1105643519
 30
0.0
 11
7339.1909145402
 21
4985.0969057648
 31
0.0
  0
LINE
  5
340
330
1F
100
AcDbEntity
  8
0
  6
Continuous
 62
     7
370
    25
100
AcDbLine
 10
7216.2102959181
 20
4984.8606783925
 30
0.0
 11
7216.2102959181
 21
4984.8470198055
 31
0.0
  0
ARC
  5
341
330
1F
100
AcDbEntity
  8
0
  6
Continuous
 62
     7
370
    25
100
AcDbCircle
 10
7216.2102960347
 20
4985.8606782759
 30
0.0
 40
0.9999998834046506
100
AcDbArc
 50
269.9999933195
 51
359.9996209777
  0
ARC
  5
342
330
1F
100
AcDbEntity
  8
0
  6
Continuous
 62
     7
370
    25
100
AcDbCircle
 10
7339.8522230856
 20
4985.8606785253
 30
0.0
 40
1.000000132718014
100
AcDbArc
 50
228.6002602837
 51
270.0000009138
  0
LINE
  5
343
330
1F
100
AcDbEntity
  8
0
  6
Continuous
 62
     7
370
    25
100
AcDbLine
 10
7339.8522231016
 20
4984.8606783925
 30
0.0
 11
7339.8522231016
 21
4984.8470198055
 31
0.0
  0
LINE
  5
344
330
1F
100
AcDbEntity
  8
0
  6
Continuous
 62
     7
370
    25
100
AcDbLine
 10
7195.2102959181
 20
4984.8606783925
 30
0.0
 11
7195.2102959181
 21
4984.8470198055
 31
0.0
  0
LINE
  5
345
330
1F
100
AcDbEntity
  8
0
  6
Continuous
 62
     7
370
    25
100
AcDbLine
 10
7195.2102959181
 20
4984.8606783925
 30
0.0
 11
7195.3954765126
 21
4984.8606783925
 31
0.0
  0
LINE
  5
346
330
1F
100
AcDbEntity
  8
0
  6
Continuous
 62
     7
370
    25
100
AcDbLine
 10
7215.0253856651
 20
4984.8606783925
 30
0.0
 11
7216.2102959181
 21
4984.8606783925
 31
0.0
  0
LINE
  5
347
330
1F
100
AcDbEntity
  8
0
  6
Continuous
 62
     7
370
    25
100
AcDbLine
 10
7200.3029538007
 20
4984.8480441995
 30
0.0
 11
7195.3954765126
 21
4984.853849099
 31
0.0
  0
LINE
  5
348
330
1F
100
AcDbEntity
  8
0
  6
Continuous
 62
     7
370
    25
100
AcDbLine
 10
7210.117908377
 20
4984.8480441995
 30
0.0
 11
7200.3029538007
 21
4984.8480441995
 31
0.0
  0
LINE
  5
349
330
1F
100
AcDbEntity
  8
0
  6
Continuous
 62
     7
370
    25
100
AcDbLine
 10
7215.0253856651
 20
4984.853849099
 30
0.0
 11
7210.117908377
 21
4984.8480441995
 31
0.0
  0
LINE
  5
34A
330
1F
100
AcDbEntity
  8
0
  6
Continuous
 62
     7
370
    25
100
AcDbLine
 10
7339.8522231016
 20
4984.8606783925
 30
0.0
 11
7342.3954765126
 21
4984.8606783925
 31
0.0
  0
LINE
  5
34B
330
1F
100
AcDbEntity
  8
0
  6
Continuous
 62
     7
370
    25
100
AcDbLine
 10
7347.3029538007
 20
4984.8480441995
 30
0.0
 11
7342.3954765126
 21
4984.853849099
 31
0.0
  0
LINE
  5
34C
330
1F
100
AcDbEntity
  8
0
  6
Continuous
 62
     7
370
    25
100
AcDbLine
 10
7357.117908377
 20
4984.8480441995
 30
0.0
 11
7347.3029538007
 21
4984.8480441995
 31
0.0
  0
LINE
  5
34D
330
1F
100
AcDbEntity
  8
0
  6
Continuous
 62
     7
370
    25
100
AcDbLine
 10
7360.8522231016
 20
4984.8524614022
 30
0.0
 11
7357.117908377
 21
4984.8480441995
 31
0.0
  0
LINE
  5
34E
330
1F
100
AcDbEntity
  8
0
  6
Continuous
 62
     7
370
    25
100
AcDbLine
 10
7360.8522231016
 20
4984.8524614022
 30
0.0
 11
7360.8522231016
 21
4984.8470198055
 31
0.0
  0
LINE
  5
34F
330
1F
100
AcDbEntity
  8
0
  6
Continuous
 62
     7
370
    25
100
AcDbLine
 10
7195.3954765126
 20
4991.8538474666
 30
0.0
 11
7195.3954765126
 21
4984.853849099
 31
0.0
  0
LINE
  5
350
330
1F
100
AcDbEntity
  8
0
  6
Continuous
 62
     7
370
    25
100
AcDbLine
 10
7200.3029538007
 20
4991.8480425671
 30
0.0
 11
7195.3954765126
 21
4991.8538474666
 31
0.0
  0
LINE
  5
351
330
1F
100
AcDbEntity
  8
0
  6
Continuous
 62
     7
370
    25
100
AcDbLine
 10
7200.3029538007
 20
4991.8480425671
 30
0.0
 11
7200.3029538007
 21
4984.8480441995
 31
0.0
  0
LINE
  5
352
330
1F
100
AcDbEntity
  8
0
  6
Continuous
 62
     7
370
    25
100
AcDbLine
 10
7210.2047300513
 20
4991.8595496675
 30
0.0
 11
7215.0253856651
 21
4991.8538474666
 31
0.0
  0
LINE
  5
353
330
1F
100
AcDbEntity
  8
0
  6
Continuous
 62
     7
370
    25
100
AcDbLine
 10
7215.0253856651
 20
4991.8538474666
 30
0.0
 11
7210.117908377
 21
4991.8480425671
 31
0.0
  0
LINE
  5
354
330
1F
100
AcDbEntity
  8
0
  6
Continuous
 62
     7
370
    25
100
AcDbLine
 10
7210.117908377
 20
4991.8480425671
 30
0.0
 11
7200.3029538007
 21
4991.8480425671
 31
0.0
  0
LINE
  5
355
330
1F
100
AcDbEntity
  8
0
  6
Continuous
 62
     7
370
    25
100
AcDbLine
 10
7195.3954765126
 20
4991.8538474666
 30
0.0
 11
7200.2161321264
 21
4991.8595496675
 31
0.0
  0
LINE
  5
356
330
1F
100
AcDbEntity
  8
0
  6
Continuous
 62
     7
370
    25
100
AcDbLine
 10
7210.117908377
 20
4991.8480425671
 30
0.0
 11
7210.117908377
 21
4984.8480441995
 31
0.0
  0
LINE
  5
357
330
1F
100
AcDbEntity
  8
0
  6
Continuous
 62
     7
370
    25
100
AcDbLine
 10
7215.0253856651
 20
4991.8538474666
 30
0.0
 11
7215.0253856651
 21
4984.853849099
 31
0.0
  0
LINE
  5
358
330
1F
100
AcDbEntity
  8
0
  6
Continuous
 62
     7
370
    25
100
AcDbLine
 10
7342.3954765126
 20
4991.8538474666
 30
0.0
 11
7342.3954765126
 21
4984.853849099
 31
0.0
  0
LINE
  5
359
330
1F
100
AcDbEntity
  8
0
  6
Continuous
 62
     7
370
    25
100
AcDbLine
 10
7347.3029538007
 20
4991.8480425671
 30
0.0
 11
7342.3954765126
 21
4991.8538474666
 31
0.0
  0
LINE
  5
35A
330
1F
100
AcDbEntity
  8
0
  6
Continuous
 62
     7
370
    25
100
AcDbLine
 10
7347.3029538007
 20
4991.8480425671
 30
0.0
 11
7347.3029538007
 21
4984.8480441995
 31
0.0
  0
LINE
  5
35B
330
1F
100
AcDbEntity
  8
0
  6
Continuous
 62
     7
370
    25
100
AcDbLine
 10
7357.2047300513
 20
4991.8595496675
 30
0.0
 11
7362.0253856651
 21
4991.8538474666
 31
0.0
  0
LINE
  5
35C
330
1F
100
AcDbEntity
  8
0
  6
Continuous
 62
     7
370
    25
100
AcDbLine
 10
7362.0253856651
 20
4991.8538474666
 30
0.0
 11
7357.117908377
 21
4991.8480425671
 31
0.0
  0
LINE
  5
35D
330
1F
100
AcDbEntity
  8
0
  6
Continuous
 62
     7
370
    25
100
AcDbLine
 10
7357.117908377
 20
4991.8480425671
 30
0.0
 11
7347.3029538007
 21
4991.8480425671
 31
0.0
  0
LINE
  5
35E
330
1F
100
AcDbEntity
  8
0
  6
Continuous
 62
     7
370
    25
100
AcDbLine
 10
7342.3954765126
 20
4991.8538474666
 30
0.0
 11
7347.2161321264
 21
4991.8595496675
 31
0.0
  0
LINE
  5
35F
330
1F
100
AcDbEntity
  8
0
  6
Continuous
 62
     7
370
    25
100
AcDbLine
 10
7357.117908377
 20
4991.8480425671
 30
0.0
 11
7357.117908377
 21
4984.8480441995
 31
0.0
  0
LINE
  5
360
330
1F
100
AcDbEntity
  8
0
  6
Continuous
 62
     7
370
    25
100
AcDbLine
 10
7362.0253856651
 20
4991.8538474666
 30
0.0
 11
7362.0253856651
 21
4984.853849099
 31
0.0
  0
LINE
  5
361
330
1F
100
AcDbEntity
  8
0
  6
Continuous
 62
     7
370
    25
100
AcDbLine
 10
7362.0253856651
 20
4984.853849099
 30
0.0
 11
7360.8522231016
 21
4984.8524614022
 31
0.0
  0
LINE
  5
362
330
1F
100
AcDbEntity
  8
0
  6
Continuous
 62
     7
370
    25
100
AcDbLine
 10
7195.2102959181
 20
4985.3282118276
 30
0.0
 11
7195.3954765126
 21
4985.3282118276
 31
0.0
  0
LINE
  5
363
330
1F
100
AcDbEntity
  8
0
  6
Continuous
 62
     7
370
    25
100
AcDbLine
 10
7215.0253856651
 20
4985.3282118276
 30
0.0
 11
7216.2102959181
 21
4985.3282118276
 31
0.0
  0
ARC
  5
364
330
1F
100
AcDbEntity
  8
0
  6
Continuous
 62
     7
370
    25
100
AcDbCircle
 10
7216.2102960347
 20
4986.328211711
 30
0.0
 40
0.9999998834046506
100
AcDbArc
 50
269.9999933195
 51
359.9996209777
  0
LINE
  5
365
330
1F
100
AcDbEntity
  8
0
  6
Continuous
 62
     7
370
    25
100
AcDbLine
 10
7217.2104279618
 20
5006.6470342176
 30
0.0
 11
7217.2104310889
 21
5007.1282262397
 31
0.0
  0
ARC
  5
366
330
1F
100
AcDbEntity
  8
0
  6
Continuous
 62
     7
370
    25
100
AcDbCircle
 10
7220.210430228
 20
5007.1282066221
 30
0.0
 40
2.999999139147689
100
AcDbArc
 50
123.8501762106
 51
179.9996253313
  0
LWPOLYLINE
  5
367
330
1F
100
AcDbEntity
  8
0
  6
Continuous
 62
     7
370
    25
100
AcDbPolyline
 90
        3
 70
   128
 43
0.0
 10
7311.8815008557
 20
5009.6196968481
 10
7311.9832949045
 20
5009.5483206171
 10
7312.1943567731
 20
5009.3785481663
  0
LINE
  5
368
330
1F
100
AcDbEntity
  8
0
  6
Continuous
 62
     7
370
    25
100
AcDbLine
 10
7312.1943567731
 20
5009.3785481663
 30
0.0
 11
7339.1909145402
 21
4985.5780977869
 31
0.0
  0
ARC
  5
369
330
1F
100
AcDbEntity
  8
0
  6
Continuous
 62
     7
370
    25
100
AcDbCircle
 10
7339.8522230856
 20
4986.3282119603
 30
0.0
 40
1.000000132721652
100
AcDbArc
 50
228.6002602838
 51
270.0000009136
  0
LINE
  5
36A
330
1F
100
AcDbEntity
  8
0
  6
Continuous
 62
     7
370
    25
100
AcDbLine
 10
7339.8522231016
 20
4985.3282118276
 30
0.0
 11
7342.3954765126
 21
4985.3282118276
 31
0.0
  0
LINE
  5
36B
330
1F
100
AcDbEntity
  8
0
  6
Continuous
 62
     7
370
    25
100
AcDbLine
 10
7195.2102959181
 20
4984.8606783925
 30
0.0
 11
7195.2102959181
 21
4985.3282118276
 31
0.0
  0
LINE
  5
36C
330
1F
100
AcDbEntity
  8
0
  6
Continuous
 62
     7
370
    25
100
AcDbLine
 10
7217.2104310889
 20
5007.1282262397
 30
0.0
 11
7217.2104310889
 21
5007.1418848267
 31
0.0
  0
ARC
  5
36D
330
1F
100
AcDbEntity
  8
0
  6
Continuous
 62
     7
370
    25
100
AcDbCircle
 10
7220.2104302229
 20
5007.1418652105
 30
0.0
 40
2.999999134046006
100
AcDbArc
 50
124.3156725938
 51
179.9996253581
  0
LINE
  5
36E
330
1F
100
AcDbEntity
  8
0
  6
Continuous
 62
     7
370
    25
100
AcDbLine
 10
7312.1943567731
 20
5009.3785481663
 30
0.0
 11
7312.1943567731
 21
5009.3922067534
 31
0.0
  0
LWPOLYLINE
  5
36F
330
1F
100
AcDbEntity
  8
0
  6
Continuous
 62
     7
370
    25
100
AcDbPolyline
 90
        3
 70
   128
 43
0.0
 10
7311.9016874589
 20
5009.6196968481
 10
7311.9832949045
 20
5009.5619792042
 10
7312.1943567731
 20
5009.3922067534
  0
LINE
  5
370
330
1F
100
AcDbEntity
  8
0
  6
Continuous
 62
     7
370
    25
100
AcDbLine
 10
7339.1909145402
 20
4985.5780977869
 30
0.0
 11
7339.1909145402
 21
4985.591756374
 31
0.0
  0
LINE
  5
371
330
1F
100
AcDbEntity
  8
0
  6
Continuous
 62
     7
370
    25
100
AcDbLine
 10
7312.1943567731
 20
5009.3922067534
 30
0.0
 11
7339.1909145402
 21
4985.591756374
 31
0.0
  0
LINE
  5
372
330
1F
100
AcDbEntity
  8
0
  6
Continuous
 62
     7
370
    25
100
AcDbLine
 10
7216.2102959181
 20
4985.3282118276
 30
0.0
 11
7216.2102959181
 21
4985.3418704146
 31
0.0
  0
ARC
  5
373
330
1F
100
AcDbEntity
  8
0
  6
Continuous
 62
     7
370
    25
100
AcDbCircle
 10
7216.2102960347
 20
4986.341870298
 30
0.0
 40
0.999999883402786
100
AcDbArc
 50
269.9999933194
 51
359.9996209777
  0
LINE
  5
374
330
1F
100
AcDbEntity
  8
0
  6
Continuous
 62
     7
370
    25
100
AcDbLine
 10
7339.8522231016
 20
4985.3282118276
 30
0.0
 11
7339.8522231016
 21
4985.3418704146
 31
0.0
  0
ARC
  5
375
330
1F
100
AcDbEntity
  8
0
  6
Continuous
 62
     7
370
    25
100
AcDbCircle
 10
7339.8522230856
 20
4986.3418705474
 30
0.0
 40
1.000000132720743
100
AcDbArc
 50
228.6002602838
 51
270.0000009136
  0
LINE
  5
376
330
1F
100
AcDbEntity
  8
0
  6
Continuous
 62
     7
370
    25
100
AcDbLine
 10
7195.2102959181
 20
4985.3418704146
 30
0.0
 11
7195.3954765126
 21
4985.3418704146
 31
0.0
  0
LINE
  5
377
330
1F
100
AcDbEntity
  8
0
  6
Continuous
 62
     7
370
    25
100
AcDbLine
 10
7215.0253856651
 20
4985.3418704146
 30
0.0
 11
7216.2102959181
 21
4985.3418704146
 31
0.0
  0
LINE
  5
378
330
1F
100
AcDbEntity
  8
0
  6
Continuous
 62
     7
370
    25
100
AcDbLine
 10
7195.2102959181
 20
4985.3282118276
 30
0.0
 11
7195.2102959181
 21
4985.3418704146
 31
0.0
  0
LINE
  5
379
330
1F
100
AcDbEntity
  8
0
  6
Continuous
 62
     7
370
    25
100
AcDbLine
 10
7339.8522231016
 20
4985.3418704146
 30
0.0
 11
7342.3954765126
 21
4985.3418704146
 31
0.0
  0
LINE
  5
37A
330
1F
100
AcDbEntity
  8
0
  6
Continuous
 62
     7
370
    25
100
AcDbLine
 10
7195.3954765126
 20
4992.3350394887
 30
0.0
 11
7200.3029538007
 21
4992.3292345892
 31
0.0
  0
LINE
  5
37B
330
1F
100
AcDbEntity
  8
0
  6
Continuous
 62
     7
370
    25
100
AcDbLine
 10
7200.2161321264
 20
4992.3407416896
 30
0.0
 11
7195.3954765126
 21
4992.3350394887
 31
0.0
  0
LINE
  5
37C
330
1F
100
AcDbEntity
  8
0
  6
Continuous
 62
     7
370
    25
100
AcDbLine
 10
7215.0253856651
 20
4992.3350394887
 30
0.0
 11
7210.2047300513
 21
4992.3407416896
 31
0.0
  0
LINE
  5
37D
330
1F
100
AcDbEntity
  8
0
  6
Continuous
 62
     7
370
    25
100
AcDbLine
 10
7210.117908377
 20
4992.3292345892
 30
0.0
 11
7215.0253856651
 21
4992.3350394887
 31
0.0
  0
LINE
  5
37E
330
1F
100
AcDbEntity
  8
0
  6
Continuous
 62
     7
370
    25
100
AcDbLine
 10
7200.3029538007
 20
4992.3292345892
 30
0.0
 11
7200.6858172672
 21
4992.3292345892
 31
0.0
  0
LINE
  5
37F
330
1F
100
AcDbEntity
  8
0
  6
Continuous
 62
     7
370
    25
100
AcDbLine
 10
7209.7350449105
 20
4992.3292345892
 30
0.0
 11
7210.117908377
 21
4992.3292345892
 31
0.0
  0
LINE
  5
380
330
1F
100
AcDbEntity
  8
0
  6
Continuous
 62
     7
370
    25
100
AcDbLine
 10
7200.3029538007
 20
4992.3292345892
 30
0.0
 11
7200.3029538007
 21
4991.9463713013
 31
0.0
  0
LINE
  5
381
330
1F
100
AcDbEntity
  8
0
  6
Continuous
 62
     7
370
    25
100
AcDbLine
 10
7210.117908377
 20
4992.3292345892
 30
0.0
 11
7210.117908377
 21
4991.9463713014
 31
0.0
  0
LINE
  5
382
330
1F
100
AcDbEntity
  8
0
  6
Continuous
 62
     7
370
    25
100
AcDbLine
 10
7195.3954765126
 20
4992.3350394887
 30
0.0
 11
7195.3954765126
 21
4991.8538474666
 31
0.0
  0
LINE
  5
383
330
1F
100
AcDbEntity
  8
0
  6
Continuous
 62
     7
370
    25
100
AcDbLine
 10
7215.0253856651
 20
4992.3350394887
 30
0.0
 11
7215.0253856651
 21
4991.8538474666
 31
0.0
  0
LINE
  5
384
330
1F
100
AcDbEntity
  8
0
  6
Continuous
 62
     7
370
    25
100
AcDbLine
 10
7342.3954765126
 20
4992.3350394887
 30
0.0
 11
7347.3029538007
 21
4992.3292345892
 31
0.0
  0
LINE
  5
385
330
1F
100
AcDbEntity
  8
0
  6
Continuous
 62
     7
370
    25
100
AcDbLine
 10
7347.2161321264
 20
4992.3407416896
 30
0.0
 11
7342.3954765126
 21
4992.3350394887
 31
0.0
  0
LINE
  5
386
330
1F
100
AcDbEntity
  8
0
  6
Continuous
 62
     7
370
    25
100
AcDbLine
 10
7362.0253856651
 20
4992.3350394887
 30
0.0
 11
7357.2047300513
 21
4992.3407416896
 31
0.0
  0
LINE
  5
387
330
1F
100
AcDbEntity
  8
0
  6
Continuous
 62
     7
370
    25
100
AcDbLine
 10
7357.117908377
 20
4992.3292345892
 30
0.0
 11
7362.0253856651
 21
4992.3350394887
 31
0.0
  0
LINE
  5
388
330
1F
100
AcDbEntity
  8
0
  6
Continuous
 62
     7
370
    25
100
AcDbLine
 10
7347.3029538007
 20
4992.3292345892
 30
0.0
 11
7347.6858172672
 21
4992.3292345892
 31
0.0
  0
LINE
  5
389
330
1F
100
AcDbEntity
  8
0
  6
Continuous
 62
     7
370
    25
100
AcDbLine
 10
7356.7350449105
 20
4992.3292345892
 30
0.0
 11
7357.117908377
 21
4992.3292345892
 31
0.0
  0
LINE
  5
38A
330
1F
100
AcDbEntity
  8
0
  6
Continuous
 62
     7
370
    25
100
AcDbLine
 10
7342.3954765126
 20
4992.3350394887
 30
0.0
 11
7342.3954765126
 21
4991.8538474666
 31
0.0
  0
LINE
  5
38B
330
1F
100
AcDbEntity
  8
0
  6
Continuous
 62
     7
370
    25
100
AcDbLine
 10
7347.3029538007
 20
4992.3292345892
 30
0.0
 11
7347.3029538007
 21
4991.9463713013
 31
0.0
  0
LINE
  5
38C
330
1F
100
AcDbEntity
  8
0
  6
Continuous
 62
     7
370
    25
100
AcDbLine
 10
7357.117908377
 20
4992.3292345892
 30
0.0
 11
7357.117908377
 21
4991.9463713014
 31
0.0
  0
LINE
  5
38D
330
1F
100
AcDbEntity
  8
0
  6
Continuous
 62
     7
370
    25
100
AcDbLine
 10
7362.0253856651
 20
4992.3350394887
 30
0.0
 11
7362.0253856651
 21
4991.8538474666
 31
0.0
  0
ARC
  5
38E
330
1F
100
AcDbEntity
  8
0
  6
Continuous
 62
     8
370
    25
100
AcDbCircle
 10
7265.2108184404
 20
4970.2233252723
 30
0.0
 40
17.49961265271941
100
AcDbArc
 50
269.9987317656
 51
359.9987317095
  0
ARC
  5
38F
330
1F
100
AcDbEntity
  8
0
  6
Continuous
 62
     8
370
    25
100
AcDbCircle
 10
7265.2100428323
 20
4970.2233234528
 30
0.0
 40
17.49961083330949
100
AcDbArc
 50
180.0012927355
 51
270.0012711975
  0
LINE
  5
390
330
1F
100
AcDbEntity
  8
0
  6
Continuous
 62
     8
370
    25
100
AcDbLine
 10
7287.0379677764
 20
4985.9475445841
 30
0.0
 11
7287.1352272041
 21
4997.255444909
 31
0.0
  0
LINE
  5
391
330
1F
100
AcDbEntity
  8
0
  6
Continuous
 62
     8
370
    25
100
AcDbLine
 10
7281.2217917907
 20
4991.7956516306
 30
0.0
 11
7281.2217917907
 21
4997.2541494332
 31
0.0
  0
LINE
  5
392
330
1F
100
AcDbEntity
  8
0
  6
Continuous
 62
     8
370
    25
100
AcDbLine
 10
7243.3828944013
 20
4985.9475445841
 30
0.0
 11
7243.2856349736
 21
4997.255444909
 31
0.0
  0
LINE
  5
393
330
1F
100
AcDbEntity
  8
0
  6
Continuous
 62
     8
370
    25
100
AcDbLine
 10
7249.199070387
 20
4991.7956516306
 30
0.0
 11
7249.199070387
 21
4997.2541494332
 31
0.0
  0
LINE
  5
394
330
1F
100
AcDbEntity
  8
0
  6
Continuous
 62
     8
370
    25
100
AcDbLine
 10
7312.2101813728
 20
5002.2943364676
 30
0.0
 11
7312.2094733806
 21
5002.2946460048
 31
0.0
  0
ARC
  5
395
330
1F
100
AcDbEntity
  8
0
  6
Continuous
 62
     8
370
    25
100
AcDbCircle
 10
7280.9398077858
 20
4954.9085103609
 30
0.0
 40
5.627191452638751
100
AcDbArc
 50
291.4506728871
 51
343.2459858636
  0
ARC
  5
396
330
1F
100
AcDbEntity
  8
0
  6
Continuous
 62
     8
370
    25
100
AcDbCircle
 10
7249.6202502775
 20
4955.0394107269
 30
0.0
 40
5.80050382959237
100
AcDbArc
 50
193.9867985816
 51
247.7424494136
  0
ARC
  5
397
330
1F
100
AcDbEntity
  8
0
  6
Continuous
 62
     8
370
    25
100
AcDbCircle
 10
7306.3333844515
 20
4911.3774528517
 30
0.0
 40
48.62986908699586
100
AcDbArc
 50
101.8925120562
 51
111.6218948761
  0
LWPOLYLINE
  5
398
330
1F
100
AcDbEntity
  8
0
  6
Continuous
 62
     8
370
    25
100
AcDbPolyline
 90
        8
 70
   128
 43
0.0
 10
7296.3119208143
 20
4958.9635268018
 10
7296.3477121258
 20
4957.4911970615
 10
7296.1686858254
 20
4956.0891023504
 10
7295.7830228411
 20
4954.8213139025
 10
7295.2083467351
 20
4953.745765586
 10
7294.4709183633
 20
4952.9116065115
 10
7293.6044358387
 20
4952.3569550749
 10
7292.9342546713
 20
4952.1476207399
  0
ARC
  5
399
330
1F
100
AcDbEntity
  8
0
  6
Continuous
 62
     8
370
    25
100
AcDbCircle
 10
7224.2436859984
 20
4911.9147257044
 30
0.0
 40
48.07195594231653
100
AcDbArc
 50
68.5905776397
 51
78.1577090521
  0
LWPOLYLINE
  5
39A
330
1F
100
AcDbEntity
  8
0
  6
Continuous
 62
     8
370
    25
100
AcDbPolyline
 90
        8
 70
   128
 43
0.0
 10
7234.1089413634
 20
4958.9635268018
 10
7234.0731500519
 20
4957.4911970615
 10
7234.2521763523
 20
4956.0891023504
 10
7234.6378393366
 20
4954.8213139025
 10
7235.2125154426
 20
4953.745765586
 10
7235.9499438144
 20
4952.9116065115
 10
7236.816426339
 20
4952.3569550749
 10
7237.4813370905
 20
4952.1486285745
  0
LINE
  5
39B
330
1F
100
AcDbEntity
  8
0
  6
Continuous
 62
     8
370
    25
100
AcDbLine
 10
7234.1089413634
 20
4958.9635268018
 30
0.0
 11
7233.8861498449
 21
4997.2684683893
 31
0.0
  0
LINE
  5
39C
330
1F
100
AcDbEntity
  8
0
  6
Continuous
 62
     8
370
    25
100
AcDbLine
 10
7296.3119208143
 20
4958.9635268018
 30
0.0
 11
7296.5347123328
 21
4997.2684683893
 31
0.0
  0
LWPOLYLINE
  5
39D
330
1F
100
AcDbEntity
  8
0
  6
Continuous
 62
     8
370
    25
100
AcDbPolyline
 90
        7
 70
   128
 43
0.0
 10
7296.3119208143
 20
4958.9635268018
 10
7301.6230802982
 20
4960.010452855
 10
7306.0310505788
 20
4961.3969191939
 10
7309.1646548191
 20
4963.045332904
 10
7311.1752801935
 20
4965.0507505911
 10
7311.9417252486
 20
4967.3348599387
 10
7311.8910287549
 20
4967.6117760388
  0
LWPOLYLINE
  5
39E
330
1F
100
AcDbEntity
  8
0
  6
Continuous
 62
     8
370
    25
100
AcDbPolyline
 90
       11
 70
   128
 43
0.0
 10
7218.4962243734
 20
4967.605552753
 10
7218.476934746
 20
4967.378476511
 10
7218.7493034856
 20
4966.0433253194
 10
7219.4508490867
 20
4964.7544211489
 10
7220.5788168399
 20
4963.5667205819
 10
7221.959983182
 20
4962.5882957757
 10
7223.6794098252
 20
4961.6989963372
 10
7225.8029579191
 20
4960.874989119
 10
7228.2632557069
 20
4960.1458765045
 10
7231.0253466216
 20
4959.513076518
 10
7234.1089413634
 20
4958.9635268018
  0
LWPOLYLINE
  5
39F
330
1F
100
AcDbEntity
  8
0
  6
Continuous
 62
     8
370
    25
100
AcDbPolyline
 90
        7
 70
   128
 43
0.0
 10
7231.6662244344
 20
5000.2700485928
 10
7228.7460898077
 20
5000.2720882558
 10
7226.0909283092
 20
5000.2742903522
 10
7223.7200340334
 20
5000.2766388802
 10
7221.6506354082
 20
5000.2791167738
 10
7219.8977700019
 20
5000.2817060271
 10
7219.2103897311
 20
5000.282912468
  0
ARC
  5
3A0
330
1F
100
AcDbEntity
  8
0
  6
Continuous
 62
     8
370
    25
100
AcDbCircle
 10
7217.0607767539
 20
5052.3779814187
 30
0.0
 40
52.09048064765008
100
AcDbArc
 50
269.0646394284
 51
270.1645637672
  0
LWPOLYLINE
  5
3A1
330
1F
100
AcDbEntity
  8
0
  6
Continuous
 62
     8
370
    25
100
AcDbPolyline
 90
       11
 70
   128
 43
0.0
 10
7314.2104310803
 20
5000.2944421921
 10
7314.1507963325
 20
5000.2927911003
 10
7313.7671533392
 20
5000.2899505728
 10
7313.0306662759
 20
5000.2871426797
 10
7311.9466869266
 20
5000.284387825
 10
7310.5230921758
 20
5000.2817060271
 10
7308.7702267695
 20
5000.2791167738
 10
7306.7008281443
 20
5000.2766388802
 10
7304.3299338685
 20
5000.2742903522
 10
7301.67477237
 20
5000.2720882558
 10
7298.7546377433
 20
5000.2700485928
  0
LINE
  5
3A2
330
1F
100
AcDbEntity
  8
0
  6
Continuous
 62
     8
370
    25
100
AcDbLine
 10
7243.5099296585
 20
4930.0949352751
 30
0.0
 11
7243.1428175961
 21
4950.923543242
 31
0.0
  0
LWPOLYLINE
  5
3A3
330
1F
100
AcDbEntity
  8
0
  6
Continuous
 62
     8
370
    25
100
AcDbPolyline
 90
        9
 70
   128
 43
0.0
 10
7286.9109325192
 20
4930.0949352751
 10
7289.2795060914
 20
4930.0965697784
 10
7291.3855371104
 20
4930.0983640768
 10
7293.206053245
 20
4930.1002985983
 10
7294.7211965259
 20
4930.1023522415
 10
7295.9144399538
 20
4930.1045026054
 10
7296.7727677739
 20
4930.1067262342
 10
7297.2868174504
 20
4930.1089988726
 10
7297.451176066
 20
4930.1112189
  0
LWPOLYLINE
  5
3A4
330
1F
100
AcDbEntity
  8
0
  6
Continuous
 62
     8
370
    25
100
AcDbPolyline
 90
        9
 70
   128
 43
0.0
 10
7232.9696861117
 20
4930.1112189
 10
7233.1340447273
 20
4930.1089988726
 10
7233.6480944038
 20
4930.1067262342
 10
7234.5064222239
 20
4930.1045026054
 10
7235.6996656518
 20
4930.1023522415
 10
7237.2148089327
 20
4930.1002985983
 10
7239.0353250673
 20
4930.0983640768
 10
7241.1413560863
 20
4930.0965697784
 10
7243.5099296585
 20
4930.0949352751
  0
LINE
  5
3A5
330
1F
100
AcDbEntity
  8
0
  6
Continuous
 62
     8
370
    25
100
AcDbLine
 10
7286.9109325192
 20
4930.0949352752
 30
0.0
 11
7287.2781063256
 21
4950.9270463723
 31
0.0
  0
LINE
  5
3A6
330
1F
100
AcDbEntity
  8
0
  6
Continuous
 62
     8
370
    25
100
AcDbLine
 10
7255.3451295924
 20
4930.1048152336
 30
0.0
 11
7255.6175485115
 21
4944.8170554551
 31
0.0
  0
LINE
  5
3A7
330
1F
100
AcDbEntity
  8
0
  6
Continuous
 62
     8
370
    25
100
AcDbLine
 10
7275.0757325853
 20
4930.1048152336
 30
0.0
 11
7274.8033136662
 21
4944.8170554551
 31
0.0
  0
LINE
  5
3A8
330
1F
100
AcDbEntity
  8
0
  6
Continuous
 62
     8
370
    25
100
AcDbLine
 10
7255.5294507578
 20
4956.2003786995
 30
0.0
 11
7256.1611208871
 21
4981.7811778681
 31
0.0
  0
LINE
  5
3A9
330
1F
100
AcDbEntity
  8
0
  6
Continuous
 62
     8
370
    25
100
AcDbLine
 10
7274.8914114199
 20
4956.2003786995
 30
0.0
 11
7274.2597412906
 21
4981.7811778681
 31
0.0
  0
LINE
  5
3AA
330
1F
100
AcDbEntity
  8
0
  6
Continuous
 62
     8
370
    25
100
AcDbLine
 10
7259.6365974682
 20
4954.1902070822
 30
0.0
 11
7260.3178807828
 21
4981.780195653
 31
0.0
  0
LINE
  5
3AB
330
1F
100
AcDbEntity
  8
0
  6
Continuous
 62
     8
370
    25
100
AcDbLine
 10
7270.7842647095
 20
4954.1902070821
 30
0.0
 11
7270.1029813949
 21
4981.780195653
 31
0.0
  0
LINE
  5
3AC
330
1F
100
AcDbEntity
  8
0
  6
Continuous
 62
     8
370
    25
100
AcDbLine
 10
7259.0877702795
 20
4930.1073711928
 30
0.0
 11
7259.3394852643
 21
4943.7014759448
 31
0.0
  0
LINE
  5
3AD
330
1F
100
AcDbEntity
  8
0
  6
Continuous
 62
     8
370
    25
100
AcDbLine
 10
7271.3330918982
 20
4930.1073711928
 30
0.0
 11
7271.0813769134
 21
4943.7014759448
 31
0.0
  0
LINE
  5
3AE
330
1F
100
AcDbEntity
  8
0
  6
Continuous
 62
     8
370
    25
100
AcDbLine
 10
7261.8672853383
 20
4953.6011551509
 30
0.0
 11
7261.8672853383
 21
4981.7799883444
 31
0.0
  0
LINE
  5
3AF
330
1F
100
AcDbEntity
  8
0
  6
Continuous
 62
     8
370
    25
100
AcDbLine
 10
7268.5535768394
 20
4953.6011551509
 30
0.0
 11
7268.5535768394
 21
4981.7799883444
 31
0.0
  0
LINE
  5
3B0
330
1F
100
AcDbEntity
  8
0
  6
Continuous
 62
     8
370
    25
100
AcDbLine
 10
7262.453071776
 20
4930.1083231646
 30
0.0
 11
7262.453071776
 21
4943.196616777
 31
0.0
  0
LINE
  5
3B1
330
1F
100
AcDbEntity
  8
0
  6
Continuous
 62
     8
370
    25
100
AcDbLine
 10
7267.9677904017
 20
4930.1083231646
 30
0.0
 11
7267.9677904017
 21
4943.196616777
 31
0.0
  0
ARC
  5
3B2
330
1F
100
AcDbEntity
  8
0
  6
Continuous
 62
     8
370
    25
100
AcDbCircle
 10
7212.5098625116
 20
5025.1416472978
 30
0.0
 40
1.69943112196837
100
AcDbArc
 50
84.0558692686
 51
179.9486253941
  0
LINE
  5
3B3
330
1F
100
AcDbEntity
  8
0
  6
Continuous
 62
     8
370
    25
100
AcDbLine
 10
7215.2104310888
 20
5026.8394763273
 30
0.0
 11
7215.2104310888
 21
5024.7868210494
 31
0.0
  0
LINE
  5
3B4
330
1F
100
AcDbEntity
  8
0
  6
Continuous
 62
     8
370
    25
100
AcDbLine
 10
7315.2104310889
 20
5026.8394981848
 30
0.0
 11
7315.2104310889
 21
5024.7868210494
 31
0.0
  0
ARC
  5
3B5
330
1F
100
AcDbEntity
  8
0
  6
Continuous
 62
     8
370
    25
100
AcDbCircle
 10
7317.9104312882
 20
5025.1413419004
 30
0.0
 40
1.699999800649125
100
AcDbArc
 50
0.0000065278
 51
90.9555840069
  0
LINE
  5
3B6
330
1F
100
AcDbEntity
  8
0
  6
Continuous
 62
     8
370
    25
100
AcDbLine
 10
7215.2104310888
 20
5020.5803713831
 30
0.0
 11
7215.2104310888
 21
5010.8398429842
 31
0.0
  0
LINE
  5
3B7
330
1F
100
AcDbEntity
  8
0
  6
Continuous
 62
     8
370
    25
100
AcDbLine
 10
7315.2104310889
 20
5020.5803713831
 30
0.0
 11
7315.2104310889
 21
5010.8398429842
 31
0.0
  0
ARC
  5
3B8
330
1F
100
AcDbEntity
  8
0
  6
Continuous
 62
     8
370
    25
100
AcDbCircle
 10
7212.5104311033
 20
5025.6475290163
 30
0.0
 40
1.700000014478093
100
AcDbArc
 50
44.7290142899
 51
179.9999894114
  0
ARC
  5
3B9
330
1F
100
AcDbEntity
  8
0
  6
Continuous
 62
     8
370
    25
100
AcDbCircle
 10
7317.9104310744
 20
5025.6475290163
 30
0.0
 40
1.700000014478093
100
AcDbArc
 50
0.0000105891
 51
135.2717139008
  0
LINE
  5
3BA
330
1F
100
AcDbEntity
  8
0
  6
Continuous
 62
     8
370
    25
100
AcDbLine
 10
7215.2104310889
 20
5026.8437550715
 30
0.0
 11
7215.2104310889
 21
5027.3493513288
 31
0.0
  0
LINE
  5
3BB
330
1F
100
AcDbEntity
  8
0
  6
Continuous
 62
     8
370
    25
100
AcDbLine
 10
7315.2104310889
 20
5026.8437550715
 30
0.0
 11
7315.2104310889
 21
5027.3493455994
 31
0.0
  0
LINE
  5
3BC
330
1F
100
AcDbEntity
  8
0
  6
CENTERX2
 62
     7
100
AcDbLine
 10
6542.0153701432
 20
4618.3436000314
 30
0.0
 11
6542.061839324
 21
4618.3436000314
 31
0.0
  0
ARC
  5
3BD
330
1F
100
AcDbEntity
  8
0
  6
Continuous
 62
     7
370
    25
100
AcDbCircle
 10
6542.043992803
 20
4618.3043941561
 30
0.0
 40
19.46048560598802
100
AcDbArc
 50
225.7336401812
 51
5.588468559
  0
LINE
  5
3BE
330
1F
100
AcDbEntity
  8
0
  6
Continuous
 62
     7
370
    25
100
AcDbLine
 10
6555.7685593511
 20
4621.4099706055
 30
0.0
 11
6555.7549423798
 21
4621.3736490497
 31
0.0
  0
LWPOLYLINE
  5
3BF
330
1F
100
AcDbEntity
  8
0
  6
Continuous
 62
     7
370
    25
100
AcDbPolyline
 90
        3
 70
   128
 43
0.0
 10
6555.7550964428
 20
4615.313093207
 10
6555.7596933743
 20
4615.2939435299
 10
6555.7608215227
 20
4615.2919190559
  0
LINE
  5
3C0
330
1F
100
AcDbEntity
  8
0
  6
Continuous
 62
     7
370
    25
100
AcDbLine
 10
6524.160487919
 20
4621.3866043303
 30
0.0
 11
6524.1556309772
 21
4621.3736490497
 31
0.0
  0
LWPOLYLINE
  5
3C1
330
1F
100
AcDbEntity
  8
0
  6
Continuous
 62
     7
370
    25
100
AcDbPolyline
 90
        3
 70
   128
 43
0.0
 10
6524.1557850402
 20
4615.313093207
 10
6524.1603819717
 20
4615.2939435299
 10
6524.1615101201
 20
4615.2919190559
  0
ARC
  5
3C2
330
1F
100
AcDbEntity
  8
0
  6
Continuous
 62
     7
370
    25
100
AcDbCircle
 10
6560.0866960041
 20
4619.3435999141
 30
0.0
 40
0.0499998826762953
100
AcDbArc
 50
270.0001247261
 51
3.167281398
  0
ARC
  5
3C3
330
1F
100
AcDbEntity
  8
0
  6
Continuous
 62
     7
370
    25
100
AcDbCircle
 10
6560.0866959723
 20
4619.3435999441
 30
0.0
 40
1.949999912734716
100
AcDbArc
 50
270.0000041316
 51
3.1671276541
  0
ARC
  5
3C4
330
1F
100
AcDbEntity
  8
0
  6
Continuous
 62
     7
370
    25
100
AcDbCircle
 10
6542.0143457492
 20
4618.3436038476
 30
0.0
 40
18.14999534870559
100
AcDbArc
 50
3.1671140889
 51
176.8328859111
  0
ARC
  5
3C5
330
1F
100
AcDbEntity
  8
0
  6
Continuous
 62
     7
370
    25
100
AcDbCircle
 10
6542.0143457492
 20
4618.3436037931
 30
0.0
 40
20.04999535171666
100
AcDbArc
 50
3.1671152373
 51
176.8328847627
  0
LINE
  5
3C6
330
1F
100
AcDbEntity
  8
0
  6
Continuous
 62
     7
370
    25
100
AcDbLine
 10
6555.5866971623
 20
4617.3936000314
 30
0.0
 11
6555.7118625492
 21
4617.3936000314
 31
0.0
  0
LINE
  5
3C7
330
1F
100
AcDbEntity
  8
0
  6
Continuous
 62
     7
370
    25
100
AcDbLine
 10
6559.9134471019
 20
4617.3936000314
 30
0.0
 11
6560.086696113
 21
4617.3936000314
 31
0.0
  0
LINE
  5
3C8
330
1F
100
AcDbEntity
  8
0
  6
Continuous
 62
     7
370
    25
100
AcDbLine
 10
6560.086696113
 20
4619.2936000314
 30
0.0
 11
6559.9134471019
 21
4619.2936000314
 31
0.0
  0
LINE
  5
3C9
330
1F
100
AcDbEntity
  8
0
  6
Continuous
 62
     7
370
    25
100
AcDbLine
 10
6555.7118625492
 20
4619.2936000314
 30
0.0
 11
6555.5866971623
 21
4619.2936000314
 31
0.0
  0
LINE
  5
3CA
330
1F
100
AcDbEntity
  8
0
  6
Continuous
 62
     7
370
    25
100
AcDbLine
 10
6523.9419953854
 20
4617.3936000314
 30
0.0
 11
6524.1125511466
 21
4617.3936000314
 31
0.0
  0
LINE
  5
3CB
330
1F
100
AcDbEntity
  8
0
  6
Continuous
 62
     7
370
    25
100
AcDbLine
 10
6528.3141356993
 20
4617.3936000314
 30
0.0
 11
6528.441994336
 21
4617.3936000314
 31
0.0
  0
LINE
  5
3CC
330
1F
100
AcDbEntity
  8
0
  6
Continuous
 62
     7
370
    25
100
AcDbLine
 10
6528.441994336
 20
4619.2936000314
 30
0.0
 11
6528.3141356993
 21
4619.2936000314
 31
0.0
  0
LINE
  5
3CD
330
1F
100
AcDbEntity
  8
0
  6
Continuous
 62
     7
370
    25
100
AcDbLine
 10
6524.1125511466
 20
4619.2936000314
 30
0.0
 11
6523.9419953854
 21
4619.2936000314
 31
0.0
  0
ARC
  5
3CE
330
1F
100
AcDbEntity
  8
0
  6
Continuous
 62
     7
370
    25
100
AcDbCircle
 10
6523.941995526
 20
4619.3435999441
 30
0.0
 40
0.0499999127389699
100
AcDbArc
 50
176.8327550122
 51
269.9998388656
  0
ARC
  5
3CF
330
1F
100
AcDbEntity
  8
0
  6
Continuous
 62
     7
370
    25
100
AcDbCircle
 10
6523.9419954942
 20
4619.3435999141
 30
0.0
 40
1.94999988266591
100
AcDbArc
 50
176.8328714121
 51
269.9999968023
  0
LINE
  5
3D0
330
1F
100
AcDbEntity
  8
0
  6
Continuous
 62
     7
370
    25
100
AcDbLine
 10
6542.0153701433
 20
4598.3936000314
 30
0.0
 11
6542.0168042949
 21
4598.3936000314
 31
0.0
  0
LINE
  5
3D1
330
1F
100
AcDbEntity
  8
0
  6
Continuous
 62
     7
370
    25
100
AcDbLine
 10
6542.012638426
 20
4583.4436000314
 30
0.0
 11
6542.0136866194
 21
4583.4436000314
 31
0.0
  0
LINE
  5
3D2
330
1F
100
AcDbEntity
  8
0
  6
Continuous
 62
     7
370
    25
100
AcDbLine
 10
6542.0136866191
 20
4653.2436000314
 30
0.0
 11
6542.0126384256
 21
4653.2436000314
 31
0.0
  0
ARC
  5
3D3
330
1F
100
AcDbEntity
  8
0
  6
Continuous
 62
     7
370
    25
100
AcDbCircle
 10
6912.6036053915
 20
4668.3436004238
 30
0.0
 40
4.399999607586341
100
AcDbArc
 50
359.9999948901
 51
89.999996911
  0
LINE
  5
3D4
330
1F
100
AcDbEntity
  8
0
  6
Continuous
 62
     7
370
    25
100
AcDbLine
 10
6917.0036049991
 20
4568.3436000314
 30
0.0
 11
6917.0036049991
 21
4668.3436000314
 31
0.0
  0
ARC
  5
3D5
330
1F
100
AcDbEntity
  8
0
  6
Continuous
 62
     7
370
    25
100
AcDbCircle
 10
6912.6036052363
 20
4568.3435997942
 30
0.0
 40
4.399999762779789
100
AcDbArc
 50
270.0000051099
 51
0.000003089
  0
LINE
  5
3D6
330
1F
100
AcDbEntity
  8
0
  6
Continuous
 62
     7
370
    25
100
AcDbLine
 10
6912.6036056287
 20
4672.7436000314
 30
0.0
 11
6171.4037284738
 21
4672.7436000314
 31
0.0
  0
LINE
  5
3D7
330
1F
100
AcDbEntity
  8
0
  6
Continuous
 62
     7
370
    25
100
AcDbLine
 10
6171.4037784738
 20
4563.9436000314
 30
0.0
 11
6912.6036056287
 21
4563.9436000314
 31
0.0
  0
ARC
  5
3D8
330
1F
100
AcDbEntity
  8
0
  6
Continuous
 62
     7
370
    25
100
AcDbCircle
 10
6171.4037788662
 20
4668.3436002686
 30
0.0
 40
4.399999762774331
100
AcDbArc
 50
90.0000051098
 51
180.0000030891
  0
ARC
  5
3D9
330
1F
100
AcDbEntity
  8
0
  6
Continuous
 62
     7
370
    25
100
AcDbCircle
 10
6171.403778711
 20
4568.343599639
 30
0.0
 40
4.399999607579974
100
AcDbArc
 50
179.99999489
 51
269.9999969111
  0
LINE
  5
3DA
330
1F
100
AcDbEntity
  8
0
  6
Continuous
 62
     7
370
    25
100
AcDbLine
 10
6167.0037791034
 20
4668.3436000314
 30
0.0
 11
6167.0037791034
 21
4568.3436000314
 31
0.0
  0
LWPOLYLINE
  5
3DB
330
1F
100
AcDbEntity
  8
0
  6
Continuous
 62
     7
370
    25
100
AcDbPolyline
 90
        9
 70
   128
 43
0.0
 10
6559.211270257
 20
4618.3436000314
 10
6559.2113161851
 20
4619.0264161585
 10
6559.2114522042
 20
4619.6829920447
 10
6559.2116730873
 20
4620.288095847
 10
6559.2119703459
 20
4620.8184737656
 10
6559.2123325565
 20
4621.2537436745
 10
6559.2127457996
 20
4621.5771783952
 10
6559.2131941946
 20
4621.7763485128
 10
6559.2136605098
 20
4621.8436000314
  0
ARC
  5
3DC
330
1F
100
AcDbEntity
  8
0
  6
Continuous
 62
     7
370
    25
100
AcDbCircle
 10
6559.2136604282
 20
4621.143600113
 30
0.0
 40
0.6999999183817683
100
AcDbArc
 50
359.9999933195
 51
89.9999933195
  0
LWPOLYLINE
  5
3DD
330
1F
100
AcDbEntity
  8
0
  6
Continuous
 62
     7
370
    25
100
AcDbPolyline
 90
        9
 70
   128
 43
0.0
 10
6559.9136603465
 20
4621.1436000314
 10
6559.9132872944
 20
4621.0897988165
 10
6559.9129285784
 20
4620.9304627224
 10
6559.9125979839
 20
4620.6717149458
 10
6559.9123082154
 20
4620.3234990187
 10
6559.9120704085
 20
4619.8991966839
 10
6559.9118937021
 20
4619.415113642
 10
6559.9117848868
 20
4618.889852933
 10
6559.9117481443
 20
4618.3436000314
  0
LINE
  5
3DE
330
1F
100
AcDbEntity
  8
0
  6
Continuous
 62
     7
370
    25
100
AcDbLine
 10
6559.211270257
 20
4618.3436000314
 30
0.0
 11
6559.9117481443
 21
4618.3436000314
 31
0.0
  0
LWPOLYLINE
  5
3DF
330
1F
100
AcDbEntity
  8
0
  6
Continuous
 62
     7
370
    25
100
AcDbPolyline
 90
        9
 70
   128
 43
0.0
 10
6559.2136605098
 20
4614.8436000314
 10
6559.2131941946
 20
4614.91085155
 10
6559.2127457996
 20
4615.1100216676
 10
6559.2123325565
 20
4615.4334563883
 10
6559.2119703459
 20
4615.8687262972
 10
6559.2116730873
 20
4616.3991042158
 10
6559.2114522042
 20
4617.0042080181
 10
6559.2113161851
 20
4617.6607839043
 10
6559.211270257
 20
4618.3436000314
  0
LWPOLYLINE
  5
3E0
330
1F
100
AcDbEntity
  8
0
  6
Continuous
 62
     7
370
    25
100
AcDbPolyline
 90
        9
 70
   128
 43
0.0
 10
6559.9117481443
 20
4618.3436000314
 10
6559.9117848868
 20
4617.7973471298
 10
6559.9118937021
 20
4617.2720864208
 10
6559.9120704085
 20
4616.7880033789
 10
6559.9123082154
 20
4616.3637010441
 10
6559.9125979839
 20
4616.015485117
 10
6559.9129285784
 20
4615.7567373404
 10
6559.9132872944
 20
4615.5974012463
 10
6559.9136603465
 20
4615.5436000314
  0
ARC
  5
3E1
330
1F
100
AcDbEntity
  8
0
  6
Continuous
 62
     7
370
    25
100
AcDbCircle
 10
6559.2136604282
 20
4615.5435999498
 30
0.0
 40
0.6999999183817683
100
AcDbArc
 50
270.0000066805
 51
0.0000066805
  0
LINE
  5
3E2
330
1F
100
AcDbEntity
  8
0
  6
Continuous
 62
     7
370
    25
100
AcDbLine
 10
6556.41127091
 20
4618.3436000314
 30
0.0
 11
6559.211270257
 21
4618.3436000314
 31
0.0
  0
LWPOLYLINE
  5
3E3
330
1F
100
AcDbEntity
  8
0
  6
Continuous
 62
     7
370
    25
100
AcDbPolyline
 90
        9
 70
   128
 43
0.0
 10
6556.4136611627
 20
4621.8436000314
 10
6556.4131948475
 20
4621.7763485128
 10
6556.4127464526
 20
4621.5771783952
 10
6556.4123332095
 20
4621.2537436745
 10
6556.4119709988
 20
4620.8184737656
 10
6556.4116737402
 20
4620.288095847
 10
6556.4114528571
 20
4619.6829920447
 10
6556.411316838
 20
4619.0264161585
 10
6556.41127091
 20
4618.3436000314
  0
LINE
  5
3E4
330
1F
100
AcDbEntity
  8
0
  6
Continuous
 62
     7
370
    25
100
AcDbLine
 10
6556.4136611627
 20
4621.8436000314
 30
0.0
 11
6559.2136605098
 21
4621.8436000314
 31
0.0
  0
LINE
  5
3E5
330
1F
100
AcDbEntity
  8
0
  6
Continuous
 62
     7
370
    25
100
AcDbLine
 10
6559.2136605098
 20
4614.8436000314
 30
0.0
 11
6556.4136611627
 21
4614.8436000314
 31
0.0
  0
LWPOLYLINE
  5
3E6
330
1F
100
AcDbEntity
  8
0
  6
Continuous
 62
     7
370
    25
100
AcDbPolyline
 90
        9
 70
   128
 43
0.0
 10
6556.41127091
 20
4618.3436000314
 10
6556.411316838
 20
4617.6607839043
 10
6556.4114528571
 20
4617.0042080181
 10
6556.4116737402
 20
4616.3991042158
 10
6556.4119709988
 20
4615.8687262972
 10
6556.4123332095
 20
4615.4334563883
 10
6556.4127464526
 20
4615.1100216676
 10
6556.4131948475
 20
4614.91085155
 10
6556.4136611627
 20
4614.8436000314
  0
LWPOLYLINE
  5
3E7
330
1F
100
AcDbEntity
  8
0
  6
Continuous
 62
     7
370
    25
100
AcDbPolyline
 90
        9
 70
   128
 43
0.0
 10
6555.7117491238
 20
4618.3436000314
 10
6555.7117858662
 20
4618.889852933
 10
6555.7118946815
 20
4619.415113642
 10
6555.7120713879
 20
4619.8991966839
 10
6555.7123091948
 20
4620.3234990187
 10
6555.7125989633
 20
4620.6717149458
 10
6555.7129295579
 20
4620.9304627224
 10
6555.7132882738
 20
4621.0897988165
 10
6555.713661326
 20
4621.1436000314
  0
ARC
  5
3E8
330
1F
100
AcDbEntity
  8
0
  6
Continuous
 62
     7
370
    25
100
AcDbCircle
 10
6556.4136612053
 20
4621.1436001933
 30
0.0
 40
0.6999998380788397
100
AcDbArc
 50
90.0000034814
 51
157.5894842448
  0
LINE
  5
3E9
330
1F
100
AcDbEntity
  8
0
  6
Continuous
 62
     7
370
    25
100
AcDbLine
 10
6556.41127091
 20
4618.3436000314
 30
0.0
 11
6555.7117491238
 21
4618.3436000314
 31
0.0
  0
ARC
  5
3EA
330
1F
100
AcDbEntity
  8
0
  6
Continuous
 62
     7
370
    25
100
AcDbCircle
 10
6556.4136612228
 20
4615.543599897
 30
0.0
 40
0.6999998656474443
100
AcDbArc
 50
201.0781884826
 51
269.9999950798
  0
LWPOLYLINE
  5
3EB
330
1F
100
AcDbEntity
  8
0
  6
Continuous
 62
     7
370
    25
100
AcDbPolyline
 90
        9
 70
   128
 43
0.0
 10
6555.713661326
 20
4615.5436000314
 10
6555.7132882738
 20
4615.5974012463
 10
6555.7129295579
 20
4615.7567373404
 10
6555.7125989633
 20
4616.015485117
 10
6555.7123091948
 20
4616.3637010441
 10
6555.7120713879
 20
4616.7880033789
 10
6555.7118946815
 20
4617.2720864208
 10
6555.7117858662
 20
4617.7973471298
 10
6555.7117491238
 20
4618.3436000314
  0
LWPOLYLINE
  5
3EC
330
1F
100
AcDbEntity
  8
0
  6
Continuous
 62
     7
370
    25
100
AcDbPolyline
 90
        9
 70
   128
 43
0.0
 10
6527.6119588545
 20
4618.3436000314
 10
6527.6120047825
 20
4619.0264161585
 10
6527.6121408016
 20
4619.6829920447
 10
6527.6123616847
 20
4620.288095847
 10
6527.6126589433
 20
4620.8184737656
 10
6527.6130211539
 20
4621.2537436745
 10
6527.6134343971
 20
4621.5771783952
 10
6527.613882792
 20
4621.7763485128
 10
6527.6143491072
 20
4621.8436000314
  0
ARC
  5
3ED
330
1F
100
AcDbEntity
  8
0
  6
Continuous
 62
     7
370
    25
100
AcDbCircle
 10
6527.6143490256
 20
4621.143600113
 30
0.0
 40
0.6999999183799493
100
AcDbArc
 50
359.9999933193
 51
89.9999933195
  0
LWPOLYLINE
  5
3EE
330
1F
100
AcDbEntity
  8
0
  6
Continuous
 62
     7
370
    25
100
AcDbPolyline
 90
        9
 70
   128
 43
0.0
 10
6528.314348944
 20
4621.1436000314
 10
6528.3139758918
 20
4621.0897988165
 10
6528.3136171759
 20
4620.9304627224
 10
6528.3132865813
 20
4620.6717149458
 10
6528.3129968128
 20
4620.3234990187
 10
6528.312759006
 20
4619.8991966839
 10
6528.3125822995
 20
4619.415113642
 10
6528.3124734842
 20
4618.889852933
 10
6528.3124367418
 20
4618.3436000314
  0
LINE
  5
3EF
330
1F
100
AcDbEntity
  8
0
  6
Continuous
 62
     7
370
    25
100
AcDbLine
 10
6528.3124367418
 20
4618.3436000314
 30
0.0
 11
6527.6119588545
 21
4618.3436000314
 31
0.0
  0
LWPOLYLINE
  5
3F0
330
1F
100
AcDbEntity
  8
0
  6
Continuous
 62
     7
370
    25
100
AcDbPolyline
 90
        9
 70
   128
 43
0.0
 10
6528.3124367418
 20
4618.3436000314
 10
6528.3124734842
 20
4617.7973471298
 10
6528.3125822995
 20
4617.2720864208
 10
6528.312759006
 20
4616.7880033789
 10
6528.3129968128
 20
4616.3637010441
 10
6528.3132865813
 20
4616.015485117
 10
6528.3136171759
 20
4615.7567373404
 10
6528.3139758918
 20
4615.5974012463
 10
6528.314348944
 20
4615.5436000314
  0
ARC
  5
3F1
330
1F
100
AcDbEntity
  8
0
  6
Continuous
 62
     7
370
    25
100
AcDbCircle
 10
6527.6143490256
 20
4615.5435999498
 30
0.0
 40
0.6999999183817683
100
AcDbArc
 50
270.0000066805
 51
0.0000066805
  0
LWPOLYLINE
  5
3F2
330
1F
100
AcDbEntity
  8
0
  6
Continuous
 62
     7
370
    25
100
AcDbPolyline
 90
        9
 70
   128
 43
0.0
 10
6527.6143491072
 20
4614.8436000314
 10
6527.613882792
 20
4614.91085155
 10
6527.6134343971
 20
4615.1100216676
 10
6527.6130211539
 20
4615.4334563883
 10
6527.6126589433
 20
4615.8687262972
 10
6527.6123616847
 20
4616.3991042158
 10
6527.6121408016
 20
4617.0042080181
 10
6527.6120047825
 20
4617.6607839043
 10
6527.6119588545
 20
4618.3436000314
  0
LWPOLYLINE
  5
3F3
330
1F
100
AcDbEntity
  8
0
  6
Continuous
 62
     7
370
    25
100
AcDbPolyline
 90
        9
 70
   128
 43
0.0
 10
6524.8143497601
 20
4621.8436000314
 10
6524.813883445
 20
4621.7763485128
 10
6524.81343505
 20
4621.5771783952
 10
6524.8130218069
 20
4621.2537436745
 10
6524.8126595962
 20
4620.8184737656
 10
6524.8123623376
 20
4620.288095847
 10
6524.8121414546
 20
4619.6829920447
 10
6524.8120054355
 20
4619.0264161585
 10
6524.8119595074
 20
4618.3436000314
  0
LINE
  5
3F4
330
1F
100
AcDbEntity
  8
0
  6
Continuous
 62
     7
370
    25
100
AcDbLine
 10
6524.8143497601
 20
4621.8436000314
 30
0.0
 11
6527.6143491072
 21
4621.8436000314
 31
0.0
  0
LINE
  5
3F5
330
1F
100
AcDbEntity
  8
0
  6
Continuous
 62
     7
370
    25
100
AcDbLine
 10
6524.8119595074
 20
4618.3436000314
 30
0.0
 11
6527.6119588545
 21
4618.3436000314
 31
0.0
  0
LWPOLYLINE
  5
3F6
330
1F
100
AcDbEntity
  8
0
  6
Continuous
 62
     7
370
    25
100
AcDbPolyline
 90
        9
 70
   128
 43
0.0
 10
6524.8119595074
 20
4618.3436000314
 10
6524.8120054355
 20
4617.6607839043
 10
6524.8121414546
 20
4617.0042080181
 10
6524.8123623376
 20
4616.3991042158
 10
6524.8126595962
 20
4615.8687262972
 10
6524.8130218069
 20
4615.4334563883
 10
6524.81343505
 20
4615.1100216676
 10
6524.813883445
 20
4614.91085155
 10
6524.8143497601
 20
4614.8436000314
  0
LINE
  5
3F7
330
1F
100
AcDbEntity
  8
0
  6
Continuous
 62
     7
370
    25
100
AcDbLine
 10
6527.6143491072
 20
4614.8436000314
 30
0.0
 11
6524.8143497601
 21
4614.8436000314
 31
0.0
  0
LINE
  5
3F8
330
1F
100
AcDbEntity
  8
0
  6
Continuous
 62
     7
370
    25
100
AcDbLine
 10
6524.8119595074
 20
4618.3436000314
 30
0.0
 11
6524.1124377212
 21
4618.3436000314
 31
0.0
  0
LWPOLYLINE
  5
3F9
330
1F
100
AcDbEntity
  8
0
  6
Continuous
 62
     7
370
    25
100
AcDbPolyline
 90
        9
 70
   128
 43
0.0
 10
6524.1124377212
 20
4618.3436000314
 10
6524.1124744636
 20
4618.889852933
 10
6524.1125832789
 20
4619.415113642
 10
6524.1127599854
 20
4619.8991966839
 10
6524.1129977923
 20
4620.3234990187
 10
6524.1132875608
 20
4620.6717149458
 10
6524.1136181553
 20
4620.9304627224
 10
6524.1139768712
 20
4621.0897988165
 10
6524.1143499234
 20
4621.1436000314
  0
ARC
  5
3FA
330
1F
100
AcDbEntity
  8
0
  6
Continuous
 62
     7
370
    25
100
AcDbCircle
 10
6524.814349821
 20
4621.1436001639
 30
0.0
 40
0.6999998674991756
100
AcDbArc
 50
90.0000049832
 51
159.6393627489
  0
ARC
  5
3FB
330
1F
100
AcDbEntity
  8
0
  6
Continuous
 62
     7
370
    25
100
AcDbCircle
 10
6524.8143498203
 20
4615.5435998971
 30
0.0
 40
0.6999998656548785
100
AcDbArc
 50
201.078188483
 51
269.9999950793
  0
LWPOLYLINE
  5
3FC
330
1F
100
AcDbEntity
  8
0
  6
Continuous
 62
     7
370
    25
100
AcDbPolyline
 90
        9
 70
   128
 43
0.0
 10
6524.1143499234
 20
4615.5436000314
 10
6524.1139768712
 20
4615.5974012463
 10
6524.1136181553
 20
4615.7567373404
 10
6524.1132875608
 20
4616.015485117
 10
6524.1129977923
 20
4616.3637010441
 10
6524.1127599854
 20
4616.7880033789
 10
6524.1125832789
 20
4617.2720864208
 10
6524.1124744636
 20
4617.7973471298
 10
6524.1124377212
 20
4618.3436000314
  0
LINE
  5
3FD
330
1F
100
AcDbEntity
  8
0
  6
Continuous
 62
     7
370
    25
100
AcDbLine
 10
6559.9136603465
 20
4615.5436000314
 30
0.0
 11
6559.91420669
 21
4615.5436000314
 31
0.0
  0
LINE
  5
3FE
330
1F
100
AcDbEntity
  8
0
  6
Continuous
 62
     7
370
    25
100
AcDbLine
 10
6559.91420669
 20
4621.1436000314
 30
0.0
 11
6559.9136603465
 21
4621.1436000314
 31
0.0
  0
LINE
  5
3FF
330
1F
100
AcDbEntity
  8
0
  6
Continuous
 62
     7
370
    25
100
AcDbLine
 10
6559.91420669
 20
4619.2936000314
 30
0.0
 11
6559.91420669
 21
4621.1436000314
 31
0.0
  0
LWPOLYLINE
  5
400
330
1F
100
AcDbEntity
  8
0
  6
Continuous
 62
     7
370
    25
100
AcDbPolyline
 90
       11
 70
   128
 43
0.0
 10
6559.9138735912
 20
4617.3936000314
 10
6559.913724854
 20
4617.3480710899
 10
6559.9134443853
 20
4617.3949167333
 10
6559.913200815
 20
4617.6038510842
 10
6559.9130357586
 20
4617.9391763506
 10
6559.9129774172
 20
4618.3436000314
 10
6559.9130357586
 20
4618.7480237122
 10
6559.913200815
 20
4619.0833489786
 10
6559.9134443853
 20
4619.2922833294
 10
6559.913724854
 20
4619.3391289729
 10
6559.9138735912
 20
4619.2936000314
  0
LINE
  5
401
330
1F
100
AcDbEntity
  8
0
  6
Continuous
 62
     7
370
    25
100
AcDbLine
 10
6559.91420669
 20
4615.5436000314
 30
0.0
 11
6559.91420669
 21
4617.3936000314
 31
0.0
  0
LINE
  5
402
330
1F
100
AcDbEntity
  8
0
  6
Continuous
 62
     7
370
    25
100
AcDbLine
 10
6528.3178538854
 20
4621.1436000314
 30
0.0
 11
6528.314348944
 21
4621.1436000314
 31
0.0
  0
LINE
  5
403
330
1F
100
AcDbEntity
  8
0
  6
Continuous
 62
     7
370
    25
100
AcDbLine
 10
6528.314348944
 20
4615.5436000314
 30
0.0
 11
6528.3178538854
 21
4615.5436000314
 31
0.0
  0
LWPOLYLINE
  5
404
330
1F
100
AcDbEntity
  8
0
  6
Continuous
 62
     7
370
    25
100
AcDbPolyline
 90
       11
 70
   128
 43
0.0
 10
6528.3145621886
 20
4617.3936000314
 10
6528.314348944
 20
4617.3436000314
 10
6528.3140875982
 20
4617.4197204989
 10
6528.31386604
 20
4617.6364932502
 10
6528.3137179995
 20
4617.960916599
 10
6528.3136660146
 20
4618.3436000314
 10
6528.3137179995
 20
4618.7262834638
 10
6528.31386604
 20
4619.0507068126
 10
6528.3140875982
 20
4619.2674795639
 10
6528.314348944
 20
4619.3436000314
 10
6528.3145621886
 20
4619.2936000314
  0
LWPOLYLINE
  5
405
330
1F
100
AcDbEntity
  8
0
  6
Continuous
 62
     7
370
    25
100
AcDbPolyline
 90
        9
 70
   128
 43
0.0
 10
6555.5866971623
 20
4619.2936000314
 10
6555.5864488839
 20
4619.2212855873
 10
6555.5862384036
 20
4619.0153514735
 10
6555.5860977651
 20
4618.7071492921
 10
6555.5860483795
 20
4618.3436000314
 10
6555.5860977651
 20
4617.9800507707
 10
6555.5862384036
 20
4617.6718485893
 10
6555.5864488839
 20
4617.4659144755
 10
6555.5866971623
 20
4617.3936000314
  0
LWPOLYLINE
  5
406
330
1F
100
AcDbEntity
  8
0
  6
Continuous
 62
     7
370
    25
100
AcDbPolyline
 90
       17
 70
   128
 43
0.0
 10
6528.441994336
 20
4619.2936000314
 10
6528.4417460575
 20
4619.2212855873
 10
6528.4415355772
 20
4619.0153514735
 10
6528.4413949388
 20
4618.7071492921
 10
6528.4413455531
 20
4618.3436000314
 10
6528.4413949388
 20
4617.9800507707
 10
6528.4415355772
 20
4617.6718485893
 10
6528.4417460575
 20
4617.4659144755
 10
6528.441994336
 20
4617.3936000314
 10
6528.4422426145
 20
4617.4659144755
 10
6528.4424530948
 20
4617.6718485893
 10
6528.4425937332
 20
4617.9800507707
 10
6528.4426431189
 20
4618.3436000314
 10
6528.4425937332
 20
4618.7071492921
 10
6528.4424530948
 20
4619.0153514735
 10
6528.4422426145
 20
4619.2212855873
 10
6528.441994336
 20
4619.2936000314
  0
LINE
  5
407
330
1F
100
AcDbEntity
  8
0
  6
Continuous
 62
     7
370
    25
100
AcDbLine
 10
6559.2136605098
 20
4621.8436000314
 30
0.0
 11
6559.2142068533
 21
4621.8436000314
 31
0.0
  0
ARC
  5
408
330
1F
100
AcDbEntity
  8
0
  6
Continuous
 62
     7
370
    25
100
AcDbCircle
 10
6559.2142067716
 20
4621.143600113
 30
0.0
 40
0.6999999183808588
100
AcDbArc
 50
359.9999933193
 51
89.9999933193
  0
LINE
  5
409
330
1F
100
AcDbEntity
  8
0
  6
Continuous
 62
     7
370
    25
100
AcDbLine
 10
6559.2142068533
 20
4614.8436000314
 30
0.0
 11
6559.2136605098
 21
4614.8436000314
 31
0.0
  0
ARC
  5
40A
330
1F
100
AcDbEntity
  8
0
  6
Continuous
 62
     7
370
    25
100
AcDbCircle
 10
6559.2142067716
 20
4615.5435999498
 30
0.0
 40
0.6999999183799493
100
AcDbArc
 50
270.0000066806
 51
0.0000066807
  0
LINE
  5
40B
330
1F
100
AcDbEntity
  8
0
  6
Continuous
 62
     7
370
    25
100
AcDbLine
 10
6527.6143491072
 20
4621.8436000314
 30
0.0
 11
6527.6169779434
 21
4621.8436000314
 31
0.0
  0
LINE
  5
40C
330
1F
100
AcDbEntity
  8
0
  6
Continuous
 62
     7
370
    25
100
AcDbLine
 10
6527.6169779434
 20
4614.8436000314
 30
0.0
 11
6527.6143491072
 21
4614.8436000314
 31
0.0
  0
LINE
  5
40D
330
1F
100
AcDbEntity
  8
0
  6
Continuous
 62
     7
370
    25
100
AcDbLine
 10
6559.91420669
 20
4615.5436000314
 30
0.0
 11
6560.6146845773
 21
4615.5436000314
 31
0.0
  0
ARC
  5
40E
330
1F
100
AcDbEntity
  8
0
  6
Continuous
 62
     7
370
    25
100
AcDbCircle
 10
6302.9652727498
 20
4614.3185999495
 30
0.0
 40
256.2494719101402
100
AcDbArc
 50
359.9608711096
 51
0.1173868175
  0
LINE
  5
40F
330
1F
100
AcDbEntity
  8
0
  6
Continuous
 62
     7
370
    25
100
AcDbLine
 10
6559.2146849038
 20
4614.1436000314
 30
0.0
 11
6557.742350276
 21
4614.1436000314
 31
0.0
  0
ARC
  5
410
330
1F
100
AcDbEntity
  8
0
  6
Continuous
 62
     7
370
    25
100
AcDbCircle
 10
6553.0670838497
 20
4615.5628982198
 30
0.0
 40
4.885951647849381
100
AcDbArc
 50
343.1129745769
 51
351.5342819976
  0
LINE
  5
411
330
1F
100
AcDbEntity
  8
0
  6
Continuous
 62
     7
370
    25
100
AcDbLine
 10
6557.742350276
 20
4622.5436000314
 30
0.0
 11
6559.2146849038
 21
4622.5436000314
 31
0.0
  0
ARC
  5
412
330
1F
100
AcDbEntity
  8
0
  6
Continuous
 62
     7
370
    25
100
AcDbCircle
 10
6302.9652733866
 20
4622.3686001126
 30
0.0
 40
256.24947127338
100
AcDbArc
 50
359.8826131824
 51
0.0391288907
  0
ARC
  5
413
330
1F
100
AcDbEntity
  8
0
  6
Continuous
 62
     7
370
    25
100
AcDbCircle
 10
6551.7638068626
 20
4620.8311603929
 30
0.0
 40
6.218957377432771
100
AcDbArc
 50
9.3693939295
 51
15.9833494959
  0
ARC
  5
414
330
1F
100
AcDbEntity
  8
0
  6
Continuous
 62
     7
370
    25
100
AcDbCircle
 10
6542.8144299147
 20
4619.1360791001
 30
0.0
 40
17.28814314517892
100
AcDbArc
 50
168.6324796969
 51
170.9897337472
  0
ARC
  5
415
330
1F
100
AcDbEntity
  8
0
  6
Continuous
 62
     7
370
    25
100
AcDbCircle
 10
6541.090750255
 20
4618.4841490749
 30
0.0
 40
15.75720805008782
100
AcDbArc
 50
112.2407101076
 51
165.0708145372
  0
ARC
  5
416
330
1F
100
AcDbEntity
  8
0
  6
Continuous
 62
     7
370
    25
100
AcDbCircle
 10
6542.4056773819
 20
4618.9541794244
 30
0.0
 40
16.9731260733301
100
AcDbArc
 50
196.4646246359
 51
244.5405775906
  0
ARC
  5
417
330
1F
100
AcDbEntity
  8
0
  6
Continuous
 62
     7
370
    25
100
AcDbCircle
 10
6541.5531869354
 20
4618.581094339
 30
0.0
 40
16.05027149575146
100
AcDbArc
 50
193.4656136966
 51
196.049917101
  0
ARC
  5
418
330
1F
100
AcDbEntity
  8
0
  6
Continuous
 62
     7
370
    25
100
AcDbCircle
 10
6268.565962814
 20
4622.3686001131
 30
0.0
 40
256.2494710963847
100
AcDbArc
 50
359.8826131822
 51
0.0391288906
  0
LINE
  5
419
330
1F
100
AcDbEntity
  8
0
  6
Continuous
 62
     7
370
    25
100
AcDbLine
 10
6524.8153741542
 20
4622.5436000314
 30
0.0
 11
6525.8654271561
 21
4622.5436000314
 31
0.0
  0
LINE
  5
41A
330
1F
100
AcDbEntity
  8
0
  6
Continuous
 62
     7
370
    25
100
AcDbLine
 10
6526.1285359067
 20
4614.1436000314
 30
0.0
 11
6524.8153741542
 21
4614.1436000314
 31
0.0
  0
ARC
  5
41B
330
1F
100
AcDbEntity
  8
0
  6
Continuous
 62
     7
370
    25
100
AcDbCircle
 10
6268.5659622424
 20
4614.3185999496
 30
0.0
 40
256.2494716679237
100
AcDbArc
 50
359.9608711095
 51
0.1173868175
  0
ARC
  5
41C
330
1F
100
AcDbEntity
  8
0
  6
Continuous
 62
     7
370
    25
100
AcDbCircle
 10
6559.2146847406
 20
4615.5435998682
 30
0.0
 40
1.399999836760808
100
AcDbArc
 50
270.0000066805
 51
0.0000066806
  0
ARC
  5
41D
330
1F
100
AcDbEntity
  8
0
  6
Continuous
 62
     7
370
    25
100
AcDbCircle
 10
6524.8153743174
 20
4615.5435998682
 30
0.0
 40
1.399999836764446
100
AcDbArc
 50
179.9999933195
 51
269.9999933194
  0
ARC
  5
41E
330
1F
100
AcDbEntity
  8
0
  6
Continuous
 62
     7
370
    25
100
AcDbCircle
 10
6542.0153677249
 20
4618.3435978551
 30
0.0
 40
19.94999782365736
100
AcDbArc
 50
270.0000069452
 51
1.4592889353
  0
ARC
  5
41F
330
1F
100
AcDbEntity
  8
0
  6
Continuous
 62
     7
370
    25
100
AcDbCircle
 10
6542.0153725376
 20
4618.3435977969
 30
0.0
 40
19.94999776546516
100
AcDbArc
 50
179.411531365
 51
269.9999931233
  0
ARC
  5
420
330
1F
100
AcDbEntity
  8
0
  6
Continuous
 62
     7
370
    25
100
AcDbCircle
 10
6536.266732662
 20
4631.2876689302
 30
0.0
 40
2.114961834762289
100
AcDbArc
 50
113.9466709079
 51
122.6187524984
  0
ARC
  5
421
330
1F
100
AcDbEntity
  8
0
  6
Continuous
 62
     7
370
    25
100
AcDbCircle
 10
6536.2667326648
 20
4605.3995311382
 30
0.0
 40
2.114961841003994
100
AcDbArc
 50
236.8243543276
 51
246.0533290831
  0
ARC
  5
422
330
1F
100
AcDbEntity
  8
0
  6
Continuous
 62
     7
370
    25
100
AcDbCircle
 10
6542.015370123
 20
4618.3436044378
 30
0.0
 40
16.27814079430962
100
AcDbArc
 50
14.9522793676
 51
113.9466671633
  0
ARC
  5
423
330
1F
100
AcDbEntity
  8
0
  6
Continuous
 62
     7
370
    25
100
AcDbCircle
 10
6542.0153699376
 20
4618.3435960128
 30
0.0
 40
16.27814107350493
100
AcDbArc
 50
246.0533339872
 51
345.0477194819
  0
ARC
  5
424
330
1F
100
AcDbEntity
  8
0
  6
Continuous
 62
     7
370
    25
100
AcDbCircle
 10
6542.0183047185
 20
4618.3435971515
 30
0.0
 40
19.94999712013356
100
AcDbArc
 50
270.0000058044
 51
354.3422244649
  0
ARC
  5
425
330
1F
100
AcDbEntity
  8
0
  6
Continuous
 62
     7
370
    25
100
AcDbCircle
 10
6542.0197384721
 20
4618.3435978567
 30
0.0
 40
19.94999782530991
100
AcDbArc
 50
270.0000069471
 51
1.4841168007
  0
ARC
  5
426
330
1F
100
AcDbEntity
  8
0
  6
Continuous
 62
     7
370
    25
100
AcDbCircle
 10
6569.0139982739
 20
4618.3435997457
 30
0.0
 40
2.449999714333006
100
AcDbArc
 50
179.9999933193
 51
269.9999933195
  0
ARC
  5
427
330
1F
100
AcDbEntity
  8
0
  6
Continuous
 62
     7
370
    25
100
AcDbCircle
 10
6569.0139982739
 20
4618.3436003171
 30
0.0
 40
2.449999714333006
100
AcDbArc
 50
90.0000066808
 51
180.0000066806
  0
ARC
  5
428
330
1F
100
AcDbEntity
  8
0
  6
Continuous
 62
     7
370
    25
100
AcDbCircle
 10
6569.0126321693
 20
4618.3436000314
 30
0.0
 40
2.449999805286907
100
AcDbArc
 50
231.7106994049
 51
128.2893005951
  0
ARC
  5
429
330
1F
100
AcDbEntity
  8
0
  6
Continuous
 62
     7
370
    25
100
AcDbCircle
 10
6569.0127167136
 20
4618.3436000314
 30
0.0
 40
2.450052192609061
100
AcDbArc
 50
128.2908524168
 51
231.7091475832
  0
CIRCLE
  5
42A
330
1F
100
AcDbEntity
  8
0
  6
Continuous
 62
     7
370
    25
100
AcDbCircle
 10
6542.0150318901
 20
4618.3436004412
 30
0.0
 40
20.09999852434521
  0
ARC
  5
42B
330
1F
100
AcDbEntity
  8
0
  6
Continuous
 62
     7
370
    25
100
AcDbCircle
 10
6542.0126352304
 20
4618.3436032268
 30
0.0
 40
25.55435307772894
100
AcDbArc
 50
4.3156255469
 51
85.684361092
  0
ARC
  5
42C
330
1F
100
AcDbEntity
  8
0
  6
Continuous
 62
     7
370
    25
100
AcDbCircle
 10
6542.0126352304
 20
4618.343596836
 30
0.0
 40
25.55435307773033
100
AcDbArc
 50
274.315638908
 51
355.6843744531
  0
ARC
  5
42D
330
1F
100
AcDbEntity
  8
0
  6
Continuous
 62
     7
370
    25
100
AcDbCircle
 10
6542.0126384258
 20
4591.3436018874
 30
0.0
 40
2.449998497981666
100
AcDbArc
 50
38.2892787931
 51
141.7107212069
  0
ARC
  5
42E
330
1F
100
AcDbEntity
  8
0
  6
Continuous
 62
     7
370
    25
100
AcDbCircle
 10
6542.0126416212
 20
4618.343596836
 30
0.0
 40
25.55435307773193
100
AcDbArc
 50
184.3156255469
 51
265.684361092
  0
ARC
  5
42F
330
1F
100
AcDbEntity
  8
0
  6
Continuous
 62
     7
370
    25
100
AcDbCircle
 10
6515.0127276152
 20
4618.3436000314
 30
0.0
 40
2.449948418228108
100
AcDbArc
 50
308.287778287
 51
51.712221713
  0
ARC
  5
430
330
1F
100
AcDbEntity
  8
0
  6
Continuous
 62
     7
370
    25
100
AcDbCircle
 10
6542.0126416212
 20
4618.3436032268
 30
0.0
 40
25.55435307773089
100
AcDbArc
 50
94.315638908
 51
175.6843744531
  0
ARC
  5
431
330
1F
100
AcDbEntity
  8
0
  6
Continuous
 62
     7
370
    25
100
AcDbCircle
 10
6542.0126384258
 20
4645.3436002017
 30
0.0
 40
2.449999753557276
100
AcDbArc
 50
218.2893159873
 51
321.7106840126
  0
ARC
  5
432
330
1F
100
AcDbEntity
  8
0
  6
Continuous
 62
     7
370
    25
100
AcDbCircle
 10
6542.0140047443
 20
4645.3436000314
 30
0.0
 40
2.449999999999861
100
AcDbArc
 50
90.0000107525
 51
269.9999892478
  0
ARC
  5
433
330
1F
100
AcDbEntity
  8
0
  6
Continuous
 62
     7
370
    25
100
AcDbCircle
 10
6542.0126384258
 20
4645.3435999916
 30
0.0
 40
2.449999623383384
100
AcDbArc
 50
321.7106878688
 51
218.2893121312
  0
ARC
  5
434
330
1F
100
AcDbEntity
  8
0
  6
Continuous
 62
     7
370
    25
100
AcDbCircle
 10
6542.014004668
 20
4591.3436000314
 30
0.0
 40
2.449999999999848
100
AcDbArc
 50
90.0000089684
 51
269.9999910319
  0
ARC
  5
435
330
1F
100
AcDbEntity
  8
0
  6
Continuous
 62
     7
370
    25
100
AcDbCircle
 10
6542.0126384258
 20
4591.3436000712
 30
0.0
 40
2.44999962338267
100
AcDbArc
 50
141.7106878688
 51
38.2893121312
  0
ARC
  5
436
330
1F
100
AcDbEntity
  8
0
  6
Continuous
 62
     7
370
    25
100
AcDbCircle
 10
6515.0140109643
 20
4618.3436000314
 30
0.0
 40
2.450000000000758
100
AcDbArc
 50
90.0000089683
 51
269.999991032
  0
ARC
  5
437
330
1F
100
AcDbEntity
  8
0
  6
Continuous
 62
     7
370
    25
100
AcDbCircle
 10
6515.0126446823
 20
4618.3436000314
 30
0.0
 40
2.449999805286343
100
AcDbArc
 50
51.7106994049
 51
308.2893005951
  0
CIRCLE
  5
438
330
1F
100
AcDbEntity
  8
0
  6
Continuous
 62
     7
370
    25
100
AcDbCircle
 10
6542.0126441117
 20
4618.3436005664
 30
0.0
 40
34.89999754733526
  0
CIRCLE
  5
439
330
1F
100
AcDbEntity
  8
0
  6
Continuous
 62
     7
370
    25
100
AcDbCircle
 10
6894.3256686913
 20
4531.3435993813
 30
0.0
 40
3.999999349951399
  0
CIRCLE
  5
43A
330
1F
100
AcDbEntity
  8
0
  6
Continuous
 62
     7
370
    25
100
AcDbCircle
 10
6894.3263512407
 20
4531.3435992195
 30
0.0
 40
4.999999188127735
  0
LINE
  5
43B
330
1F
100
AcDbEntity
  8
0
  6
Continuous
 62
     7
370
    25
100
AcDbLine
 10
6894.3803028626
 20
4521.5286454552
 30
0.0
 11
6896.4122795542
 21
4522.7018080187
 31
0.0
  0
LINE
  5
43C
330
1F
100
AcDbEntity
  8
0
  6
Continuous
 62
     7
370
    25
100
AcDbLine
 10
6894.3557174059
 20
4521.5428398785
 30
0.0
 11
6894.3803028626
 21
4521.5286454552
 31
0.0
  0
LINE
  5
43D
330
1F
100
AcDbEntity
  8
0
  6
Continuous
 62
     7
370
    25
100
AcDbLine
 10
6894.3803028626
 20
4521.5286454552
 30
0.0
 11
6894.385083368
 21
4521.5286454552
 31
0.0
  0
LINE
  5
43E
330
1F
100
AcDbEntity
  8
0
  6
Continuous
 62
     7
370
    25
100
AcDbLine
 10
6894.385083368
 20
4521.5286454552
 30
0.0
 11
6896.4170600597
 21
4522.7018080187
 31
0.0
  0
ARC
  5
43F
330
1F
100
AcDbEntity
  8
0
  6
Continuous
 62
     7
370
    25
100
AcDbCircle
 10
6189.7258319954
 20
4678.3436000171
 30
0.0
 40
3.9999999856705
100
AcDbArc
 50
270.0000118747
 51
24.150154874
  0
ARC
  5
440
330
1F
100
AcDbEntity
  8
0
  6
Continuous
 62
     7
370
    25
100
AcDbCircle
 10
6189.7258334789
 20
4678.3435999216
 30
0.0
 40
3.99999989021225
100
AcDbArc
 50
153.2306051921
 51
269.9999906255
  0
ARC
  5
441
330
1F
100
AcDbEntity
  8
0
  6
Continuous
 62
     7
370
    25
100
AcDbCircle
 10
6894.3256676853
 20
4678.3436000171
 30
0.0
 40
3.999999985667161
100
AcDbArc
 50
270.0000118747
 51
24.1501225482
  0
ARC
  5
442
330
1F
100
AcDbEntity
  8
0
  6
Continuous
 62
     7
370
    25
100
AcDbCircle
 10
6894.3256691688
 20
4678.3435999216
 30
0.0
 40
3.999999890212029
100
AcDbArc
 50
153.2307665711
 51
269.9999906255
  0
LINE
  5
443
330
1F
100
AcDbEntity
  8
0
  6
Continuous
 62
     7
370
    25
100
AcDbLine
 10
6908.3837142446
 20
4691.0436000314
 30
0.0
 11
6908.3837142446
 21
4693.3436000314
 31
0.0
  0
LINE
  5
444
330
1F
100
AcDbEntity
  8
0
  6
Continuous
 62
     7
370
    25
100
AcDbLine
 10
6908.3850801033
 20
4691.0436000314
 30
0.0
 11
6908.3850801033
 21
4693.3436000314
 31
0.0
  0
LINE
  5
445
330
1F
100
AcDbEntity
  8
0
  6
Continuous
 62
     7
370
    25
100
AcDbLine
 10
6908.3837142446
 20
4693.3436000314
 30
0.0
 11
6908.3850801033
 21
4693.3436000314
 31
0.0
  0
LINE
  5
446
330
1F
100
AcDbEntity
  8
0
  6
Continuous
 62
     7
370
    25
100
AcDbLine
 10
6858.3837259044
 20
4693.3436000314
 30
0.0
 11
6858.3837259044
 21
4691.0436000314
 31
0.0
  0
LINE
  5
447
330
1F
100
AcDbEntity
  8
0
  6
Continuous
 62
     7
370
    25
100
AcDbLine
 10
6908.3837142446
 20
4693.3436000314
 30
0.0
 11
6858.3837259044
 21
4693.3436000314
 31
0.0
  0
CIRCLE
  5
448
330
1F
100
AcDbEntity
  8
0
  6
Continuous
 62
     7
370
    25
100
AcDbCircle
 10
6189.7258326475
 20
4531.3436006814
 30
0.0
 40
3.999999349952308
  0
CIRCLE
  5
449
330
1F
100
AcDbEntity
  8
0
  6
Continuous
 62
     7
370
    25
100
AcDbCircle
 10
6189.7265159568
 20
4531.3436008433
 30
0.0
 40
4.999999188127735
  0
LINE
  5
44A
330
1F
100
AcDbEntity
  8
0
  6
Continuous
 62
     7
370
    25
100
AcDbLine
 10
6175.7838850842
 20
4516.3436000314
 30
0.0
 11
6225.7838734244
 21
4516.3436000314
 31
0.0
  0
LINE
  5
44B
330
1F
100
AcDbEntity
  8
0
  6
Continuous
 62
     7
370
    25
100
AcDbLine
 10
6175.7838850842
 20
4546.3436000314
 30
0.0
 11
6175.7838850842
 21
4516.3436000314
 31
0.0
  0
LINE
  5
44C
330
1F
100
AcDbEntity
  8
0
  6
Continuous
 62
     7
370
    25
100
AcDbLine
 10
6225.7838734244
 20
4546.3436000314
 30
0.0
 11
6199.7317517357
 21
4546.3436000314
 31
0.0
  0
LINE
  5
44D
330
1F
100
AcDbEntity
  8
0
  6
Continuous
 62
     7
370
    25
100
AcDbLine
 10
6179.7299355315
 20
4546.3436000314
 30
0.0
 11
6175.7838850842
 21
4546.3436000314
 31
0.0
  0
LINE
  5
44E
330
1F
100
AcDbEntity
  8
0
  6
Continuous
 62
     7
370
    25
100
AcDbLine
 10
6225.7838734244
 20
4516.3436000314
 30
0.0
 11
6225.7838734244
 21
4546.3436000314
 31
0.0
  0
CIRCLE
  5
44F
330
1F
100
AcDbEntity
  8
0
  6
Continuous
 62
     7
370
    25
100
AcDbCircle
 10
6211.7838765411
 20
4531.343600479
 30
0.0
 40
2.749999552371268
  0
LINE
  5
450
330
1F
100
AcDbEntity
  8
0
  6
Continuous
 62
     7
370
    25
100
AcDbLine
 10
6225.7838734244
 20
4516.3436000314
 30
0.0
 11
6225.7852392831
 21
4516.3436000314
 31
0.0
  0
LINE
  5
451
330
1F
100
AcDbEntity
  8
0
  6
Continuous
 62
     7
370
    25
100
AcDbLine
 10
6225.7838734244
 20
4546.3436000314
 30
0.0
 11
6225.7852392831
 21
4546.3436000314
 31
0.0
  0
LINE
  5
452
330
1F
100
AcDbEntity
  8
0
  6
Continuous
 62
     7
370
    25
100
AcDbLine
 10
6225.7852392831
 20
4516.3436000314
 30
0.0
 11
6225.7852392831
 21
4546.3436000314
 31
0.0
  0
ARC
  5
453
330
1F
100
AcDbEntity
  8
0
  6
Continuous
 62
     7
370
    25
100
AcDbCircle
 10
6211.78524301
 20
4531.3436000314
 30
0.0
 40
2.750000000000039
100
AcDbArc
 50
90.000009629
 51
269.9999903712
  0
LINE
  5
454
330
1F
100
AcDbEntity
  8
0
  6
Continuous
 62
     7
370
    25
100
AcDbLine
 10
6944.3133641262
 20
4547.1436000314
 30
0.0
 11
6944.3141836414
 21
4547.1436000314
 31
0.0
  0
LINE
  5
455
330
1F
100
AcDbEntity
  8
0
  6
Continuous
 62
     7
370
    25
100
AcDbLine
 10
6944.3133641262
 20
4547.1436000314
 30
0.0
 11
6944.3133641262
 21
4689.5436000314
 31
0.0
  0
LINE
  5
456
330
1F
100
AcDbEntity
  8
0
  6
Continuous
 62
     7
370
    25
100
AcDbLine
 10
6944.2663785867
 20
4691.0436000314
 30
0.0
 11
6944.2663785867
 21
4689.5436000314
 31
0.0
  0
LINE
  5
457
330
1F
100
AcDbEntity
  8
0
  6
Continuous
 62
     7
370
    25
100
AcDbLine
 10
6944.2663785867
 20
4691.0436000314
 30
0.0
 11
6944.3141836414
 21
4691.0436000314
 31
0.0
  0
LINE
  5
458
330
1F
100
AcDbEntity
  8
0
  6
Continuous
 62
     7
370
    25
100
AcDbLine
 10
6944.3141836414
 20
4547.1436000314
 30
0.0
 11
6944.3141836414
 21
4691.0436000314
 31
0.0
  0
LINE
  5
459
330
1F
100
AcDbEntity
  8
0
  6
Continuous
 62
     7
370
    25
100
AcDbLine
 10
6944.2663785867
 20
4689.5436000314
 30
0.0
 11
6944.3133641262
 21
4689.5436000314
 31
0.0
  0
LINE
  5
45A
330
1F
100
AcDbEntity
  8
0
  6
Continuous
 62
     7
370
    25
100
AcDbLine
 10
6139.6665662164
 20
4691.0436000314
 30
0.0
 11
6139.6665662164
 21
4689.5436000314
 31
0.0
  0
LINE
  5
45B
330
1F
100
AcDbEntity
  8
0
  6
Continuous
 62
     7
370
    25
100
AcDbLine
 10
6139.6665662164
 20
4691.0436000314
 30
0.0
 11
6944.2663785867
 21
4691.0436000314
 31
0.0
  0
LINE
  5
45C
330
1F
100
AcDbEntity
  8
0
  6
Continuous
 62
     7
370
    25
100
AcDbLine
 10
6139.6665662164
 20
4689.5436000314
 30
0.0
 11
6944.2663785867
 21
4689.5436000314
 31
0.0
  0
ARC
  5
45D
330
1F
100
AcDbEntity
  8
0
  6
Continuous
 62
     7
370
    25
100
AcDbCircle
 10
6912.6036055121
 20
4668.343600148
 30
0.0
 40
0.999999883402786
100
AcDbArc
 50
359.9999933193
 51
89.9999933194
  0
LINE
  5
45E
330
1F
100
AcDbEntity
  8
0
  6
Continuous
 62
     7
370
    25
100
AcDbLine
 10
6913.6036053955
 20
4668.3436000314
 30
0.0
 11
6913.6036053955
 21
4568.3436000314
 31
0.0
  0
ARC
  5
45F
330
1F
100
AcDbEntity
  8
0
  6
Continuous
 62
     7
370
    25
100
AcDbCircle
 10
6912.6036055121
 20
4568.3435999148
 30
0.0
 40
0.999999883404605
100
AcDbArc
 50
270.0000066807
 51
0.0000066805
  0
LINE
  5
460
330
1F
100
AcDbEntity
  8
0
  6
Continuous
 62
     7
370
    25
100
AcDbLine
 10
6912.6036056287
 20
4669.3436000314
 30
0.0
 11
6171.4037784738
 21
4669.3436000314
 31
0.0
  0
LINE
  5
461
330
1F
100
AcDbEntity
  8
0
  6
Continuous
 62
     7
370
    25
100
AcDbLine
 10
6912.6036056287
 20
4567.3436000314
 30
0.0
 11
6171.4037784738
 21
4567.3436000314
 31
0.0
  0
ARC
  5
462
330
1F
100
AcDbEntity
  8
0
  6
Continuous
 62
     7
370
    25
100
AcDbCircle
 10
6171.4037785904
 20
4668.343600148
 30
0.0
 40
0.999999883402786
100
AcDbArc
 50
90.0000066806
 51
180.0000066806
  0
ARC
  5
463
330
1F
100
AcDbEntity
  8
0
  6
Continuous
 62
     7
370
    25
100
AcDbCircle
 10
6171.4037785904
 20
4568.3435999148
 30
0.0
 40
0.9999998834036955
100
AcDbArc
 50
179.9999933195
 51
269.9999933194
  0
LINE
  5
464
330
1F
100
AcDbEntity
  8
0
  6
Continuous
 62
     7
370
    25
100
AcDbLine
 10
6170.403778707
 20
4568.3436000314
 30
0.0
 11
6170.403778707
 21
4668.3436000314
 31
0.0
  0
ARC
  5
465
330
1F
100
AcDbEntity
  8
0
  6
Continuous
 62
     7
370
    25
100
AcDbCircle
 10
6171.4127249649
 20
4668.343600148
 30
0.0
 40
0.9999998834018765
100
AcDbArc
 50
90.0000066806
 51
180.0000066806
  0
LINE
  5
466
330
1F
100
AcDbEntity
  8
0
  6
Continuous
 62
     7
370
    25
100
AcDbLine
 10
6170.4127250815
 20
4668.3436000314
 30
0.0
 11
6170.403778707
 21
4668.3436000314
 31
0.0
  0
LINE
  5
467
330
1F
100
AcDbEntity
  8
0
  6
Continuous
 62
     7
370
    25
100
AcDbLine
 10
6170.4127250815
 20
4568.3436000314
 30
0.0
 11
6170.403778707
 21
4568.3436000314
 31
0.0
  0
ARC
  5
468
330
1F
100
AcDbEntity
  8
0
  6
Continuous
 62
     7
370
    25
100
AcDbCircle
 10
6171.4127249649
 20
4568.3435999148
 30
0.0
 40
0.999999883402786
100
AcDbArc
 50
179.9999933195
 51
269.9999933194
  0
LINE
  5
469
330
1F
100
AcDbEntity
  8
0
  6
Continuous
 62
     7
370
    25
100
AcDbLine
 10
6170.4127250815
 20
4668.3436000314
 30
0.0
 11
6170.4127250815
 21
4568.3436000314
 31
0.0
  0
CIRCLE
  5
46A
330
1F
100
AcDbEntity
  8
0
  6
Continuous
 62
     7
370
    25
100
AcDbCircle
 10
6542.0126390014
 20
4618.3435936843
 30
0.0
 40
39.99999365289023
  0
CIRCLE
  5
46B
330
1F
100
AcDbEntity
  8
0
  6
Continuous
 62
     7
370
    25
100
AcDbCircle
 10
6542.0135614448
 20
4618.3435942965
 30
0.0
 40
35.20108153822639
  0
LINE
  5
46C
330
1F
100
AcDbEntity
  8
0
  6
Continuous
 62
     7
370
    25
100
AcDbLine
 10
6139.7135517559
 20
4547.1436000314
 30
0.0
 11
6944.3133641262
 21
4547.1436000314
 31
0.0
  0
CIRCLE
  5
46D
330
1F
100
AcDbEntity
  8
0
  6
Continuous
 62
     7
370
    25
100
AcDbCircle
 10
6894.313375974
 20
4677.8235452263
 30
0.0
 40
4.249999309322452
  0
CIRCLE
  5
46E
330
1F
100
AcDbEntity
  8
0
  6
Continuous
 62
     7
370
    25
100
AcDbCircle
 10
6189.7135402841
 20
4677.8235452263
 30
0.0
 40
4.249999309324271
  0
LINE
  5
46F
330
1F
100
AcDbEntity
  8
0
  6
Continuous
 62
     7
370
    25
100
AcDbLine
 10
6139.7135517559
 20
4689.5436000314
 30
0.0
 11
6139.7135517559
 21
4547.1436000314
 31
0.0
  0
ARC
  5
470
330
1F
100
AcDbEntity
  8
0
  6
Continuous
 62
     7
370
    25
100
AcDbCircle
 10
6894.3141960414
 20
4677.8235459169
 30
0.0
 40
4.250000000000064
100
AcDbArc
 50
90.0000099797
 51
269.9999900206
  0
ARC
  5
471
330
1F
100
AcDbEntity
  8
0
  6
Continuous
 62
     7
370
    25
100
AcDbCircle
 10
6189.7143603515
 20
4677.8235459169
 30
0.0
 40
4.250000000000064
100
AcDbArc
 50
90.0000099797
 51
269.9999900206
  0
LINE
  5
472
330
1F
100
AcDbEntity
  8
0
  6
Continuous
 62
     7
370
    25
100
AcDbLine
 10
6904.3319835124
 20
4545.6857337029
 30
0.0
 11
6904.3311057633
 21
4547.1436000314
 31
0.0
  0
LWPOLYLINE
  5
473
330
1F
100
AcDbEntity
  8
0
  6
Continuous
 62
     7
370
    25
100
AcDbPolyline
 90
        9
 70
   128
 43
0.0
 10
6904.3324954759
 20
4543.7018080187
 10
6904.3324871248
 20
4543.9724004788
 10
6904.3324621397
 20
4544.2407870148
 10
6904.3324207242
 20
4544.5047796855
 10
6904.332363216
 20
4544.7622263697
 10
6904.3322900838
 20
4545.0110283101
 10
6904.3322019239
 20
4545.2491572232
 10
6904.332099455
 20
4545.4746718344
 10
6904.3319835124
 20
4545.6857337029
  0
LINE
  5
474
330
1F
100
AcDbEntity
  8
0
  6
Continuous
 62
     7
370
    25
100
AcDbLine
 10
6904.3324954759
 20
4522.7018080187
 30
0.0
 11
6904.3324954759
 21
4543.7018080187
 31
0.0
  0
LINE
  5
475
330
1F
100
AcDbEntity
  8
0
  6
Continuous
 62
     7
370
    25
100
AcDbLine
 10
6904.3311296172
 20
4522.7018080187
 30
0.0
 11
6904.3324954759
 21
4522.7018080187
 31
0.0
  0
LINE
  5
476
330
1F
100
AcDbEntity
  8
0
  6
Continuous
 62
     7
370
    25
100
AcDbLine
 10
6904.3311296172
 20
4543.7018080187
 30
0.0
 11
6904.3311296172
 21
4522.7018080187
 31
0.0
  0
LWPOLYLINE
  5
477
330
1F
100
AcDbEntity
  8
0
  6
Continuous
 62
     7
370
    25
100
AcDbPolyline
 90
        9
 70
   128
 43
0.0
 10
6904.3309589627
 20
4544.3631165801
 10
6904.3309976102
 20
4544.2927626239
 10
6904.3310317665
 20
4544.2175910869
 10
6904.3310611532
 20
4544.1382147825
 10
6904.3310855305
 20
4544.0552808023
 10
6904.3311047
 20
4543.9694652409
 10
6904.3311185051
 20
4543.881467684
 10
6904.3311268335
 20
4543.7920055054
 10
6904.3311296172
 20
4543.7018080187
  0
LINE
  5
478
330
1F
100
AcDbEntity
  8
0
  6
Continuous
 62
     7
370
    25
100
AcDbLine
 10
6904.3292848951
 20
4547.1436000314
 30
0.0
 11
6904.3309589627
 21
4544.3631165801
 31
0.0
  0
LINE
  5
479
330
1F
100
AcDbEntity
  8
0
  6
Continuous
 62
     7
370
    25
100
AcDbLine
 10
6199.7321478225
 20
4545.6857337029
 30
0.0
 11
6199.7312700734
 21
4547.1436000314
 31
0.0
  0
LWPOLYLINE
  5
47A
330
1F
100
AcDbEntity
  8
0
  6
Continuous
 62
     7
370
    25
100
AcDbPolyline
 90
        9
 70
   128
 43
0.0
 10
6199.732659786
 20
4543.7018080187
 10
6199.7326514349
 20
4543.9724004788
 10
6199.7326264498
 20
4544.2407870148
 10
6199.7325850343
 20
4544.5047796855
 10
6199.7325275261
 20
4544.7622263697
 10
6199.7324543939
 20
4545.0110283101
 10
6199.732366234
 20
4545.2491572232
 10
6199.7322637651
 20
4545.4746718344
 10
6199.7321478225
 20
4545.6857337029
  0
LINE
  5
47B
330
1F
100
AcDbEntity
  8
0
  6
Continuous
 62
     7
370
    25
100
AcDbLine
 10
6199.732659786
 20
4522.7018080187
 30
0.0
 11
6199.732659786
 21
4543.7018080187
 31
0.0
  0
LINE
  5
47C
330
1F
100
AcDbEntity
  8
0
  6
Continuous
 62
     7
370
    25
100
AcDbLine
 10
6199.7312939273
 20
4522.7018080187
 30
0.0
 11
6199.732659786
 21
4522.7018080187
 31
0.0
  0
LINE
  5
47D
330
1F
100
AcDbEntity
  8
0
  6
Continuous
 62
     7
370
    25
100
AcDbLine
 10
6199.7312939273
 20
4543.7018080187
 30
0.0
 11
6199.7312939273
 21
4522.7018080187
 31
0.0
  0
LWPOLYLINE
  5
47E
330
1F
100
AcDbEntity
  8
0
  6
Continuous
 62
     7
370
    25
100
AcDbPolyline
 90
        9
 70
   128
 43
0.0
 10
6199.7311232728
 20
4544.3631165801
 10
6199.7311619203
 20
4544.2927626239
 10
6199.7311960766
 20
4544.2175910869
 10
6199.7312254633
 20
4544.1382147825
 10
6199.7312498406
 20
4544.0552808023
 10
6199.7312690101
 20
4543.9694652409
 10
6199.7312828152
 20
4543.881467684
 10
6199.7312911436
 20
4543.7920055054
 10
6199.7312939273
 20
4543.7018080187
  0
LINE
  5
47F
330
1F
100
AcDbEntity
  8
0
  6
Continuous
 62
     7
370
    25
100
AcDbLine
 10
6199.7294492052
 20
4547.1436000314
 30
0.0
 11
6199.7311232728
 21
4544.3631165801
 31
0.0
  0
LINE
  5
480
330
1F
100
AcDbEntity
  8
0
  6
Continuous
 62
     7
370
    25
100
AcDbLine
 10
6884.3309636266
 20
4544.3631165801
 30
0.0
 11
6904.3309589627
 21
4544.3631165801
 31
0.0
  0
LINE
  5
481
330
1F
100
AcDbEntity
  8
0
  6
Continuous
 62
     7
370
    25
100
AcDbLine
 10
6884.3292895591
 20
4547.1436000314
 30
0.0
 11
6884.3309636266
 21
4544.3631165801
 31
0.0
  0
LINE
  5
482
330
1F
100
AcDbEntity
  8
0
  6
Continuous
 62
     7
370
    25
100
AcDbLine
 10
6199.7311232728
 20
4544.3631165801
 30
0.0
 11
6179.7311279367
 21
4544.3631165801
 31
0.0
  0
LINE
  5
483
330
1F
100
AcDbEntity
  8
0
  6
Continuous
 62
     7
370
    25
100
AcDbLine
 10
6179.7294538692
 20
4547.1436000314
 30
0.0
 11
6179.7311279367
 21
4544.3631165801
 31
0.0
  0
LINE
  5
484
330
1F
100
AcDbEntity
  8
0
  6
Continuous
 62
     7
370
    25
100
AcDbLine
 10
6902.8263494615
 20
4536.2510773195
 30
0.0
 11
6902.831129967
 21
4536.2510773195
 31
0.0
  0
LINE
  5
485
330
1F
100
AcDbEntity
  8
0
  6
Continuous
 62
     7
370
    25
100
AcDbLine
 10
6902.8263494615
 20
4536.2510773195
 30
0.0
 11
6894.3263514437
 21
4541.1585546076
 31
0.0
  0
LINE
  5
486
330
1F
100
AcDbEntity
  8
0
  6
Continuous
 62
     7
370
    25
100
AcDbLine
 10
6894.3263514437
 20
4541.1585546076
 30
0.0
 11
6894.3311319491
 21
4541.1585546076
 31
0.0
  0
LINE
  5
487
330
1F
100
AcDbEntity
  8
0
  6
Continuous
 62
     7
370
    25
100
AcDbLine
 10
6902.831129967
 20
4536.2510773195
 30
0.0
 11
6894.3311319491
 21
4541.1585546076
 31
0.0
  0
LINE
  5
488
330
1F
100
AcDbEntity
  8
0
  6
Continuous
 62
     7
370
    25
100
AcDbLine
 10
6894.3263514437
 20
4541.1585546076
 30
0.0
 11
6885.8263534258
 21
4536.2510773195
 31
0.0
  0
LINE
  5
489
330
1F
100
AcDbEntity
  8
0
  6
Continuous
 62
     7
370
    25
100
AcDbLine
 10
6902.8263494615
 20
4526.4361227433
 30
0.0
 11
6902.8263494615
 21
4536.2510773195
 31
0.0
  0
LINE
  5
48A
330
1F
100
AcDbEntity
  8
0
  6
Continuous
 62
     7
370
    25
100
AcDbLine
 10
6894.3263514437
 20
4521.5286454552
 30
0.0
 11
6902.8263494615
 21
4526.4361227433
 31
0.0
  0
LINE
  5
48B
330
1F
100
AcDbEntity
  8
0
  6
Continuous
 62
     7
370
    25
100
AcDbLine
 10
6885.8263534258
 20
4526.4361227433
 30
0.0
 11
6894.3263514437
 21
4521.5286454552
 31
0.0
  0
LINE
  5
48C
330
1F
100
AcDbEntity
  8
0
  6
Continuous
 62
     7
370
    25
100
AcDbLine
 10
6885.8263534258
 20
4536.2510773195
 30
0.0
 11
6885.8263534258
 21
4526.4361227433
 31
0.0
  0
LINE
  5
48D
330
1F
100
AcDbEntity
  8
0
  6
Continuous
 62
     7
370
    25
100
AcDbLine
 10
6902.8263494615
 20
4526.4361227433
 30
0.0
 11
6902.831129967
 21
4526.4361227433
 31
0.0
  0
LINE
  5
48E
330
1F
100
AcDbEntity
  8
0
  6
Continuous
 62
     7
370
    25
100
AcDbLine
 10
6902.831129967
 20
4526.4361227433
 30
0.0
 11
6902.831129967
 21
4536.2510773195
 31
0.0
  0
LINE
  5
48F
330
1F
100
AcDbEntity
  8
0
  6
Continuous
 62
     7
370
    25
100
AcDbLine
 10
6894.3263514437
 20
4521.5286454552
 30
0.0
 11
6894.3311319491
 21
4521.5286454552
 31
0.0
  0
LINE
  5
490
330
1F
100
AcDbEntity
  8
0
  6
Continuous
 62
     7
370
    25
100
AcDbLine
 10
6896.3631086408
 20
4522.7018080187
 30
0.0
 11
6902.831129967
 21
4526.4361227433
 31
0.0
  0
LINE
  5
491
330
1F
100
AcDbEntity
  8
0
  6
Continuous
 62
     7
370
    25
100
AcDbLine
 10
6894.3311319491
 20
4521.5286454552
 30
0.0
 11
6896.3631086408
 21
4522.7018080187
 31
0.0
  0
LINE
  5
492
330
1F
100
AcDbEntity
  8
0
  6
Continuous
 62
     7
370
    25
100
AcDbLine
 10
6198.2265137716
 20
4536.2510773195
 30
0.0
 11
6198.2312942771
 21
4536.2510773195
 31
0.0
  0
LINE
  5
493
330
1F
100
AcDbEntity
  8
0
  6
Continuous
 62
     7
370
    25
100
AcDbLine
 10
6189.7265157538
 20
4541.1585546076
 30
0.0
 11
6198.2265137716
 21
4536.2510773195
 31
0.0
  0
LINE
  5
494
330
1F
100
AcDbEntity
  8
0
  6
Continuous
 62
     7
370
    25
100
AcDbLine
 10
6189.7265157538
 20
4541.1585546076
 30
0.0
 11
6189.7312962592
 21
4541.1585546076
 31
0.0
  0
LINE
  5
495
330
1F
100
AcDbEntity
  8
0
  6
Continuous
 62
     7
370
    25
100
AcDbLine
 10
6189.7312962592
 20
4541.1585546076
 30
0.0
 11
6198.2312942771
 21
4536.2510773195
 31
0.0
  0
LINE
  5
496
330
1F
100
AcDbEntity
  8
0
  6
Continuous
 62
     7
370
    25
100
AcDbLine
 10
6198.2265137716
 20
4526.4361227433
 30
0.0
 11
6189.7265157538
 21
4521.5286454552
 31
0.0
  0
LINE
  5
497
330
1F
100
AcDbEntity
  8
0
  6
Continuous
 62
     7
370
    25
100
AcDbLine
 10
6189.7265157538
 20
4521.5286454552
 30
0.0
 11
6181.2265177359
 21
4526.4361227433
 31
0.0
  0
LINE
  5
498
330
1F
100
AcDbEntity
  8
0
  6
Continuous
 62
     7
370
    25
100
AcDbLine
 10
6181.2265177359
 20
4526.4361227433
 30
0.0
 11
6181.2265177359
 21
4536.2510773195
 31
0.0
  0
LINE
  5
499
330
1F
100
AcDbEntity
  8
0
  6
Continuous
 62
     7
370
    25
100
AcDbLine
 10
6181.2265177359
 20
4536.2510773195
 30
0.0
 11
6189.7265157538
 21
4541.1585546076
 31
0.0
  0
LINE
  5
49A
330
1F
100
AcDbEntity
  8
0
  6
Continuous
 62
     7
370
    25
100
AcDbLine
 10
6198.2265137716
 20
4536.2510773195
 30
0.0
 11
6198.2265137716
 21
4526.4361227433
 31
0.0
  0
LINE
  5
49B
330
1F
100
AcDbEntity
  8
0
  6
Continuous
 62
     7
370
    25
100
AcDbLine
 10
6198.2265137716
 20
4526.4361227433
 30
0.0
 11
6198.2312942771
 21
4526.4361227433
 31
0.0
  0
LINE
  5
49C
330
1F
100
AcDbEntity
  8
0
  6
Continuous
 62
     7
370
    25
100
AcDbLine
 10
6198.2312942771
 20
4536.2510773195
 30
0.0
 11
6198.2312942771
 21
4526.4361227433
 31
0.0
  0
LINE
  5
49D
330
1F
100
AcDbEntity
  8
0
  6
Continuous
 62
     7
370
    25
100
AcDbLine
 10
6191.7632729509
 20
4522.7018080187
 30
0.0
 11
6189.7312962592
 21
4521.5286454552
 31
0.0
  0
LINE
  5
49E
330
1F
100
AcDbEntity
  8
0
  6
Continuous
 62
     7
370
    25
100
AcDbLine
 10
6189.7265157538
 20
4521.5286454552
 30
0.0
 11
6189.7312962592
 21
4521.5286454552
 31
0.0
  0
LINE
  5
49F
330
1F
100
AcDbEntity
  8
0
  6
Continuous
 62
     7
370
    25
100
AcDbLine
 10
6198.2312942771
 20
4526.4361227433
 30
0.0
 11
6191.7632729509
 21
4522.7018080187
 31
0.0
  0
LINE
  5
4A0
330
1F
100
AcDbEntity
  8
0
  6
Continuous
 62
     7
370
    25
100
AcDbLine
 10
6884.3311342811
 20
4543.7018080187
 30
0.0
 11
6904.3311296172
 21
4543.7018080187
 31
0.0
  0
LWPOLYLINE
  5
4A1
330
1F
100
AcDbEntity
  8
0
  6
Continuous
 62
     7
370
    25
100
AcDbPolyline
 90
        9
 70
   128
 43
0.0
 10
6884.3309636266
 20
4544.3631165801
 10
6884.3310022741
 20
4544.2927626239
 10
6884.3310364305
 20
4544.2175910869
 10
6884.3310658171
 20
4544.1382147825
 10
6884.3310901945
 20
4544.0552808023
 10
6884.3311093639
 20
4543.9694652409
 10
6884.331123169
 20
4543.881467684
 10
6884.3311314974
 20
4543.7920055054
 10
6884.3311342811
 20
4543.7018080187
  0
LINE
  5
4A2
330
1F
100
AcDbEntity
  8
0
  6
Continuous
 62
     7
370
    25
100
AcDbLine
 10
6896.3631086408
 20
4522.7018080187
 30
0.0
 11
6904.3311296172
 21
4522.7018080187
 31
0.0
  0
LINE
  5
4A3
330
1F
100
AcDbEntity
  8
0
  6
Continuous
 62
     7
370
    25
100
AcDbLine
 10
6884.3311342811
 20
4522.7018080187
 30
0.0
 11
6892.294374752
 21
4522.7018080187
 31
0.0
  0
LINE
  5
4A4
330
1F
100
AcDbEntity
  8
0
  6
Continuous
 62
     7
370
    25
100
AcDbLine
 10
6884.3311342811
 20
4543.7018080187
 30
0.0
 11
6884.3311342811
 21
4522.7018080187
 31
0.0
  0
LINE
  5
4A5
330
1F
100
AcDbEntity
  8
0
  6
Continuous
 62
     7
370
    25
100
AcDbLine
 10
6199.7312939273
 20
4543.7018080187
 30
0.0
 11
6179.7312985912
 21
4543.7018080187
 31
0.0
  0
LWPOLYLINE
  5
4A6
330
1F
100
AcDbEntity
  8
0
  6
Continuous
 62
     7
370
    25
100
AcDbPolyline
 90
        9
 70
   128
 43
0.0
 10
6179.7311279367
 20
4544.3631165801
 10
6179.7311665842
 20
4544.2927626239
 10
6179.7312007406
 20
4544.2175910869
 10
6179.7312301272
 20
4544.1382147825
 10
6179.7312545046
 20
4544.0552808023
 10
6179.731273674
 20
4543.9694652409
 10
6179.7312874791
 20
4543.881467684
 10
6179.7312958075
 20
4543.7920055054
 10
6179.7312985912
 20
4543.7018080187
  0
LINE
  5
4A7
330
1F
100
AcDbEntity
  8
0
  6
Continuous
 62
     7
370
    25
100
AcDbLine
 10
6199.7312939273
 20
4522.7018080187
 30
0.0
 11
6191.7632729509
 21
4522.7018080187
 31
0.0
  0
LINE
  5
4A8
330
1F
100
AcDbEntity
  8
0
  6
Continuous
 62
     7
370
    25
100
AcDbLine
 10
6187.6945390621
 20
4522.7018080187
 30
0.0
 11
6179.7312985912
 21
4522.7018080187
 31
0.0
  0
LINE
  5
4A9
330
1F
100
AcDbEntity
  8
0
  6
Continuous
 62
     7
370
    25
100
AcDbLine
 10
6179.7312985912
 20
4543.7018080187
 30
0.0
 11
6179.7312985912
 21
4522.7018080187
 31
0.0
  0
LWPOLYLINE
  5
4AA
330
1F
100
AcDbEntity
  8
0
  6
Continuous
 62
     8
370
    25
100
AcDbPolyline
 90
       10
 70
   128
 43
0.0
 10
6560.1366197328
 20
4619.3463624623
 10
6560.2085754306
 20
4619.3503577355
 10
6560.4139844782
 20
4619.3617353108
 10
6560.7215752102
 20
4619.3787630557
 10
6561.0845197259
 20
4619.3988486502
 10
6561.4475630129
 20
4619.4189342447
 10
6561.7554350218
 20
4619.4359619895
 10
6561.96126503
 20
4619.4473395649
 10
6562.0337172848
 20
4619.451334838
 10
6562.0337174014
 20
4619.451334803
  0
LWPOLYLINE
  5
4AB
330
1F
100
AcDbEntity
  8
0
  6
Continuous
 62
     8
370
    25
100
AcDbPolyline
 90
       10
 70
   128
 43
0.0
 10
6560.086696113
 20
4619.2936000314
 10
6560.0864478345
 20
4619.2212855873
 10
6560.0862373542
 20
4619.0153514735
 10
6560.0860967157
 20
4618.7071492921
 10
6560.0860473301
 20
4618.3436000314
 10
6560.0860967157
 20
4617.9800507707
 10
6560.0862373542
 20
4617.6718485893
 10
6560.0864478345
 20
4617.4659144755
 10
6560.086696113
 20
4617.3936000314
 10
6560.086696413
 20
4617.393600133
  0
LWPOLYLINE
  5
4AC
330
1F
100
AcDbEntity
  8
0
  6
Continuous
 62
     8
370
    25
100
AcDbPolyline
 90
        9
 70
   128
 43
0.0
 10
6523.8920717656
 20
4619.3463624623
 10
6523.8196195109
 20
4619.3503577355
 10
6523.6137895026
 20
4619.3617353108
 10
6523.3059174937
 20
4619.3787630557
 10
6522.9428742067
 20
4619.3988486502
 10
6522.579929691
 20
4619.4189342447
 10
6522.272338959
 20
4619.4359619895
 10
6522.0669299114
 20
4619.4473395649
 10
6521.9949741068
 20
4619.4513348371
  0
LWPOLYLINE
  5
4AD
330
1F
100
AcDbEntity
  8
0
  6
Continuous
 62
     8
370
    25
100
AcDbPolyline
 90
        9
 70
   128
 43
0.0
 10
6523.9419953854
 20
4619.2936000314
 10
6523.9417471069
 20
4619.2212855873
 10
6523.9415366266
 20
4619.0153514735
 10
6523.9413959882
 20
4618.7071492921
 10
6523.9413466025
 20
4618.3436000314
 10
6523.9413959882
 20
4617.9800507707
 10
6523.9415366266
 20
4617.6718485893
 10
6523.9417471069
 20
4617.4659144755
 10
6523.9419953854
 20
4617.3936000314
  0
LINE
  5
4AE
330
1F
100
AcDbEntity
  8
0
  6
Continuous
 62
     8
370
    25
100
AcDbLine
 10
6560.6146845773
 20
4617.4686962687
 30
0.0
 11
6560.6146845773
 21
4615.5436000314
 31
0.0
  0
LINE
  5
4AF
330
1F
100
AcDbEntity
  8
0
  6
Continuous
 62
     8
370
    25
100
AcDbLine
 10
6524.1143499234
 20
4615.5436000314
 30
0.0
 11
6523.4153744807
 21
4615.5436000314
 31
0.0
  0
LINE
  5
4B0
330
1F
100
AcDbEntity
  8
0
  6
Continuous
 62
     8
370
    25
100
AcDbLine
 10
6523.4153744807
 20
4615.5436000314
 30
0.0
 11
6523.4153744807
 21
4617.4869232804
 31
0.0
  0
LWPOLYLINE
  5
4B1
330
1F
100
AcDbEntity
  8
0
  6
Continuous
 62
     8
370
    25
100
AcDbPolyline
 90
        3
 70
   128
 43
0.0
 10
6559.674927418
 20
4622.4657863758
 10
6559.4878112909
 20
4622.516699424
 10
6559.2146849038
 20
4622.5436000314
  0
LWPOLYLINE
  5
4B2
330
1F
100
AcDbEntity
  8
0
  6
Continuous
 62
     8
370
    25
100
AcDbPolyline
 90
        3
 70
   128
 43
0.0
 10
6524.8153741542
 20
4622.5436000314
 10
6524.542247767
 20
4622.516699424
 10
6524.3572767717
 20
4622.4665311295
  0
LINE
  5
4B3
330
1F
100
AcDbEntity
  8
0
  6
Continuous
 62
     8
370
    25
100
AcDbLine
 10
6527.1671506082
 20
4604.8157579663
 30
0.0
 11
6527.3524956369
 21
4604.8157579663
 31
0.0
  0
ARC
  5
4B4
330
1F
100
AcDbEntity
  8
0
  6
Continuous
 62
     8
370
    25
100
AcDbCircle
 10
6529.9138351178
 20
4610.8435982343
 30
0.0
 40
8.026622140706836
100
AcDbArc
 50
303.4944229097
 51
315.0000068742
  0
LINE
  5
4B5
330
1F
100
AcDbEntity
  8
0
  6
Continuous
 62
     8
370
    25
100
AcDbLine
 10
6529.4883440518
 20
4602.8169763123
 30
0.0
 11
6529.2689121621
 21
4602.8169763123
 31
0.0
  0
LINE
  5
4B6
330
1F
100
AcDbEntity
  8
0
  6
Continuous
 62
     8
370
    25
100
AcDbLine
 10
6913.6036053955
 20
4668.3436000314
 30
0.0
 11
6917.0036048051
 21
4668.3436000314
 31
0.0
  0
LWPOLYLINE
  5
4B7
330
1F
100
AcDbEntity
  8
0
  6
Continuous
 62
     8
370
    25
100
AcDbPolyline
 90
        9
 70
   128
 43
0.0
 10
6912.6036056287
 20
4669.3436000314
 10
6912.6031335678
 20
4669.4904735794
 10
6912.6027430754
 20
4669.905715589
 10
6912.6025016257
 20
4670.5175753931
 10
6912.6024509394
 20
4671.2203282618
 10
6912.6025997745
 20
4671.8925438337
 10
6912.6029224137
 20
4672.4180683607
 10
6912.6033631072
 20
4672.7060951934
 10
6912.6036061969
 20
4672.7435998278
  0
LINE
  5
4B8
330
1F
100
AcDbEntity
  8
0
  6
Continuous
 62
     8
370
    25
100
AcDbLine
 10
6913.6036053955
 20
4568.3436000314
 30
0.0
 11
6917.0036049991
 21
4568.3436000314
 31
0.0
  0
LWPOLYLINE
  5
4B9
330
1F
100
AcDbEntity
  8
0
  6
Continuous
 62
     8
370
    25
100
AcDbPolyline
 90
        9
 70
   128
 43
0.0
 10
6912.6036056287
 20
4567.3436000314
 10
6912.6031335678
 20
4567.1967264834
 10
6912.6027430754
 20
4566.7814844738
 10
6912.6025016257
 20
4566.1696246697
 10
6912.6024509394
 20
4565.466871801
 10
6912.6025997745
 20
4564.7946562291
 10
6912.6029224137
 20
4564.2691317021
 10
6912.6033631072
 20
4563.9811048694
 10
6912.6036061857
 20
4563.943600227
  0
LWPOLYLINE
  5
4BA
330
1F
100
AcDbEntity
  8
0
  6
Continuous
 62
     8
370
    25
100
AcDbPolyline
 90
       17
 70
   128
 43
0.0
 10
6171.4037784738
 20
4669.3436000314
 10
6171.403537174
 20
4669.3807237629
 10
6171.4033064129
 20
4669.4904735794
 10
6171.4030962691
 20
4669.6680561598
 10
6171.4029159205
 20
4669.905715589
 10
6171.402773244
 20
4670.1930720965
 10
6171.4026744708
 20
4670.5175753931
 10
6171.402623915
 20
4670.8650528043
 10
6171.4026237844
 20
4671.2203282618
 10
6171.4026740849
 20
4671.5678851176
 10
6171.4027726196
 20
4671.8925438337
 10
6171.4029150849
 20
4672.1801249477
 10
6171.4030952588
 20
4672.4180683607
 10
6171.403305272
 20
4672.5959818992
 10
6171.4035359523
 20
4672.7060951934
 10
6171.4037772247
 20
4672.7435990475
 10
6171.4037784604
 20
4672.7434109113
  0
LWPOLYLINE
  5
4BB
330
1F
100
AcDbEntity
  8
0
  6
Continuous
 62
     8
370
    25
100
AcDbPolyline
 90
        9
 70
   128
 43
0.0
 10
6171.4037784738
 20
4567.3436000314
 10
6171.4033064129
 20
4567.1967264834
 10
6171.4029159205
 20
4566.7814844738
 10
6171.4026744708
 20
4566.1696246697
 10
6171.4026237844
 20
4565.466871801
 10
6171.4027726196
 20
4564.7946562291
 10
6171.4030952588
 20
4564.2691317021
 10
6171.4035359523
 20
4563.9811048694
 10
6171.4037784738
 20
4563.9436000314
  0
LINE
  5
4BC
330
1F
100
AcDbEntity
  8
0
  6
Continuous
 62
     8
370
    25
100
AcDbLine
 10
6170.403778707
 20
4668.3436000314
 30
0.0
 11
6167.0037793084
 21
4668.3436000314
 31
0.0
  0
LINE
  5
4BD
330
1F
100
AcDbEntity
  8
0
  6
Continuous
 62
     8
370
    25
100
AcDbLine
 10
6170.403778707
 20
4568.3436000314
 30
0.0
 11
6167.0037793002
 21
4568.3436000314
 31
0.0
  0
ENDSEC
  0
SECTION
  2
OBJECTS
  0
DICTIONARY
  5
C
330
0
100
AcDbDictionary
281
     1
  3
ACAD_GROUP
350
D
  3
ACAD_LAYOUT
350
1A
  3
ACAD_MLINESTYLE
350
17
  3
ACAD_PLOTSETTINGS
350
19
  3
ACAD_PLOTSTYLENAME
350
E
  3
ACAD_SCALELIST
350
47
  3
DWGPROPS
350
4BE
  0
DICTIONARY
  5
D
102
{ACAD_REACTORS
330
C
102
}
330
C
100
AcDbDictionary
281
     1
  0
DICTIONARY
  5
1A
102
{ACAD_REACTORS
330
C
102
}
330
C
100
AcDbDictionary
281
     1
  3
Layout1
350
1E
  3
Layout2
350
26
  3
Model
350
22
  0
DICTIONARY
  5
17
102
{ACAD_REACTORS
330
C
102
}
330
C
100
AcDbDictionary
281
     1
  3
Standard
350
18
  0
DICTIONARY
  5
19
102
{ACAD_REACTORS
330
C
102
}
330
C
100
AcDbDictionary
281
     1
  0
ACDBDICTIONARYWDFLT
  5
E
102
{ACAD_REACTORS
330
C
102
}
330
C
100
AcDbDictionary
281
     1
  3
Normal
350
F
100
AcDbDictionaryWithDefault
340
F
  0
DICTIONARY
  5
47
102
{ACAD_REACTORS
330
C
102
}
330
C
100
AcDbDictionary
281
     1
  3
A0
350
48
  3
A1
350
49
  3
A2
350
4A
  3
A3
350
4B
  3
A4
350
4C
  3
A5
350
4D
  3
A6
350
4E
  3
A7
350
4F
  3
A8
350
50
  3
A9
350
51
  3
B0
350
52
  3
B1
350
53
  3
B2
350
54
  3
B3
350
55
  3
B4
350
56
  3
B5
350
57
  3
B6
350
58
  3
B7
350
59
  3
B8
350
5A
  3
B9
350
5B
  3
C0
350
5C
  3
C1
350
5D
  3
C2
350
5E
  3
C3
350
5F
  3
C4
350
60
  3
C5
350
61
  3
C6
350
62
  3
C7
350
63
  3
C8
350
64
  3
C9
350
65
  3
D0
350
66
  3
D1
350
67
  3
D2
350
68
  0
XRECORD
  5
4BE
102
{ACAD_REACTORS
330
C
102
}
330
C
100
AcDbXrecord
280
     1
  1
DWGPROPS COOKIE
  2

  3

  4

  6

  7

  8
radek.stransky
  9

300
=
301
=
302
=
303
=
304
=
305
=
306
=
307
=
308
=
309
=
 40
0.0
 41
2459157.419613947
 42
2459157.419614294
  1

 90
        0
  0
LAYOUT
  5
1E
102
{ACAD_REACTORS
330
1A
102
}
330
1A
100
AcDbPlotSettings
  1

  2
none_device
  4

  6

 40
0.0
 41
0.0
 42
0.0
 43
0.0
 44
0.0
 45
0.0
 46
0.0
 47
0.0
 48
0.0
 49
0.0
140
0.0
141
0.0
142
1.0
143
1.0
 70
   688
 72
     1
 73
     0
 74
     5
  7

 75
    16
147
1.0
148
0.0
149
0.0
100
AcDbLayout
  1
Layout1
 70
     1
 71
     1
 10
0.0
 20
0.0
 11
420.0
 21
297.0
 12
0.0
 22
0.0
 32
0.0
 14
1.0000000000E+20
 24
1.0000000000E+20
 34
1.0000000000E+20
 15
-1.0000000000E+20
 25
-1.0000000000E+20
 35
-1.0000000000E+20
146
0.0
 13
0.0
 23
0.0
 33
0.0
 16
1.0
 26
0.0
 36
0.0
 17
0.0
 27
1.0
 37
0.0
 76
     0
330
1B
  0
LAYOUT
  5
26
102
{ACAD_REACTORS
330
1A
102
}
330
1A
100
AcDbPlotSettings
  1

  2
none_device
  4

  6

 40
0.0
 41
0.0
 42
0.0
 43
0.0
 44
0.0
 45
0.0
 46
0.0
 47
0.0
 48
0.0
 49
0.0
140
0.0
141
0.0
142
1.0
143
1.0
 70
   688
 72
     1
 73
     0
 74
     5
  7

 75
    16
147
1.0
148
0.0
149
0.0
100
AcDbLayout
  1
Layout2
 70
     1
 71
     2
 10
0.0
 20
0.0
 11
0.0
 21
0.0
 12
0.0
 22
0.0
 32
0.0
 14
0.0
 24
0.0
 34
0.0
 15
0.0
 25
0.0
 35
0.0
146
0.0
 13
0.0
 23
0.0
 33
0.0
 16
1.0
 26
0.0
 36
0.0
 17
0.0
 27
1.0
 37
0.0
 76
     0
330
23
  0
LAYOUT
  5
22
102
{ACAD_REACTORS
330
1A
102
}
330
1A
100
AcDbPlotSettings
  1

  2
none_device
  4
Letter_(8.50_x_11.00_Inches)
  6

 40
6.35
 41
6.35
 42
6.35000508
 43
6.35000508
 44
215.9
 45
279.4
 46
0.0
 47
0.0
 48
0.0
 49
0.0
140
0.0
141
0.0
142
1.0
143
1.0
 70
  1712
 72
     1
 73
     0
 74
     0
  7

 75
     0
147
1.0
148
0.0
149
0.0
100
AcDbLayout
  1
Model
 70
     1
 71
     0
 10
0.0
 20
0.0
 11
20000.0
 21
10000.0
 12
0.0
 22
0.0
 32
0.0
 14
0.0
 24
0.0
 34
0.0
 15
20000.0
 25
10000.0
 35
0.0
146
0.0
 13
0.0
 23
0.0
 33
0.0
 16
1.0
 26
0.0
 36
0.0
 17
0.0
 27
1.0
 37
0.0
 76
     0
330
1F
331
29
  0
MLINESTYLE
  5
18
102
{ACAD_REACTORS
330
17
102
}
330
17
100
AcDbMlineStyle
  2
Standard
 70
     0
  3

 62
   256
 51
90.0
 52
90.0
 71
     2
 49
0.5
 62
   256
  6
BYLAYER
 49
-0.5
 62
   256
  6
BYLAYER
  0
ACDBPLACEHOLDER
  5
F
102
{ACAD_REACTORS
330
E
102
}
330
E
  0
SCALE
  5
48
102
{ACAD_REACTORS
330
47
102
}
330
47
100
AcDbScale
 70
     0
300
1:1
140
1.0
141
1.0
290
     1
  0
SCALE
  5
49
102
{ACAD_REACTORS
330
47
102
}
330
47
100
AcDbScale
 70
     0
300
1:2
140
1.0
141
2.0
290
     0
  0
SCALE
  5
4A
102
{ACAD_REACTORS
330
47
102
}
330
47
100
AcDbScale
 70
     0
300
1:4
140
1.0
141
4.0
290
     0
  0
SCALE
  5
4B
102
{ACAD_REACTORS
330
47
102
}
330
47
100
AcDbScale
 70
     0
300
1:5
140
1.0
141
5.0
290
     0
  0
SCALE
  5
4C
102
{ACAD_REACTORS
330
47
102
}
330
47
100
AcDbScale
 70
     0
300
1:8
140
1.0
141
8.0
290
     0
  0
SCALE
  5
4D
102
{ACAD_REACTORS
330
47
102
}
330
47
100
AcDbScale
 70
     0
300
1:10
140
1.0
141
10.0
290
     0
  0
SCALE
  5
4E
102
{ACAD_REACTORS
330
47
102
}
330
47
100
AcDbScale
 70
     0
300
1:16
140
1.0
141
16.0
290
     0
  0
SCALE
  5
4F
102
{ACAD_REACTORS
330
47
102
}
330
47
100
AcDbScale
 70
     0
300
1:20
140
1.0
141
20.0
290
     0
  0
SCALE
  5
50
102
{ACAD_REACTORS
330
47
102
}
330
47
100
AcDbScale
 70
     0
300
1:30
140
1.0
141
30.0
290
     0
  0
SCALE
  5
51
102
{ACAD_REACTORS
330
47
102
}
330
47
100
AcDbScale
 70
     0
300
1:40
140
1.0
141
40.0
290
     0
  0
SCALE
  5
52
102
{ACAD_REACTORS
330
47
102
}
330
47
100
AcDbScale
 70
     0
300
1:50
140
1.0
141
50.0
290
     0
  0
SCALE
  5
53
102
{ACAD_REACTORS
330
47
102
}
330
47
100
AcDbScale
 70
     0
300
1:100
140
1.0
141
100.0
290
     0
  0
SCALE
  5
54
102
{ACAD_REACTORS
330
47
102
}
330
47
100
AcDbScale
 70
     0
300
2:1
140
2.0
141
1.0
290
     0
  0
SCALE
  5
55
102
{ACAD_REACTORS
330
47
102
}
330
47
100
AcDbScale
 70
     0
300
4:1
140
4.0
141
1.0
290
     0
  0
SCALE
  5
56
102
{ACAD_REACTORS
330
47
102
}
330
47
100
AcDbScale
 70
     0
300
8:1
140
8.0
141
1.0
290
     0
  0
SCALE
  5
57
102
{ACAD_REACTORS
330
47
102
}
330
47
100
AcDbScale
 70
     0
300
10:1
140
10.0
141
1.0
290
     0
  0
SCALE
  5
58
102
{ACAD_REACTORS
330
47
102
}
330
47
100
AcDbScale
 70
     0
300
100:1
140
100.0
141
1.0
290
     0
  0
SCALE
  5
59
102
{ACAD_REACTORS
330
47
102
}
330
47
100
AcDbScale
 70
     0
300
1/128" = 1'-0"
140
0.0078125
141
12.0
290
     0
  0
SCALE
  5
5A
102
{ACAD_REACTORS
330
47
102
}
330
47
100
AcDbScale
 70
     0
300
1/64" = 1'-0"
140
0.015625
141
12.0
290
     0
  0
SCALE
  5
5B
102
{ACAD_REACTORS
330
47
102
}
330
47
100
AcDbScale
 70
     0
300
1/32" = 1'-0"
140
0.03125
141
12.0
290
     0
  0
SCALE
  5
5C
102
{ACAD_REACTORS
330
47
102
}
330
47
100
AcDbScale
 70
     0
300
1/16" = 1'-0"
140
0.0625
141
12.0
290
     0
  0
SCALE
  5
5D
102
{ACAD_REACTORS
330
47
102
}
330
47
100
AcDbScale
 70
     0
300
3/32" = 1'-0"
140
0.09375
141
12.0
290
     0
  0
SCALE
  5
5E
102
{ACAD_REACTORS
330
47
102
}
330
47
100
AcDbScale
 70
     0
300
1/8" = 1'-0"
140
0.125
141
12.0
290
     0
  0
SCALE
  5
5F
102
{ACAD_REACTORS
330
47
102
}
330
47
100
AcDbScale
 70
     0
300
3/16" = 1'-0"
140
0.1875
141
12.0
290
     0
  0
SCALE
  5
60
102
{ACAD_REACTORS
330
47
102
}
330
47
100
AcDbScale
 70
     0
300
1/4" = 1'-0"
140
0.25
141
12.0
290
     0
  0
SCALE
  5
61
102
{ACAD_REACTORS
330
47
102
}
330
47
100
AcDbScale
 70
     0
300
3/8" = 1'-0"
140
0.375
141
12.0
290
     0
  0
SCALE
  5
62
102
{ACAD_REACTORS
330
47
102
}
330
47
100
AcDbScale
 70
     0
300
1/2" = 1'-0"
140
0.5
141
12.0
290
     0
  0
SCALE
  5
63
102
{ACAD_REACTORS
330
47
102
}
330
47
100
AcDbScale
 70
     0
300
3/4" = 1'-0"
140
0.75
141
12.0
290
     0
  0
SCALE
  5
64
102
{ACAD_REACTORS
330
47
102
}
330
47
100
AcDbScale
 70
     0
300
1" = 1'-0"
140
1.0
141
12.0
290
     0
  0
SCALE
  5
65
102
{ACAD_REACTORS
330
47
102
}
330
47
100
AcDbScale
 70
     0
300
1-1/2" = 1'-0"
140
1.5
141
12.0
290
     0
  0
SCALE
  5
66
102
{ACAD_REACTORS
330
47
102
}
330
47
100
AcDbScale
 70
     0
300
3" = 1'-0"
140
3.0
141
12.0
290
     0
  0
SCALE
  5
67
102
{ACAD_REACTORS
330
47
102
}
330
47
100
AcDbScale
 70
     0
300
6" = 1'-0"
140
6.0
141
12.0
290
     0
  0
SCALE
  5
68
102
{ACAD_REACTORS
330
47
102
}
330
47
100
AcDbScale
 70
     0
300
1'-0" = 1'-0"
140
12.0
141
12.0
290
     0
  0
ENDSEC
  0
EOF
