  0
SECTION
  2
HEADER
  9
$ACADVER
  1
AC1015
  9
$ACADMAINTVER
 70
     6
  9
$DWGCODEPAGE
  3
ANSI_1250
  9
$INSBASE
 10
0.0
 20
0.0
 30
0.0
  9
$EXTMIN
 10
0.0
 20
0.0
 30
0.0
  9
$EXTMAX
 10
20000.0
 20
10000.0
 30
0.0
  9
$LIMMIN
 10
0.0
 20
0.0
  9
$LIMMAX
 10
20000.0
 20
10000.0
  9
$ORTHOMODE
 70
     0
  9
$REGENMODE
 70
     1
  9
$FILLMODE
 70
     1
  9
$QTEXTMODE
 70
     0
  9
$MIRRTEXT
 70
     1
  9
$LTSCALE
 40
1.0
  9
$ATTMODE
 70
     1
  9
$TEXTSIZE
 40
2.0
  9
$TRACEWID
 40
1.0
  9
$TEXTSTYLE
  7
Standard
  9
$CLAYER
  8
0
  9
$CELTYPE
  6
ByLayer
  9
$CECOLOR
 62
   256
  9
$CELTSCALE
 40
1.0
  9
$DISPSILH
 70
     0
  9
$DIMSCALE
 40
1.0
  9
$DIMASZ
 40
2.0
  9
$DIMEXO
 40
1.0
  9
$DIMDLI
 40
3.75
  9
$DIMRND
 40
0.0
  9
$DIMDLE
 40
0.0
  9
$DIMEXE
 40
1.0
  9
$DIMTP
 40
0.0
  9
$DIMTM
 40
0.0
  9
$DIMTXT
 40
2.0
  9
$DIMCEN
 40
2.5
  9
$DIMTSZ
 40
0.0
  9
$DIMTOL
 70
     0
  9
$DIMLIM
 70
     0
  9
$DIMTIH
 70
     1
  9
$DIMTOH
 70
     1
  9
$DIMSE1
 70
     0
  9
$DIMSE2
 70
     0
  9
$DIMTAD
 70
     1
  9
$DIMZIN
 70
     0
  9
$DIMBLK
  1

  9
$DIMASO
 70
     1
  9
$DIMSHO
 70
     1
  9
$DIMPOST
  1

  9
$DIMAPOST
  1

  9
$DIMALT
 70
     0
  9
$DIMALTD
 70
     3
  9
$DIMALTF
 40
0.0393700787
  9
$DIMLFAC
 40
1.0
  9
$DIMTOFL
 70
     1
  9
$DIMTVP
 40
0.0
  9
$DIMTIX
 70
     0
  9
$DIMSOXD
 70
     0
  9
$DIMSAH
 70
     0
  9
$DIMBLK1
  1

  9
$DIMBLK2
  1

  9
$DIMSTYLE
  2
ISO-25
  9
$DIMCLRD
 70
     0
  9
$DIMCLRE
 70
     0
  9
$DIMCLRT
 70
     0
  9
$DIMTFAC
 40
1.0
  9
$DIMGAP
 40
1.524
  9
$DIMJUST
 70
     0
  9
$DIMSD1
 70
     0
  9
$DIMSD2
 70
     0
  9
$DIMTOLJ
 70
     0
  9
$DIMTZIN
 70
     0
  9
$DIMALTZ
 70
     0
  9
$DIMALTTZ
 70
     0
  9
$DIMUPT
 70
     0
  9
$DIMDEC
 70
     2
  9
$DIMTDEC
 70
     0
  9
$DIMALTU
 70
     2
  9
$DIMALTTD
 70
     3
  9
$DIMTXSTY
  7
Standard
  9
$DIMAUNIT
 70
     0
  9
$DIMADEC
 70
     2
  9
$DIMALTRND
 40
0.0
  9
$DIMAZIN
 70
     0
  9
$DIMDSEP
 70
    44
  9
$DIMATFIT
 70
     3
  9
$DIMFRAC
 70
     0
  9
$DIMLDRBLK
  1

  9
$DIMLUNIT
 70
     2
  9
$DIMLWD
 70
    -2
  9
$DIMLWE
 70
    -2
  9
$DIMTMOVE
 70
     0
  9
$LUNITS
 70
     2
  9
$LUPREC
 70
     3
  9
$SKETCHINC
 40
1.0
  9
$FILLETRAD
 40
10.0
  9
$AUNITS
 70
     0
  9
$AUPREC
 70
     2
  9
$MENU
  1
.
  9
$ELEVATION
 40
0.0
  9
$PELEVATION
 40
0.0
  9
$THICKNESS
 40
0.0
  9
$LIMCHECK
 70
     0
  9
$CHAMFERA
 40
0.0
  9
$CHAMFERB
 40
0.0
  9
$CHAMFERC
 40
0.0
  9
$CHAMFERD
 40
0.0
  9
$SKPOLY
 70
     0
  9
$TDCREATE
 40
2459123.58301147
  9
$TDUCREATE
 40
2459123.499678137
  9
$TDUPDATE
 40
2459123.583011829
  9
$TDUUPDATE
 40
2459123.499678495
  9
$TDINDWG
 40
0.0000000116
  9
$TDUSRTIMER
 40
0.0000000116
  9
$USRTIMER
 70
     1
  9
$ANGBASE
 50
0.0
  9
$ANGDIR
 70
     0
  9
$PDMODE
 70
     0
  9
$PDSIZE
 40
-1.0
  9
$PLINEWID
 40
0.0
  9
$SPLFRAME
 70
     0
  9
$SPLINETYPE
 70
     6
  9
$SPLINESEGS
 70
     8
  9
$HANDSEED
  5
310
  9
$SURFTAB1
 70
     6
  9
$SURFTAB2
 70
     6
  9
$SURFTYPE
 70
     6
  9
$SURFU
 70
     6
  9
$SURFV
 70
     6
  9
$UCSBASE
  2

  9
$UCSNAME
  2

  9
$UCSORG
 10
0.0
 20
0.0
 30
0.0
  9
$UCSXDIR
 10
1.0
 20
0.0
 30
0.0
  9
$UCSYDIR
 10
0.0
 20
1.0
 30
0.0
  9
$UCSORTHOREF
  2

  9
$UCSORTHOVIEW
 70
     0
  9
$UCSORGTOP
 10
0.0
 20
0.0
 30
0.0
  9
$UCSORGBOTTOM
 10
0.0
 20
0.0
 30
0.0
  9
$UCSORGLEFT
 10
0.0
 20
0.0
 30
0.0
  9
$UCSORGRIGHT
 10
0.0
 20
0.0
 30
0.0
  9
$UCSORGFRONT
 10
0.0
 20
0.0
 30
0.0
  9
$UCSORGBACK
 10
0.0
 20
0.0
 30
0.0
  9
$PUCSBASE
  2

  9
$PUCSNAME
  2

  9
$PUCSORG
 10
0.0
 20
0.0
 30
0.0
  9
$PUCSXDIR
 10
1.0
 20
0.0
 30
0.0
  9
$PUCSYDIR
 10
0.0
 20
1.0
 30
0.0
  9
$PUCSORTHOREF
  2

  9
$PUCSORTHOVIEW
 70
     0
  9
$PUCSORGTOP
 10
0.0
 20
0.0
 30
0.0
  9
$PUCSORGBOTTOM
 10
0.0
 20
0.0
 30
0.0
  9
$PUCSORGLEFT
 10
0.0
 20
0.0
 30
0.0
  9
$PUCSORGRIGHT
 10
0.0
 20
0.0
 30
0.0
  9
$PUCSORGFRONT
 10
0.0
 20
0.0
 30
0.0
  9
$PUCSORGBACK
 10
0.0
 20
0.0
 30
0.0
  9
$USERI1
 70
     0
  9
$USERI2
 70
     0
  9
$USERI3
 70
     0
  9
$USERI4
 70
     0
  9
$USERI5
 70
     0
  9
$USERR1
 40
0.0
  9
$USERR2
 40
0.0
  9
$USERR3
 40
0.0
  9
$USERR4
 40
0.0
  9
$USERR5
 40
0.0
  9
$WORLDVIEW
 70
     1
  9
$SHADEDGE
 70
     3
  9
$SHADEDIF
 70
    70
  9
$TILEMODE
 70
     1
  9
$MAXACTVP
 70
    64
  9
$PINSBASE
 10
0.0
 20
0.0
 30
0.0
  9
$PLIMCHECK
 70
     0
  9
$PEXTMIN
 10
1.0000000000E+20
 20
1.0000000000E+20
 30
1.0000000000E+20
  9
$PEXTMAX
 10
-1.0000000000E+20
 20
-1.0000000000E+20
 30
-1.0000000000E+20
  9
$PLIMMIN
 10
0.0
 20
0.0
  9
$PLIMMAX
 10
420.0
 20
297.0
  9
$UNITMODE
 70
     0
  9
$VISRETAIN
 70
     1
  9
$PLINEGEN
 70
     0
  9
$PSLTSCALE
 70
     1
  9
$TREEDEPTH
 70
  3020
  9
$CMLSTYLE
  2
Standard
  9
$CMLJUST
 70
     0
  9
$CMLSCALE
 40
20.0
  9
$PROXYGRAPHICS
 70
     1
  9
$MEASUREMENT
 70
     1
  9
$CELWEIGHT
370
    -1
  9
$ENDCAPS
280
     0
  9
$JOINSTYLE
280
     0
  9
$LWDISPLAY
290
     1
  9
$INSUNITS
 70
     4
  9
$HYPERLINKBASE
  1

  9
$STYLESHEET
  1

  9
$XEDIT
290
     1
  9
$CEPSNTYPE
380
     0
  9
$PSTYLEMODE
290
     1
  9
$FINGERPRINTGUID
  2
{4f131746-cbca-4b75-bf86-588233473129}
  9
$VERSIONGUID
  2
{FAEB1C32-E019-11D5-929B-00C0DF256EC4}
  9
$EXTNAMES
290
     1
  9
$PSVPSCALE
 40
0.0
  9
$OLESTARTUP
290
     0
  0
ENDSEC
  0
SECTION
  2
CLASSES
  0
CLASS
  1
ACDBDICTIONARYWDFLT
  2
AcDbDictionaryWithDefault
  3
ObjectDBX Classes
 90
        0
280
     0
281
     0
  0
CLASS
  1
VISUALSTYLE
  2
AcDbVisualStyle
  3
ObjectDBX Classes
 90
     4095
280
     0
281
     0
  0
CLASS
  1
MATERIAL
  2
AcDbMaterial
  3
ObjectDBX Classes
 90
     1153
280
     0
281
     0
  0
CLASS
  1
SCALE
  2
AcDbScale
  3
ObjectDBX Classes
 90
     1153
280
     0
281
     0
  0
CLASS
  1
TABLESTYLE
  2
AcDbTableStyle
  3
ObjectDBX Classes
 90
     4095
280
     0
281
     0
  0
CLASS
  1
MLEADERSTYLE
  2
AcDbMLeaderStyle
  3
ACDB_MLEADERSTYLE_CLASS
 90
     4095
280
     0
281
     0
  0
CLASS
  1
SUN
  2
AcDbSun
  3
SCENEOE
 90
     1153
280
     0
281
     0
  0
CLASS
  1
ACDBPLACEHOLDER
  2
AcDbPlaceHolder
  3
ObjectDBX Classes
 90
        0
280
     0
281
     0
  0
CLASS
  1
LAYOUT
  2
AcDbLayout
  3
ObjectDBX Classes
 90
        0
280
     0
281
     0
  0
ENDSEC
  0
SECTION
  2
TABLES
  0
TABLE
  2
VPORT
  5
8
330
0
100
AcDbSymbolTable
 70
     1
  0
VPORT
  5
29
330
8
100
AcDbSymbolTableRecord
100
AcDbViewportTableRecord
  2
*Active
 70
     0
 10
0.0
 20
0.0
 11
1.0
 21
1.0
 12
10000.0
 22
5000.0
 13
0.0
 23
0.0
 14
10.0
 24
10.0
 15
10.0
 25
10.0
 16
0.0
 26
0.0
 36
1.0
 17
0.0
 27
0.0
 37
0.0
 40
10000.0
 41
2.0
 42
50.0
 43
0.0
 44
0.0
 50
0.0
 51
0.0
 71
     0
 72
  2000
 73
     1
 74
     3
 75
     0
 76
     0
 77
     0
 78
     0
281
     0
 65
     1
110
0.0
120
0.0
130
0.0
111
1.0
121
0.0
131
0.0
112
0.0
122
1.0
132
0.0
 79
     0
146
0.0
  0
ENDTAB
  0
TABLE
  2
LTYPE
  5
5
330
0
100
AcDbSymbolTable
 70
     6
  0
LTYPE
  5
14
330
5
100
AcDbSymbolTableRecord
100
AcDbLinetypeTableRecord
  2
ByBlock
 70
     0
  3

 72
    65
 73
     0
 40
0.0
  0
LTYPE
  5
15
330
5
100
AcDbSymbolTableRecord
100
AcDbLinetypeTableRecord
  2
ByLayer
 70
     0
  3

 72
    65
 73
     0
 40
0.0
  0
LTYPE
  5
16
330
5
100
AcDbSymbolTableRecord
100
AcDbLinetypeTableRecord
  2
Continuous
 70
     0
  3
Solid line
 72
    65
 73
     0
 40
0.0
  0
LTYPE
  5
6E
330
5
100
AcDbSymbolTableRecord
100
AcDbLinetypeTableRecord
  2
HIDDEN
 70
     0
  3
Hidden __ __ __ __ __ __ __ __ __ __ __ __ __ __
 72
    65
 73
     2
 40
1.905
 49
1.27
 74
     0
 49
-0.635
 74
     0
  0
LTYPE
  5
6F
330
5
100
AcDbSymbolTableRecord
100
AcDbLinetypeTableRecord
  2
PHANTOM
 70
     0
  3
Phantom ______  __  __  ______  __  __  ______
 72
    65
 73
     6
 40
12.7
 49
6.35
 74
     0
 49
-1.27
 74
     0
 49
1.27
 74
     0
 49
-1.27
 74
     0
 49
1.27
 74
     0
 49
-1.27
 74
     0
  0
LTYPE
  5
70
330
5
100
AcDbSymbolTableRecord
100
AcDbLinetypeTableRecord
  2
CENTER
 70
     0
  3
Center ____ _ ____ _ ____ _ ____ _ ____ _ ____
 72
    65
 73
     4
 40
10.16
 49
6.35
 74
     0
 49
-1.27
 74
     0
 49
1.27
 74
     0
 49
-1.27
 74
     0
  0
LTYPE
  5
71
330
5
100
AcDbSymbolTableRecord
100
AcDbLinetypeTableRecord
  2
CENTERX2
 70
     0
  3
Center (2x) ________  __  ________  __  _____
 72
    65
 73
     4
 40
20.32
 49
12.7
 74
     0
 49
-2.54
 74
     0
 49
2.54
 74
     0
 49
-2.54
 74
     0
  0
LTYPE
  5
72
330
5
100
AcDbSymbolTableRecord
100
AcDbLinetypeTableRecord
  2
DOT2
 70
     0
  3
Dot (.5x) ........................................
 72
    65
 73
     2
 40
0.635
 49
0.0
 74
     0
 49
-0.635
 74
     0
  0
ENDTAB
  0
TABLE
  2
LAYER
  5
2
330
0
100
AcDbSymbolTable
 70
    13
  0
LAYER
  5
10
330
2
100
AcDbSymbolTableRecord
100
AcDbLayerTableRecord
  2
0
 70
     0
 62
     7
  6
Continuous
370
    -3
390
F
  0
LAYER
  5
73
330
2
100
AcDbSymbolTableRecord
100
AcDbLayerTableRecord
  2
FORMAT
 70
     0
 62
     7
  6
Continuous
370
    -3
390
F
  0
LAYER
  5
74
330
2
100
AcDbSymbolTableRecord
100
AcDbLayerTableRecord
  2
OSA
 70
     0
 62
     7
  6
CENTER
370
    -3
390
F
  0
LAYER
  5
75
330
2
100
AcDbSymbolTableRecord
100
AcDbLayerTableRecord
  2
0_35
 70
     0
 62
     7
  6
Continuous
370
    35
390
F
  0
LAYER
  5
76
330
2
100
AcDbSymbolTableRecord
100
AcDbLayerTableRecord
  2
0_5
 70
     0
 62
     7
  6
Continuous
370
    50
390
F
  0
LAYER
  5
77
330
2
100
AcDbSymbolTableRecord
100
AcDbLayerTableRecord
  2
0_25
 70
     0
 62
     7
  6
Continuous
370
    25
390
F
  0
LAYER
  5
78
330
2
100
AcDbSymbolTableRecord
100
AcDbLayerTableRecord
  2
0_18
 70
     0
 62
     7
  6
Continuous
370
    -3
390
F
  0
LAYER
  5
79
330
2
100
AcDbSymbolTableRecord
100
AcDbLayerTableRecord
  2
SLD-0
 70
     0
 62
   179
  6
Continuous
370
    -3
390
F
  0
LAYER
  5
7A
330
2
100
AcDbSymbolTableRecord
100
AcDbLayerTableRecord
  2
KOTY
 70
     0
 62
     7
  6
Continuous
370
    -3
390
F
  0
LAYER
  5
7B
330
2
100
AcDbSymbolTableRecord
100
AcDbLayerTableRecord
  2
SILNA
 70
     0
 62
   179
  6
Continuous
370
    -3
390
F
  0
LAYER
  5
7C
330
2
100
AcDbSymbolTableRecord
100
AcDbLayerTableRecord
  2
0_18_1
 70
     0
 62
   179
  6
Continuous
370
    -3
390
F
  0
LAYER
  5
7D
330
2
100
AcDbSymbolTableRecord
100
AcDbLayerTableRecord
  2
0_35_1
 70
     0
 62
   179
  6
Continuous
370
    35
390
F
  0
LAYER
  5
7E
330
2
100
AcDbSymbolTableRecord
100
AcDbLayerTableRecord
  2
0_5_1
 70
     0
 62
   179
  6
Continuous
370
    50
390
F
  0
ENDTAB
  0
TABLE
  2
STYLE
  5
3
330
0
100
AcDbSymbolTable
 70
     1
  0
STYLE
  5
11
330
3
100
AcDbSymbolTableRecord
100
AcDbTextStyleTableRecord
  2
Standard
 70
     0
 40
0.0
 41
1.0
 50
0.0
 71
     0
 42
2.0
  3
txt
  4

  0
ENDTAB
  0
TABLE
  2
VIEW
  5
6
330
0
100
AcDbSymbolTable
 70
     0
  0
ENDTAB
  0
TABLE
  2
UCS
  5
7
330
0
100
AcDbSymbolTable
 70
     0
  0
ENDTAB
  0
TABLE
  2
APPID
  5
9
330
0
100
AcDbSymbolTable
 70
     1
  0
APPID
  5
12
330
9
100
AcDbSymbolTableRecord
100
AcDbRegAppTableRecord
  2
ACAD
 70
     0
  0
ENDTAB
  0
TABLE
  2
DIMSTYLE
  5
A
330
0
100
AcDbSymbolTable
 70
     1
100
AcDbDimStyleTable
  0
DIMSTYLE
105
27
330
A
100
AcDbSymbolTableRecord
100
AcDbDimStyleTableRecord
  2
ISO-25
 70
     0
 41
2.5
 42
0.625
 43
3.75
 44
1.25
 73
     0
 74
     0
 77
     1
 78
     8
140
2.5
141
2.5
143
0.0393700787
147
0.625
171
     3
172
     1
178
     0
271
     2
272
     2
274
     3
278
    44
283
     0
284
     8
340
11
  0
ENDTAB
  0
TABLE
  2
BLOCK_RECORD
  5
1
330
0
100
AcDbSymbolTable
 70
     1
  0
BLOCK_RECORD
  5
1F
330
1
100
AcDbSymbolTableRecord
100
AcDbBlockTableRecord
  2
*Model_Space
340
22
  0
BLOCK_RECORD
  5
1B
330
1
100
AcDbSymbolTableRecord
100
AcDbBlockTableRecord
  2
*Paper_Space
340
1E
  0
BLOCK_RECORD
  5
23
330
1
100
AcDbSymbolTableRecord
100
AcDbBlockTableRecord
  2
*Paper_Space0
340
26
  0
ENDTAB
  0
ENDSEC
  0
SECTION
  2
BLOCKS
  0
BLOCK
  5
20
330
1F
100
AcDbEntity
  8
0
100
AcDbBlockBegin
  2
*Model_Space
 70
     0
 10
0.0
 20
0.0
 30
0.0
  3
*Model_Space
  1

  0
ENDBLK
  5
21
330
1F
100
AcDbEntity
  8
0
100
AcDbBlockEnd
  0
BLOCK
  5
1C
330
1B
100
AcDbEntity
 67
     1
  8
0
100
AcDbBlockBegin
  2
*Paper_Space
 70
     0
 10
0.0
 20
0.0
 30
0.0
  3
*Paper_Space
  1

  0
ENDBLK
  5
1D
330
1B
100
AcDbEntity
 67
     1
  8
0
100
AcDbBlockEnd
  0
BLOCK
  5
24
330
23
100
AcDbEntity
  8
0
100
AcDbBlockBegin
  2
*Paper_Space0
 70
     0
 10
0.0
 20
0.0
 30
0.0
  3
*Paper_Space0
  1

  0
ENDBLK
  5
25
330
23
100
AcDbEntity
  8
0
100
AcDbBlockEnd
  0
ENDSEC
  0
SECTION
  2
ENTITIES
  0
LINE
  5
7F
330
1F
100
AcDbEntity
  8
0
  6
Continuous
 62
     7
370
    25
100
AcDbLine
 10
6171.8114490708
 20
5344.7288255177
 30
0.0
 11
6171.8114490708
 21
5347.27440993
 31
0.0
  0
LINE
  5
80
330
1F
100
AcDbEntity
  8
0
  6
Continuous
 62
     7
370
    25
100
AcDbLine
 10
6164.8114490708
 20
5347.27440993
 30
0.0
 11
6164.8114490708
 21
5344.7288255177
 31
0.0
  0
LINE
  5
81
330
1F
100
AcDbEntity
  8
0
  6
Continuous
 62
     7
370
    25
100
AcDbLine
 10
6188.3114490708
 20
5273.4912641795
 30
0.0
 11
6188.3114490708
 21
5378.6912641795
 31
0.0
  0
LINE
  5
82
330
1F
100
AcDbEntity
  8
0
  6
Continuous
 62
     7
370
    25
100
AcDbLine
 10
6148.3114490708
 20
5378.6912641795
 30
0.0
 11
6148.3114490708
 21
5273.4912641795
 31
0.0
  0
LINE
  5
83
330
1F
100
AcDbEntity
  8
0
  6
Continuous
 62
     7
370
    25
100
AcDbLine
 10
6188.3114490708
 20
5378.6912641795
 30
0.0
 11
6187.5114490708
 21
5379.4912641795
 31
0.0
  0
LINE
  5
84
330
1F
100
AcDbEntity
  8
0
  6
Continuous
 62
     7
370
    25
100
AcDbLine
 10
6149.1114490708
 20
5379.4912641795
 30
0.0
 11
6148.3114490708
 21
5378.6912641795
 31
0.0
  0
LINE
  5
85
330
1F
100
AcDbEntity
  8
0
  6
Continuous
 62
     7
370
    25
100
AcDbLine
 10
6526.3197443145
 20
5262.3739841249
 30
0.0
 11
6526.3197443145
 21
5259.3739841249
 31
0.0
  0
LINE
  5
86
330
1F
100
AcDbEntity
  8
0
  6
Continuous
 62
     7
370
    25
100
AcDbLine
 10
6554.3197443145
 20
5259.3739841249
 30
0.0
 11
6554.3197443145
 21
5262.3739841249
 31
0.0
  0
LWPOLYLINE
  5
87
330
1F
100
AcDbEntity
  8
0
  6
Continuous
 62
     7
370
    25
100
AcDbPolyline
 90
       33
 70
   128
 43
0.0
 10
6552.824234172
 20
5036.41154913
 10
6552.8258555524
 20
5049.8387434915
 10
6552.8284756025
 20
5068.3989767525
 10
6552.8311401394
 20
5085.844151007
 10
6552.8336529566
 20
5102.2032491528
 10
6552.8360076469
 20
5118.9784291618
 10
6552.8376801989
 20
5134.513104407
 10
6552.8384094267
 20
5148.845853816
 10
6552.8379342268
 20
5162.0152715827
 10
6552.83599345
 20
5174.0599561444
 10
6552.8323256192
 20
5185.018479655
 10
6552.8266692635
 20
5194.9294222748
 10
6552.8187634463
 20
5203.831490774
 10
6552.8083475603
 20
5211.7634703038
 10
6552.7951594612
 20
5218.764035233
 10
6552.7792509272
 20
5224.7701134476
 10
6552.7601589285
 20
5229.9511767853
 10
6552.7376332985
 20
5234.3450921962
 10
6552.7114258521
 20
5237.9909017156
 10
6552.6761099718
 20
5241.3232577068
 10
6552.6348982837
 20
5243.7644156136
 10
6552.5884741224
 20
5245.4898390279
 10
6552.5399771098
 20
5246.7581411216
 10
6552.4934470464
 20
5247.8512147374
 10
6552.4395947854
 20
5249.5220205024
 10
6552.4230920672
 20
5251.5798065405
 10
6552.4967990915
 20
5253.5942829423
 10
6552.5933145939
 20
5254.3210492471
 10
6552.8316988556
 20
5254.9388021537
 10
6553.3116720612
 20
5256.2907110847
 10
6553.4357537212
 20
5257.7292541366
 10
6553.4071824883
 20
5258.5752174203
 10
6553.3371672285
 20
5259.3739841249
  0
LWPOLYLINE
  5
88
330
1F
100
AcDbEntity
  8
0
  6
Continuous
 62
     7
370
    25
100
AcDbPolyline
 90
        3
 70
   128
 43
0.0
 10
6552.6784427921
 20
5262.3739841249
 10
6552.6490983238
 20
5262.5892786412
 10
6552.5937667879
 20
5263.8739841249
  0
LINE
  5
89
330
1F
100
AcDbEntity
  8
0
  6
Continuous
 62
     7
370
    25
100
AcDbLine
 10
6528.0457218412
 20
5263.8739841249
 30
0.0
 11
6527.9282944836
 21
5262.3739841249
 31
0.0
  0
LWPOLYLINE
  5
8A
330
1F
100
AcDbEntity
  8
0
  6
Continuous
 62
     7
370
    25
100
AcDbPolyline
 90
       30
 70
   128
 43
0.0
 10
6527.3377870042
 20
5259.3739841249
 10
6527.2483632898
 20
5258.9467347124
 10
6527.2057095441
 20
5257.2122861423
 10
6527.885063079
 20
5254.7579274729
 10
6528.1426895376
 20
5253.5942829423
 10
6528.2187243668
 20
5251.001180521
 10
6528.1719749029
 20
5248.5474471291
 10
6528.0960673096
 20
5246.676739595
 10
6528.0484380487
 20
5245.4114842067
 10
6528.0030195953
 20
5243.6908935281
 10
6527.9626971185
 20
5241.271853289
 10
6527.9280627769
 20
5237.9909017156
 10
6527.8999237246
 20
5234.0220757782
 10
6527.8760551499
 20
5229.1771967384
 10
6527.8561443579
 20
5223.4071862142
 10
6527.8398754713
 20
5216.6648528998
 10
6527.8269302298
 20
5208.9044254013
 10
6527.8169924922
 20
5200.0800088946
 10
6527.8100973645
 20
5190.7437806755
 10
6527.8053382597
 20
5180.3818180549
 10
6527.8024539482
 20
5168.95548373
 10
6527.8011829135
 20
5156.4262083939
 10
6527.8012637937
 20
5142.7554105369
 10
6527.8024355272
 20
5127.9044865414
 10
6527.8044369482
 20
5111.8348522838
 10
6527.8070068895
 20
5094.5079285278
 10
6527.8098842046
 20
5075.8851378612
 10
6527.8128077415
 20
5055.9279053612
 10
6527.8149671145
 20
5039.2859434343
 10
6527.8152790463
 20
5036.41154913
  0
LINE
  5
8B
330
1F
100
AcDbEntity
  8
0
  6
Continuous
 62
     7
370
    25
100
AcDbLine
 10
6565.0697443145
 20
5273.3739841249
 30
0.0
 11
6564.5697443145
 21
5273.8739841249
 31
0.0
  0
LINE
  5
8C
330
1F
100
AcDbEntity
  8
0
  6
Continuous
 62
     7
370
    25
100
AcDbLine
 10
6516.0697443145
 20
5273.8739841249
 30
0.0
 11
6515.5697443145
 21
5273.3739841249
 31
0.0
  0
LINE
  5
8D
330
1F
100
AcDbEntity
  8
0
  6
Continuous
 62
     7
370
    25
100
AcDbLine
 10
6565.0697443145
 20
5270.8739841249
 30
0.0
 11
6565.0697443145
 21
5273.3739841249
 31
0.0
  0
LINE
  5
8E
330
1F
100
AcDbEntity
  8
0
  6
Continuous
 62
     7
370
    25
100
AcDbLine
 10
6515.5697443145
 20
5273.3739841249
 30
0.0
 11
6515.5697443145
 21
5270.8739841249
 31
0.0
  0
LINE
  5
8F
330
1F
100
AcDbEntity
  8
0
  6
Continuous
 62
     7
370
    25
100
AcDbLine
 10
6561.5197443145
 20
5263.8739841249
 30
0.0
 11
6561.5197443145
 21
5270.8739841249
 31
0.0
  0
LINE
  5
90
330
1F
100
AcDbEntity
  8
0
  6
Continuous
 62
     7
370
    25
100
AcDbLine
 10
6519.1197443145
 20
5270.8739841249
 30
0.0
 11
6519.1197443145
 21
5263.8739841249
 31
0.0
  0
LINE
  5
91
330
1F
100
AcDbEntity
  8
0
  6
Continuous
 62
     7
370
    25
100
AcDbLine
 10
6549.6317325735
 20
5254.8162874295
 30
0.0
 11
6550.8197443145
 21
5256.8739841249
 31
0.0
  0
LINE
  5
92
330
1F
100
AcDbEntity
  8
0
  6
Continuous
 62
     7
370
    25
100
AcDbLine
 10
6550.8197443145
 20
5256.8739841249
 30
0.0
 11
6550.8197443145
 21
5257.8739841249
 31
0.0
  0
LINE
  5
93
330
1F
100
AcDbEntity
  8
0
  6
Continuous
 62
     7
370
    25
100
AcDbLine
 10
6529.8197443145
 20
5257.8739841249
 30
0.0
 11
6529.8197443145
 21
5256.8739841249
 31
0.0
  0
LINE
  5
94
330
1F
100
AcDbEntity
  8
0
  6
Continuous
 62
     7
370
    25
100
AcDbLine
 10
6549.8197443145
 20
5257.8739841249
 30
0.0
 11
6549.8197443145
 21
5259.3739841249
 31
0.0
  0
LINE
  5
95
330
1F
100
AcDbEntity
  8
0
  6
Continuous
 62
     7
370
    25
100
AcDbLine
 10
6591.8197443145
 20
4994.91154913
 30
0.0
 11
6592.3197443145
 21
4994.41154913
 31
0.0
  0
LINE
  5
96
330
1F
100
AcDbEntity
  8
0
  6
Continuous
 62
     7
370
    25
100
AcDbLine
 10
6598.3197443145
 20
4994.41154913
 30
0.0
 11
6598.8197443145
 21
4994.91154913
 31
0.0
  0
LINE
  5
97
330
1F
100
AcDbEntity
  8
0
  6
Continuous
 62
     7
370
    25
100
AcDbLine
 10
6592.3197443145
 20
4994.41154913
 30
0.0
 11
6592.3197443145
 21
4994.21154913
 31
0.0
  0
LINE
  5
98
330
1F
100
AcDbEntity
  8
0
  6
Continuous
 62
     7
370
    25
100
AcDbLine
 10
6598.3197443145
 20
4994.21154913
 30
0.0
 11
6598.3197443145
 21
4994.41154913
 31
0.0
  0
LINE
  5
99
330
1F
100
AcDbEntity
  8
0
  6
Continuous
 62
     7
370
    25
100
AcDbLine
 10
6481.8197443145
 20
4994.91154913
 30
0.0
 11
6482.3197443145
 21
4994.41154913
 31
0.0
  0
LINE
  5
9A
330
1F
100
AcDbEntity
  8
0
  6
Continuous
 62
     7
370
    25
100
AcDbLine
 10
6488.3197443145
 20
4994.41154913
 30
0.0
 11
6488.8197443145
 21
4994.91154913
 31
0.0
  0
LINE
  5
9B
330
1F
100
AcDbEntity
  8
0
  6
Continuous
 62
     7
370
    25
100
AcDbLine
 10
6482.3197443145
 20
4994.41154913
 30
0.0
 11
6482.3197443145
 21
4994.21154913
 31
0.0
  0
LINE
  5
9C
330
1F
100
AcDbEntity
  8
0
  6
Continuous
 62
     7
370
    25
100
AcDbLine
 10
6488.3197443145
 20
4994.21154913
 30
0.0
 11
6488.3197443145
 21
4994.41154913
 31
0.0
  0
LINE
  5
9D
330
1F
100
AcDbEntity
  8
0
  6
Continuous
 62
     7
370
    25
100
AcDbLine
 10
6579.8197443145
 20
5028.71154913
 30
0.0
 11
6579.8197443145
 21
5030.71154913
 31
0.0
  0
LINE
  5
9E
330
1F
100
AcDbEntity
  8
0
  6
Continuous
 62
     7
370
    25
100
AcDbLine
 10
6500.8197443145
 20
5030.71154913
 30
0.0
 11
6500.8197443145
 21
5028.71154913
 31
0.0
  0
LWPOLYLINE
  5
9F
330
1F
100
AcDbEntity
  8
0
  6
Continuous
 62
     7
370
    25
100
AcDbPolyline
 90
        3
 70
   128
 43
0.0
 10
6558.455925926
 20
5031.71154913
 10
6558.4255281203
 20
5031.7480571743
 10
6557.9542140598
 20
5032.2816133824
  0
LWPOLYLINE
  5
A0
330
1F
100
AcDbEntity
  8
0
  6
Continuous
 62
     7
370
    25
100
AcDbPolyline
 90
        3
 70
   128
 43
0.0
 10
6522.6852745692
 20
5032.2816133824
 10
6522.2139605088
 20
5031.7480571743
 10
6522.1835627031
 20
5031.71154913
  0
ARC
  5
A1
330
1F
100
AcDbEntity
  8
0
  6
Continuous
 62
     7
370
    25
100
AcDbCircle
 10
6558.3197443145
 20
5032.6227696998
 30
0.0
 40
0.5000000000003546
100
AcDbArc
 50
180.0
 51
223.024625876
  0
ARC
  5
A2
330
1F
100
AcDbEntity
  8
0
  6
Continuous
 62
     7
370
    25
100
AcDbCircle
 10
6522.3197443145
 20
5032.6227696998
 30
0.0
 40
0.5
100
AcDbArc
 50
316.9753741239
 51
0.0
  0
LINE
  5
A3
330
1F
100
AcDbEntity
  8
0
  6
Continuous
 62
     7
370
    25
100
AcDbLine
 10
6522.8197443145
 20
5036.41154913
 30
0.0
 11
6522.8197443145
 21
5032.6227696998
 31
0.0
  0
LINE
  5
A4
330
1F
100
AcDbEntity
  8
0
  6
Continuous
 62
     7
370
    25
100
AcDbLine
 10
6557.8197443145
 20
5032.6227696998
 30
0.0
 11
6557.8197443145
 21
5036.41154913
 31
0.0
  0
ARC
  5
A5
330
1F
100
AcDbEntity
  8
0
  6
Continuous
 62
     7
370
    25
100
AcDbCircle
 10
6168.3114490708
 20
5348.4912641795
 30
0.0
 40
10.19999999999969
100
AcDbArc
 50
25.8040105154
 51
154.1959894846
  0
LINE
  5
A6
330
1F
100
AcDbEntity
  8
0
  6
Continuous
 62
     7
370
    25
100
AcDbLine
 10
6159.1285083653
 20
5352.9312641795
 30
0.0
 11
6177.4943897763
 21
5352.9312641795
 31
0.0
  0
LINE
  5
A7
330
1F
100
AcDbEntity
  8
0
  6
Continuous
 62
     7
370
    25
100
AcDbLine
 10
6159.1285083653
 20
5352.9312641795
 30
0.0
 11
6157.9311600575
 21
5352.1312641795
 31
0.0
  0
ARC
  5
A8
330
1F
100
AcDbEntity
  8
0
  6
Continuous
 62
     7
370
    25
100
AcDbCircle
 10
6168.3114490708
 20
5348.4912641795
 30
0.0
 40
11.00000000000062
100
AcDbArc
 50
19.3239628892
 51
160.6760371108
  0
LINE
  5
A9
330
1F
100
AcDbEntity
  8
0
  6
Continuous
 62
     7
370
    25
100
AcDbLine
 10
6178.6917380841
 20
5352.1312641795
 30
0.0
 11
6177.4943897763
 21
5352.9312641795
 31
0.0
  0
ARC
  5
AA
330
1F
100
AcDbEntity
  8
0
  6
Continuous
 62
     7
370
    25
100
AcDbCircle
 10
6168.3114490708
 20
5348.4912641795
 30
0.0
 40
11.00000000000062
100
AcDbArc
 50
160.6760371108
 51
19.3239628892
  0
LWPOLYLINE
  5
AB
330
1F
100
AcDbEntity
  8
0
  6
Continuous
 62
     7
370
    25
100
AcDbPolyline
 90
        3
 70
   128
 43
0.0
 10
6165.0113119628
 20
5343.904478786
 10
6164.9352913687
 20
5344.0763076367
 10
6164.8114490708
 20
5344.7288255177
  0
LWPOLYLINE
  5
AC
330
1F
100
AcDbEntity
  8
0
  6
Continuous
 62
     7
370
    25
100
AcDbPolyline
 90
        3
 70
   128
 43
0.0
 10
6171.8114490708
 20
5344.7288255177
 10
6171.7198952313
 20
5344.1664667484
 10
6171.611576747
 20
5343.9044599068
  0
LWPOLYLINE
  5
AD
330
1F
100
AcDbEntity
  8
0
  6
Continuous
 62
     7
370
    25
100
AcDbPolyline
 90
       20
 70
   128
 43
0.0
 10
6170.3771437133
 20
5346.559637503
 10
6171.1612118633
 20
5345.9796368624
 10
6171.636463996
 20
5345.2510424072
 10
6171.7513991688
 20
5344.4528086519
 10
6171.493562372
 20
5343.6714366098
 10
6170.8908942236
 20
5342.991600066
 10
6170.0087031686
 20
5342.4869698585
 10
6168.9425882965
 20
5342.2122305007
 10
6167.8080796961
 20
5342.1971542649
 10
6166.7281189781
 20
5342.4433748952
 10
6165.8197366436
 20
5342.9242105658
 10
6165.1813700134
 20
5343.5875552709
 10
6164.8821960173
 20
5344.3615253187
 10
6164.9546347998
 20
5345.1622490454
 10
6165.390836495
 20
5345.9029556105
 10
6166.1435318808
 20
5346.5033779644
 10
6167.1311547327
 20
5346.8984510287
 10
6168.2466807904
 20
5347.0453625066
 10
6169.3692254962
 20
5346.9281922599
 10
6170.3771437133
 20
5346.559637503
  0
LWPOLYLINE
  5
AE
330
1F
100
AcDbEntity
  8
0
  6
Continuous
 62
     7
370
    25
100
AcDbPolyline
 90
        3
 70
   128
 43
0.0
 10
6169.6980287637
 20
5344.6030752433
 10
6168.8412751545
 20
5344.4416243016
 10
6168.105824257
 20
5344.1209524328
  0
LWPOLYLINE
  5
AF
330
1F
100
AcDbEntity
  8
0
  6
Continuous
 62
     7
370
    25
100
AcDbPolyline
 90
        3
 70
   128
 43
0.0
 10
6169.9036535775
 20
5345.8191588005
 10
6169.7930083679
 20
5345.2627689448
 10
6169.6980287637
 20
5344.6030752433
  0
ARC
  5
B0
330
1F
100
AcDbEntity
  8
0
  6
Continuous
 62
     7
370
    25
100
AcDbCircle
 10
6167.4794972732
 20
5342.9162309496
 30
0.0
 40
3.781999986057596
100
AcDbArc
 50
50.1356585382
 51
74.0769554864
  0
LWPOLYLINE
  5
B1
330
1F
100
AcDbEntity
  8
0
  6
Continuous
 62
     7
370
    25
100
AcDbPolyline
 90
        3
 70
   128
 43
0.0
 10
6166.9248693779
 20
5346.0709967366
 10
6167.7816229871
 20
5346.4283993169
 10
6168.5170738846
 20
5346.5531195471
  0
LWPOLYLINE
  5
B2
330
1F
100
AcDbEntity
  8
0
  6
Continuous
 62
     7
370
    25
100
AcDbPolyline
 90
        3
 70
   128
 43
0.0
 10
6166.7192445641
 20
5344.8549131794
 10
6166.8298897737
 20
5345.6072546737
 10
6166.9248693779
 20
5346.0709967366
  0
ARC
  5
B3
330
1F
100
AcDbEntity
  8
0
  6
Continuous
 62
     7
370
    25
100
AcDbCircle
 10
6165.6816679528
 20
5341.2180245819
 30
0.0
 40
3.781999986080489
100
AcDbArc
 50
50.1356585382
 51
74.0769554864
  0
LWPOLYLINE
  5
B4
330
1F
100
AcDbEntity
  8
0
  6
Continuous
 62
     7
370
    25
100
AcDbPolyline
 90
        8
 70
   128
 43
0.0
 10
6170.4089166113
 20
5349.2556506923
 10
6169.3854953852
 20
5349.62987427
 10
6168.2456845754
 20
5349.7488467377
 10
6167.1130003691
 20
5349.5996755825
 10
6166.1101866755
 20
5349.1985258135
 10
6165.3459139185
 20
5348.5888682329
 10
6164.9030029103
 20
5347.8367686992
 10
6164.8114490708
 20
5347.27440993
  0
ARC
  5
B5
330
1F
100
AcDbEntity
  8
0
  6
Continuous
 62
     7
370
    25
100
AcDbCircle
 10
6169.4931345184
 20
5347.1203119083
 30
0.0
 40
2.32343034411698
100
AcDbArc
 50
3.802847848
 51
66.7869734452
  0
LWPOLYLINE
  5
B6
330
1F
100
AcDbEntity
  8
0
  6
Continuous
 62
     7
370
    25
100
AcDbPolyline
 90
        8
 70
   128
 43
0.0
 10
6167.7121726307
 20
5345.5062596127
 10
6168.0641440546
 20
5345.3871859974
 10
6168.4537654254
 20
5345.3724191024
 10
6168.8217204213
 20
5345.4642070535
 10
6169.1119912298
 20
5345.6485759673
 10
6169.2803867514
 20
5345.897457348
 10
6169.3012702947
 20
5346.1729612614
 10
6169.2893571343
 20
5346.2201387863
  0
ARC
  5
B7
330
1F
100
AcDbEntity
  8
0
  6
Continuous
 62
     7
370
    25
100
AcDbCircle
 10
6167.9592911998
 20
5346.1060680847
 30
0.0
 40
0.6487201170991177
100
AcDbArc
 50
182.9812764577
 51
247.6085448355
  0
LINE
  5
B8
330
1F
100
AcDbEntity
  8
0
  6
Continuous
 62
     7
370
    25
100
AcDbLine
 10
6169.7936992831
 20
5345.9041716719
 30
0.0
 11
6169.6980287637
 21
5345.3383676553
 31
0.0
  0
LINE
  5
B9
330
1F
100
AcDbEntity
  8
0
  6
Continuous
 62
     7
370
    25
100
AcDbLine
 10
6169.6980287637
 20
5345.3383676553
 30
0.0
 11
6168.105824257
 21
5344.8562448448
 31
0.0
  0
LINE
  5
BA
330
1F
100
AcDbEntity
  8
0
  6
Continuous
 62
     7
370
    25
100
AcDbLine
 10
6168.105824257
 20
5344.8562448448
 30
0.0
 11
6166.7192445641
 21
5345.5902055914
 31
0.0
  0
LINE
  5
BB
330
1F
100
AcDbEntity
  8
0
  6
Continuous
 62
     7
370
    25
100
AcDbLine
 10
6169.6980287637
 20
5345.3383676553
 30
0.0
 11
6169.6980287637
 21
5344.6030752433
 31
0.0
  0
LINE
  5
BC
330
1F
100
AcDbEntity
  8
0
  6
Continuous
 62
     7
370
    25
100
AcDbLine
 10
6168.105824257
 20
5344.8562448448
 30
0.0
 11
6168.105824257
 21
5344.1209524328
 31
0.0
  0
CIRCLE
  5
BD
330
1F
100
AcDbEntity
  8
0
  6
Continuous
 62
     7
370
    25
100
AcDbCircle
 10
6168.3114163774
 20
5299.4906880652
 30
0.0
 40
10.99942388577203
  0
ARC
  5
BE
330
1F
100
AcDbEntity
  8
0
  6
Continuous
 62
     7
370
    25
100
AcDbCircle
 10
6528.5434619413
 20
5279.3739841249
 30
0.0
 40
4.999999999999369
100
AcDbArc
 50
146.4426902381
 51
180.0
  0
CIRCLE
  5
BF
330
1F
100
AcDbEntity
  8
0
  6
Continuous
 62
     7
370
    25
100
AcDbCircle
 10
6541.0434619413
 20
5286.082422149
 30
0.0
 40
1.999999999999091
  0
LINE
  5
C0
330
1F
100
AcDbEntity
  8
0
  6
Continuous
 62
     7
370
    25
100
AcDbLine
 10
6526.5434619413
 20
5274.3739841249
 30
0.0
 11
6531.0434619413
 21
5274.3739841249
 31
0.0
  0
ARC
  5
C1
330
1F
100
AcDbEntity
  8
0
  6
Continuous
 62
     7
370
    25
100
AcDbCircle
 10
6555.5434619413
 20
5277.3739841249
 30
0.0
 40
3.000000000000909
100
AcDbArc
 50
270.0
 51
0.0
  0
ARC
  5
C2
330
1F
100
AcDbEntity
  8
0
  6
Continuous
 62
     7
370
    25
100
AcDbCircle
 10
6531.0434619413
 20
5273.8739841249
 30
0.0
 40
0.5
100
AcDbArc
 50
0.0
 51
90.0
  0
LINE
  5
C3
330
1F
100
AcDbEntity
  8
0
  6
Continuous
 62
     7
370
    25
100
AcDbLine
 10
6551.0434619413
 20
5274.3739841249
 30
0.0
 11
6555.5434619413
 21
5274.3739841249
 31
0.0
  0
ARC
  5
C4
330
1F
100
AcDbEntity
  8
0
  6
Continuous
 62
     7
370
    25
100
AcDbCircle
 10
6551.0434619413
 20
5273.8739841249
 30
0.0
 40
0.5
100
AcDbArc
 50
90.0
 51
180.0
  0
ARC
  5
C5
330
1F
100
AcDbEntity
  8
0
  6
Continuous
 62
     7
370
    25
100
AcDbCircle
 10
6526.5434619413
 20
5277.3739841249
 30
0.0
 40
3.000000000000909
100
AcDbArc
 50
180.0
 51
270.0
  0
ARC
  5
C6
330
1F
100
AcDbEntity
  8
0
  6
Continuous
 62
     7
370
    25
100
AcDbCircle
 10
6547.0434619413
 20
5273.8739841249
 30
0.0
 40
0.5
100
AcDbArc
 50
0.0
 51
90.0
  0
LINE
  5
C7
330
1F
100
AcDbEntity
  8
0
  6
Continuous
 62
     7
370
    25
100
AcDbLine
 10
6558.5434619413
 20
5277.3739841249
 30
0.0
 11
6558.5434619413
 21
5279.3739841249
 31
0.0
  0
LINE
  5
C8
330
1F
100
AcDbEntity
  8
0
  6
Continuous
 62
     7
370
    25
100
AcDbLine
 10
6523.5434619413
 20
5279.3739841249
 30
0.0
 11
6523.5434619413
 21
5277.3739841249
 31
0.0
  0
LINE
  5
C9
330
1F
100
AcDbEntity
  8
0
  6
Continuous
 62
     7
370
    25
100
AcDbLine
 10
6535.0434619413
 20
5274.3739841249
 30
0.0
 11
6547.0434619413
 21
5274.3739841249
 31
0.0
  0
ARC
  5
CA
330
1F
100
AcDbEntity
  8
0
  6
Continuous
 62
     7
370
    25
100
AcDbCircle
 10
6541.0434619413
 20
5271.082422149
 30
0.0
 40
20.00000000000025
100
AcDbArc
 50
33.5573097619
 51
146.4426902381
  0
ARC
  5
CB
330
1F
100
AcDbEntity
  8
0
  6
Continuous
 62
     7
370
    25
100
AcDbCircle
 10
6535.0434619413
 20
5273.8739841249
 30
0.0
 40
0.5
100
AcDbArc
 50
90.0
 51
180.0
  0
ARC
  5
CC
330
1F
100
AcDbEntity
  8
0
  6
Continuous
 62
     7
370
    25
100
AcDbCircle
 10
6553.5434619413
 20
5279.3739841249
 30
0.0
 40
5.0
100
AcDbArc
 50
0.0
 51
33.5573097619
  0
LINE
  5
CD
330
1F
100
AcDbEntity
  8
0
  6
Continuous
 62
     7
370
    25
100
AcDbLine
 10
6168.3114490708
 20
5378.6912641795
 30
0.0
 11
6148.3114490708
 21
5378.6912641795
 31
0.0
  0
LINE
  5
CE
330
1F
100
AcDbEntity
  8
0
  6
Continuous
 62
     7
370
    25
100
AcDbLine
 10
6188.3114490708
 20
5378.6912641795
 30
0.0
 11
6168.3114490708
 21
5378.6912641795
 31
0.0
  0
CIRCLE
  5
CF
330
1F
100
AcDbEntity
  8
0
  6
Continuous
 62
     7
370
    25
100
AcDbCircle
 10
6168.3123332538
 20
5299.4913469853
 30
0.0
 40
11.04911581734283
  0
LINE
  5
D0
330
1F
100
AcDbEntity
  8
0
  6
Continuous
 62
     7
370
    25
100
AcDbLine
 10
6168.3114490708
 20
5273.4912641795
 30
0.0
 11
6188.3114490708
 21
5273.4912641795
 31
0.0
  0
LINE
  5
D1
330
1F
100
AcDbEntity
  8
0
  6
Continuous
 62
     7
370
    25
100
AcDbLine
 10
6148.3114490708
 20
5273.4912641795
 30
0.0
 11
6168.3114490708
 21
5273.4912641795
 31
0.0
  0
LINE
  5
D2
330
1F
100
AcDbEntity
  8
0
  6
Continuous
 62
     7
370
    25
100
AcDbLine
 10
6168.3114490708
 20
5379.4912641795
 30
0.0
 11
6187.5114490708
 21
5379.4912641795
 31
0.0
  0
LINE
  5
D3
330
1F
100
AcDbEntity
  8
0
  6
Continuous
 62
     7
370
    25
100
AcDbLine
 10
6149.1114490708
 20
5379.4912641795
 30
0.0
 11
6168.3114490708
 21
5379.4912641795
 31
0.0
  0
LINE
  5
D4
330
1F
100
AcDbEntity
  8
0
  6
Continuous
 62
     7
370
    25
100
AcDbLine
 10
6554.3197443145
 20
5259.3739841249
 30
0.0
 11
6526.3197443145
 21
5259.3739841249
 31
0.0
  0
LINE
  5
D5
330
1F
100
AcDbEntity
  8
0
  6
Continuous
 62
     7
370
    25
100
AcDbLine
 10
6554.3197443145
 20
5262.3739841249
 30
0.0
 11
6526.3197443145
 21
5262.3739841249
 31
0.0
  0
LINE
  5
D6
330
1F
100
AcDbEntity
  8
0
  6
Continuous
 62
     7
370
    25
100
AcDbLine
 10
6564.5697443145
 20
5273.8739841249
 30
0.0
 11
6516.0697443145
 21
5273.8739841249
 31
0.0
  0
LINE
  5
D7
330
1F
100
AcDbEntity
  8
0
  6
Continuous
 62
     7
370
    25
100
AcDbLine
 10
6565.0697443145
 20
5273.3739841249
 30
0.0
 11
6515.5697443145
 21
5273.3739841249
 31
0.0
  0
LINE
  5
D8
330
1F
100
AcDbEntity
  8
0
  6
Continuous
 62
     7
370
    25
100
AcDbLine
 10
6565.0697443145
 20
5270.8739841249
 30
0.0
 11
6515.5697443145
 21
5270.8739841249
 31
0.0
  0
LINE
  5
D9
330
1F
100
AcDbEntity
  8
0
  6
Continuous
 62
     7
370
    25
100
AcDbLine
 10
6561.5197443145
 20
5263.8739841249
 30
0.0
 11
6519.1197443145
 21
5263.8739841249
 31
0.0
  0
LINE
  5
DA
330
1F
100
AcDbEntity
  8
0
  6
Continuous
 62
     7
370
    25
100
AcDbLine
 10
6595.3197443145
 20
4994.41154913
 30
0.0
 11
6598.3197443145
 21
4994.41154913
 31
0.0
  0
LINE
  5
DB
330
1F
100
AcDbEntity
  8
0
  6
Continuous
 62
     7
370
    25
100
AcDbLine
 10
6592.3197443145
 20
4994.41154913
 30
0.0
 11
6595.3197443145
 21
4994.41154913
 31
0.0
  0
LINE
  5
DC
330
1F
100
AcDbEntity
  8
0
  6
Continuous
 62
     7
370
    25
100
AcDbLine
 10
6485.151559622
 20
4994.41154913
 30
0.0
 11
6488.3197443145
 21
4994.41154913
 31
0.0
  0
LINE
  5
DD
330
1F
100
AcDbEntity
  8
0
  6
Continuous
 62
     7
370
    25
100
AcDbLine
 10
6482.3197443145
 20
4994.41154913
 30
0.0
 11
6485.151559622
 21
4994.41154913
 31
0.0
  0
LINE
  5
DE
330
1F
100
AcDbEntity
  8
0
  6
Continuous
 62
     7
370
    25
100
AcDbLine
 10
6585.3197443145
 20
5028.71154913
 30
0.0
 11
6495.3197443145
 21
5028.71154913
 31
0.0
  0
LINE
  5
DF
330
1F
100
AcDbEntity
  8
0
  6
Continuous
 62
     7
370
    25
100
AcDbLine
 10
6585.3197443145
 20
5026.91154913
 30
0.0
 11
6585.3197443145
 21
5028.71154913
 31
0.0
  0
LINE
  5
E0
330
1F
100
AcDbEntity
  8
0
  6
Continuous
 62
     7
370
    25
100
AcDbLine
 10
6585.3197443145
 20
5026.91154913
 30
0.0
 11
6495.3197443145
 21
5026.91154913
 31
0.0
  0
LINE
  5
E1
330
1F
100
AcDbEntity
  8
0
  6
Continuous
 62
     7
370
    25
100
AcDbLine
 10
6495.3197443145
 20
5026.91154913
 30
0.0
 11
6495.3197443145
 21
5028.71154913
 31
0.0
  0
LINE
  5
E2
330
1F
100
AcDbEntity
  8
0
  6
Continuous
 62
     7
370
    25
100
AcDbLine
 10
6585.3197443145
 20
4994.21154913
 30
0.0
 11
6585.3197443145
 21
5026.91154913
 31
0.0
  0
LINE
  5
E3
330
1F
100
AcDbEntity
  8
0
  6
Continuous
 62
     7
370
    25
100
AcDbLine
 10
6495.3197443145
 20
4994.21154913
 30
0.0
 11
6495.3197443145
 21
5026.91154913
 31
0.0
  0
LINE
  5
E4
330
1F
100
AcDbEntity
  8
0
  6
Continuous
 62
     7
370
    25
100
AcDbLine
 10
6598.1197443145
 20
4994.91154913
 30
0.0
 11
6598.1197443145
 21
4995.91154913
 31
0.0
  0
LINE
  5
E5
330
1F
100
AcDbEntity
  8
0
  6
Continuous
 62
     7
370
    25
100
AcDbLine
 10
6598.1197443145
 20
4995.91154913
 30
0.0
 11
6603.1197443145
 21
4995.91154913
 31
0.0
  0
LINE
  5
E6
330
1F
100
AcDbEntity
  8
0
  6
Continuous
 62
     7
370
    25
100
AcDbLine
 10
6603.1197443145
 20
4995.91154913
 30
0.0
 11
6603.1197443145
 21
4994.91154913
 31
0.0
  0
LINE
  5
E7
330
1F
100
AcDbEntity
  8
0
  6
Continuous
 62
     7
370
    25
100
AcDbLine
 10
6603.1197443145
 20
4994.91154913
 30
0.0
 11
6598.1197443145
 21
4994.91154913
 31
0.0
  0
LINE
  5
E8
330
1F
100
AcDbEntity
  8
0
  6
Continuous
 62
     7
370
    25
100
AcDbLine
 10
6587.9197443145
 20
4995.91154913
 30
0.0
 11
6587.9197443145
 21
4994.91154913
 31
0.0
  0
LINE
  5
E9
330
1F
100
AcDbEntity
  8
0
  6
Continuous
 62
     7
370
    25
100
AcDbLine
 10
6598.1197443145
 20
4995.91154913
 30
0.0
 11
6587.9197443145
 21
4995.91154913
 31
0.0
  0
LINE
  5
EA
330
1F
100
AcDbEntity
  8
0
  6
Continuous
 62
     7
370
    25
100
AcDbLine
 10
6598.1197443145
 20
4994.91154913
 30
0.0
 11
6587.9197443145
 21
4994.91154913
 31
0.0
  0
LINE
  5
EB
330
1F
100
AcDbEntity
  8
0
  6
Continuous
 62
     7
370
    25
100
AcDbLine
 10
6587.1197443145
 20
4996.71154913
 30
0.0
 11
6586.1197443145
 21
4996.71154913
 31
0.0
  0
LINE
  5
EC
330
1F
100
AcDbEntity
  8
0
  6
Continuous
 62
     7
370
    25
100
AcDbLine
 10
6586.1197443145
 20
5029.91154913
 30
0.0
 11
6587.1197443145
 21
5029.91154913
 31
0.0
  0
LINE
  5
ED
330
1F
100
AcDbEntity
  8
0
  6
Continuous
 62
     7
370
    25
100
AcDbLine
 10
6586.1197443145
 20
4996.71154913
 30
0.0
 11
6586.1197443145
 21
5029.91154913
 31
0.0
  0
LINE
  5
EE
330
1F
100
AcDbEntity
  8
0
  6
Continuous
 62
     7
370
    25
100
AcDbLine
 10
6587.1197443145
 20
4996.71154913
 30
0.0
 11
6587.1197443145
 21
5029.91154913
 31
0.0
  0
ARC
  5
EF
330
1F
100
AcDbEntity
  8
0
  6
Continuous
 62
     7
370
    25
100
AcDbCircle
 10
6587.9197443145
 20
4996.71154913
 30
0.0
 40
1.800000000001091
100
AcDbArc
 50
180.0
 51
270.0
  0
ARC
  5
F0
330
1F
100
AcDbEntity
  8
0
  6
Continuous
 62
     7
370
    25
100
AcDbCircle
 10
6587.9197443145
 20
4996.71154913
 30
0.0
 40
0.8000000000010914
100
AcDbArc
 50
180.0
 51
270.0
  0
LINE
  5
F1
330
1F
100
AcDbEntity
  8
0
  6
Continuous
 62
     7
370
    25
100
AcDbLine
 10
6585.3197443145
 20
5030.71154913
 30
0.0
 11
6585.3197443145
 21
5031.71154913
 31
0.0
  0
ARC
  5
F2
330
1F
100
AcDbEntity
  8
0
  6
Continuous
 62
     7
370
    25
100
AcDbCircle
 10
6585.3197443145
 20
5029.91154913
 30
0.0
 40
1.800000000000182
100
AcDbArc
 50
0.0
 51
90.0
  0
ARC
  5
F3
330
1F
100
AcDbEntity
  8
0
  6
Continuous
 62
     7
370
    25
100
AcDbCircle
 10
6585.3197443145
 20
5029.91154913
 30
0.0
 40
0.8000000000001819
100
AcDbArc
 50
0.0
 51
90.0
  0
LINE
  5
F4
330
1F
100
AcDbEntity
  8
0
  6
Continuous
 62
     7
370
    25
100
AcDbLine
 10
6495.3197443145
 20
5030.71154913
 30
0.0
 11
6585.3197443145
 21
5030.71154913
 31
0.0
  0
LINE
  5
F5
330
1F
100
AcDbEntity
  8
0
  6
Continuous
 62
     7
370
    25
100
AcDbLine
 10
6495.3197443145
 20
5030.71154913
 30
0.0
 11
6495.3197443145
 21
5031.71154913
 31
0.0
  0
LINE
  5
F6
330
1F
100
AcDbEntity
  8
0
  6
Continuous
 62
     7
370
    25
100
AcDbLine
 10
6495.3197443145
 20
5031.71154913
 30
0.0
 11
6585.3197443145
 21
5031.71154913
 31
0.0
  0
LINE
  5
F7
330
1F
100
AcDbEntity
  8
0
  6
Continuous
 62
     7
370
    25
100
AcDbLine
 10
6477.5197443145
 20
4994.91154913
 30
0.0
 11
6477.5197443145
 21
4995.91154913
 31
0.0
  0
LINE
  5
F8
330
1F
100
AcDbEntity
  8
0
  6
Continuous
 62
     7
370
    25
100
AcDbLine
 10
6477.5197443145
 20
4995.91154913
 30
0.0
 11
6482.5197443145
 21
4995.91154913
 31
0.0
  0
LINE
  5
F9
330
1F
100
AcDbEntity
  8
0
  6
Continuous
 62
     7
370
    25
100
AcDbLine
 10
6482.5197443145
 20
4995.91154913
 30
0.0
 11
6482.5197443145
 21
4994.91154913
 31
0.0
  0
LINE
  5
FA
330
1F
100
AcDbEntity
  8
0
  6
Continuous
 62
     7
370
    25
100
AcDbLine
 10
6482.5197443145
 20
4994.91154913
 30
0.0
 11
6477.5197443145
 21
4994.91154913
 31
0.0
  0
LINE
  5
FB
330
1F
100
AcDbEntity
  8
0
  6
Continuous
 62
     7
370
    25
100
AcDbLine
 10
6492.7197443145
 20
4995.91154913
 30
0.0
 11
6492.7197443145
 21
4994.91154913
 31
0.0
  0
LINE
  5
FC
330
1F
100
AcDbEntity
  8
0
  6
Continuous
 62
     7
370
    25
100
AcDbLine
 10
6492.7197443145
 20
4995.91154913
 30
0.0
 11
6482.5197443145
 21
4995.91154913
 31
0.0
  0
LINE
  5
FD
330
1F
100
AcDbEntity
  8
0
  6
Continuous
 62
     7
370
    25
100
AcDbLine
 10
6492.7197443145
 20
4994.91154913
 30
0.0
 11
6482.5197443145
 21
4994.91154913
 31
0.0
  0
ARC
  5
FE
330
1F
100
AcDbEntity
  8
0
  6
Continuous
 62
     7
370
    25
100
AcDbCircle
 10
6495.3197443145
 20
5029.91154913
 30
0.0
 40
0.7999999999992724
100
AcDbArc
 50
90.0
 51
180.0
  0
LINE
  5
FF
330
1F
100
AcDbEntity
  8
0
  6
Continuous
 62
     7
370
    25
100
AcDbLine
 10
6494.5197443145
 20
5029.91154913
 30
0.0
 11
6493.5197443145
 21
5029.91154913
 31
0.0
  0
ARC
  5
100
330
1F
100
AcDbEntity
  8
0
  6
Continuous
 62
     7
370
    25
100
AcDbCircle
 10
6495.3197443145
 20
5029.91154913
 30
0.0
 40
1.800000000000182
100
AcDbArc
 50
90.0
 51
180.0
  0
LINE
  5
101
330
1F
100
AcDbEntity
  8
0
  6
Continuous
 62
     7
370
    25
100
AcDbLine
 10
6493.5197443145
 20
4996.71154913
 30
0.0
 11
6494.5197443145
 21
4996.71154913
 31
0.0
  0
ARC
  5
102
330
1F
100
AcDbEntity
  8
0
  6
Continuous
 62
     7
370
    25
100
AcDbCircle
 10
6492.7197443145
 20
4996.71154913
 30
0.0
 40
1.800000000001091
100
AcDbArc
 50
270.0
 51
0.0
  0
ARC
  5
103
330
1F
100
AcDbEntity
  8
0
  6
Continuous
 62
     7
370
    25
100
AcDbCircle
 10
6492.7197443145
 20
4996.71154913
 30
0.0
 40
0.8000000000001819
100
AcDbArc
 50
270.0
 51
0.0
  0
LINE
  5
104
330
1F
100
AcDbEntity
  8
0
  6
Continuous
 62
     7
370
    25
100
AcDbLine
 10
6493.5197443145
 20
5029.91154913
 30
0.0
 11
6493.5197443145
 21
4996.71154913
 31
0.0
  0
LINE
  5
105
330
1F
100
AcDbEntity
  8
0
  6
Continuous
 62
     7
370
    25
100
AcDbLine
 10
6494.5197443145
 20
5029.91154913
 30
0.0
 11
6494.5197443145
 21
4996.71154913
 31
0.0
  0
LINE
  5
106
330
1F
100
AcDbEntity
  8
0
  6
Continuous
 62
     7
370
    25
100
AcDbLine
 10
6557.8197443145
 20
5036.41154913
 30
0.0
 11
6522.8197443145
 21
5036.41154913
 31
0.0
  0
LINE
  5
107
330
1F
100
AcDbEntity
  8
0
  6
Continuous
 62
     7
370
    25
100
AcDbLine
 10
6655.3197443145
 20
4778.21154913
 30
0.0
 11
6662.575558268
 21
4934.21154913
 31
0.0
  0
LINE
  5
108
330
1F
100
AcDbEntity
  8
0
  6
Continuous
 62
     7
370
    25
100
AcDbLine
 10
6635.3197443145
 20
4778.21154913
 30
0.0
 11
6655.3197443145
 21
4778.21154913
 31
0.0
  0
LINE
  5
109
330
1F
100
AcDbEntity
  8
0
  6
Continuous
 62
     7
370
    25
100
AcDbLine
 10
6425.3197443145
 20
4778.21154913
 30
0.0
 11
6445.3197443145
 21
4778.21154913
 31
0.0
  0
LINE
  5
10A
330
1F
100
AcDbEntity
  8
0
  6
Continuous
 62
     7
370
    25
100
AcDbLine
 10
6418.063930361
 20
4934.21154913
 30
0.0
 11
6425.3197443145
 21
4778.21154913
 31
0.0
  0
LINE
  5
10B
330
1F
100
AcDbEntity
  8
0
  6
Continuous
 62
     7
370
    25
100
AcDbLine
 10
6445.3197443145
 20
4778.21154913
 30
0.0
 11
6635.3197443145
 21
4778.21154913
 31
0.0
  0
LINE
  5
10C
330
1F
100
AcDbEntity
  8
0
  6
Continuous
 62
     7
370
    25
100
AcDbLine
 10
6728.5197443145
 20
4991.7044423488
 30
0.0
 11
6728.5197443145
 21
4744.1186559112
 31
0.0
  0
LINE
  5
10D
330
1F
100
AcDbEntity
  8
0
  6
Continuous
 62
     7
370
    25
100
AcDbLine
 10
6728.5197443145
 20
4744.1186559112
 30
0.0
 11
6670.3197443145
 21
4744.1186559112
 31
0.0
  0
LINE
  5
10E
330
1F
100
AcDbEntity
  8
0
  6
Continuous
 62
     7
370
    25
100
AcDbLine
 10
6670.3197443145
 20
4744.1186559112
 30
0.0
 11
6670.3197443145
 21
4933.5044423488
 31
0.0
  0
LINE
  5
10F
330
1F
100
AcDbEntity
  8
0
  6
Continuous
 62
     7
370
    25
100
AcDbLine
 10
6670.3197443145
 20
4933.5044423488
 30
0.0
 11
6728.5197443145
 21
4991.7044423488
 31
0.0
  0
LINE
  5
110
330
1F
100
AcDbEntity
  8
0
  6
Continuous
 62
     7
370
    25
100
AcDbLine
 10
6727.8126375333
 20
4992.41154913
 30
0.0
 11
6669.6126375333
 21
4934.21154913
 31
0.0
  0
LINE
  5
111
330
1F
100
AcDbEntity
  8
0
  6
Continuous
 62
     7
370
    25
100
AcDbLine
 10
6411.0268510957
 20
4934.21154913
 30
0.0
 11
6352.8268510957
 21
4992.41154913
 31
0.0
  0
LINE
  5
112
330
1F
100
AcDbEntity
  8
0
  6
Continuous
 62
     7
370
    25
100
AcDbLine
 10
6727.8126375333
 20
4992.41154913
 30
0.0
 11
6352.8268510957
 21
4992.41154913
 31
0.0
  0
LINE
  5
113
330
1F
100
AcDbEntity
  8
0
  6
Continuous
 62
     7
370
    25
100
AcDbLine
 10
6669.6126375333
 20
4934.21154913
 30
0.0
 11
6411.0268510957
 21
4934.21154913
 31
0.0
  0
LINE
  5
114
330
1F
100
AcDbEntity
  8
0
  6
Continuous
 62
     7
370
    25
100
AcDbLine
 10
6410.3197443145
 20
4744.1186559112
 30
0.0
 11
6352.1197443145
 21
4744.1186559112
 31
0.0
  0
LINE
  5
115
330
1F
100
AcDbEntity
  8
0
  6
Continuous
 62
     7
370
    25
100
AcDbLine
 10
6352.1197443145
 20
4744.1186559112
 30
0.0
 11
6352.1197443145
 21
4991.7044423488
 31
0.0
  0
LINE
  5
116
330
1F
100
AcDbEntity
  8
0
  6
Continuous
 62
     7
370
    25
100
AcDbLine
 10
6352.1197443145
 20
4991.7044423488
 30
0.0
 11
6410.3197443145
 21
4933.5044423488
 31
0.0
  0
LINE
  5
117
330
1F
100
AcDbEntity
  8
0
  6
Continuous
 62
     7
370
    25
100
AcDbLine
 10
6410.3197443145
 20
4933.5044423488
 30
0.0
 11
6410.3197443145
 21
4744.1186559112
 31
0.0
  0
ARC
  5
118
330
1F
100
AcDbEntity
  8
0
  6
Continuous
 62
     7
370
    25
100
AcDbCircle
 10
6728.4613168237
 20
4762.7366355735
 30
0.0
 40
18.61807134143882
100
AcDbArc
 50
270.1798067087
 51
275.7287175669
  0
ARC
  5
119
330
1F
100
AcDbEntity
  8
0
  6
Continuous
 62
     7
370
    25
100
AcDbCircle
 10
6728.4646167992
 20
4994.4893534542
 30
0.0
 40
2.785456678470722
100
AcDbArc
 50
271.1340259649
 51
311.7594570772
  0
LINE
  5
11A
330
1F
100
AcDbEntity
  8
0
  6
Continuous
 62
     7
370
    25
100
AcDbLine
 10
6730.3197443145
 20
4992.41154913
 30
0.0
 11
6730.3197443145
 21
4744.21154913
 31
0.0
  0
LINE
  5
11B
330
1F
100
AcDbEntity
  8
0
  6
Continuous
 62
     7
370
    25
100
AcDbLine
 10
6730.3197443145
 20
4992.41154913
 30
0.0
 11
6729.3197443145
 21
4992.41154913
 31
0.0
  0
ARC
  5
11C
330
1F
100
AcDbEntity
  8
0
  6
Continuous
 62
     7
370
    25
100
AcDbCircle
 10
6728.1510660092
 20
4992.9276559671
 30
0.0
 40
1.277566142583325
100
AcDbArc
 50
286.7728806497
 51
336.1729879683
  0
ARC
  5
11D
330
1F
100
AcDbEntity
  8
0
  6
Continuous
 62
     7
370
    25
100
AcDbCircle
 10
6731.7830393042
 20
4991.8907168988
 30
0.0
 40
4.004417115543371
100
AcDbArc
 50
144.5798324754
 51
172.5266844825
  0
ARC
  5
11E
330
1F
100
AcDbEntity
  8
0
  6
Continuous
 62
     7
370
    25
100
AcDbCircle
 10
6350.0419399904
 20
4992.3564216147
 30
0.0
 40
2.785456678465551
100
AcDbArc
 50
1.1340259649
 51
41.7594570772
  0
LINE
  5
11F
330
1F
100
AcDbEntity
  8
0
  6
Continuous
 62
     7
370
    25
100
AcDbLine
 10
6352.1197443145
 20
4994.21154913
 30
0.0
 11
6728.5197443145
 21
4994.21154913
 31
0.0
  0
LINE
  5
120
330
1F
100
AcDbEntity
  8
0
  6
Continuous
 62
     7
370
    25
100
AcDbLine
 10
6728.5197443145
 20
4993.21154913
 30
0.0
 11
6728.5197443145
 21
4994.21154913
 31
0.0
  0
ARC
  5
121
330
1F
100
AcDbEntity
  8
0
  6
Continuous
 62
     7
370
    25
100
AcDbCircle
 10
6729.1290295584
 20
4991.9605119706
 30
0.0
 40
1.391518049737507
100
AcDbArc
 50
115.9671981419
 51
161.0869332402
  0
ARC
  5
122
330
1F
100
AcDbEntity
  8
0
  6
Continuous
 62
     7
370
    25
100
AcDbCircle
 10
6352.1781718054
 20
4762.736635574
 30
0.0
 40
18.61807134202623
100
AcDbArc
 50
264.2712824332
 51
269.8201932913
  0
ARC
  5
123
330
1F
100
AcDbEntity
  8
0
  6
Continuous
 62
     7
370
    25
100
AcDbCircle
 10
6352.6405765458
 20
4995.6748441197
 30
0.0
 40
4.004417115543134
100
AcDbArc
 50
234.5798324754
 51
262.5266844825
  0
LINE
  5
124
330
1F
100
AcDbEntity
  8
0
  6
Continuous
 62
     7
370
    25
100
AcDbLine
 10
6350.3197443145
 20
4744.21154913
 30
0.0
 11
6350.3197443145
 21
4992.41154913
 31
0.0
  0
LINE
  5
125
330
1F
100
AcDbEntity
  8
0
  6
Continuous
 62
     7
370
    25
100
AcDbLine
 10
6351.3197443145
 20
4992.41154913
 30
0.0
 11
6350.3197443145
 21
4992.41154913
 31
0.0
  0
ARC
  5
126
330
1F
100
AcDbEntity
  8
0
  6
Continuous
 62
     7
370
    25
100
AcDbCircle
 10
6352.570781474
 20
4993.0208343739
 30
0.0
 40
1.391518049732085
100
AcDbArc
 50
205.9671981418
 51
251.0869332403
  0
LINE
  5
127
330
1F
100
AcDbEntity
  8
0
  6
Continuous
 62
     7
370
    25
100
AcDbLine
 10
6352.1197443145
 20
4994.21154913
 30
0.0
 11
6352.1197443145
 21
4993.21154913
 31
0.0
  0
ARC
  5
128
330
1F
100
AcDbEntity
  8
0
  6
Continuous
 62
     7
370
    25
100
AcDbCircle
 10
6351.6036374775
 20
4992.0428708247
 30
0.0
 40
1.277566142593999
100
AcDbArc
 50
16.7728806499
 51
66.1729879681
  0
ARC
  5
129
330
1F
100
AcDbEntity
  8
0
  6
Continuous
 62
     7
370
    25
100
AcDbCircle
 10
6728.5197443145
 20
4744.21154913
 30
0.0
 40
1.800000000000182
100
AcDbArc
 50
270.0
 51
0.0
  0
LINE
  5
12A
330
1F
100
AcDbEntity
  8
0
  6
Continuous
 62
     7
370
    25
100
AcDbLine
 10
6728.5197443145
 20
4743.41154913
 30
0.0
 11
6728.5197443145
 21
4742.41154913
 31
0.0
  0
ARC
  5
12B
330
1F
100
AcDbEntity
  8
0
  6
Continuous
 62
     7
370
    25
100
AcDbCircle
 10
6728.5197443145
 20
4744.21154913
 30
0.0
 40
0.8000000000020009
100
AcDbArc
 50
270.0000000002
 51
359.9999999999
  0
LINE
  5
12C
330
1F
100
AcDbEntity
  8
0
  6
Continuous
 62
     7
370
    25
100
AcDbLine
 10
6670.3197443145
 20
4742.41154913
 30
0.0
 11
6670.3197443145
 21
4743.41154913
 31
0.0
  0
LINE
  5
12D
330
1F
100
AcDbEntity
  8
0
  6
Continuous
 62
     7
370
    25
100
AcDbLine
 10
6670.3197443145
 20
4743.41154913
 30
0.0
 11
6728.5197443145
 21
4743.41154913
 31
0.0
  0
LINE
  5
12E
330
1F
100
AcDbEntity
  8
0
  6
Continuous
 62
     7
370
    25
100
AcDbLine
 10
6670.3197443145
 20
4742.41154913
 30
0.0
 11
6728.5197443145
 21
4742.41154913
 31
0.0
  0
LINE
  5
12F
330
1F
100
AcDbEntity
  8
0
  6
Continuous
 62
     7
370
    25
100
AcDbLine
 10
6352.1197443145
 20
4743.41154913
 30
0.0
 11
6352.1197443145
 21
4742.41154913
 31
0.0
  0
LINE
  5
130
330
1F
100
AcDbEntity
  8
0
  6
Continuous
 62
     7
370
    25
100
AcDbLine
 10
6352.1197443145
 20
4743.41154913
 30
0.0
 11
6410.3197443145
 21
4743.41154913
 31
0.0
  0
LINE
  5
131
330
1F
100
AcDbEntity
  8
0
  6
Continuous
 62
     7
370
    25
100
AcDbLine
 10
6352.1197443145
 20
4742.41154913
 30
0.0
 11
6410.3197443145
 21
4742.41154913
 31
0.0
  0
LINE
  5
132
330
1F
100
AcDbEntity
  8
0
  6
Continuous
 62
     7
370
    25
100
AcDbLine
 10
6410.3197443145
 20
4742.41154913
 30
0.0
 11
6410.3197443145
 21
4743.41154913
 31
0.0
  0
ARC
  5
133
330
1F
100
AcDbEntity
  8
0
  6
Continuous
 62
     7
370
    25
100
AcDbCircle
 10
6352.1197443145
 20
4744.21154913
 30
0.0
 40
1.800000000000182
100
AcDbArc
 50
180.0
 51
270.0
  0
ARC
  5
134
330
1F
100
AcDbEntity
  8
0
  6
Continuous
 62
     7
370
    25
100
AcDbCircle
 10
6352.1197443145
 20
4744.21154913
 30
0.0
 40
0.8000000000010914
100
AcDbArc
 50
180.0000000001
 51
269.9999999999
  0
ARC
  5
135
330
1F
100
AcDbEntity
  8
0
  6
Continuous
 62
     7
370
    25
100
AcDbCircle
 10
6728.5197443145
 20
4992.41154913
 30
0.0
 40
0.8000000000001819
100
AcDbArc
 50
0.0
 51
90.0
  0
ARC
  5
136
330
1F
100
AcDbEntity
  8
0
  6
Continuous
 62
     7
370
    25
100
AcDbCircle
 10
6728.5197443145
 20
4992.41154913
 30
0.0
 40
1.800000000000182
100
AcDbArc
 50
0.0
 51
90.0
  0
ARC
  5
137
330
1F
100
AcDbEntity
  8
0
  6
Continuous
 62
     7
370
    25
100
AcDbCircle
 10
6352.1197443145
 20
4992.41154913
 30
0.0
 40
1.800000000000182
100
AcDbArc
 50
90.0
 51
180.0
  0
ARC
  5
138
330
1F
100
AcDbEntity
  8
0
  6
Continuous
 62
     7
370
    25
100
AcDbCircle
 10
6352.1197443145
 20
4992.41154913
 30
0.0
 40
0.8000000000001819
100
AcDbArc
 50
90.0
 51
180.0
  0
LINE
  5
139
330
1F
100
AcDbEntity
  8
0
  6
Continuous
 62
     7
370
    25
100
AcDbLine
 10
6731.1197443145
 20
4992.41154913
 30
0.0
 11
6730.3197443145
 21
4992.41154913
 31
0.0
  0
LINE
  5
13A
330
1F
100
AcDbEntity
  8
0
  6
Continuous
 62
     7
370
    25
100
AcDbLine
 10
6731.1197443145
 20
4744.21154913
 30
0.0
 11
6731.1197443145
 21
4992.41154913
 31
0.0
  0
LINE
  5
13B
330
1F
100
AcDbEntity
  8
0
  6
Continuous
 62
     7
370
    25
100
AcDbLine
 10
6730.3197443145
 20
4744.21154913
 30
0.0
 11
6731.1197443145
 21
4744.21154913
 31
0.0
  0
LINE
  5
13C
330
1F
100
AcDbEntity
  8
0
  6
Continuous
 62
     7
370
    25
100
AcDbLine
 10
6352.1197443145
 20
4995.01154913
 30
0.0
 11
6352.1197443145
 21
4994.21154913
 31
0.0
  0
LINE
  5
13D
330
1F
100
AcDbEntity
  8
0
  6
Continuous
 62
     7
370
    25
100
AcDbLine
 10
6728.5197443145
 20
4994.21154913
 30
0.0
 11
6728.5197443145
 21
4995.01154913
 31
0.0
  0
LINE
  5
13E
330
1F
100
AcDbEntity
  8
0
  6
Continuous
 62
     7
370
    25
100
AcDbLine
 10
6349.5197443145
 20
4992.41154913
 30
0.0
 11
6349.5197443145
 21
4744.21154913
 31
0.0
  0
LINE
  5
13F
330
1F
100
AcDbEntity
  8
0
  6
Continuous
 62
     7
370
    25
100
AcDbLine
 10
6350.3197443145
 20
4992.41154913
 30
0.0
 11
6349.5197443145
 21
4992.41154913
 31
0.0
  0
LINE
  5
140
330
1F
100
AcDbEntity
  8
0
  6
Continuous
 62
     7
370
    25
100
AcDbLine
 10
6349.5197443145
 20
4744.21154913
 30
0.0
 11
6350.3197443145
 21
4744.21154913
 31
0.0
  0
LINE
  5
141
330
1F
100
AcDbEntity
  8
0
  6
Continuous
 62
     7
370
    25
100
AcDbLine
 10
6744.3197443145
 20
4992.41154913
 30
0.0
 11
6731.1197443145
 21
4992.41154913
 31
0.0
  0
ARC
  5
142
330
1F
100
AcDbEntity
  8
0
  6
Continuous
 62
     7
370
    25
100
AcDbCircle
 10
6744.3197443145
 20
4982.41154913
 30
0.0
 40
10.0
100
AcDbArc
 50
0.0
 51
90.0
  0
LINE
  5
143
330
1F
100
AcDbEntity
  8
0
  6
Continuous
 62
     7
370
    25
100
AcDbLine
 10
6754.3197443145
 20
4754.21154913
 30
0.0
 11
6754.3197443145
 21
4982.41154913
 31
0.0
  0
ARC
  5
144
330
1F
100
AcDbEntity
  8
0
  6
Continuous
 62
     7
370
    25
100
AcDbCircle
 10
6744.3197443145
 20
4754.21154913
 30
0.0
 40
10.0
100
AcDbArc
 50
270.0
 51
0.0
  0
LINE
  5
145
330
1F
100
AcDbEntity
  8
0
  6
Continuous
 62
     7
370
    25
100
AcDbLine
 10
6731.1197443145
 20
4744.21154913
 30
0.0
 11
6744.3197443145
 21
4744.21154913
 31
0.0
  0
CIRCLE
  5
146
330
1F
100
AcDbEntity
  8
0
  6
Continuous
 62
     7
370
    25
100
AcDbCircle
 10
6745.3197443145
 20
4754.21154913
 30
0.0
 40
2.499999999999091
  0
ARC
  5
147
330
1F
100
AcDbEntity
  8
0
  6
Continuous
 62
     7
370
    25
100
AcDbCircle
 10
6440.3197443145
 20
5013.21154913
 30
0.0
 40
2.5
100
AcDbArc
 50
0.0
 51
180.0
  0
LINE
  5
148
330
1F
100
AcDbEntity
  8
0
  6
Continuous
 62
     7
370
    25
100
AcDbLine
 10
6437.8197443145
 20
5013.21154913
 30
0.0
 11
6437.8197443145
 21
5007.541676149
 31
0.0
  0
ARC
  5
149
330
1F
100
AcDbEntity
  8
0
  6
Continuous
 62
     7
370
    25
100
AcDbCircle
 10
6440.3197443145
 20
5003.21154913
 30
0.0
 40
5.000000000000016
100
AcDbArc
 50
120.0
 51
60.0
  0
LINE
  5
14A
330
1F
100
AcDbEntity
  8
0
  6
Continuous
 62
     7
370
    25
100
AcDbLine
 10
6442.8197443145
 20
5013.21154913
 30
0.0
 11
6442.8197443145
 21
5007.541676149
 31
0.0
  0
ARC
  5
14B
330
1F
100
AcDbEntity
  8
0
  6
Continuous
 62
     7
370
    25
100
AcDbCircle
 10
6718.5197443145
 20
5008.21154913
 30
0.0
 40
10.00000000000091
100
AcDbArc
 50
0.0
 51
90.0
  0
LINE
  5
14C
330
1F
100
AcDbEntity
  8
0
  6
Continuous
 62
     7
370
    25
100
AcDbLine
 10
6728.5197443145
 20
4995.01154913
 30
0.0
 11
6728.5197443145
 21
5008.21154913
 31
0.0
  0
LINE
  5
14D
330
1F
100
AcDbEntity
  8
0
  6
Continuous
 62
     7
370
    25
100
AcDbLine
 10
6352.1197443145
 20
5008.21154913
 30
0.0
 11
6352.1197443145
 21
4995.01154913
 31
0.0
  0
ARC
  5
14E
330
1F
100
AcDbEntity
  8
0
  6
Continuous
 62
     7
370
    25
100
AcDbCircle
 10
6362.1197443145
 20
5008.21154913
 30
0.0
 40
10.0
100
AcDbArc
 50
90.0
 51
180.0
  0
ARC
  5
14F
330
1F
100
AcDbEntity
  8
0
  6
Continuous
 62
     7
370
    25
100
AcDbCircle
 10
6640.3197443145
 20
5013.21154913
 30
0.0
 40
2.5
100
AcDbArc
 50
0.0
 51
180.0
  0
LINE
  5
150
330
1F
100
AcDbEntity
  8
0
  6
Continuous
 62
     7
370
    25
100
AcDbLine
 10
6637.8197443145
 20
5013.21154913
 30
0.0
 11
6637.8197443145
 21
5007.541676149
 31
0.0
  0
ARC
  5
151
330
1F
100
AcDbEntity
  8
0
  6
Continuous
 62
     7
370
    25
100
AcDbCircle
 10
6640.3197443145
 20
5003.21154913
 30
0.0
 40
5.000000000000016
100
AcDbArc
 50
120.0
 51
60.0
  0
LINE
  5
152
330
1F
100
AcDbEntity
  8
0
  6
Continuous
 62
     7
370
    25
100
AcDbLine
 10
6718.5197443145
 20
5018.21154913
 30
0.0
 11
6587.1197443145
 21
5018.21154913
 31
0.0
  0
LINE
  5
153
330
1F
100
AcDbEntity
  8
0
  6
Continuous
 62
     7
370
    25
100
AcDbLine
 10
6586.1197443145
 20
5018.21154913
 30
0.0
 11
6585.3197443145
 21
5018.21154913
 31
0.0
  0
LINE
  5
154
330
1F
100
AcDbEntity
  8
0
  6
Continuous
 62
     7
370
    25
100
AcDbLine
 10
6495.3197443145
 20
5018.21154913
 30
0.0
 11
6494.5197443145
 21
5018.21154913
 31
0.0
  0
LINE
  5
155
330
1F
100
AcDbEntity
  8
0
  6
Continuous
 62
     7
370
    25
100
AcDbLine
 10
6493.5197443145
 20
5018.21154913
 30
0.0
 11
6362.1197443145
 21
5018.21154913
 31
0.0
  0
LINE
  5
156
330
1F
100
AcDbEntity
  8
0
  6
Continuous
 62
     7
370
    25
100
AcDbLine
 10
6642.8197443145
 20
5013.21154913
 30
0.0
 11
6642.8197443145
 21
5007.541676149
 31
0.0
  0
ARC
  5
157
330
1F
100
AcDbEntity
  8
0
  6
Continuous
 62
     7
370
    25
100
AcDbCircle
 10
6336.3197443145
 20
4982.41154913
 30
0.0
 40
10.00000000000091
100
AcDbArc
 50
90.0
 51
180.0
  0
LINE
  5
158
330
1F
100
AcDbEntity
  8
0
  6
Continuous
 62
     7
370
    25
100
AcDbLine
 10
6349.5197443145
 20
4992.41154913
 30
0.0
 11
6336.3197443145
 21
4992.41154913
 31
0.0
  0
ARC
  5
159
330
1F
100
AcDbEntity
  8
0
  6
Continuous
 62
     7
370
    25
100
AcDbCircle
 10
6336.3197443145
 20
4754.21154913
 30
0.0
 40
10.00000000000091
100
AcDbArc
 50
180.0
 51
270.0
  0
LINE
  5
15A
330
1F
100
AcDbEntity
  8
0
  6
Continuous
 62
     7
370
    25
100
AcDbLine
 10
6326.3197443145
 20
4982.41154913
 30
0.0
 11
6326.3197443145
 21
4754.21154913
 31
0.0
  0
CIRCLE
  5
15B
330
1F
100
AcDbEntity
  8
0
  6
Continuous
 62
     7
370
    25
100
AcDbCircle
 10
6335.3197443145
 20
4754.21154913
 30
0.0
 40
2.5
  0
LINE
  5
15C
330
1F
100
AcDbEntity
  8
0
  6
Continuous
 62
     7
370
    25
100
AcDbLine
 10
6336.3197443145
 20
4744.21154913
 30
0.0
 11
6349.5197443145
 21
4744.21154913
 31
0.0
  0
LWPOLYLINE
  5
15D
330
1F
100
AcDbEntity
  8
0
  6
Continuous
 62
     8
370
    25
100
AcDbPolyline
 90
       12
 70
   128
 43
0.0
 10
6164.8114490708
 20
5344.7288255177
 10
6164.8185883531
 20
5344.8868191987
 10
6165.0803909936
 20
5345.6802096939
 10
6165.6923289118
 20
5346.3705029514
 10
6166.588089139
 20
5346.8828949857
 10
6167.6706021556
 20
5347.1618601692
 10
6168.8225608792
 20
5347.1771682959
 10
6169.9191327076
 20
5346.9271604926
 10
6170.8414870682
 20
5346.4389289841
 10
6171.4896725542
 20
5345.76538123
 10
6171.7934482106
 20
5344.9795065807
 10
6171.8114490708
 20
5344.7288255177
  0
LINE
  5
15E
330
1F
100
AcDbEntity
  8
0
  6
Continuous
 62
     8
370
    25
100
AcDbLine
 10
6532.9955755272
 20
5032.2816133824
 30
0.0
 11
6557.9542140598
 21
5032.2816133824
 31
0.0
  0
LINE
  5
15F
330
1F
100
AcDbEntity
  8
0
  6
Continuous
 62
     8
370
    25
100
AcDbLine
 10
6522.6852745692
 20
5032.2816133824
 30
0.0
 11
6532.9955755272
 21
5032.2816133824
 31
0.0
  0
LINE
  5
160
330
1F
100
AcDbEntity
  8
0
  6
Continuous
 62
     8
370
    25
100
AcDbLine
 10
6533.0514251856
 20
5032.6227696998
 30
0.0
 11
6557.8197443145
 21
5032.6227696998
 31
0.0
  0
LINE
  5
161
330
1F
100
AcDbEntity
  8
0
  6
Continuous
 62
     8
370
    25
100
AcDbLine
 10
6522.8197443145
 20
5032.6227696998
 30
0.0
 11
6533.0514251856
 21
5032.6227696998
 31
0.0
  0
LINE
  5
162
330
1F
100
AcDbEntity
  8
0
  6
Continuous
 62
     8
370
    25
100
AcDbLine
 10
6635.3197443145
 20
4934.21154913
 30
0.0
 11
6635.3197443145
 21
4778.21154913
 31
0.0
  0
LINE
  5
163
330
1F
100
AcDbEntity
  8
0
  6
Continuous
 62
     8
370
    25
100
AcDbLine
 10
6445.3197443145
 20
4934.21154913
 30
0.0
 11
6445.3197443145
 21
4778.21154913
 31
0.0
  0
LINE
  5
164
330
1F
100
AcDbEntity
  8
0
  6
Continuous
 62
     8
370
    25
100
AcDbLine
 10
6728.5197443145
 20
4995.01154913
 30
0.0
 11
6603.1197443145
 21
4995.01154913
 31
0.0
  0
LINE
  5
165
330
1F
100
AcDbEntity
  8
0
  6
Continuous
 62
     8
370
    25
100
AcDbLine
 10
6587.3281363362
 20
4995.01154913
 30
0.0
 11
6585.3197443145
 21
4995.01154913
 31
0.0
  0
LINE
  5
166
330
1F
100
AcDbEntity
  8
0
  6
Continuous
 62
     8
370
    25
100
AcDbLine
 10
6495.3197443145
 20
4995.01154913
 30
0.0
 11
6493.3113522928
 21
4995.01154913
 31
0.0
  0
LINE
  5
167
330
1F
100
AcDbEntity
  8
0
  6
Continuous
 62
     8
370
    25
100
AcDbLine
 10
6477.5197443145
 20
4995.01154913
 30
0.0
 11
6352.1197443145
 21
4995.01154913
 31
0.0
  0
LINE
  5
168
330
1F
100
AcDbEntity
  8
0
  6
Continuous
 62
     7
370
    25
100
AcDbLine
 10
7024.4558630183
 20
5337.4912641795
 30
0.0
 11
7061.0158630183
 21
5337.4912641795
 31
0.0
  0
LINE
  5
169
330
1F
100
AcDbEntity
  8
0
  6
Continuous
 62
     7
370
    25
100
AcDbLine
 10
7075.6558630183
 20
5359.4912641795
 30
0.0
 11
7024.4558630183
 21
5359.4912641795
 31
0.0
  0
LINE
  5
16A
330
1F
100
AcDbEntity
  8
0
  6
Continuous
 62
     7
370
    25
100
AcDbLine
 10
7076.4558630183
 20
5358.6912641795
 30
0.0
 11
7075.6558630183
 21
5359.4912641795
 31
0.0
  0
LINE
  5
16B
330
1F
100
AcDbEntity
  8
0
  6
Continuous
 62
     7
370
    25
100
AcDbLine
 10
7075.8194669152
 20
5347.2036992519
 30
0.0
 11
7073.2738825029
 21
5349.7492836641
 31
0.0
  0
LINE
  5
16C
330
1F
100
AcDbEntity
  8
0
  6
Continuous
 62
     7
370
    25
100
AcDbLine
 10
7068.3241350346
 20
5344.7995361958
 30
0.0
 11
7070.8697194469
 21
5342.2539517835
 31
0.0
  0
ARC
  5
16D
330
1F
100
AcDbEntity
  8
0
  6
Continuous
 62
     7
370
    25
100
AcDbCircle
 10
7071.0818514813
 20
5342.4660838179
 30
0.0
 40
0.2999999999991503
100
AcDbArc
 50
224.9999999999
 51
259.5864358759
  0
ARC
  5
16E
330
1F
100
AcDbEntity
  8
0
  6
Continuous
 62
     7
370
    25
100
AcDbCircle
 10
7075.6073348808
 20
5346.9915672175
 30
0.0
 40
0.3000000000010796
100
AcDbArc
 50
10.413564124
 51
45.0
  0
LINE
  5
16F
330
1F
100
AcDbEntity
  8
0
  6
Continuous
 62
     7
370
    25
100
AcDbLine
 10
7024.4558630183
 20
5288.4912641795
 30
0.0
 11
7024.4558630183
 21
5310.4912641795
 31
0.0
  0
LINE
  5
170
330
1F
100
AcDbEntity
  8
0
  6
Continuous
 62
     7
370
    25
100
AcDbLine
 10
7024.4558630183
 20
5378.6912641795
 30
0.0
 11
7023.6558630183
 21
5379.4912641795
 31
0.0
  0
LINE
  5
171
330
1F
100
AcDbEntity
  8
0
  6
Continuous
 62
     7
370
    25
100
AcDbLine
 10
6985.2558630183
 20
5379.4912641795
 30
0.0
 11
6984.4558630183
 21
5378.6912641795
 31
0.0
  0
LINE
  5
172
330
1F
100
AcDbEntity
  8
0
  6
Continuous
 62
     7
370
    25
100
AcDbLine
 10
7024.4558630183
 20
5359.4912641795
 30
0.0
 11
7024.4558630183
 21
5378.6912641795
 31
0.0
  0
LINE
  5
173
330
1F
100
AcDbEntity
  8
0
  6
Continuous
 62
     7
370
    25
100
AcDbLine
 10
7024.4558630183
 20
5310.414066419
 30
0.0
 11
7024.4558630183
 21
5337.4912641795
 31
0.0
  0
LINE
  5
174
330
1F
100
AcDbEntity
  8
0
  6
Continuous
 62
     7
370
    25
100
AcDbLine
 10
7024.4558630183
 20
5273.4912641795
 30
0.0
 11
7024.4558630183
 21
5288.4735179076
 31
0.0
  0
LINE
  5
175
330
1F
100
AcDbEntity
  8
0
  6
Continuous
 62
     7
370
    25
100
AcDbLine
 10
6984.4558630183
 20
5378.6912641795
 30
0.0
 11
6984.4558630183
 21
5273.4912641795
 31
0.0
  0
LINE
  5
176
330
1F
100
AcDbEntity
  8
0
  6
Continuous
 62
     7
370
    25
100
AcDbLine
 10
7004.0057483505
 20
5259.3739841249
 30
0.0
 11
7004.0057483505
 21
5262.3739841249
 31
0.0
  0
LWPOLYLINE
  5
177
330
1F
100
AcDbEntity
  8
0
  6
Continuous
 62
     7
370
    25
100
AcDbPolyline
 90
       33
 70
   128
 43
0.0
 10
7002.5102382079
 20
5036.41154913
 10
7002.5118595883
 20
5049.8387434915
 10
7002.5144796385
 20
5068.3989767525
 10
7002.5171441753
 20
5085.844151007
 10
7002.5196569925
 20
5102.2032491528
 10
7002.5220116828
 20
5118.9784291618
 10
7002.5236842349
 20
5134.513104407
 10
7002.5244134626
 20
5148.845853816
 10
7002.5239382627
 20
5162.0152715827
 10
7002.5219974859
 20
5174.0599561444
 10
7002.5183296552
 20
5185.018479655
 10
7002.5126732994
 20
5194.9294222748
 10
7002.5047674823
 20
5203.831490774
 10
7002.4943515962
 20
5211.7634703038
 10
7002.4811634971
 20
5218.764035233
 10
7002.4652549631
 20
5224.7701134476
 10
7002.4461629644
 20
5229.9511767853
 10
7002.4236373345
 20
5234.3450921962
 10
7002.397429888
 20
5237.9909017156
 10
7002.3621140077
 20
5241.3232577068
 10
7002.3209023196
 20
5243.7644156136
 10
7002.2744781583
 20
5245.4898390279
 10
7002.2259811457
 20
5246.7581411216
 10
7002.1794510824
 20
5247.8512147374
 10
7002.1255988213
 20
5249.5220205024
 10
7002.1090961031
 20
5251.5798065405
 10
7002.1828031274
 20
5253.5942829423
 10
7002.2793186298
 20
5254.3210492471
 10
7002.5177028915
 20
5254.9388021537
 10
7002.9976760971
 20
5256.2907110847
 10
7003.1217577571
 20
5257.7292541366
 10
7003.0931865242
 20
5258.5752174203
 10
7003.0231712644
 20
5259.3739841249
  0
LWPOLYLINE
  5
178
330
1F
100
AcDbEntity
  8
0
  6
Continuous
 62
     7
370
    25
100
AcDbPolyline
 90
        3
 70
   128
 43
0.0
 10
7002.364446828
 20
5262.3739841249
 10
7002.3351023597
 20
5262.5892786412
 10
7002.2797708238
 20
5263.8739841249
  0
LWPOLYLINE
  5
179
330
1F
100
AcDbEntity
  8
0
  6
Continuous
 62
     7
370
    25
100
AcDbPolyline
 90
       29
 70
   128
 43
0.0
 10
6976.9079861279
 20
5257.8739841249
 10
6976.89171358
 20
5257.2122861423
 10
6977.5710671149
 20
5254.7579274729
 10
6977.8286935735
 20
5253.5942829423
 10
6977.9047284027
 20
5251.001180521
 10
6977.8579789388
 20
5248.5474471291
 10
6977.7820713456
 20
5246.676739595
 10
6977.7344420846
 20
5245.4114842067
 10
6977.6890236312
 20
5243.6908935281
 10
6977.6487011544
 20
5241.271853289
 10
6977.6140668129
 20
5237.9909017156
 10
6977.5859277605
 20
5234.0220757782
 10
6977.5620591858
 20
5229.1771967384
 10
6977.5421483938
 20
5223.4071862142
 10
6977.5258795072
 20
5216.6648528998
 10
6977.5129342657
 20
5208.9044254013
 10
6977.5029965281
 20
5200.0800088946
 10
6977.4961014004
 20
5190.7437806755
 10
6977.4913422956
 20
5180.3818180549
 10
6977.4884579841
 20
5168.95548373
 10
6977.4871869494
 20
5156.4262083939
 10
6977.4872678296
 20
5142.7554105369
 10
6977.4884395631
 20
5127.9044865414
 10
6977.4904409841
 20
5111.8348522838
 10
6977.4930109254
 20
5094.5079285278
 10
6977.4958882405
 20
5075.8851378612
 10
6977.4988117774
 20
5055.9279053612
 10
6977.5009711504
 20
5039.2859434343
 10
6977.5012830822
 20
5036.41154913
  0
LINE
  5
17A
330
1F
100
AcDbEntity
  8
0
  6
Continuous
 62
     7
370
    25
100
AcDbLine
 10
7014.7557483505
 20
5270.8739841249
 30
0.0
 11
7014.7557483505
 21
5273.3739841249
 31
0.0
  0
LINE
  5
17B
330
1F
100
AcDbEntity
  8
0
  6
Continuous
 62
     7
370
    25
100
AcDbLine
 10
6965.2557483505
 20
5273.3739841249
 30
0.0
 11
6965.2557483505
 21
5270.8739841249
 31
0.0
  0
LINE
  5
17C
330
1F
100
AcDbEntity
  8
0
  6
Continuous
 62
     7
370
    25
100
AcDbLine
 10
7014.7557483505
 20
5273.3739841249
 30
0.0
 11
7014.6384682959
 21
5273.4912641795
 31
0.0
  0
LINE
  5
17D
330
1F
100
AcDbEntity
  8
0
  6
Continuous
 62
     7
370
    25
100
AcDbLine
 10
6965.7557483505
 20
5273.8739841249
 30
0.0
 11
6965.2557483505
 21
5273.3739841249
 31
0.0
  0
LINE
  5
17E
330
1F
100
AcDbEntity
  8
0
  6
Continuous
 62
     7
370
    25
100
AcDbLine
 10
7011.2057483505
 20
5263.8739841249
 30
0.0
 11
7011.2057483505
 21
5270.8739841249
 31
0.0
  0
LINE
  5
17F
330
1F
100
AcDbEntity
  8
0
  6
Continuous
 62
     7
370
    25
100
AcDbLine
 10
6968.8057483505
 20
5270.8739841249
 30
0.0
 11
6968.8057483505
 21
5263.8739841249
 31
0.0
  0
LINE
  5
180
330
1F
100
AcDbEntity
  8
0
  6
Continuous
 62
     7
370
    25
100
AcDbLine
 10
7063.5057483505
 20
4994.91154913
 30
0.0
 11
7064.0057483505
 21
4994.41154913
 31
0.0
  0
LINE
  5
181
330
1F
100
AcDbEntity
  8
0
  6
Continuous
 62
     7
370
    25
100
AcDbLine
 10
7070.0057483505
 20
4994.41154913
 30
0.0
 11
7070.5057483505
 21
4994.91154913
 31
0.0
  0
LINE
  5
182
330
1F
100
AcDbEntity
  8
0
  6
Continuous
 62
     7
370
    25
100
AcDbLine
 10
7064.0057483505
 20
4994.41154913
 30
0.0
 11
7064.0057483505
 21
4994.21154913
 31
0.0
  0
LINE
  5
183
330
1F
100
AcDbEntity
  8
0
  6
Continuous
 62
     7
370
    25
100
AcDbLine
 10
7070.0057483505
 20
4994.21154913
 30
0.0
 11
7070.0057483505
 21
4994.41154913
 31
0.0
  0
LINE
  5
184
330
1F
100
AcDbEntity
  8
0
  6
Continuous
 62
     7
370
    25
100
AcDbLine
 10
7030.2380568968
 20
4994.91154913
 30
0.0
 11
7030.4256213315
 21
4994.21154913
 31
0.0
  0
LINE
  5
185
330
1F
100
AcDbEntity
  8
0
  6
Continuous
 62
     7
370
    25
100
AcDbLine
 10
7103.5858753694
 20
4994.21154913
 30
0.0
 11
7103.7734398041
 21
4994.91154913
 31
0.0
  0
LINE
  5
186
330
1F
100
AcDbEntity
  8
0
  6
Continuous
 62
     7
370
    25
100
AcDbLine
 10
6967.5057483505
 20
4996.41154913
 30
0.0
 11
6967.5057483505
 21
4994.21154913
 31
0.0
  0
LINE
  5
187
330
1F
100
AcDbEntity
  8
0
  6
Continuous
 62
     7
370
    25
100
AcDbLine
 10
7012.5057483505
 20
4994.21154913
 30
0.0
 11
7012.5057483505
 21
4996.41154913
 31
0.0
  0
ARC
  5
188
330
1F
100
AcDbEntity
  8
0
  6
Continuous
 62
     7
370
    25
100
AcDbCircle
 10
6998.1364314736
 20
5023.41154913
 30
0.0
 40
12.99999999999992
100
AcDbArc
 50
17.9202131394
 51
43.024625876
  0
ARC
  5
189
330
1F
100
AcDbEntity
  8
0
  6
Continuous
 62
     7
370
    25
100
AcDbCircle
 10
6981.8750652273
 20
5023.41154913
 30
0.0
 40
12.99999999999951
100
AcDbArc
 50
136.975374124
 51
162.0797868606
  0
LINE
  5
18A
330
1F
100
AcDbEntity
  8
0
  6
Continuous
 62
     7
370
    25
100
AcDbLine
 10
6971.7557483505
 20
5011.41154913
 30
0.0
 11
6971.7557483505
 21
5002.91154913
 31
0.0
  0
LINE
  5
18B
330
1F
100
AcDbEntity
  8
0
  6
Continuous
 62
     7
370
    25
100
AcDbLine
 10
7008.2557483505
 20
5002.91154913
 30
0.0
 11
7008.2557483505
 21
5011.41154913
 31
0.0
  0
ARC
  5
18C
330
1F
100
AcDbEntity
  8
0
  6
Continuous
 62
     7
370
    25
100
AcDbCircle
 10
7008.0057483505
 20
5032.6227696998
 30
0.0
 40
0.5000000000009095
100
AcDbArc
 50
180.0
 51
223.024625876
  0
ARC
  5
18D
330
1F
100
AcDbEntity
  8
0
  6
Continuous
 62
     7
370
    25
100
AcDbCircle
 10
6972.0057483505
 20
5032.6227696998
 30
0.0
 40
0.5
100
AcDbArc
 50
316.9753741239
 51
0.0
  0
LINE
  5
18E
330
1F
100
AcDbEntity
  8
0
  6
Continuous
 62
     7
370
    25
100
AcDbLine
 10
6972.5057483505
 20
5036.41154913
 30
0.0
 11
6972.5057483505
 21
5032.6227696998
 31
0.0
  0
LINE
  5
18F
330
1F
100
AcDbEntity
  8
0
  6
Continuous
 62
     7
370
    25
100
AcDbLine
 10
7007.5057483505
 20
5032.6227696998
 30
0.0
 11
7007.5057483505
 21
5036.41154913
 31
0.0
  0
LINE
  5
190
330
1F
100
AcDbEntity
  8
0
  6
Continuous
 62
     7
370
    25
100
AcDbLine
 10
7075.6558630183
 20
5352.1312641795
 30
0.0
 11
7075.6558630183
 21
5359.4912641795
 31
0.0
  0
LINE
  5
191
330
1F
100
AcDbEntity
  8
0
  6
Continuous
 62
     7
370
    25
100
AcDbLine
 10
7075.6558630183
 20
5352.1312641795
 30
0.0
 11
7061.0158630183
 21
5337.4912641795
 31
0.0
  0
LINE
  5
192
330
1F
100
AcDbEntity
  8
0
  6
Continuous
 62
     7
370
    25
100
AcDbLine
 10
7076.4558630183
 20
5358.6912641795
 30
0.0
 11
7076.4558630183
 21
5352.9312641795
 31
0.0
  0
LINE
  5
193
330
1F
100
AcDbEntity
  8
0
  6
Continuous
 62
     7
370
    25
100
AcDbLine
 10
7076.4558630183
 20
5352.9312641795
 30
0.0
 11
7075.6558630183
 21
5352.1312641795
 31
0.0
  0
LINE
  5
194
330
1F
100
AcDbEntity
  8
0
  6
Continuous
 62
     7
370
    25
100
AcDbLine
 10
7071.0276258844
 20
5342.1710252057
 30
0.0
 11
7075.9023934931
 21
5347.0457928144
 31
0.0
  0
LWPOLYLINE
  5
195
330
1F
100
AcDbEntity
  8
0
  6
Continuous
 62
     7
370
    25
100
AcDbPolyline
 90
       14
 70
   128
 43
0.0
 10
7024.3928930842
 20
5310.3586944857
 10
7024.4233509583
 20
5310.4231213993
 10
7024.0240571022
 20
5309.5572159085
 10
7023.2742866688
 20
5307.7401192876
 10
7022.3653314052
 20
5304.8955095683
 10
7021.9878457022
 20
5303.1739687473
 10
7021.7318429401
 20
5301.2563029298
 10
7021.7331030557
 20
5297.7118082135
 10
7022.229411351
 20
5294.6394284102
 10
7023.0463180248
 20
5291.8657971518
 10
7023.9277625858
 20
5289.6431034286
 10
7024.237805181
 20
5288.9548089546
 10
7024.4221718136
 20
5288.5618845227
 10
7024.4558630183
 20
5288.4912641795
  0
LINE
  5
196
330
1F
100
AcDbEntity
  8
0
  6
Continuous
 62
     7
370
    25
100
AcDbLine
 10
6985.2558630183
 20
5379.4912641795
 30
0.0
 11
7023.6558630183
 21
5379.4912641795
 31
0.0
  0
LINE
  5
197
330
1F
100
AcDbEntity
  8
0
  6
Continuous
 62
     7
370
    25
100
AcDbLine
 10
7024.4558630183
 20
5378.6912641795
 30
0.0
 11
6984.4558630183
 21
5378.6912641795
 31
0.0
  0
LWPOLYLINE
  5
198
330
1F
100
AcDbEntity
  8
0
  6
Continuous
 62
     7
370
    25
100
AcDbPolyline
 90
       15
 70
   128
 43
0.0
 10
7024.4381124177
 20
5359.4589254465
 10
7024.4489301905
 20
5359.4786539948
 10
7024.1043439578
 20
5358.8383798757
 10
7023.3411775093
 20
5357.3034774896
 10
7022.2965622627
 20
5354.759481592
 10
7021.7836512848
 20
5353.1012800373
 10
7021.3793830902
 20
5351.2125748244
 10
7021.1859482954
 20
5349.4377066667
 10
7021.1853663251
 20
5347.5551654173
 10
7021.6245183322
 20
5344.5210343011
 10
7022.4648300297
 20
5341.7590362555
 10
7023.5288377559
 20
5339.2837473947
 10
7023.9813689896
 20
5338.3796182484
 10
7024.3092244619
 20
5337.7601896475
 10
7024.3860257987
 20
5337.6190648366
  0
LWPOLYLINE
  5
199
330
1F
100
AcDbEntity
  8
0
  6
Continuous
 62
     7
370
    25
100
AcDbPolyline
 90
       15
 70
   128
 43
0.0
 10
7024.4380788957
 20
5288.4735179076
 10
7024.4490355805
 20
5288.4536263388
 10
7024.1027716834
 20
5289.0939799141
 10
7023.3344371691
 20
5290.631068811
 10
7022.2804615736
 20
5293.1810491548
 10
7021.7612868213
 20
5294.8458155462
 10
7021.3511671737
 20
5296.7428459972
 10
7021.1540146057
 20
5298.5265018058
 10
7021.1519396988
 20
5300.4194217742
 10
7021.5929159916
 20
5303.4638055085
 10
7022.4386810287
 20
5306.2354649177
 10
7023.5131518124
 20
5308.7261305122
 10
7023.971796524
 20
5309.6388826489
 10
7024.3050390138
 20
5310.2658772909
 10
7024.3860469023
 20
5310.414066419
  0
LINE
  5
19A
330
1F
100
AcDbEntity
  8
0
  6
Continuous
 62
     7
370
    25
100
AcDbLine
 10
6984.4558630183
 20
5273.4912641795
 30
0.0
 11
7024.4558630183
 21
5273.4912641795
 31
0.0
  0
LINE
  5
19B
330
1F
100
AcDbEntity
  8
0
  6
Continuous
 62
     7
370
    25
100
AcDbLine
 10
7004.0057483505
 20
5259.3739841249
 30
0.0
 11
6976.3309540193
 21
5259.3739841249
 31
0.0
  0
LINE
  5
19C
330
1F
100
AcDbEntity
  8
0
  6
Continuous
 62
     7
370
    25
100
AcDbLine
 10
6976.3309540193
 20
5259.3739841249
 30
0.0
 11
6976.3309540193
 21
5262.3739841249
 31
0.0
  0
LINE
  5
19D
330
1F
100
AcDbEntity
  8
0
  6
Continuous
 62
     7
370
    25
100
AcDbLine
 10
7004.0057483505
 20
5262.3739841249
 30
0.0
 11
6976.3309540193
 21
5262.3739841249
 31
0.0
  0
LINE
  5
19E
330
1F
100
AcDbEntity
  8
0
  6
Continuous
 62
     7
370
    25
100
AcDbLine
 10
6977.8710872509
 20
5257.8739841249
 30
0.0
 11
6977.8710872509
 21
5259.3739841249
 31
0.0
  0
LINE
  5
19F
330
1F
100
AcDbEntity
  8
0
  6
Continuous
 62
     7
370
    25
100
AcDbLine
 10
6977.8710872509
 20
5262.3739841249
 30
0.0
 11
6977.8710872509
 21
5263.8739841249
 31
0.0
  0
LINE
  5
1A0
330
1F
100
AcDbEntity
  8
0
  6
Continuous
 62
     7
370
    25
100
AcDbLine
 10
6973.8710872509
 20
5257.8739841249
 30
0.0
 11
6973.8710872509
 21
5263.8739841249
 31
0.0
  0
LINE
  5
1A1
330
1F
100
AcDbEntity
  8
0
  6
Continuous
 62
     7
370
    25
100
AcDbLine
 10
6977.8710872509
 20
5257.8739841249
 30
0.0
 11
6973.8710872509
 21
5257.8739841249
 31
0.0
  0
LINE
  5
1A2
330
1F
100
AcDbEntity
  8
0
  6
Continuous
 62
     7
370
    25
100
AcDbLine
 10
6990.0057483505
 20
5273.3739841249
 30
0.0
 11
6965.2557483505
 21
5273.3739841249
 31
0.0
  0
LINE
  5
1A3
330
1F
100
AcDbEntity
  8
0
  6
Continuous
 62
     7
370
    25
100
AcDbLine
 10
7014.7557483505
 20
5273.3739841249
 30
0.0
 11
6990.0057483505
 21
5273.3739841249
 31
0.0
  0
LINE
  5
1A4
330
1F
100
AcDbEntity
  8
0
  6
Continuous
 62
     7
370
    25
100
AcDbLine
 10
6990.0057483505
 20
5270.8739841249
 30
0.0
 11
6965.2557483505
 21
5270.8739841249
 31
0.0
  0
LINE
  5
1A5
330
1F
100
AcDbEntity
  8
0
  6
Continuous
 62
     7
370
    25
100
AcDbLine
 10
7014.7557483505
 20
5270.8739841249
 30
0.0
 11
6990.0057483505
 21
5270.8739841249
 31
0.0
  0
LINE
  5
1A6
330
1F
100
AcDbEntity
  8
0
  6
Continuous
 62
     7
370
    25
100
AcDbLine
 10
6984.4558630183
 20
5273.8739841249
 30
0.0
 11
6965.7557483505
 21
5273.8739841249
 31
0.0
  0
LINE
  5
1A7
330
1F
100
AcDbEntity
  8
0
  6
Continuous
 62
     7
370
    25
100
AcDbLine
 10
6990.0057483505
 20
5263.8739841249
 30
0.0
 11
6968.8057483505
 21
5263.8739841249
 31
0.0
  0
LINE
  5
1A8
330
1F
100
AcDbEntity
  8
0
  6
Continuous
 62
     7
370
    25
100
AcDbLine
 10
7011.2057483505
 20
5263.8739841249
 30
0.0
 11
6990.0057483505
 21
5263.8739841249
 31
0.0
  0
LINE
  5
1A9
330
1F
100
AcDbEntity
  8
0
  6
Continuous
 62
     7
370
    25
100
AcDbLine
 10
7070.001030292
 20
4994.41154913
 30
0.0
 11
7070.0057483505
 21
4994.41154913
 31
0.0
  0
LINE
  5
1AA
330
1F
100
AcDbEntity
  8
0
  6
Continuous
 62
     7
370
    25
100
AcDbLine
 10
7064.0057483505
 20
4994.41154913
 30
0.0
 11
7070.001030292
 21
4994.41154913
 31
0.0
  0
LINE
  5
1AB
330
1F
100
AcDbEntity
  8
0
  6
Continuous
 62
     7
370
    25
100
AcDbLine
 10
7022.0057483505
 20
4994.91154913
 30
0.0
 11
7022.0057483505
 21
4994.21154913
 31
0.0
  0
LINE
  5
1AC
330
1F
100
AcDbEntity
  8
0
  6
Continuous
 62
     7
370
    25
100
AcDbLine
 10
7023.0057483505
 20
4994.91154913
 30
0.0
 11
7023.0057483505
 21
4994.21154913
 31
0.0
  0
LINE
  5
1AD
330
1F
100
AcDbEntity
  8
0
  6
Continuous
 62
     7
370
    25
100
AcDbLine
 10
7111.0057483505
 20
4994.21154913
 30
0.0
 11
7111.0057483505
 21
4994.91154913
 31
0.0
  0
LINE
  5
1AE
330
1F
100
AcDbEntity
  8
0
  6
Continuous
 62
     7
370
    25
100
AcDbLine
 10
7112.0057483505
 20
4994.21154913
 30
0.0
 11
7112.0057483505
 21
4994.91154913
 31
0.0
  0
LINE
  5
1AF
330
1F
100
AcDbEntity
  8
0
  6
Continuous
 62
     7
370
    25
100
AcDbLine
 10
7022.0057483505
 20
4994.91154913
 30
0.0
 11
7022.0057483505
 21
4995.91154913
 31
0.0
  0
LINE
  5
1B0
330
1F
100
AcDbEntity
  8
0
  6
Continuous
 62
     7
370
    25
100
AcDbLine
 10
7022.0057483505
 20
4995.91154913
 30
0.0
 11
7027.0057483505
 21
4995.91154913
 31
0.0
  0
LINE
  5
1B1
330
1F
100
AcDbEntity
  8
0
  6
Continuous
 62
     7
370
    25
100
AcDbLine
 10
7027.0057483505
 20
4995.91154913
 30
0.0
 11
7027.0057483505
 21
4994.91154913
 31
0.0
  0
LINE
  5
1B2
330
1F
100
AcDbEntity
  8
0
  6
Continuous
 62
     7
370
    25
100
AcDbLine
 10
7027.0057483505
 20
4994.91154913
 30
0.0
 11
7022.0057483505
 21
4994.91154913
 31
0.0
  0
LINE
  5
1B3
330
1F
100
AcDbEntity
  8
0
  6
Continuous
 62
     7
370
    25
100
AcDbLine
 10
7107.0057483505
 20
4994.91154913
 30
0.0
 11
7107.0057483505
 21
4995.91154913
 31
0.0
  0
LINE
  5
1B4
330
1F
100
AcDbEntity
  8
0
  6
Continuous
 62
     7
370
    25
100
AcDbLine
 10
7107.0057483505
 20
4995.91154913
 30
0.0
 11
7027.0057483505
 21
4995.91154913
 31
0.0
  0
LINE
  5
1B5
330
1F
100
AcDbEntity
  8
0
  6
Continuous
 62
     7
370
    25
100
AcDbLine
 10
7107.0057483505
 20
4994.91154913
 30
0.0
 11
7027.0057483505
 21
4994.91154913
 31
0.0
  0
LINE
  5
1B6
330
1F
100
AcDbEntity
  8
0
  6
Continuous
 62
     7
370
    25
100
AcDbLine
 10
7112.0057483505
 20
4995.91154913
 30
0.0
 11
7112.0057483505
 21
4994.91154913
 31
0.0
  0
LINE
  5
1B7
330
1F
100
AcDbEntity
  8
0
  6
Continuous
 62
     7
370
    25
100
AcDbLine
 10
7107.0057483505
 20
4995.91154913
 30
0.0
 11
7112.0057483505
 21
4995.91154913
 31
0.0
  0
LINE
  5
1B8
330
1F
100
AcDbEntity
  8
0
  6
Continuous
 62
     7
370
    25
100
AcDbLine
 10
7112.0057483505
 20
4994.91154913
 30
0.0
 11
7107.0057483505
 21
4994.91154913
 31
0.0
  0
LINE
  5
1B9
330
1F
100
AcDbEntity
  8
0
  6
Continuous
 62
     7
370
    25
100
AcDbLine
 10
7112.0057483505
 20
4995.91154913
 30
0.0
 11
7112.0057483505
 21
4996.71154913
 31
0.0
  0
LINE
  5
1BA
330
1F
100
AcDbEntity
  8
0
  6
Continuous
 62
     7
370
    25
100
AcDbLine
 10
7112.0057483505
 20
4996.71154913
 30
0.0
 11
7022.0057483505
 21
4996.71154913
 31
0.0
  0
LINE
  5
1BB
330
1F
100
AcDbEntity
  8
0
  6
Continuous
 62
     7
370
    25
100
AcDbLine
 10
7022.0057483505
 20
4996.71154913
 30
0.0
 11
7022.0057483505
 21
4995.91154913
 31
0.0
  0
LINE
  5
1BC
330
1F
100
AcDbEntity
  8
0
  6
Continuous
 62
     7
370
    25
100
AcDbLine
 10
7112.0057483505
 20
5029.91154913
 30
0.0
 11
7112.0057483505
 21
4996.71154913
 31
0.0
  0
LINE
  5
1BD
330
1F
100
AcDbEntity
  8
0
  6
Continuous
 62
     7
370
    25
100
AcDbLine
 10
7022.0057483505
 20
5029.91154913
 30
0.0
 11
7112.0057483505
 21
5029.91154913
 31
0.0
  0
LINE
  5
1BE
330
1F
100
AcDbEntity
  8
0
  6
Continuous
 62
     7
370
    25
100
AcDbLine
 10
7022.0057483505
 20
4996.71154913
 30
0.0
 11
7022.0057483505
 21
5029.91154913
 31
0.0
  0
LINE
  5
1BF
330
1F
100
AcDbEntity
  8
0
  6
Continuous
 62
     7
370
    25
100
AcDbLine
 10
7112.0057483505
 20
5031.71154913
 30
0.0
 11
7112.0057483505
 21
5029.91154913
 31
0.0
  0
LINE
  5
1C0
330
1F
100
AcDbEntity
  8
0
  6
Continuous
 62
     7
370
    25
100
AcDbLine
 10
7022.0057483505
 20
5031.71154913
 30
0.0
 11
7112.0057483505
 21
5031.71154913
 31
0.0
  0
LINE
  5
1C1
330
1F
100
AcDbEntity
  8
0
  6
Continuous
 62
     7
370
    25
100
AcDbLine
 10
7022.0057483505
 20
5029.91154913
 30
0.0
 11
7022.0057483505
 21
5031.71154913
 31
0.0
  0
LWPOLYLINE
  5
1C2
330
1F
100
AcDbEntity
  8
0
  6
Continuous
 62
     7
370
    25
100
AcDbPolyline
 90
        3
 70
   128
 43
0.0
 10
7010.5164162616
 20
5027.0546966949
 10
7010.5164163064
 20
5027.4070731226
 10
7010.5164163064
 20
5027.0583783563
  0
LINE
  5
1C3
330
1F
100
AcDbEntity
  8
0
  6
Continuous
 62
     7
370
    25
100
AcDbLine
 10
7008.265476085
 20
5027.054179865
 30
0.0
 11
7010.5164162616
 21
5027.0546966949
 31
0.0
  0
LWPOLYLINE
  5
1C4
330
1F
100
AcDbEntity
  8
0
  6
Continuous
 62
     7
370
    25
100
AcDbPolyline
 90
        3
 70
   128
 43
0.0
 10
6992.2395448291
 20
5027.0541798563
 10
7000.2305383288
 20
5027.4044932964
 10
7008.265476085
 20
5027.054179865
  0
LINE
  5
1C5
330
1F
100
AcDbEntity
  8
0
  6
Continuous
 62
     7
370
    25
100
AcDbLine
 10
6987.7908951293
 20
5027.0546897908
 30
0.0
 11
6992.2395448291
 21
5027.0541798563
 31
0.0
  0
LWPOLYLINE
  5
1C6
330
1F
100
AcDbEntity
  8
0
  6
Continuous
 62
     7
370
    25
100
AcDbPolyline
 90
        3
 70
   128
 43
0.0
 10
6971.7571497325
 20
5027.0583665555
 10
6979.7520622915
 20
5027.4070739654
 10
6987.7908951293
 20
5027.0546897908
  0
LINE
  5
1C7
330
1F
100
AcDbEntity
  8
0
  6
Continuous
 62
     7
370
    25
100
AcDbLine
 10
6969.5029139428
 20
5027.0594009663
 30
0.0
 11
6971.7571497325
 21
5027.0583665555
 31
0.0
  0
LINE
  5
1C8
330
1F
100
AcDbEntity
  8
0
  6
Continuous
 62
     7
370
    25
100
AcDbLine
 10
6969.4954073131
 20
5027.4115491334
 30
0.0
 11
6969.5029139428
 21
5027.0594009663
 31
0.0
  0
LINE
  5
1C9
330
1F
100
AcDbEntity
  8
0
  6
Continuous
 62
     7
370
    25
100
AcDbLine
 10
6969.4954073131
 20
5027.4115491334
 30
0.0
 11
6972.2399618641
 21
5027.4115491317
 31
0.0
  0
LINE
  5
1CA
330
1F
100
AcDbEntity
  8
0
  6
Continuous
 62
     7
370
    25
100
AcDbLine
 10
6969.5029139429
 20
4996.41154913
 30
0.0
 11
6967.5057483505
 21
4996.41154913
 31
0.0
  0
LINE
  5
1CB
330
1F
100
AcDbEntity
  8
0
  6
Continuous
 62
     7
370
    25
100
AcDbLine
 10
6969.5029139429
 20
5002.91154913
 30
0.0
 11
6969.5029139429
 21
4996.41154913
 31
0.0
  0
LINE
  5
1CC
330
1F
100
AcDbEntity
  8
0
  6
Continuous
 62
     7
370
    25
100
AcDbLine
 10
6971.7571500523
 20
5002.91154913
 30
0.0
 11
6969.5029139429
 21
5002.91154913
 31
0.0
  0
LINE
  5
1CD
330
1F
100
AcDbEntity
  8
0
  6
Continuous
 62
     7
370
    25
100
AcDbLine
 10
6971.7571500523
 20
4996.41154913
 30
0.0
 11
6971.7571500523
 21
5002.91154913
 31
0.0
  0
LINE
  5
1CE
330
1F
100
AcDbEntity
  8
0
  6
Continuous
 62
     7
370
    25
100
AcDbLine
 10
6987.790895233
 20
4996.41154913
 30
0.0
 11
6971.7571500523
 21
4996.41154913
 31
0.0
  0
LINE
  5
1CF
330
1F
100
AcDbEntity
  8
0
  6
Continuous
 62
     7
370
    25
100
AcDbLine
 10
6987.790895233
 20
5002.91154913
 30
0.0
 11
6987.790895233
 21
4996.41154913
 31
0.0
  0
LINE
  5
1D0
330
1F
100
AcDbEntity
  8
0
  6
Continuous
 62
     7
370
    25
100
AcDbLine
 10
6992.2395449378
 20
5002.91154913
 30
0.0
 11
6987.790895233
 21
5002.91154913
 31
0.0
  0
LINE
  5
1D1
330
1F
100
AcDbEntity
  8
0
  6
Continuous
 62
     7
370
    25
100
AcDbLine
 10
6992.2395449378
 20
4996.41154913
 30
0.0
 11
6992.2395449378
 21
5002.91154913
 31
0.0
  0
LINE
  5
1D2
330
1F
100
AcDbEntity
  8
0
  6
Continuous
 62
     7
370
    25
100
AcDbLine
 10
7008.2654761887
 20
4996.41154913
 30
0.0
 11
6992.2395449378
 21
4996.41154913
 31
0.0
  0
LINE
  5
1D3
330
1F
100
AcDbEntity
  8
0
  6
Continuous
 62
     7
370
    25
100
AcDbLine
 10
7008.2654761887
 20
5002.91154913
 30
0.0
 11
7008.2654761887
 21
4996.41154913
 31
0.0
  0
LINE
  5
1D4
330
1F
100
AcDbEntity
  8
0
  6
Continuous
 62
     7
370
    25
100
AcDbLine
 10
7010.5164163064
 20
5002.91154913
 30
0.0
 11
7008.2654761887
 21
5002.91154913
 31
0.0
  0
LINE
  5
1D5
330
1F
100
AcDbEntity
  8
0
  6
Continuous
 62
     7
370
    25
100
AcDbLine
 10
7010.5164163064
 20
4996.41154913
 30
0.0
 11
7010.5164163064
 21
5002.91154913
 31
0.0
  0
LINE
  5
1D6
330
1F
100
AcDbEntity
  8
0
  6
Continuous
 62
     7
370
    25
100
AcDbLine
 10
7012.5057483505
 20
4996.41154913
 30
0.0
 11
7010.5164163064
 21
4996.41154913
 31
0.0
  0
LINE
  5
1D7
330
1F
100
AcDbEntity
  8
0
  6
Continuous
 62
     7
370
    25
100
AcDbLine
 10
6969.4872615285
 20
4996.41154913
 30
0.0
 11
6969.4872615285
 21
5002.91154913
 31
0.0
  0
LINE
  5
1D8
330
1F
100
AcDbEntity
  8
0
  6
Continuous
 62
     7
370
    25
100
AcDbLine
 10
6972.2399618641
 20
5027.4115491317
 30
0.0
 11
7010.5057483505
 21
5027.41154913
 31
0.0
  0
LINE
  5
1D9
330
1F
100
AcDbEntity
  8
0
  6
Continuous
 62
     7
370
    25
100
AcDbLine
 10
6992.2395448291
 20
5027.0541798563
 30
0.0
 11
6992.2395449378
 21
5011.41154913
 31
0.0
  0
LINE
  5
1DA
330
1F
100
AcDbEntity
  8
0
  6
Continuous
 62
     7
370
    25
100
AcDbLine
 10
7008.265476085
 20
5027.054179865
 30
0.0
 11
7008.2654761887
 21
5011.41154913
 31
0.0
  0
LINE
  5
1DB
330
1F
100
AcDbEntity
  8
0
  6
Continuous
 62
     7
370
    25
100
AcDbLine
 10
6992.2395449378
 20
5011.41154913
 30
0.0
 11
7008.2654761887
 21
5011.41154913
 31
0.0
  0
LINE
  5
1DC
330
1F
100
AcDbEntity
  8
0
  6
Continuous
 62
     7
370
    25
100
AcDbLine
 10
7006.0564964757
 20
5002.26154913
 30
0.0
 11
7006.0564964757
 21
4997.06154913
 31
0.0
  0
LINE
  5
1DD
330
1F
100
AcDbEntity
  8
0
  6
Continuous
 62
     7
370
    25
100
AcDbLine
 10
6994.4485246507
 20
5002.26154913
 30
0.0
 11
7006.0564964757
 21
5002.26154913
 31
0.0
  0
LINE
  5
1DE
330
1F
100
AcDbEntity
  8
0
  6
Continuous
 62
     7
370
    25
100
AcDbLine
 10
6994.4485246507
 20
4997.06154913
 30
0.0
 11
6994.4485246507
 21
5002.26154913
 31
0.0
  0
LINE
  5
1DF
330
1F
100
AcDbEntity
  8
0
  6
Continuous
 62
     7
370
    25
100
AcDbLine
 10
7006.0564964757
 20
4997.06154913
 30
0.0
 11
6994.4485246507
 21
4997.06154913
 31
0.0
  0
LINE
  5
1E0
330
1F
100
AcDbEntity
  8
0
  6
Continuous
 62
     7
370
    25
100
AcDbLine
 10
7008.2654761887
 20
5002.91154913
 30
0.0
 11
6992.2395449378
 21
5002.91154913
 31
0.0
  0
LINE
  5
1E1
330
1F
100
AcDbEntity
  8
0
  6
Continuous
 62
     7
370
    25
100
AcDbLine
 10
6987.7908951293
 20
5027.0546897908
 30
0.0
 11
6987.790895233
 21
5011.41154913
 31
0.0
  0
LINE
  5
1E2
330
1F
100
AcDbEntity
  8
0
  6
Continuous
 62
     7
370
    25
100
AcDbLine
 10
6987.790895233
 20
5011.41154913
 30
0.0
 11
6992.2395449378
 21
5011.41154913
 31
0.0
  0
LINE
  5
1E3
330
1F
100
AcDbEntity
  8
0
  6
Continuous
 62
     7
370
    25
100
AcDbLine
 10
6971.7571497325
 20
5027.0583665555
 30
0.0
 11
6971.7571500523
 21
5011.41154913
 31
0.0
  0
LINE
  5
1E4
330
1F
100
AcDbEntity
  8
0
  6
Continuous
 62
     7
370
    25
100
AcDbLine
 10
6971.7571500523
 20
5011.41154913
 30
0.0
 11
6987.790895233
 21
5011.41154913
 31
0.0
  0
LINE
  5
1E5
330
1F
100
AcDbEntity
  8
0
  6
Continuous
 62
     7
370
    25
100
AcDbLine
 10
6982.7374292215
 20
5036.41154913
 30
0.0
 11
6972.5057483505
 21
5036.41154913
 31
0.0
  0
LINE
  5
1E6
330
1F
100
AcDbEntity
  8
0
  6
Continuous
 62
     7
370
    25
100
AcDbLine
 10
7007.5057483505
 20
5036.41154913
 30
0.0
 11
6982.7374292215
 21
5036.41154913
 31
0.0
  0
LINE
  5
1E7
330
1F
100
AcDbEntity
  8
0
  6
Continuous
 62
     7
370
    25
100
AcDbLine
 10
6973.9672068205
 20
5002.26154913
 30
0.0
 11
6985.5808384648
 21
5002.26154913
 31
0.0
  0
LINE
  5
1E8
330
1F
100
AcDbEntity
  8
0
  6
Continuous
 62
     7
370
    25
100
AcDbLine
 10
6973.9672068205
 20
4997.06154913
 30
0.0
 11
6973.9672068205
 21
5002.26154913
 31
0.0
  0
LINE
  5
1E9
330
1F
100
AcDbEntity
  8
0
  6
Continuous
 62
     7
370
    25
100
AcDbLine
 10
6985.5808384648
 20
4997.06154913
 30
0.0
 11
6973.9672068205
 21
4997.06154913
 31
0.0
  0
LINE
  5
1EA
330
1F
100
AcDbEntity
  8
0
  6
Continuous
 62
     7
370
    25
100
AcDbLine
 10
6985.5808384648
 20
5002.26154913
 30
0.0
 11
6985.5808384648
 21
4997.06154913
 31
0.0
  0
LINE
  5
1EB
330
1F
100
AcDbEntity
  8
0
  6
Continuous
 62
     7
370
    25
100
AcDbLine
 10
6987.790895233
 20
5002.91154913
 30
0.0
 11
6971.7571500523
 21
5002.91154913
 31
0.0
  0
LINE
  5
1EC
330
1F
100
AcDbEntity
  8
0
  6
Continuous
 62
     7
370
    25
100
AcDbLine
 10
7004.0581681453
 20
4997.06154913
 30
0.0
 11
7004.0581681453
 21
5002.26154913
 31
0.0
  0
LINE
  5
1ED
330
1F
100
AcDbEntity
  8
0
  6
Continuous
 62
     7
370
    25
100
AcDbLine
 10
6975.9626027247
 20
5002.26154913
 30
0.0
 11
6975.9626027247
 21
4997.06154913
 31
0.0
  0
LINE
  5
1EE
330
1F
100
AcDbEntity
  8
0
  6
Continuous
 62
     7
370
    25
100
AcDbLine
 10
7010.5164162616
 20
5027.0546966949
 30
0.0
 11
7010.5164163064
 21
5011.41154913
 31
0.0
  0
LINE
  5
1EF
330
1F
100
AcDbEntity
  8
0
  6
Continuous
 62
     7
370
    25
100
AcDbLine
 10
7008.2654761887
 20
5011.41154913
 30
0.0
 11
7010.5164163064
 21
5011.41154913
 31
0.0
  0
LINE
  5
1F0
330
1F
100
AcDbEntity
  8
0
  6
Continuous
 62
     7
370
    25
100
AcDbLine
 10
6969.5029139429
 20
5011.41154913
 30
0.0
 11
6969.5029139428
 21
5027.0594009663
 31
0.0
  0
LINE
  5
1F1
330
1F
100
AcDbEntity
  8
0
  6
Continuous
 62
     7
370
    25
100
AcDbLine
 10
6969.5029139429
 20
5011.41154913
 30
0.0
 11
6971.7571500523
 21
5011.41154913
 31
0.0
  0
LINE
  5
1F2
330
1F
100
AcDbEntity
  8
0
  6
Continuous
 62
     7
370
    25
100
AcDbLine
 10
6969.4894190235
 20
4997.06154913
 30
0.0
 11
6969.4894190235
 21
5002.26154913
 31
0.0
  0
LINE
  5
1F3
330
1F
100
AcDbEntity
  8
0
  6
Continuous
 62
     7
370
    25
100
AcDbLine
 10
6969.500756448
 20
4997.06154913
 30
0.0
 11
6969.4894190235
 21
4997.06154913
 31
0.0
  0
LINE
  5
1F4
330
1F
100
AcDbEntity
  8
0
  6
Continuous
 62
     7
370
    25
100
AcDbLine
 10
6969.500756448
 20
5002.26154913
 30
0.0
 11
6969.500756448
 21
4997.06154913
 31
0.0
  0
LINE
  5
1F5
330
1F
100
AcDbEntity
  8
0
  6
Continuous
 62
     7
370
    25
100
AcDbLine
 10
6969.4894190235
 20
5002.26154913
 30
0.0
 11
6969.500756448
 21
5002.26154913
 31
0.0
  0
LINE
  5
1F6
330
1F
100
AcDbEntity
  8
0
  6
Continuous
 62
     7
370
    25
100
AcDbLine
 10
6969.5029139429
 20
5002.91154913
 30
0.0
 11
6969.4872615285
 21
5002.91154913
 31
0.0
  0
LINE
  5
1F7
330
1F
100
AcDbEntity
  8
0
  6
Continuous
 62
     7
370
    25
100
AcDbLine
 10
6969.4872615733
 20
5027.063088787
 30
0.0
 11
6969.4872615285
 21
5011.41154913
 31
0.0
  0
LINE
  5
1F8
330
1F
100
AcDbEntity
  8
0
  6
Continuous
 62
     7
370
    25
100
AcDbLine
 10
6969.4872615733
 20
5027.063088787
 30
0.0
 11
6969.49472514
 21
5027.4115491336
 31
0.0
  0
LINE
  5
1F9
330
1F
100
AcDbEntity
  8
0
  6
Continuous
 62
     7
370
    25
100
AcDbLine
 10
6969.4954073131
 20
5027.4115491334
 30
0.0
 11
6969.49472514
 21
5027.4115491336
 31
0.0
  0
LINE
  5
1FA
330
1F
100
AcDbEntity
  8
0
  6
Continuous
 62
     7
370
    25
100
AcDbLine
 10
6969.4872615285
 20
5011.41154913
 30
0.0
 11
6969.5029139429
 21
5011.41154913
 31
0.0
  0
LINE
  5
1FB
330
1F
100
AcDbEntity
  8
0
  6
Continuous
 62
     7
370
    25
100
AcDbLine
 10
6990.0065587237
 20
4984.21154913
 30
0.0
 11
6990.0065587237
 21
4983.21154913
 31
0.0
  0
LINE
  5
1FC
330
1F
100
AcDbEntity
  8
0
  6
Continuous
 62
     7
370
    25
100
AcDbLine
 10
6990.0065587237
 20
4983.21154913
 30
0.0
 11
6989.0305672949
 21
4983.21154913
 31
0.0
  0
LINE
  5
1FD
330
1F
100
AcDbEntity
  8
0
  6
Continuous
 62
     7
370
    25
100
AcDbLine
 10
7047.5057483505
 20
4972.21154913
 30
0.0
 11
7067.5057483505
 21
4972.21154913
 31
0.0
  0
ARC
  5
1FE
330
1F
100
AcDbEntity
  8
0
  6
Continuous
 62
     7
370
    25
100
AcDbCircle
 10
7057.5057483505
 20
4978.21154913
 30
0.0
 40
3.0
100
AcDbArc
 50
180.0
 51
0.0
  0
LINE
  5
1FF
330
1F
100
AcDbEntity
  8
0
  6
Continuous
 62
     7
370
    25
100
AcDbLine
 10
6994.6341754752
 20
4983.21154913
 30
0.0
 11
6990.0065587237
 21
4983.21154913
 31
0.0
  0
LINE
  5
200
330
1F
100
AcDbEntity
  8
0
  6
Continuous
 62
     7
370
    25
100
AcDbLine
 10
7047.5057483505
 20
4972.21154913
 30
0.0
 11
7046.5057483505
 21
4972.21154913
 31
0.0
  0
LINE
  5
201
330
1F
100
AcDbEntity
  8
0
  6
Continuous
 62
     7
370
    25
100
AcDbLine
 10
7046.5057483505
 20
4972.21154913
 30
0.0
 11
7046.5057483505
 21
4978.21154913
 31
0.0
  0
LINE
  5
202
330
1F
100
AcDbEntity
  8
0
  6
Continuous
 62
     7
370
    25
100
AcDbLine
 10
7067.5057483505
 20
4972.21154913
 30
0.0
 11
7067.5057483505
 21
4971.21154913
 31
0.0
  0
LINE
  5
203
330
1F
100
AcDbEntity
  8
0
  6
Continuous
 62
     7
370
    25
100
AcDbLine
 10
7067.5057483505
 20
4971.21154913
 30
0.0
 11
7047.5057483505
 21
4971.21154913
 31
0.0
  0
LINE
  5
204
330
1F
100
AcDbEntity
  8
0
  6
Continuous
 62
     7
370
    25
100
AcDbLine
 10
7047.5057483505
 20
4972.21154913
 30
0.0
 11
7047.5057483505
 21
4971.21154913
 31
0.0
  0
ARC
  5
205
330
1F
100
AcDbEntity
  8
0
  6
Continuous
 62
     7
370
    25
100
AcDbCircle
 10
7047.5057483505
 20
4972.21154913
 30
0.0
 40
1.000000000000909
100
AcDbArc
 50
180.0
 51
270.0
  0
LINE
  5
206
330
1F
100
AcDbEntity
  8
0
  6
Continuous
 62
     7
370
    25
100
AcDbLine
 10
7067.5057483505
 20
4972.21154913
 30
0.0
 11
7068.5057483505
 21
4972.21154913
 31
0.0
  0
ARC
  5
207
330
1F
100
AcDbEntity
  8
0
  6
Continuous
 62
     7
370
    25
100
AcDbCircle
 10
7067.5057483505
 20
4972.21154913
 30
0.0
 40
1.0
100
AcDbArc
 50
270.0
 51
0.0
  0
LINE
  5
208
330
1F
100
AcDbEntity
  8
0
  6
Continuous
 62
     7
370
    25
100
AcDbLine
 10
7068.5057483505
 20
4978.21154913
 30
0.0
 11
7068.5057483505
 21
4972.21154913
 31
0.0
  0
LINE
  5
209
330
1F
100
AcDbEntity
  8
0
  6
Continuous
 62
     7
370
    25
100
AcDbLine
 10
7124.6341754752
 20
4983.21154913
 30
0.0
 11
7118.9773212257
 21
4983.21154913
 31
0.0
  0
LINE
  5
20A
330
1F
100
AcDbEntity
  8
0
  6
Continuous
 62
     7
370
    25
100
AcDbLine
 10
6964.3057483505
 20
4912.8202447822
 30
0.0
 11
6964.9801669551
 21
4900.21154913
 31
0.0
  0
LINE
  5
20B
330
1F
100
AcDbEntity
  8
0
  6
Continuous
 62
     7
370
    25
100
AcDbLine
 10
6965.1666985057
 20
4896.7242201404
 30
0.0
 11
6965.4440809395
 21
4891.5383746385
 31
0.0
  0
LINE
  5
20C
330
1F
100
AcDbEntity
  8
0
  6
Continuous
 62
     7
370
    25
100
AcDbLine
 10
7149.7430375875
 20
4894.8217392136
 30
0.0
 11
7149.661188406
 21
4893.2915153867
 31
0.0
  0
LINE
  5
20D
330
1F
100
AcDbEntity
  8
0
  6
Continuous
 62
     7
370
    25
100
AcDbLine
 10
6950.0057483505
 20
4754.21154913
 30
0.0
 11
6951.0057483505
 21
4754.21154913
 31
0.0
  0
LINE
  5
20E
330
1F
100
AcDbEntity
  8
0
  6
Continuous
 62
     7
370
    25
100
AcDbLine
 10
6951.0057483505
 20
4754.21154913
 30
0.0
 11
6951.0057483505
 21
4744.21154913
 31
0.0
  0
LINE
  5
20F
330
1F
100
AcDbEntity
  8
0
  6
Continuous
 62
     7
370
    25
100
AcDbLine
 10
6951.0057483505
 20
4744.21154913
 30
0.0
 11
6950.0057483505
 21
4744.21154913
 31
0.0
  0
LINE
  5
210
330
1F
100
AcDbEntity
  8
0
  6
Continuous
 62
     7
370
    25
100
AcDbLine
 10
6950.0057483505
 20
4744.21154913
 30
0.0
 11
6950.0057483505
 21
4754.21154913
 31
0.0
  0
LINE
  5
211
330
1F
100
AcDbEntity
  8
0
  6
Continuous
 62
     7
370
    25
100
AcDbLine
 10
6951.0057483505
 20
4982.41154913
 30
0.0
 11
6950.0057483505
 21
4982.41154913
 31
0.0
  0
LINE
  5
212
330
1F
100
AcDbEntity
  8
0
  6
Continuous
 62
     7
370
    25
100
AcDbLine
 10
6950.0057483505
 20
4982.41154913
 30
0.0
 11
6950.0057483505
 21
4754.21154913
 31
0.0
  0
LINE
  5
213
330
1F
100
AcDbEntity
  8
0
  6
Continuous
 62
     7
370
    25
100
AcDbLine
 10
6951.0057483505
 20
4982.41154913
 30
0.0
 11
6951.0057483505
 21
4754.21154913
 31
0.0
  0
LINE
  5
214
330
1F
100
AcDbEntity
  8
0
  6
Continuous
 62
     7
370
    25
100
AcDbLine
 10
6950.0057483505
 20
4992.41154913
 30
0.0
 11
6951.0057483505
 21
4992.41154913
 31
0.0
  0
LINE
  5
215
330
1F
100
AcDbEntity
  8
0
  6
Continuous
 62
     7
370
    25
100
AcDbLine
 10
6950.0057483505
 20
4982.41154913
 30
0.0
 11
6950.0057483505
 21
4992.41154913
 31
0.0
  0
LINE
  5
216
330
1F
100
AcDbEntity
  8
0
  6
Continuous
 62
     7
370
    25
100
AcDbLine
 10
6951.0057483505
 20
4992.41154913
 30
0.0
 11
6951.0057483505
 21
4982.41154913
 31
0.0
  0
LINE
  5
217
330
1F
100
AcDbEntity
  8
0
  6
Continuous
 62
     7
370
    25
100
AcDbLine
 10
6951.8057483505
 20
4992.41154913
 30
0.0
 11
6951.0057483505
 21
4992.41154913
 31
0.0
  0
LINE
  5
218
330
1F
100
AcDbEntity
  8
0
  6
Continuous
 62
     7
370
    25
100
AcDbLine
 10
6951.8057483505
 20
4744.21154913
 30
0.0
 11
6951.8057483505
 21
4992.41154913
 31
0.0
  0
LINE
  5
219
330
1F
100
AcDbEntity
  8
0
  6
Continuous
 62
     7
370
    25
100
AcDbLine
 10
6951.0057483505
 20
4744.21154913
 30
0.0
 11
6951.8057483505
 21
4744.21154913
 31
0.0
  0
CIRCLE
  5
21A
330
1F
100
AcDbEntity
  8
0
  6
Continuous
 62
     7
370
    25
100
AcDbCircle
 10
6966.8057483505
 20
4894.21154913
 30
0.0
 40
2.999999999999091
  0
CIRCLE
  5
21B
330
1F
100
AcDbEntity
  8
0
  6
Continuous
 62
     7
370
    25
100
AcDbCircle
 10
6991.8057483505
 20
4984.21154913
 30
0.0
 40
3.000000000000909
  0
LINE
  5
21C
330
1F
100
AcDbEntity
  8
0
  6
Continuous
 62
     7
370
    25
100
AcDbLine
 10
7019.3057483505
 20
4900.21154913
 30
0.0
 11
7019.3057483505
 21
4978.21154913
 31
0.0
  0
LINE
  5
21D
330
1F
100
AcDbEntity
  8
0
  6
Continuous
 62
     7
370
    25
100
AcDbLine
 10
7019.3057483505
 20
4978.21154913
 30
0.0
 11
6964.3057483505
 21
4978.21154913
 31
0.0
  0
LINE
  5
21E
330
1F
100
AcDbEntity
  8
0
  6
Continuous
 62
     7
370
    25
100
AcDbLine
 10
6964.3057483505
 20
4978.21154913
 30
0.0
 11
6964.3057483505
 21
4900.21154913
 31
0.0
  0
LINE
  5
21F
330
1F
100
AcDbEntity
  8
0
  6
Continuous
 62
     7
370
    25
100
AcDbLine
 10
6964.3057483505
 20
4900.21154913
 30
0.0
 11
7019.3057483505
 21
4900.21154913
 31
0.0
  0
CIRCLE
  5
220
330
1F
100
AcDbEntity
  8
0
  6
Continuous
 62
     7
370
    25
100
AcDbCircle
 10
6991.8057483505
 20
4879.21154913
 30
0.0
 40
4.25
  0
CIRCLE
  5
221
330
1F
100
AcDbEntity
  8
0
  6
Continuous
 62
     7
370
    25
100
AcDbCircle
 10
7016.8057483505
 20
4894.21154913
 30
0.0
 40
3.0
  0
LINE
  5
222
330
1F
100
AcDbEntity
  8
0
  6
Continuous
 62
     7
370
    25
100
AcDbLine
 10
7165.0057483505
 20
4744.21154913
 30
0.0
 11
7165.0057483505
 21
4992.41154913
 31
0.0
  0
LINE
  5
223
330
1F
100
AcDbEntity
  8
0
  6
Continuous
 62
     7
370
    25
100
AcDbLine
 10
7165.0057483505
 20
4744.21154913
 30
0.0
 11
6951.8057483505
 21
4744.21154913
 31
0.0
  0
LINE
  5
224
330
1F
100
AcDbEntity
  8
0
  6
Continuous
 62
     7
370
    25
100
AcDbLine
 10
7165.0057483505
 20
4992.41154913
 30
0.0
 11
6951.8057483505
 21
4992.41154913
 31
0.0
  0
CIRCLE
  5
225
330
1F
100
AcDbEntity
  8
0
  6
Continuous
 62
     7
370
    25
100
AcDbCircle
 10
7146.8057483505
 20
4894.21154913
 30
0.0
 40
3.0
  0
CIRCLE
  5
226
330
1F
100
AcDbEntity
  8
0
  6
Continuous
 62
     7
370
    25
100
AcDbCircle
 10
7121.8057483505
 20
4879.21154913
 30
0.0
 40
4.25
  0
LINE
  5
227
330
1F
100
AcDbEntity
  8
0
  6
Continuous
 62
     7
370
    25
100
AcDbLine
 10
7149.3057483505
 20
4978.21154913
 30
0.0
 11
7094.3057483505
 21
4978.21154913
 31
0.0
  0
LINE
  5
228
330
1F
100
AcDbEntity
  8
0
  6
Continuous
 62
     7
370
    25
100
AcDbLine
 10
7094.3057483505
 20
4978.21154913
 30
0.0
 11
7094.3057483505
 21
4900.21154913
 31
0.0
  0
LINE
  5
229
330
1F
100
AcDbEntity
  8
0
  6
Continuous
 62
     7
370
    25
100
AcDbLine
 10
7094.3057483505
 20
4900.21154913
 30
0.0
 11
7149.3057483505
 21
4900.21154913
 31
0.0
  0
LINE
  5
22A
330
1F
100
AcDbEntity
  8
0
  6
Continuous
 62
     7
370
    25
100
AcDbLine
 10
7149.3057483505
 20
4900.21154913
 30
0.0
 11
7149.3057483505
 21
4978.21154913
 31
0.0
  0
CIRCLE
  5
22B
330
1F
100
AcDbEntity
  8
0
  6
Continuous
 62
     7
370
    25
100
AcDbCircle
 10
7121.8057483505
 20
4984.21154913
 30
0.0
 40
3.0
  0
CIRCLE
  5
22C
330
1F
100
AcDbEntity
  8
0
  6
Continuous
 62
     7
370
    25
100
AcDbCircle
 10
7096.8057483505
 20
4894.21154913
 30
0.0
 40
3.0
  0
CIRCLE
  5
22D
330
1F
100
AcDbEntity
  8
0
  6
Continuous
 62
     7
370
    25
100
AcDbCircle
 10
7081.8057483505
 20
4894.21154913
 30
0.0
 40
3.0
  0
CIRCLE
  5
22E
330
1F
100
AcDbEntity
  8
0
  6
Continuous
 62
     7
370
    25
100
AcDbCircle
 10
7056.8057483505
 20
4879.21154913
 30
0.0
 40
4.25
  0
LINE
  5
22F
330
1F
100
AcDbEntity
  8
0
  6
Continuous
 62
     7
370
    25
100
AcDbLine
 10
7084.3057483505
 20
4900.21154913
 30
0.0
 11
7084.3057483505
 21
4978.21154913
 31
0.0
  0
LINE
  5
230
330
1F
100
AcDbEntity
  8
0
  6
Continuous
 62
     7
370
    25
100
AcDbLine
 10
7084.3057483505
 20
4978.21154913
 30
0.0
 11
7029.3057483505
 21
4978.21154913
 31
0.0
  0
LINE
  5
231
330
1F
100
AcDbEntity
  8
0
  6
Continuous
 62
     7
370
    25
100
AcDbLine
 10
7029.3057483505
 20
4978.21154913
 30
0.0
 11
7029.3057483505
 21
4900.21154913
 31
0.0
  0
LINE
  5
232
330
1F
100
AcDbEntity
  8
0
  6
Continuous
 62
     7
370
    25
100
AcDbLine
 10
7029.3057483505
 20
4900.21154913
 30
0.0
 11
7084.3057483505
 21
4900.21154913
 31
0.0
  0
CIRCLE
  5
233
330
1F
100
AcDbEntity
  8
0
  6
Continuous
 62
     7
370
    25
100
AcDbCircle
 10
7056.8057483505
 20
4984.21154913
 30
0.0
 40
3.0
  0
CIRCLE
  5
234
330
1F
100
AcDbEntity
  8
0
  6
Continuous
 62
     7
370
    25
100
AcDbCircle
 10
7031.8057483505
 20
4894.21154913
 30
0.0
 40
3.000000000000909
  0
ARC
  5
235
330
1F
100
AcDbEntity
  8
0
  6
Continuous
 62
     7
370
    25
100
AcDbCircle
 10
7183.6237280135
 20
4744.269976621
 30
0.0
 40
18.61807134226207
100
AcDbArc
 50
180.1798067088
 51
185.7287175668
  0
LINE
  5
236
330
1F
100
AcDbEntity
  8
0
  6
Continuous
 62
     7
370
    25
100
AcDbLine
 10
6951.8057483505
 20
4742.41154913
 30
0.0
 11
7165.0986415693
 21
4742.41154913
 31
0.0
  0
LINE
  5
237
330
1F
100
AcDbEntity
  8
0
  6
Continuous
 62
     7
370
    25
100
AcDbLine
 10
6951.8057483505
 20
4742.41154913
 30
0.0
 11
6951.8057483505
 21
4744.21154913
 31
0.0
  0
LINE
  5
238
330
1F
100
AcDbEntity
  8
0
  6
Continuous
 62
     7
370
    25
100
AcDbLine
 10
6950.0057483505
 20
4994.21154913
 30
0.0
 11
6950.1932968008
 21
4994.21154913
 31
0.0
  0
LINE
  5
239
330
1F
100
AcDbEntity
  8
0
  6
Continuous
 62
     7
370
    25
100
AcDbLine
 10
6950.1932968008
 20
4994.21154913
 30
0.0
 11
6951.8057483505
 21
4994.21154913
 31
0.0
  0
LINE
  5
23A
330
1F
100
AcDbEntity
  8
0
  6
Continuous
 62
     7
370
    25
100
AcDbLine
 10
7165.0057483505
 20
4994.21154913
 30
0.0
 11
6951.8057483505
 21
4994.21154913
 31
0.0
  0
LINE
  5
23B
330
1F
100
AcDbEntity
  8
0
  6
Continuous
 62
     7
370
    25
100
AcDbLine
 10
7165.0057483505
 20
4992.41154913
 30
0.0
 11
7165.0057483505
 21
4994.21154913
 31
0.0
  0
LINE
  5
23C
330
1F
100
AcDbEntity
  8
0
  6
Continuous
 62
     7
370
    25
100
AcDbLine
 10
6950.0057483505
 20
4992.41154913
 30
0.0
 11
6950.0057483505
 21
4994.21154913
 31
0.0
  0
ARC
  5
23D
330
1F
100
AcDbEntity
  8
0
  6
Continuous
 62
     7
370
    25
100
AcDbCircle
 10
7164.9506208351
 20
4989.6266380247
 30
0.0
 40
2.785456678464156
100
AcDbArc
 50
48.2405429228
 51
88.8659740351
  0
LINE
  5
23E
330
1F
100
AcDbEntity
  8
0
  6
Continuous
 62
     7
370
    25
100
AcDbLine
 10
7166.8057483505
 20
4744.1186559112
 30
0.0
 11
7166.8057483505
 21
4991.7044423488
 31
0.0
  0
ARC
  5
23F
330
1F
100
AcDbEntity
  8
0
  6
Continuous
 62
     7
370
    25
100
AcDbCircle
 10
7164.9473208595
 20
4725.5935694664
 30
0.0
 40
18.61807134285129
100
AcDbArc
 50
84.2712824334
 51
89.8201932912
  0
LINE
  5
240
330
1F
100
AcDbEntity
  8
0
  6
Continuous
 62
     7
370
    25
100
AcDbLine
 10
7165.0986415693
 20
4743.41154913
 30
0.0
 11
7165.0986415693
 21
4742.41154913
 31
0.0
  0
LINE
  5
241
330
1F
100
AcDbEntity
  8
0
  6
Continuous
 62
     7
370
    25
100
AcDbLine
 10
7165.8057483505
 20
4744.1186559112
 30
0.0
 11
7166.8057483505
 21
4744.1186559112
 31
0.0
  0
ARC
  5
242
330
1F
100
AcDbEntity
  8
0
  6
Continuous
 62
     7
370
    25
100
AcDbCircle
 10
7165.0057483505
 20
4992.41154913
 30
0.0
 40
1.799999999997453
100
AcDbArc
 50
359.9999999999
 51
90.0000000001
  0
LINE
  5
243
330
1F
100
AcDbEntity
  8
0
  6
Continuous
 62
     7
370
    25
100
AcDbLine
 10
7166.8057483505
 20
4992.41154913
 30
0.0
 11
7165.8057483505
 21
4992.41154913
 31
0.0
  0
ARC
  5
244
330
1F
100
AcDbEntity
  8
0
  6
Continuous
 62
     7
370
    25
100
AcDbCircle
 10
7165.0057483504
 20
4992.41154913
 30
0.0
 40
0.8000000000029104
100
AcDbArc
 50
0.0000000001
 51
89.9999999998
  0
LINE
  5
245
330
1F
100
AcDbEntity
  8
0
  6
Continuous
 62
     7
370
    25
100
AcDbLine
 10
6950.0057483505
 20
5018.21154913
 30
0.0
 11
6951.0057483505
 21
5018.21154913
 31
0.0
  0
LINE
  5
246
330
1F
100
AcDbEntity
  8
0
  6
Continuous
 62
     7
370
    25
100
AcDbLine
 10
6951.0057483505
 20
5018.21154913
 30
0.0
 11
6951.0057483505
 21
5008.21154913
 31
0.0
  0
LINE
  5
247
330
1F
100
AcDbEntity
  8
0
  6
Continuous
 62
     7
370
    25
100
AcDbLine
 10
6951.0057483505
 20
5008.21154913
 30
0.0
 11
6950.0057483505
 21
5008.21154913
 31
0.0
  0
LINE
  5
248
330
1F
100
AcDbEntity
  8
0
  6
Continuous
 62
     7
370
    25
100
AcDbLine
 10
6950.0057483505
 20
5008.21154913
 30
0.0
 11
6950.0057483505
 21
5018.21154913
 31
0.0
  0
LINE
  5
249
330
1F
100
AcDbEntity
  8
0
  6
Continuous
 62
     7
370
    25
100
AcDbLine
 10
6951.0057483505
 20
4995.01154913
 30
0.0
 11
6950.0057483505
 21
4995.01154913
 31
0.0
  0
LINE
  5
24A
330
1F
100
AcDbEntity
  8
0
  6
Continuous
 62
     7
370
    25
100
AcDbLine
 10
6950.0057483505
 20
5008.21154913
 30
0.0
 11
6950.0057483505
 21
4995.01154913
 31
0.0
  0
LINE
  5
24B
330
1F
100
AcDbEntity
  8
0
  6
Continuous
 62
     7
370
    25
100
AcDbLine
 10
6951.0057483505
 20
5008.21154913
 30
0.0
 11
6951.0057483505
 21
4995.01154913
 31
0.0
  0
ARC
  5
24C
330
1F
100
AcDbEntity
  8
0
  6
Continuous
 62
     7
370
    25
100
AcDbCircle
 10
6951.8057483505
 20
4995.01154913
 30
0.0
 40
0.8000000000001819
100
AcDbArc
 50
180.0
 51
270.0
  0
ARC
  5
24D
330
1F
100
AcDbEntity
  8
0
  6
Continuous
 62
     7
370
    25
100
AcDbCircle
 10
6951.8057483505
 20
4995.01154913
 30
0.0
 40
1.799999999999851
100
AcDbArc
 50
180.0
 51
206.3877999613
  0
LINE
  5
24E
330
1F
100
AcDbEntity
  8
0
  6
Continuous
 62
     7
370
    25
100
AcDbLine
 10
7166.8057483505
 20
4991.7044423488
 30
0.0
 11
7166.8057483505
 21
4992.41154913
 31
0.0
  0
LINE
  5
24F
330
1F
100
AcDbEntity
  8
0
  6
Continuous
 62
     7
370
    25
100
AcDbLine
 10
7165.8057483505
 20
4992.41154913
 30
0.0
 11
7165.8057483505
 21
4992.2009127789
 31
0.0
  0
LINE
  5
250
330
1F
100
AcDbEntity
  8
0
  6
Continuous
 62
     8
370
    25
100
AcDbLine
 10
7071.3633524187
 20
5342.7475847554
 30
0.0
 11
7075.8194669152
 21
5347.2036992519
 31
0.0
  0
LINE
  5
251
330
1F
100
AcDbEntity
  8
0
  6
Continuous
 62
     8
370
    25
100
AcDbLine
 10
7070.8697194469
 20
5342.2539517835
 30
0.0
 11
7071.3633524187
 21
5342.7475847554
 31
0.0
  0
LINE
  5
252
330
1F
100
AcDbEntity
  8
0
  6
Continuous
 62
     8
370
    25
100
AcDbLine
 10
7006.0472905074
 20
5032.2816133824
 30
0.0
 11
7007.6402180958
 21
5032.2816133824
 31
0.0
  0
LINE
  5
253
330
1F
100
AcDbEntity
  8
0
  6
Continuous
 62
     8
370
    25
100
AcDbLine
 10
6972.3712786052
 20
5032.2816133824
 30
0.0
 11
7006.0472905074
 21
5032.2816133824
 31
0.0
  0
LINE
  5
254
330
1F
100
AcDbEntity
  8
0
  6
Continuous
 62
     8
370
    25
100
AcDbLine
 10
7005.9249674594
 20
5032.6227696998
 30
0.0
 11
7007.5057483505
 21
5032.6227696998
 31
0.0
  0
LINE
  5
255
330
1F
100
AcDbEntity
  8
0
  6
Continuous
 62
     8
370
    25
100
AcDbLine
 10
6972.5057483505
 20
5032.6227696998
 30
0.0
 11
7005.9249674594
 21
5032.6227696998
 31
0.0
  0
LINE
  5
256
330
1F
100
AcDbEntity
  8
0
  6
Continuous
 62
     8
370
    25
100
AcDbLine
 10
6990.0065587237
 20
4984.21154913
 30
0.0
 11
6990.0065587237
 21
4986.6121566963
 31
0.0
  0
LINE
  5
257
330
1F
100
AcDbEntity
  8
0
  6
Continuous
 62
     8
370
    25
100
AcDbLine
 10
6988.8381161355
 20
4984.21154913
 30
0.0
 11
6990.0065587237
 21
4984.21154913
 31
0.0
  0
LINE
  5
258
330
1F
100
AcDbEntity
  8
0
  6
Continuous
 62
     8
370
    25
100
AcDbLine
 10
7067.5057483505
 20
4972.21154913
 30
0.0
 11
7067.5057483505
 21
4978.21154913
 31
0.0
  0
LINE
  5
259
330
1F
100
AcDbEntity
  8
0
  6
Continuous
 62
     8
370
    25
100
AcDbLine
 10
7047.5057483505
 20
4978.21154913
 30
0.0
 11
7047.5057483505
 21
4972.21154913
 31
0.0
  0
LINE
  5
25A
330
1F
100
AcDbEntity
  8
0
  6
Continuous
 62
     8
370
    25
100
AcDbLine
 10
6990.0065587237
 20
4984.21154913
 30
0.0
 11
6994.8057483505
 21
4984.21154913
 31
0.0
  0
LINE
  5
25B
330
1F
100
AcDbEntity
  8
0
  6
Continuous
 62
     8
370
    25
100
AcDbLine
 10
7118.8057483504
 20
4984.21154913
 30
0.0
 11
7124.8057483504
 21
4984.21154913
 31
0.0
  0
LINE
  5
25C
330
1F
100
AcDbEntity
  8
0
  6
Continuous
 62
     8
370
    25
100
AcDbLine
 10
6990.0755157923
 20
4983.21154913
 30
0.0
 11
6990.0856873548
 21
4981.7536251745
 31
0.0
  0
LINE
  5
25D
330
1F
100
AcDbEntity
  8
0
  6
Continuous
 62
     8
370
    25
100
AcDbLine
 10
6990.1103995132
 20
4978.21154913
 30
0.0
 11
6990.6545855598
 21
4900.21154913
 31
0.0
  0
LINE
  5
25E
330
1F
100
AcDbEntity
  8
0
  6
Continuous
 62
     8
370
    25
100
AcDbLine
 10
6990.7723359384
 20
4883.3339948588
 30
0.0
 11
6990.8299562349
 21
4875.0750856953
 31
0.0
  0
LINE
  5
25F
330
1F
100
AcDbEntity
  8
0
  6
Continuous
 62
     8
370
    25
100
AcDbLine
 10
7124.9010971877
 20
4978.21154913
 30
0.0
 11
7124.3569111411
 21
4900.21154913
 31
0.0
  0
LINE
  5
260
330
1F
100
AcDbEntity
  8
0
  6
Continuous
 62
     8
370
    25
100
AcDbLine
 10
7124.2347307966
 20
4882.6990330764
 30
0.0
 11
7124.1858341487
 21
4875.6905135447
 31
0.0
  0
LINE
  5
261
330
1F
100
AcDbEntity
  8
0
  6
Continuous
 62
     7
370
    25
100
AcDbLine
 10
6157.3114490708
 20
4367.44360463
 30
0.0
 11
6157.3114490708
 21
4316.5868977185
 31
0.0
  0
LINE
  5
262
330
1F
100
AcDbEntity
  8
0
  6
Continuous
 62
     7
370
    25
100
AcDbLine
 10
6179.3114490708
 20
4316.5868977185
 30
0.0
 11
6179.3114490708
 21
4367.44360463
 31
0.0
  0
LINE
  5
263
330
1F
100
AcDbEntity
  8
0
  6
Continuous
 62
     7
370
    25
100
AcDbLine
 10
6157.9311600575
 20
4312.9468977185
 30
0.0
 11
6178.6917380841
 21
4312.9468977185
 31
0.0
  0
ARC
  5
264
330
1F
100
AcDbEntity
  8
0
  6
Continuous
 62
     7
370
    25
100
AcDbCircle
 10
6168.3114490708
 20
4316.5868977185
 30
0.0
 40
11.00000000000006
100
AcDbArc
 50
180.0
 51
199.3239628893
  0
ARC
  5
265
330
1F
100
AcDbEntity
  8
0
  6
Continuous
 62
     7
370
    25
100
AcDbCircle
 10
6168.3114490708
 20
4316.5868977185
 30
0.0
 40
11.00000000000006
100
AcDbArc
 50
340.6760371107
 51
360.0
  0
LINE
  5
266
330
1F
100
AcDbEntity
  8
0
  6
Continuous
 62
     7
370
    25
100
AcDbLine
 10
6177.4943897763
 20
4312.1468977185
 30
0.0
 11
6159.1285083653
 21
4312.1468977185
 31
0.0
  0
LINE
  5
267
330
1F
100
AcDbEntity
  8
0
  6
Continuous
 62
     7
370
    25
100
AcDbLine
 10
6159.1285083653
 20
4312.1468977185
 30
0.0
 11
6157.9311600575
 21
4312.9468977185
 31
0.0
  0
LINE
  5
268
330
1F
100
AcDbEntity
  8
0
  6
Continuous
 62
     7
370
    25
100
AcDbLine
 10
6178.6917380841
 20
4312.9468977185
 30
0.0
 11
6177.4943897763
 21
4312.1468977185
 31
0.0
  0
LINE
  5
269
330
1F
100
AcDbEntity
  8
0
  6
Continuous
 62
     7
370
    25
100
AcDbLine
 10
6524.3767952747
 20
4399.0970123863
 30
0.0
 11
6524.3767952747
 21
4397.5970123863
 31
0.0
  0
LINE
  5
26A
330
1F
100
AcDbEntity
  8
0
  6
Continuous
 62
     7
370
    25
100
AcDbLine
 10
6557.710128608
 20
4399.0970123863
 30
0.0
 11
6557.710128608
 21
4397.5970123863
 31
0.0
  0
LINE
  5
26B
330
1F
100
AcDbEntity
  8
0
  6
Continuous
 62
     7
370
    25
100
AcDbLine
 10
6557.710128608
 20
4399.0970123863
 30
0.0
 11
6524.3767952747
 21
4399.0970123863
 31
0.0
  0
LINE
  5
26C
330
1F
100
AcDbEntity
  8
0
  6
Continuous
 62
     7
370
    25
100
AcDbLine
 10
6557.710128608
 20
4397.5970123863
 30
0.0
 11
6524.3767952747
 21
4397.5970123863
 31
0.0
  0
LINE
  5
26D
330
1F
100
AcDbEntity
  8
0
  6
Continuous
 62
     7
370
    25
100
AcDbLine
 10
6523.5434619413
 20
4399.0970123863
 30
0.0
 11
6523.5434619413
 21
4397.5970123863
 31
0.0
  0
LINE
  5
26E
330
1F
100
AcDbEntity
  8
0
  6
Continuous
 62
     7
370
    25
100
AcDbLine
 10
6524.3767952747
 20
4399.0970123863
 30
0.0
 11
6523.5434619413
 21
4399.0970123863
 31
0.0
  0
LINE
  5
26F
330
1F
100
AcDbEntity
  8
0
  6
Continuous
 62
     7
370
    25
100
AcDbLine
 10
6524.3767952747
 20
4397.5970123863
 30
0.0
 11
6523.5434619413
 21
4397.5970123863
 31
0.0
  0
LINE
  5
270
330
1F
100
AcDbEntity
  8
0
  6
Continuous
 62
     7
370
    25
100
AcDbLine
 10
6558.5434619413
 20
4399.0970123863
 30
0.0
 11
6558.5434619413
 21
4397.5970123863
 31
0.0
  0
LINE
  5
271
330
1F
100
AcDbEntity
  8
0
  6
Continuous
 62
     7
370
    25
100
AcDbLine
 10
6558.5434619413
 20
4399.0970123863
 30
0.0
 11
6557.710128608
 21
4399.0970123863
 31
0.0
  0
LINE
  5
272
330
1F
100
AcDbEntity
  8
0
  6
Continuous
 62
     7
370
    25
100
AcDbLine
 10
6558.5434619413
 20
4397.5970123863
 30
0.0
 11
6557.710128608
 21
4397.5970123863
 31
0.0
  0
CIRCLE
  5
273
330
1F
100
AcDbEntity
  8
0
  6
Continuous
 62
     7
370
    25
100
AcDbCircle
 10
6168.3114490708
 20
4384.1468977185
 30
0.0
 40
19.19999999999982
  0
CIRCLE
  5
274
330
1F
100
AcDbEntity
  8
0
  6
Continuous
 62
     7
370
    25
100
AcDbCircle
 10
6168.3114490708
 20
4384.1468977185
 30
0.0
 40
20.0
  0
ARC
  5
275
330
1F
100
AcDbEntity
  8
0
  6
Continuous
 62
     7
370
    25
100
AcDbCircle
 10
6540.3197443145
 20
4398.5970123863
 30
0.0
 40
13.25000000000032
100
AcDbArc
 50
184.3283254326
 51
355.6716745674
  0
ARC
  5
276
330
1F
100
AcDbEntity
  8
0
  6
Continuous
 62
     7
370
    25
100
AcDbCircle
 10
6540.3197443145
 20
4398.5970123863
 30
0.0
 40
13.25000000000053
100
AcDbArc
 50
2.1626183539
 51
177.8373816461
  0
ARC
  5
277
330
1F
100
AcDbEntity
  8
0
  6
Continuous
 62
     7
370
    25
100
AcDbCircle
 10
6540.3197443145
 20
4398.5970123863
 30
0.0
 40
13.7500000000001
100
AcDbArc
 50
184.1706479119
 51
355.8293520881
  0
ARC
  5
278
330
1F
100
AcDbEntity
  8
0
  6
Continuous
 62
     7
370
    25
100
AcDbCircle
 10
6540.3197443145
 20
4398.5970123863
 30
0.0
 40
13.75000000000036
100
AcDbArc
 50
2.0839423346
 51
177.9160576654
  0
ARC
  5
279
330
1F
100
AcDbEntity
  8
0
  6
Continuous
 62
     7
370
    25
100
AcDbCircle
 10
6530.8197443145
 20
4398.5970123863
 30
0.0
 40
0.9999999999992335
100
AcDbArc
 50
90.0
 51
150.0
  0
ARC
  5
27A
330
1F
100
AcDbEntity
  8
0
  6
Continuous
 62
     7
370
    25
100
AcDbCircle
 10
6533.8197443145
 20
4398.5970123863
 30
0.0
 40
0.9999999999992335
100
AcDbArc
 50
30.0
 51
90.0
  0
LINE
  5
27B
330
1F
100
AcDbEntity
  8
0
  6
Continuous
 62
     7
370
    25
100
AcDbLine
 10
6533.8197443145
 20
4399.5970123863
 30
0.0
 11
6530.8197443145
 21
4399.5970123863
 31
0.0
  0
ARC
  5
27C
330
1F
100
AcDbEntity
  8
0
  6
Continuous
 62
     7
370
    25
100
AcDbCircle
 10
6540.3197443145
 20
4392.0970123863
 30
0.0
 40
1.000000000000909
100
AcDbArc
 50
0.0
 51
180.0
  0
LINE
  5
27D
330
1F
100
AcDbEntity
  8
0
  6
Continuous
 62
     7
370
    25
100
AcDbLine
 10
6539.3197443145
 20
4392.0970123863
 30
0.0
 11
6539.3197443145
 21
4389.0970123863
 31
0.0
  0
ARC
  5
27E
330
1F
100
AcDbEntity
  8
0
  6
Continuous
 62
     7
370
    25
100
AcDbCircle
 10
6540.3197443145
 20
4389.0970123863
 30
0.0
 40
1.000000000000909
100
AcDbArc
 50
180.0
 51
0.0
  0
LINE
  5
27F
330
1F
100
AcDbEntity
  8
0
  6
Continuous
 62
     7
370
    25
100
AcDbLine
 10
6541.3197443145
 20
4389.0970123863
 30
0.0
 11
6541.3197443145
 21
4392.0970123863
 31
0.0
  0
ARC
  5
280
330
1F
100
AcDbEntity
  8
0
  6
Continuous
 62
     7
370
    25
100
AcDbCircle
 10
6546.8197443145
 20
4398.5970123863
 30
0.0
 40
0.9999999999992335
100
AcDbArc
 50
90.0
 51
150.0
  0
ARC
  5
281
330
1F
100
AcDbEntity
  8
0
  6
Continuous
 62
     7
370
    25
100
AcDbCircle
 10
6549.8197443145
 20
4398.5970123863
 30
0.0
 40
0.9999999999992335
100
AcDbArc
 50
30.0
 51
90.0
  0
LINE
  5
282
330
1F
100
AcDbEntity
  8
0
  6
Continuous
 62
     7
370
    25
100
AcDbLine
 10
6549.8197443145
 20
4399.5970123863
 30
0.0
 11
6546.8197443145
 21
4399.5970123863
 31
0.0
  0
ARC
  5
283
330
1F
100
AcDbEntity
  8
0
  6
Continuous
 62
     7
370
    25
100
AcDbCircle
 10
6540.3197443145
 20
4408.0970123863
 30
0.0
 40
1.000000000000909
100
AcDbArc
 50
0.0
 51
180.0
  0
LINE
  5
284
330
1F
100
AcDbEntity
  8
0
  6
Continuous
 62
     7
370
    25
100
AcDbLine
 10
6539.3197443145
 20
4408.0970123863
 30
0.0
 11
6539.3197443145
 21
4405.0970123863
 31
0.0
  0
ARC
  5
285
330
1F
100
AcDbEntity
  8
0
  6
Continuous
 62
     7
370
    25
100
AcDbCircle
 10
6540.3197443145
 20
4405.0970123863
 30
0.0
 40
1.000000000000909
100
AcDbArc
 50
180.0
 51
0.0
  0
LINE
  5
286
330
1F
100
AcDbEntity
  8
0
  6
Continuous
 62
     7
370
    25
100
AcDbLine
 10
6541.3197443145
 20
4405.0970123863
 30
0.0
 11
6541.3197443145
 21
4408.0970123863
 31
0.0
  0
CIRCLE
  5
287
330
1F
100
AcDbEntity
  8
0
  6
Continuous
 62
     7
370
    25
100
AcDbCircle
 10
6540.3197443145
 20
4398.5970123863
 30
0.0
 40
24.25
  0
CIRCLE
  5
288
330
1F
100
AcDbEntity
  8
0
  6
Continuous
 62
     7
370
    25
100
AcDbCircle
 10
6540.3197443145
 20
4398.5970123863
 30
0.0
 40
24.75
  0
ARC
  5
289
330
1F
100
AcDbEntity
  8
0
  6
Continuous
 62
     7
370
    25
100
AcDbCircle
 10
6540.3197443145
 20
4398.5970123863
 30
0.0
 40
14.50000000000001
100
AcDbArc
 50
1.9761082857
 51
178.0238917143
  0
ARC
  5
28A
330
1F
100
AcDbEntity
  8
0
  6
Continuous
 62
     7
370
    25
100
AcDbCircle
 10
6540.3197443145
 20
4398.5970123863
 30
0.0
 40
14.5000000000009
100
AcDbArc
 50
183.9545721221
 51
356.0454278779
  0
CIRCLE
  5
28B
330
1F
100
AcDbEntity
  8
0
  6
Continuous
 62
     7
370
    25
100
AcDbCircle
 10
6540.3197443145
 20
4380.5970123863
 30
0.0
 40
1.5
  0
ARC
  5
28C
330
1F
100
AcDbEntity
  8
0
  6
Continuous
 62
     7
370
    25
100
AcDbCircle
 10
6540.3197443145
 20
4398.5970123863
 30
0.0
 40
13.99999999999988
100
AcDbArc
 50
2.0467130977
 51
177.9532869023
  0
ARC
  5
28D
330
1F
100
AcDbEntity
  8
0
  6
Continuous
 62
     7
370
    25
100
AcDbCircle
 10
6540.3197443145
 20
4398.5970123863
 30
0.0
 40
14.00000000000067
100
AcDbArc
 50
184.0960437581
 51
355.9039562419
  0
CIRCLE
  5
28E
330
1F
100
AcDbEntity
  8
0
  6
Continuous
 62
     7
370
    25
100
AcDbCircle
 10
6595.3197443145
 20
4321.5970123863
 30
0.0
 40
1.649999999999636
  0
CIRCLE
  5
28F
330
1F
100
AcDbEntity
  8
0
  6
Continuous
 62
     7
370
    25
100
AcDbCircle
 10
6485.3197443145
 20
4321.5970123863
 30
0.0
 40
1.649999999999604
  0
ARC
  5
290
330
1F
100
AcDbEntity
  8
0
  6
Continuous
 62
     7
370
    25
100
AcDbCircle
 10
6561.8197443145
 20
4321.5970123863
 30
0.0
 40
2.999999999999668
100
AcDbArc
 50
70.9178751964
 51
289.0821248036
  0
ARC
  5
291
330
1F
100
AcDbEntity
  8
0
  6
Continuous
 62
     7
370
    25
100
AcDbCircle
 10
6518.8197443145
 20
4321.5970123863
 30
0.0
 40
2.999999999999965
100
AcDbArc
 50
250.9178751964
 51
109.0821248036
  0
ARC
  5
292
330
1F
100
AcDbEntity
  8
0
  6
Continuous
 62
     7
370
    25
100
AcDbCircle
 10
6540.3197443145
 20
4321.5970123863
 30
0.0
 40
9.9999999999999
100
AcDbArc
 50
150.4586394999
 51
209.5413605001
  0
ARC
  5
293
330
1F
100
AcDbEntity
  8
0
  6
Continuous
 62
     7
370
    25
100
AcDbCircle
 10
6540.3197443145
 20
4321.5970123863
 30
0.0
 40
10.00000000000069
100
AcDbArc
 50
330.4586394999
 51
29.5413605001
  0
CIRCLE
  5
294
330
1F
100
AcDbEntity
  8
0
  6
Continuous
 62
     7
370
    25
100
AcDbCircle
 10
6525.3197443145
 20
4321.5970123863
 30
0.0
 40
8.0
  0
CIRCLE
  5
295
330
1F
100
AcDbEntity
  8
0
  6
Continuous
 62
     7
370
    25
100
AcDbCircle
 10
6555.3197443145
 20
4321.5970123863
 30
0.0
 40
8.0
  0
LINE
  5
296
330
1F
100
AcDbEntity
  8
0
  6
Continuous
 62
     7
370
    25
100
AcDbLine
 10
6495.3197443145
 20
4276.5970123863
 30
0.0
 11
6585.3197443145
 21
4276.5970123863
 31
0.0
  0
LINE
  5
297
330
1F
100
AcDbEntity
  8
0
  6
Continuous
 62
     7
370
    25
100
AcDbLine
 10
6495.3197443145
 20
4366.5970123863
 30
0.0
 11
6495.3197443145
 21
4276.5970123863
 31
0.0
  0
LINE
  5
298
330
1F
100
AcDbEntity
  8
0
  6
Continuous
 62
     7
370
    25
100
AcDbLine
 10
6585.3197443145
 20
4366.5970123863
 30
0.0
 11
6495.3197443145
 21
4366.5970123863
 31
0.0
  0
LINE
  5
299
330
1F
100
AcDbEntity
  8
0
  6
Continuous
 62
     7
370
    25
100
AcDbLine
 10
6585.3197443145
 20
4276.5970123863
 30
0.0
 11
6585.3197443145
 21
4366.5970123863
 31
0.0
  0
CIRCLE
  5
29A
330
1F
100
AcDbEntity
  8
0
  6
Continuous
 62
     7
370
    25
100
AcDbCircle
 10
6555.3197443145
 20
4321.5970123863
 30
0.0
 40
13.5
  0
CIRCLE
  5
29B
330
1F
100
AcDbEntity
  8
0
  6
Continuous
 62
     7
370
    25
100
AcDbCircle
 10
6525.3197443145
 20
4321.5970123863
 30
0.0
 40
13.5
  0
LINE
  5
29C
330
1F
100
AcDbEntity
  8
0
  6
Continuous
 62
     7
370
    25
100
AcDbLine
 10
6587.1197443145
 20
4276.5970123863
 30
0.0
 11
6587.1197443145
 21
4366.5970123863
 31
0.0
  0
LINE
  5
29D
330
1F
100
AcDbEntity
  8
0
  6
Continuous
 62
     7
370
    25
100
AcDbLine
 10
6587.1197443145
 20
4276.5970123863
 30
0.0
 11
6585.3197443145
 21
4276.5970123863
 31
0.0
  0
LINE
  5
29E
330
1F
100
AcDbEntity
  8
0
  6
Continuous
 62
     7
370
    25
100
AcDbLine
 10
6585.3197443145
 20
4366.5970123863
 30
0.0
 11
6587.1197443145
 21
4366.5970123863
 31
0.0
  0
LINE
  5
29F
330
1F
100
AcDbEntity
  8
0
  6
Continuous
 62
     7
370
    25
100
AcDbLine
 10
6495.3197443145
 20
4276.5970123863
 30
0.0
 11
6493.5197443145
 21
4276.5970123863
 31
0.0
  0
LINE
  5
2A0
330
1F
100
AcDbEntity
  8
0
  6
Continuous
 62
     7
370
    25
100
AcDbLine
 10
6493.5197443145
 20
4366.5970123863
 30
0.0
 11
6493.5197443145
 21
4276.5970123863
 31
0.0
  0
LINE
  5
2A1
330
1F
100
AcDbEntity
  8
0
  6
Continuous
 62
     7
370
    25
100
AcDbLine
 10
6493.5197443145
 20
4366.5970123863
 30
0.0
 11
6495.3197443145
 21
4366.5970123863
 31
0.0
  0
LINE
  5
2A2
330
1F
100
AcDbEntity
  8
0
  6
Continuous
 62
     7
370
    25
100
AcDbLine
 10
6492.7197443145
 20
4276.5970123863
 30
0.0
 11
6493.5197443145
 21
4276.5970123863
 31
0.0
  0
LINE
  5
2A3
330
1F
100
AcDbEntity
  8
0
  6
Continuous
 62
     7
370
    25
100
AcDbLine
 10
6492.7197443145
 20
4366.5970123863
 30
0.0
 11
6492.7197443145
 21
4276.5970123863
 31
0.0
  0
LINE
  5
2A4
330
1F
100
AcDbEntity
  8
0
  6
Continuous
 62
     7
370
    25
100
AcDbLine
 10
6493.5197443145
 20
4366.5970123863
 30
0.0
 11
6492.7197443145
 21
4366.5970123863
 31
0.0
  0
LINE
  5
2A5
330
1F
100
AcDbEntity
  8
0
  6
Continuous
 62
     7
370
    25
100
AcDbLine
 10
6587.9197443145
 20
4366.5970123863
 30
0.0
 11
6587.1197443145
 21
4366.5970123863
 31
0.0
  0
LINE
  5
2A6
330
1F
100
AcDbEntity
  8
0
  6
Continuous
 62
     7
370
    25
100
AcDbLine
 10
6587.9197443145
 20
4276.5970123863
 30
0.0
 11
6587.9197443145
 21
4366.5970123863
 31
0.0
  0
LINE
  5
2A7
330
1F
100
AcDbEntity
  8
0
  6
Continuous
 62
     7
370
    25
100
AcDbLine
 10
6587.1197443145
 20
4276.5970123863
 30
0.0
 11
6587.9197443145
 21
4276.5970123863
 31
0.0
  0
LINE
  5
2A8
330
1F
100
AcDbEntity
  8
0
  6
Continuous
 62
     7
370
    25
100
AcDbLine
 10
6587.9197443145
 20
4366.5970123863
 30
0.0
 11
6598.1197443145
 21
4366.5970123863
 31
0.0
  0
ARC
  5
2A9
330
1F
100
AcDbEntity
  8
0
  6
Continuous
 62
     7
370
    25
100
AcDbCircle
 10
6598.1197443145
 20
4361.5970123863
 30
0.0
 40
5.000000000000909
100
AcDbArc
 50
360.0
 51
90.0
  0
LINE
  5
2AA
330
1F
100
AcDbEntity
  8
0
  6
Continuous
 62
     7
370
    25
100
AcDbLine
 10
6603.1197443145
 20
4361.5970123863
 30
0.0
 11
6603.1197443145
 21
4281.5970123863
 31
0.0
  0
ARC
  5
2AB
330
1F
100
AcDbEntity
  8
0
  6
Continuous
 62
     7
370
    25
100
AcDbCircle
 10
6598.1197443145
 20
4281.5970123863
 30
0.0
 40
5.000000000000909
100
AcDbArc
 50
270.0
 51
360.0
  0
LINE
  5
2AC
330
1F
100
AcDbEntity
  8
0
  6
Continuous
 62
     7
370
    25
100
AcDbLine
 10
6598.1197443145
 20
4276.5970123863
 30
0.0
 11
6587.9197443145
 21
4276.5970123863
 31
0.0
  0
CIRCLE
  5
2AD
330
1F
100
AcDbEntity
  8
0
  6
Continuous
 62
     7
370
    25
100
AcDbCircle
 10
6595.3197443145
 20
4321.5970123863
 30
0.0
 40
3.5
  0
ARC
  5
2AE
330
1F
100
AcDbEntity
  8
0
  6
Continuous
 62
     7
370
    25
100
AcDbCircle
 10
6482.5197443145
 20
4361.5970123863
 30
0.0
 40
5.0
100
AcDbArc
 50
90.0
 51
180.0
  0
LINE
  5
2AF
330
1F
100
AcDbEntity
  8
0
  6
Continuous
 62
     7
370
    25
100
AcDbLine
 10
6482.5197443145
 20
4366.5970123863
 30
0.0
 11
6492.7197443145
 21
4366.5970123863
 31
0.0
  0
LINE
  5
2B0
330
1F
100
AcDbEntity
  8
0
  6
Continuous
 62
     7
370
    25
100
AcDbLine
 10
6492.7197443145
 20
4276.5970123863
 30
0.0
 11
6482.5197443145
 21
4276.5970123863
 31
0.0
  0
ARC
  5
2B1
330
1F
100
AcDbEntity
  8
0
  6
Continuous
 62
     7
370
    25
100
AcDbCircle
 10
6482.5197443145
 20
4281.5970123863
 30
0.0
 40
5.0
100
AcDbArc
 50
180.0
 51
270.0
  0
LINE
  5
2B2
330
1F
100
AcDbEntity
  8
0
  6
Continuous
 62
     7
370
    25
100
AcDbLine
 10
6477.5197443145
 20
4281.5970123863
 30
0.0
 11
6477.5197443145
 21
4361.5970123863
 31
0.0
  0
CIRCLE
  5
2B3
330
1F
100
AcDbEntity
  8
0
  6
Continuous
 62
     7
370
    25
100
AcDbCircle
 10
6485.3197443145
 20
4321.5970123863
 30
0.0
 40
3.500000000000909
  0
LWPOLYLINE
  5
2B4
330
1F
100
AcDbEntity
  8
0
  6
Continuous
 62
     7
370
    25
100
AcDbPolyline
 90
        3
 70
   128
 43
0.0
 10
6541.7130705594
 20
4381.1525679419
 10
6540.3213312956
 20
4381.0970124583
 10
6538.9264180696
 20
4381.1525679419
  0
CIRCLE
  5
2B5
330
1F
100
AcDbEntity
  8
0
  6
Continuous
 62
     7
370
    25
100
AcDbCircle
 10
6615.3197443145
 20
4232.5970123863
 30
0.0
 40
1.5
  0
CIRCLE
  5
2B6
330
1F
100
AcDbEntity
  8
0
  6
Continuous
 62
     7
370
    25
100
AcDbCircle
 10
6412.8197443145
 20
4271.0970123863
 30
0.0
 40
1.5
  0
CIRCLE
  5
2B7
330
1F
100
AcDbEntity
  8
0
  6
Continuous
 62
     7
370
    25
100
AcDbCircle
 10
6412.8197443145
 20
4391.0970123863
 30
0.0
 40
1.5
  0
CIRCLE
  5
2B8
330
1F
100
AcDbEntity
  8
0
  6
Continuous
 62
     7
370
    25
100
AcDbCircle
 10
6465.3197443145
 20
4429.5970123863
 30
0.0
 40
1.5
  0
CIRCLE
  5
2B9
330
1F
100
AcDbEntity
  8
0
  6
Continuous
 62
     7
370
    25
100
AcDbCircle
 10
6615.3197443145
 20
4429.5970123863
 30
0.0
 40
1.500000000000909
  0
CIRCLE
  5
2BA
330
1F
100
AcDbEntity
  8
0
  6
Continuous
 62
     7
370
    25
100
AcDbCircle
 10
6667.8197443145
 20
4391.0970123863
 30
0.0
 40
1.5
  0
CIRCLE
  5
2BB
330
1F
100
AcDbEntity
  8
0
  6
Continuous
 62
     7
370
    25
100
AcDbCircle
 10
6667.8197443145
 20
4271.0970123863
 30
0.0
 40
1.5
  0
CIRCLE
  5
2BC
330
1F
100
AcDbEntity
  8
0
  6
Continuous
 62
     7
370
    25
100
AcDbCircle
 10
6465.3197443145
 20
4232.5970123863
 30
0.0
 40
1.499999999999091
  0
LINE
  5
2BD
330
1F
100
AcDbEntity
  8
0
  6
Continuous
 62
     7
370
    25
100
AcDbLine
 10
6728.5197443145
 20
4438.5970123863
 30
0.0
 11
6728.5197443145
 21
4437.5970123863
 31
0.0
  0
LINE
  5
2BE
330
1F
100
AcDbEntity
  8
0
  6
Continuous
 62
     7
370
    25
100
AcDbLine
 10
6728.5197443145
 20
4437.5970123863
 30
0.0
 11
6718.5197443145
 21
4437.5970123863
 31
0.0
  0
LINE
  5
2BF
330
1F
100
AcDbEntity
  8
0
  6
Continuous
 62
     7
370
    25
100
AcDbLine
 10
6718.5197443145
 20
4437.5970123863
 30
0.0
 11
6718.5197443145
 21
4438.5970123863
 31
0.0
  0
LINE
  5
2C0
330
1F
100
AcDbEntity
  8
0
  6
Continuous
 62
     7
370
    25
100
AcDbLine
 10
6718.5197443145
 20
4438.5970123863
 30
0.0
 11
6728.5197443145
 21
4438.5970123863
 31
0.0
  0
LINE
  5
2C1
330
1F
100
AcDbEntity
  8
0
  6
Continuous
 62
     7
370
    25
100
AcDbLine
 10
6718.5197443145
 20
4437.5970123863
 30
0.0
 11
6362.1197443145
 21
4437.5970123863
 31
0.0
  0
LINE
  5
2C2
330
1F
100
AcDbEntity
  8
0
  6
Continuous
 62
     7
370
    25
100
AcDbLine
 10
6362.1197443145
 20
4438.5970123863
 30
0.0
 11
6362.1197443145
 21
4437.5970123863
 31
0.0
  0
LINE
  5
2C3
330
1F
100
AcDbEntity
  8
0
  6
Continuous
 62
     7
370
    25
100
AcDbLine
 10
6718.5197443145
 20
4438.5970123863
 30
0.0
 11
6362.1197443145
 21
4438.5970123863
 31
0.0
  0
LINE
  5
2C4
330
1F
100
AcDbEntity
  8
0
  6
Continuous
 62
     7
370
    25
100
AcDbLine
 10
6352.1197443145
 20
4437.5970123863
 30
0.0
 11
6352.1197443145
 21
4438.5970123863
 31
0.0
  0
LINE
  5
2C5
330
1F
100
AcDbEntity
  8
0
  6
Continuous
 62
     7
370
    25
100
AcDbLine
 10
6362.1197443145
 20
4437.5970123863
 30
0.0
 11
6352.1197443145
 21
4437.5970123863
 31
0.0
  0
LINE
  5
2C6
330
1F
100
AcDbEntity
  8
0
  6
Continuous
 62
     7
370
    25
100
AcDbLine
 10
6352.1197443145
 20
4438.5970123863
 30
0.0
 11
6362.1197443145
 21
4438.5970123863
 31
0.0
  0
LINE
  5
2C7
330
1F
100
AcDbEntity
  8
0
  6
Continuous
 62
     7
370
    25
100
AcDbLine
 10
6352.1197443145
 20
4437.5970123863
 30
0.0
 11
6352.1197443145
 21
4436.7970123863
 31
0.0
  0
LINE
  5
2C8
330
1F
100
AcDbEntity
  8
0
  6
Continuous
 62
     7
370
    25
100
AcDbLine
 10
6352.1197443145
 20
4436.7970123863
 30
0.0
 11
6728.5197443145
 21
4436.7970123863
 31
0.0
  0
LINE
  5
2C9
330
1F
100
AcDbEntity
  8
0
  6
Continuous
 62
     7
370
    25
100
AcDbLine
 10
6728.5197443145
 20
4436.7970123863
 30
0.0
 11
6728.5197443145
 21
4437.5970123863
 31
0.0
  0
LINE
  5
2CA
330
1F
100
AcDbEntity
  8
0
  6
Continuous
 62
     7
370
    25
100
AcDbLine
 10
6730.3197443145
 20
4438.5970123863
 30
0.0
 11
6730.3197443145
 21
4438.409463936
 31
0.0
  0
LINE
  5
2CB
330
1F
100
AcDbEntity
  8
0
  6
Continuous
 62
     7
370
    25
100
AcDbLine
 10
6730.3197443145
 20
4438.409463936
 30
0.0
 11
6730.3197443145
 21
4436.7970123863
 31
0.0
  0
LINE
  5
2CC
330
1F
100
AcDbEntity
  8
0
  6
Continuous
 62
     7
370
    25
100
AcDbLine
 10
6730.3197443145
 20
4223.5970123863
 30
0.0
 11
6730.3197443145
 21
4436.7970123863
 31
0.0
  0
LINE
  5
2CD
330
1F
100
AcDbEntity
  8
0
  6
Continuous
 62
     7
370
    25
100
AcDbLine
 10
6728.5197443145
 20
4223.5970123863
 30
0.0
 11
6730.3197443145
 21
4223.5970123863
 31
0.0
  0
LINE
  5
2CE
330
1F
100
AcDbEntity
  8
0
  6
Continuous
 62
     7
370
    25
100
AcDbLine
 10
6728.5197443145
 20
4223.5970123863
 30
0.0
 11
6728.5197443145
 21
4436.7970123863
 31
0.0
  0
LINE
  5
2CF
330
1F
100
AcDbEntity
  8
0
  6
Continuous
 62
     7
370
    25
100
AcDbLine
 10
6728.5197443145
 20
4438.5970123863
 30
0.0
 11
6730.3197443145
 21
4438.5970123863
 31
0.0
  0
LINE
  5
2D0
330
1F
100
AcDbEntity
  8
0
  6
Continuous
 62
     7
370
    25
100
AcDbLine
 10
6352.1197443145
 20
4223.5970123863
 30
0.0
 11
6728.5197443145
 21
4223.5970123863
 31
0.0
  0
LINE
  5
2D1
330
1F
100
AcDbEntity
  8
0
  6
Continuous
 62
     7
370
    25
100
AcDbLine
 10
6352.1197443145
 20
4223.5970123863
 30
0.0
 11
6352.1197443145
 21
4436.7970123863
 31
0.0
  0
CIRCLE
  5
2D2
330
1F
100
AcDbEntity
  8
0
  6
Continuous
 62
     7
370
    25
100
AcDbCircle
 10
6465.3197443145
 20
4232.5970123863
 30
0.0
 40
2.25
  0
CIRCLE
  5
2D3
330
1F
100
AcDbEntity
  8
0
  6
Continuous
 62
     7
370
    25
100
AcDbCircle
 10
6412.8197443145
 20
4391.0970123863
 30
0.0
 40
2.25
  0
CIRCLE
  5
2D4
330
1F
100
AcDbEntity
  8
0
  6
Continuous
 62
     7
370
    25
100
AcDbCircle
 10
6395.3197443145
 20
4416.7970123863
 30
0.0
 40
7.75
  0
CIRCLE
  5
2D5
330
1F
100
AcDbEntity
  8
0
  6
Continuous
 62
     7
370
    25
100
AcDbCircle
 10
6465.3197443145
 20
4429.5970123863
 30
0.0
 40
2.25
  0
CIRCLE
  5
2D6
330
1F
100
AcDbEntity
  8
0
  6
Continuous
 62
     7
370
    25
100
AcDbCircle
 10
6490.3197443145
 20
4398.5970123863
 30
0.0
 40
7.75
  0
CIRCLE
  5
2D7
330
1F
100
AcDbEntity
  8
0
  6
Continuous
 62
     7
370
    25
100
AcDbCircle
 10
6710.3197443145
 20
4423.5970123863
 30
0.0
 40
7.900000000000546
  0
CIRCLE
  5
2D8
330
1F
100
AcDbEntity
  8
0
  6
Continuous
 62
     7
370
    25
100
AcDbCircle
 10
6667.8197443145
 20
4391.0970123863
 30
0.0
 40
2.25
  0
CIRCLE
  5
2D9
330
1F
100
AcDbEntity
  8
0
  6
Continuous
 62
     7
370
    25
100
AcDbCircle
 10
6685.3197443145
 20
4416.7970123863
 30
0.0
 40
7.75
  0
CIRCLE
  5
2DA
330
1F
100
AcDbEntity
  8
0
  6
Continuous
 62
     7
370
    25
100
AcDbCircle
 10
6615.3197443145
 20
4429.5970123863
 30
0.0
 40
2.25
  0
CIRCLE
  5
2DB
330
1F
100
AcDbEntity
  8
0
  6
Continuous
 62
     7
370
    25
100
AcDbCircle
 10
6685.3197443145
 20
4351.7970123863
 30
0.0
 40
7.75
  0
CIRCLE
  5
2DC
330
1F
100
AcDbEntity
  8
0
  6
Continuous
 62
     7
370
    25
100
AcDbCircle
 10
6685.3197443145
 20
4286.7970123863
 30
0.0
 40
7.75
  0
CIRCLE
  5
2DD
330
1F
100
AcDbEntity
  8
0
  6
Continuous
 62
     7
370
    25
100
AcDbCircle
 10
6667.8197443145
 20
4271.0970123863
 30
0.0
 40
2.25
  0
CIRCLE
  5
2DE
330
1F
100
AcDbEntity
  8
0
  6
Continuous
 62
     7
370
    25
100
AcDbCircle
 10
6615.3197443145
 20
4232.5970123863
 30
0.0
 40
2.249999999999091
  0
CIRCLE
  5
2DF
330
1F
100
AcDbEntity
  8
0
  6
Continuous
 62
     7
370
    25
100
AcDbCircle
 10
6395.3197443145
 20
4286.7970123863
 30
0.0
 40
7.75
  0
CIRCLE
  5
2E0
330
1F
100
AcDbEntity
  8
0
  6
Continuous
 62
     7
370
    25
100
AcDbCircle
 10
6412.8197443145
 20
4271.0970123863
 30
0.0
 40
2.25
  0
CIRCLE
  5
2E1
330
1F
100
AcDbEntity
  8
0
  6
Continuous
 62
     7
370
    25
100
AcDbCircle
 10
6395.3197443145
 20
4351.7970123863
 30
0.0
 40
7.75
  0
LINE
  5
2E2
330
1F
100
AcDbEntity
  8
0
  6
Continuous
 62
     7
370
    25
100
AcDbLine
 10
6350.3197443145
 20
4223.5970123863
 30
0.0
 11
6352.1197443145
 21
4223.5970123863
 31
0.0
  0
LINE
  5
2E3
330
1F
100
AcDbEntity
  8
0
  6
Continuous
 62
     7
370
    25
100
AcDbLine
 10
6350.3197443145
 20
4223.5970123863
 30
0.0
 11
6350.3197443145
 21
4436.7970123863
 31
0.0
  0
LINE
  5
2E4
330
1F
100
AcDbEntity
  8
0
  6
Continuous
 62
     7
370
    25
100
AcDbLine
 10
6350.3197443145
 20
4436.7970123863
 30
0.0
 11
6350.3197443145
 21
4438.409463936
 31
0.0
  0
LINE
  5
2E5
330
1F
100
AcDbEntity
  8
0
  6
Continuous
 62
     7
370
    25
100
AcDbLine
 10
6350.3197443145
 20
4438.409463936
 30
0.0
 11
6350.3197443145
 21
4438.5970123863
 31
0.0
  0
LINE
  5
2E6
330
1F
100
AcDbEntity
  8
0
  6
Continuous
 62
     7
370
    25
100
AcDbLine
 10
6350.3197443145
 20
4438.5970123863
 30
0.0
 11
6352.1197443145
 21
4438.5970123863
 31
0.0
  0
ARC
  5
2E7
330
1F
100
AcDbEntity
  8
0
  6
Continuous
 62
     7
370
    25
100
AcDbCircle
 10
6725.7348332092
 20
4223.6521399016
 30
0.0
 40
2.785456678475644
100
AcDbArc
 50
318.2405429228
 51
358.865974035
  0
LINE
  5
2E8
330
1F
100
AcDbEntity
  8
0
  6
Continuous
 62
     7
370
    25
100
AcDbLine
 10
6727.8126375333
 20
4221.7970123863
 30
0.0
 11
6352.8268510957
 21
4221.7970123863
 31
0.0
  0
ARC
  5
2E9
330
1F
100
AcDbEntity
  8
0
  6
Continuous
 62
     7
370
    25
100
AcDbCircle
 10
6356.0901460854
 20
4224.1178446175
 30
0.0
 40
4.004417115535683
100
AcDbArc
 50
187.4733155175
 51
215.4201675246
  0
LINE
  5
2EA
330
1F
100
AcDbEntity
  8
0
  6
Continuous
 62
     7
370
    25
100
AcDbLine
 10
6728.5197443145
 20
4221.7970123863
 30
0.0
 11
6728.5197443145
 21
4222.7970123863
 31
0.0
  0
ARC
  5
2EB
330
1F
100
AcDbEntity
  8
0
  6
Continuous
 62
     7
370
    25
100
AcDbCircle
 10
6728.5197443145
 20
4223.5970123863
 30
0.0
 40
0.8000000000001819
100
AcDbArc
 50
270.0
 51
0.0
  0
ARC
  5
2EC
330
1F
100
AcDbEntity
  8
0
  6
Continuous
 62
     7
370
    25
100
AcDbCircle
 10
6728.5197443145
 20
4223.5970123863
 30
0.0
 40
1.800000000000182
100
AcDbArc
 50
270.0
 51
0.0
  0
ARC
  5
2ED
330
1F
100
AcDbEntity
  8
0
  6
Continuous
 62
     7
370
    25
100
AcDbCircle
 10
6352.1197443145
 20
4223.5970123863
 30
0.0
 40
0.8000000000020009
100
AcDbArc
 50
180.0000000001
 51
269.9999999999
  0
LINE
  5
2EE
330
1F
100
AcDbEntity
  8
0
  6
Continuous
 62
     7
370
    25
100
AcDbLine
 10
6352.1197443145
 20
4221.7970123863
 30
0.0
 11
6352.1197443145
 21
4222.7970123863
 31
0.0
  0
ARC
  5
2EF
330
1F
100
AcDbEntity
  8
0
  6
Continuous
 62
     7
370
    25
100
AcDbCircle
 10
6352.1197443145
 20
4223.5970123863
 30
0.0
 40
1.799999999997453
100
AcDbArc
 50
179.9999999999
 51
270.0000000001
  0
LINE
  5
2F0
330
1F
100
AcDbEntity
  8
0
  6
Continuous
 62
     7
370
    25
100
AcDbLine
 10
6731.1197443145
 20
4437.5970123863
 30
0.0
 11
6731.1197443145
 21
4438.5970123863
 31
0.0
  0
LINE
  5
2F1
330
1F
100
AcDbEntity
  8
0
  6
Continuous
 62
     7
370
    25
100
AcDbLine
 10
6744.3197443145
 20
4438.5970123863
 30
0.0
 11
6731.1197443145
 21
4438.5970123863
 31
0.0
  0
LINE
  5
2F2
330
1F
100
AcDbEntity
  8
0
  6
Continuous
 62
     7
370
    25
100
AcDbLine
 10
6744.3197443145
 20
4437.5970123863
 30
0.0
 11
6744.3197443145
 21
4438.5970123863
 31
0.0
  0
LINE
  5
2F3
330
1F
100
AcDbEntity
  8
0
  6
Continuous
 62
     7
370
    25
100
AcDbLine
 10
6744.3197443145
 20
4437.5970123863
 30
0.0
 11
6731.1197443145
 21
4437.5970123863
 31
0.0
  0
LINE
  5
2F4
330
1F
100
AcDbEntity
  8
0
  6
Continuous
 62
     7
370
    25
100
AcDbLine
 10
6754.3197443145
 20
4438.5970123863
 30
0.0
 11
6754.3197443145
 21
4437.5970123863
 31
0.0
  0
LINE
  5
2F5
330
1F
100
AcDbEntity
  8
0
  6
Continuous
 62
     7
370
    25
100
AcDbLine
 10
6754.3197443145
 20
4437.5970123863
 30
0.0
 11
6744.3197443145
 21
4437.5970123863
 31
0.0
  0
LINE
  5
2F6
330
1F
100
AcDbEntity
  8
0
  6
Continuous
 62
     7
370
    25
100
AcDbLine
 10
6744.3197443145
 20
4438.5970123863
 30
0.0
 11
6754.3197443145
 21
4438.5970123863
 31
0.0
  0
ARC
  5
2F7
330
1F
100
AcDbEntity
  8
0
  6
Continuous
 62
     7
370
    25
100
AcDbCircle
 10
6731.1197443145
 20
4436.7970123863
 30
0.0
 40
0.7999999999992724
100
AcDbArc
 50
90.0
 51
180.0
  0
ARC
  5
2F8
330
1F
100
AcDbEntity
  8
0
  6
Continuous
 62
     7
370
    25
100
AcDbCircle
 10
6731.1197443145
 20
4436.7970123863
 30
0.0
 40
1.799999999999447
100
AcDbArc
 50
90.0
 51
116.3877999612
  0
LINE
  5
2F9
330
1F
100
AcDbEntity
  8
0
  6
Continuous
 62
     7
370
    25
100
AcDbLine
 10
6349.5197443145
 20
4437.5970123863
 30
0.0
 11
6349.5197443145
 21
4438.5970123863
 31
0.0
  0
LINE
  5
2FA
330
1F
100
AcDbEntity
  8
0
  6
Continuous
 62
     7
370
    25
100
AcDbLine
 10
6349.5197443145
 20
4437.5970123863
 30
0.0
 11
6336.3197443145
 21
4437.5970123863
 31
0.0
  0
LINE
  5
2FB
330
1F
100
AcDbEntity
  8
0
  6
Continuous
 62
     7
370
    25
100
AcDbLine
 10
6336.3197443145
 20
4438.5970123863
 30
0.0
 11
6336.3197443145
 21
4437.5970123863
 31
0.0
  0
LINE
  5
2FC
330
1F
100
AcDbEntity
  8
0
  6
Continuous
 62
     7
370
    25
100
AcDbLine
 10
6349.5197443145
 20
4438.5970123863
 30
0.0
 11
6336.3197443145
 21
4438.5970123863
 31
0.0
  0
LINE
  5
2FD
330
1F
100
AcDbEntity
  8
0
  6
Continuous
 62
     7
370
    25
100
AcDbLine
 10
6336.3197443145
 20
4437.5970123863
 30
0.0
 11
6326.3197443145
 21
4437.5970123863
 31
0.0
  0
LINE
  5
2FE
330
1F
100
AcDbEntity
  8
0
  6
Continuous
 62
     7
370
    25
100
AcDbLine
 10
6326.3197443145
 20
4437.5970123863
 30
0.0
 11
6326.3197443145
 21
4438.5970123863
 31
0.0
  0
LINE
  5
2FF
330
1F
100
AcDbEntity
  8
0
  6
Continuous
 62
     7
370
    25
100
AcDbLine
 10
6326.3197443145
 20
4438.5970123863
 30
0.0
 11
6336.3197443145
 21
4438.5970123863
 31
0.0
  0
ARC
  5
300
330
1F
100
AcDbEntity
  8
0
  6
Continuous
 62
     7
370
    25
100
AcDbCircle
 10
6349.5197443145
 20
4436.7970123863
 30
0.0
 40
0.8000000000001819
100
AcDbArc
 50
0.0
 51
90.0
  0
ARC
  5
301
330
1F
100
AcDbEntity
  8
0
  6
Continuous
 62
     7
370
    25
100
AcDbCircle
 10
6349.5197443145
 20
4436.7970123863
 30
0.0
 40
1.799999999999851
100
AcDbArc
 50
63.6122000387
 51
90.0
  0
LINE
  5
302
330
1F
100
AcDbEntity
  8
0
  6
Continuous
 62
     7
370
    25
100
AcDbLine
 10
6727.8126375333
 20
4221.7970123863
 30
0.0
 11
6728.5197443145
 21
4221.7970123863
 31
0.0
  0
LINE
  5
303
330
1F
100
AcDbEntity
  8
0
  6
Continuous
 62
     7
370
    25
100
AcDbLine
 10
6728.3091079634
 20
4222.7970123863
 30
0.0
 11
6728.5197443145
 21
4222.7970123863
 31
0.0
  0
LINE
  5
304
330
1F
100
AcDbEntity
  8
0
  6
Continuous
 62
     7
370
    25
100
AcDbLine
 10
6352.1197443145
 20
4221.7970123863
 30
0.0
 11
6352.8268510957
 21
4221.7970123863
 31
0.0
  0
LINE
  5
305
330
1F
100
AcDbEntity
  8
0
  6
Continuous
 62
     7
370
    25
100
AcDbLine
 10
6352.1197443145
 20
4222.7970123863
 30
0.0
 11
6352.3287796865
 21
4222.7970123863
 31
0.0
  0
ARC
  5
306
330
1F
100
AcDbEntity
  8
0
  6
Continuous
 62
     7
370
    25
100
AcDbCircle
 10
6728.4884408598
 20
4227.2649678418
 30
0.0
 40
3.760978949320958
100
AcDbArc
 50
270.4768908768
 51
282.7697600676
  0
ARC
  5
307
330
1F
100
AcDbEntity
  8
0
  6
Continuous
 62
     7
370
    25
100
AcDbCircle
 10
6352.1510477693
 20
4227.2649678418
 30
0.0
 40
3.760978949314776
100
AcDbArc
 50
257.2302399324
 51
269.5231091232
  0
LWPOLYLINE
  5
308
330
1F
100
AcDbEntity
  8
0
  6
Continuous
 62
     8
370
    25
100
AcDbPolyline
 90
        3
 70
   128
 43
0.0
 10
6538.8810109981
 20
4381.0213311864
 10
6540.3213434899
 20
4380.9625427135
 10
6541.758477631
 20
4381.0213311864
  0
LINE
  5
309
330
1F
100
AcDbEntity
  8
0
  6
Continuous
 62
     8
370
    25
100
AcDbLine
 10
6463.745632473
 20
4427.9893209015
 30
0.0
 11
6466.8938561561
 21
4427.9893209015
 31
0.0
  0
LINE
  5
30A
330
1F
100
AcDbEntity
  8
0
  6
Continuous
 62
     8
370
    25
100
AcDbLine
 10
6613.745632473
 20
4427.9893209015
 30
0.0
 11
6616.8938561561
 21
4427.9893209015
 31
0.0
  0
LINE
  5
30B
330
1F
100
AcDbEntity
  8
0
  6
Continuous
 62
     8
370
    25
100
AcDbLine
 10
6616.8938561561
 20
4234.2047038711
 30
0.0
 11
6613.745632473
 21
4234.2047038711
 31
0.0
  0
LINE
  5
30C
330
1F
100
AcDbEntity
  8
0
  6
Continuous
 62
     8
370
    25
100
AcDbLine
 10
6466.8938561561
 20
4234.2047038711
 30
0.0
 11
6463.745632473
 21
4234.2047038711
 31
0.0
  0
LINE
  5
30D
330
1F
100
AcDbEntity
  8
0
  6
Continuous
 62
     8
370
    25
100
AcDbLine
 10
6728.5197443145
 20
4223.5970123863
 30
0.0
 11
6728.5197443145
 21
4223.5041191675
 31
0.0
  0
LINE
  5
30E
330
1F
100
AcDbEntity
  8
0
  6
Continuous
 62
     8
370
    25
100
AcDbLine
 10
6352.1197443145
 20
4223.5041191675
 30
0.0
 11
6352.1197443145
 21
4223.5970123863
 31
0.0
  0
ENDSEC
  0
SECTION
  2
OBJECTS
  0
DICTIONARY
  5
C
330
0
100
AcDbDictionary
281
     1
  3
ACAD_GROUP
350
D
  3
ACAD_LAYOUT
350
1A
  3
ACAD_MLINESTYLE
350
17
  3
ACAD_PLOTSETTINGS
350
19
  3
ACAD_PLOTSTYLENAME
350
E
  3
ACAD_SCALELIST
350
47
  3
DWGPROPS
350
30F
  0
DICTIONARY
  5
D
102
{ACAD_REACTORS
330
C
102
}
330
C
100
AcDbDictionary
281
     1
  0
DICTIONARY
  5
1A
102
{ACAD_REACTORS
330
C
102
}
330
C
100
AcDbDictionary
281
     1
  3
Layout1
350
1E
  3
Layout2
350
26
  3
Model
350
22
  0
DICTIONARY
  5
17
102
{ACAD_REACTORS
330
C
102
}
330
C
100
AcDbDictionary
281
     1
  3
Standard
350
18
  0
DICTIONARY
  5
19
102
{ACAD_REACTORS
330
C
102
}
330
C
100
AcDbDictionary
281
     1
  0
ACDBDICTIONARYWDFLT
  5
E
102
{ACAD_REACTORS
330
C
102
}
330
C
100
AcDbDictionary
281
     1
  3
Normal
350
F
100
AcDbDictionaryWithDefault
340
F
  0
DICTIONARY
  5
47
102
{ACAD_REACTORS
330
C
102
}
330
C
100
AcDbDictionary
281
     1
  3
A0
350
48
  3
A1
350
49
  3
A2
350
4A
  3
A3
350
4B
  3
A4
350
4C
  3
A5
350
4D
  3
A6
350
4E
  3
A7
350
4F
  3
A8
350
50
  3
A9
350
51
  3
B0
350
52
  3
B1
350
53
  3
B2
350
54
  3
B3
350
55
  3
B4
350
56
  3
B5
350
57
  3
B6
350
58
  3
B7
350
59
  3
B8
350
5A
  3
B9
350
5B
  3
C0
350
5C
  3
C1
350
5D
  3
C2
350
5E
  3
C3
350
5F
  3
C4
350
60
  3
C5
350
61
  3
C6
350
62
  3
C7
350
63
  3
C8
350
64
  3
C9
350
65
  3
D0
350
66
  3
D1
350
67
  3
D2
350
68
  0
XRECORD
  5
30F
102
{ACAD_REACTORS
330
C
102
}
330
C
100
AcDbXrecord
280
     1
  1
DWGPROPS COOKIE
  2

  3

  4

  6

  7

  8
radek.stransky
  9

300
=
301
=
302
=
303
=
304
=
305
=
306
=
307
=
308
=
309
=
 40
0.0
 41
2459123.499678137
 42
2459123.499678495
  1

 90
        0
  0
LAYOUT
  5
1E
102
{ACAD_REACTORS
330
1A
102
}
330
1A
100
AcDbPlotSettings
  1

  2
none_device
  4

  6

 40
0.0
 41
0.0
 42
0.0
 43
0.0
 44
0.0
 45
0.0
 46
0.0
 47
0.0
 48
0.0
 49
0.0
140
0.0
141
0.0
142
1.0
143
1.0
 70
   688
 72
     1
 73
     0
 74
     5
  7

 75
    16
147
1.0
148
0.0
149
0.0
100
AcDbLayout
  1
Layout1
 70
     1
 71
     1
 10
0.0
 20
0.0
 11
420.0
 21
297.0
 12
0.0
 22
0.0
 32
0.0
 14
1.0000000000E+20
 24
1.0000000000E+20
 34
1.0000000000E+20
 15
-1.0000000000E+20
 25
-1.0000000000E+20
 35
-1.0000000000E+20
146
0.0
 13
0.0
 23
0.0
 33
0.0
 16
1.0
 26
0.0
 36
0.0
 17
0.0
 27
1.0
 37
0.0
 76
     0
330
1B
  0
LAYOUT
  5
26
102
{ACAD_REACTORS
330
1A
102
}
330
1A
100
AcDbPlotSettings
  1

  2
none_device
  4

  6

 40
0.0
 41
0.0
 42
0.0
 43
0.0
 44
0.0
 45
0.0
 46
0.0
 47
0.0
 48
0.0
 49
0.0
140
0.0
141
0.0
142
1.0
143
1.0
 70
   688
 72
     1
 73
     0
 74
     5
  7

 75
    16
147
1.0
148
0.0
149
0.0
100
AcDbLayout
  1
Layout2
 70
     1
 71
     2
 10
0.0
 20
0.0
 11
0.0
 21
0.0
 12
0.0
 22
0.0
 32
0.0
 14
0.0
 24
0.0
 34
0.0
 15
0.0
 25
0.0
 35
0.0
146
0.0
 13
0.0
 23
0.0
 33
0.0
 16
1.0
 26
0.0
 36
0.0
 17
0.0
 27
1.0
 37
0.0
 76
     0
330
23
  0
LAYOUT
  5
22
102
{ACAD_REACTORS
330
1A
102
}
330
1A
100
AcDbPlotSettings
  1

  2
none_device
  4
Letter_(8.50_x_11.00_Inches)
  6

 40
6.35
 41
6.35
 42
6.35000508
 43
6.35000508
 44
215.9
 45
279.4
 46
0.0
 47
0.0
 48
0.0
 49
0.0
140
0.0
141
0.0
142
1.0
143
1.0
 70
  1712
 72
     1
 73
     0
 74
     0
  7

 75
     0
147
1.0
148
0.0
149
0.0
100
AcDbLayout
  1
Model
 70
     1
 71
     0
 10
0.0
 20
0.0
 11
20000.0
 21
10000.0
 12
0.0
 22
0.0
 32
0.0
 14
0.0
 24
0.0
 34
0.0
 15
20000.0
 25
10000.0
 35
0.0
146
0.0
 13
0.0
 23
0.0
 33
0.0
 16
1.0
 26
0.0
 36
0.0
 17
0.0
 27
1.0
 37
0.0
 76
     0
330
1F
331
29
  0
MLINESTYLE
  5
18
102
{ACAD_REACTORS
330
17
102
}
330
17
100
AcDbMlineStyle
  2
Standard
 70
     0
  3

 62
   256
 51
90.0
 52
90.0
 71
     2
 49
0.5
 62
   256
  6
BYLAYER
 49
-0.5
 62
   256
  6
BYLAYER
  0
ACDBPLACEHOLDER
  5
F
102
{ACAD_REACTORS
330
E
102
}
330
E
  0
SCALE
  5
48
102
{ACAD_REACTORS
330
47
102
}
330
47
100
AcDbScale
 70
     0
300
1:1
140
1.0
141
1.0
290
     1
  0
SCALE
  5
49
102
{ACAD_REACTORS
330
47
102
}
330
47
100
AcDbScale
 70
     0
300
1:2
140
1.0
141
2.0
290
     0
  0
SCALE
  5
4A
102
{ACAD_REACTORS
330
47
102
}
330
47
100
AcDbScale
 70
     0
300
1:4
140
1.0
141
4.0
290
     0
  0
SCALE
  5
4B
102
{ACAD_REACTORS
330
47
102
}
330
47
100
AcDbScale
 70
     0
300
1:5
140
1.0
141
5.0
290
     0
  0
SCALE
  5
4C
102
{ACAD_REACTORS
330
47
102
}
330
47
100
AcDbScale
 70
     0
300
1:8
140
1.0
141
8.0
290
     0
  0
SCALE
  5
4D
102
{ACAD_REACTORS
330
47
102
}
330
47
100
AcDbScale
 70
     0
300
1:10
140
1.0
141
10.0
290
     0
  0
SCALE
  5
4E
102
{ACAD_REACTORS
330
47
102
}
330
47
100
AcDbScale
 70
     0
300
1:16
140
1.0
141
16.0
290
     0
  0
SCALE
  5
4F
102
{ACAD_REACTORS
330
47
102
}
330
47
100
AcDbScale
 70
     0
300
1:20
140
1.0
141
20.0
290
     0
  0
SCALE
  5
50
102
{ACAD_REACTORS
330
47
102
}
330
47
100
AcDbScale
 70
     0
300
1:30
140
1.0
141
30.0
290
     0
  0
SCALE
  5
51
102
{ACAD_REACTORS
330
47
102
}
330
47
100
AcDbScale
 70
     0
300
1:40
140
1.0
141
40.0
290
     0
  0
SCALE
  5
52
102
{ACAD_REACTORS
330
47
102
}
330
47
100
AcDbScale
 70
     0
300
1:50
140
1.0
141
50.0
290
     0
  0
SCALE
  5
53
102
{ACAD_REACTORS
330
47
102
}
330
47
100
AcDbScale
 70
     0
300
1:100
140
1.0
141
100.0
290
     0
  0
SCALE
  5
54
102
{ACAD_REACTORS
330
47
102
}
330
47
100
AcDbScale
 70
     0
300
2:1
140
2.0
141
1.0
290
     0
  0
SCALE
  5
55
102
{ACAD_REACTORS
330
47
102
}
330
47
100
AcDbScale
 70
     0
300
4:1
140
4.0
141
1.0
290
     0
  0
SCALE
  5
56
102
{ACAD_REACTORS
330
47
102
}
330
47
100
AcDbScale
 70
     0
300
8:1
140
8.0
141
1.0
290
     0
  0
SCALE
  5
57
102
{ACAD_REACTORS
330
47
102
}
330
47
100
AcDbScale
 70
     0
300
10:1
140
10.0
141
1.0
290
     0
  0
SCALE
  5
58
102
{ACAD_REACTORS
330
47
102
}
330
47
100
AcDbScale
 70
     0
300
100:1
140
100.0
141
1.0
290
     0
  0
SCALE
  5
59
102
{ACAD_REACTORS
330
47
102
}
330
47
100
AcDbScale
 70
     0
300
1/128" = 1'-0"
140
0.0078125
141
12.0
290
     0
  0
SCALE
  5
5A
102
{ACAD_REACTORS
330
47
102
}
330
47
100
AcDbScale
 70
     0
300
1/64" = 1'-0"
140
0.015625
141
12.0
290
     0
  0
SCALE
  5
5B
102
{ACAD_REACTORS
330
47
102
}
330
47
100
AcDbScale
 70
     0
300
1/32" = 1'-0"
140
0.03125
141
12.0
290
     0
  0
SCALE
  5
5C
102
{ACAD_REACTORS
330
47
102
}
330
47
100
AcDbScale
 70
     0
300
1/16" = 1'-0"
140
0.0625
141
12.0
290
     0
  0
SCALE
  5
5D
102
{ACAD_REACTORS
330
47
102
}
330
47
100
AcDbScale
 70
     0
300
3/32" = 1'-0"
140
0.09375
141
12.0
290
     0
  0
SCALE
  5
5E
102
{ACAD_REACTORS
330
47
102
}
330
47
100
AcDbScale
 70
     0
300
1/8" = 1'-0"
140
0.125
141
12.0
290
     0
  0
SCALE
  5
5F
102
{ACAD_REACTORS
330
47
102
}
330
47
100
AcDbScale
 70
     0
300
3/16" = 1'-0"
140
0.1875
141
12.0
290
     0
  0
SCALE
  5
60
102
{ACAD_REACTORS
330
47
102
}
330
47
100
AcDbScale
 70
     0
300
1/4" = 1'-0"
140
0.25
141
12.0
290
     0
  0
SCALE
  5
61
102
{ACAD_REACTORS
330
47
102
}
330
47
100
AcDbScale
 70
     0
300
3/8" = 1'-0"
140
0.375
141
12.0
290
     0
  0
SCALE
  5
62
102
{ACAD_REACTORS
330
47
102
}
330
47
100
AcDbScale
 70
     0
300
1/2" = 1'-0"
140
0.5
141
12.0
290
     0
  0
SCALE
  5
63
102
{ACAD_REACTORS
330
47
102
}
330
47
100
AcDbScale
 70
     0
300
3/4" = 1'-0"
140
0.75
141
12.0
290
     0
  0
SCALE
  5
64
102
{ACAD_REACTORS
330
47
102
}
330
47
100
AcDbScale
 70
     0
300
1" = 1'-0"
140
1.0
141
12.0
290
     0
  0
SCALE
  5
65
102
{ACAD_REACTORS
330
47
102
}
330
47
100
AcDbScale
 70
     0
300
1-1/2" = 1'-0"
140
1.5
141
12.0
290
     0
  0
SCALE
  5
66
102
{ACAD_REACTORS
330
47
102
}
330
47
100
AcDbScale
 70
     0
300
3" = 1'-0"
140
3.0
141
12.0
290
     0
  0
SCALE
  5
67
102
{ACAD_REACTORS
330
47
102
}
330
47
100
AcDbScale
 70
     0
300
6" = 1'-0"
140
6.0
141
12.0
290
     0
  0
SCALE
  5
68
102
{ACAD_REACTORS
330
47
102
}
330
47
100
AcDbScale
 70
     0
300
1'-0" = 1'-0"
140
12.0
141
12.0
290
     0
  0
ENDSEC
  0
EOF
