  0
SECTION
  2
HEADER
  9
$ACADVER
  1
AC1015
  9
$ACADMAINTVER
 70
     6
  9
$DWGCODEPAGE
  3
ANSI_1250
  9
$INSBASE
 10
0.0
 20
0.0
 30
0.0
  9
$EXTMIN
 10
0.0
 20
0.0
 30
0.0
  9
$EXTMAX
 10
20000.0
 20
10000.0
 30
0.0
  9
$LIMMIN
 10
0.0
 20
0.0
  9
$LIMMAX
 10
20000.0
 20
10000.0
  9
$ORTHOMODE
 70
     0
  9
$REGENMODE
 70
     1
  9
$FILLMODE
 70
     1
  9
$QTEXTMODE
 70
     0
  9
$MIRRTEXT
 70
     1
  9
$LTSCALE
 40
1.0
  9
$ATTMODE
 70
     1
  9
$TEXTSIZE
 40
2.0
  9
$TRACEWID
 40
1.0
  9
$TEXTSTYLE
  7
Standard
  9
$CLAYER
  8
0
  9
$CELTYPE
  6
ByLayer
  9
$CECOLOR
 62
   256
  9
$CELTSCALE
 40
1.0
  9
$DISPSILH
 70
     0
  9
$DIMSCALE
 40
1.0
  9
$DIMASZ
 40
2.0
  9
$DIMEXO
 40
1.0
  9
$DIMDLI
 40
3.75
  9
$DIMRND
 40
0.0
  9
$DIMDLE
 40
0.0
  9
$DIMEXE
 40
1.0
  9
$DIMTP
 40
0.0
  9
$DIMTM
 40
0.0
  9
$DIMTXT
 40
2.0
  9
$DIMCEN
 40
2.5
  9
$DIMTSZ
 40
0.0
  9
$DIMTOL
 70
     0
  9
$DIMLIM
 70
     0
  9
$DIMTIH
 70
     1
  9
$DIMTOH
 70
     1
  9
$DIMSE1
 70
     0
  9
$DIMSE2
 70
     0
  9
$DIMTAD
 70
     1
  9
$DIMZIN
 70
     0
  9
$DIMBLK
  1

  9
$DIMASO
 70
     1
  9
$DIMSHO
 70
     1
  9
$DIMPOST
  1

  9
$DIMAPOST
  1

  9
$DIMALT
 70
     0
  9
$DIMALTD
 70
     3
  9
$DIMALTF
 40
0.0393700787
  9
$DIMLFAC
 40
1.0
  9
$DIMTOFL
 70
     1
  9
$DIMTVP
 40
0.0
  9
$DIMTIX
 70
     0
  9
$DIMSOXD
 70
     0
  9
$DIMSAH
 70
     0
  9
$DIMBLK1
  1

  9
$DIMBLK2
  1

  9
$DIMSTYLE
  2
ISO-25
  9
$DIMCLRD
 70
     0
  9
$DIMCLRE
 70
     0
  9
$DIMCLRT
 70
     0
  9
$DIMTFAC
 40
1.0
  9
$DIMGAP
 40
1.524
  9
$DIMJUST
 70
     0
  9
$DIMSD1
 70
     0
  9
$DIMSD2
 70
     0
  9
$DIMTOLJ
 70
     0
  9
$DIMTZIN
 70
     0
  9
$DIMALTZ
 70
     0
  9
$DIMALTTZ
 70
     0
  9
$DIMUPT
 70
     0
  9
$DIMDEC
 70
     2
  9
$DIMTDEC
 70
     0
  9
$DIMALTU
 70
     2
  9
$DIMALTTD
 70
     3
  9
$DIMTXSTY
  7
Standard
  9
$DIMAUNIT
 70
     0
  9
$DIMADEC
 70
     2
  9
$DIMALTRND
 40
0.0
  9
$DIMAZIN
 70
     0
  9
$DIMDSEP
 70
    44
  9
$DIMATFIT
 70
     3
  9
$DIMFRAC
 70
     0
  9
$DIMLDRBLK
  1

  9
$DIMLUNIT
 70
     2
  9
$DIMLWD
 70
    -2
  9
$DIMLWE
 70
    -2
  9
$DIMTMOVE
 70
     0
  9
$LUNITS
 70
     2
  9
$LUPREC
 70
     3
  9
$SKETCHINC
 40
1.0
  9
$FILLETRAD
 40
10.0
  9
$AUNITS
 70
     0
  9
$AUPREC
 70
     2
  9
$MENU
  1
.
  9
$ELEVATION
 40
0.0
  9
$PELEVATION
 40
0.0
  9
$THICKNESS
 40
0.0
  9
$LIMCHECK
 70
     0
  9
$CHAMFERA
 40
0.0
  9
$CHAMFERB
 40
0.0
  9
$CHAMFERC
 40
0.0
  9
$CHAMFERD
 40
0.0
  9
$SKPOLY
 70
     0
  9
$TDCREATE
 40
2458708.590747928
  9
$TDUCREATE
 40
2458708.507414595
  9
$TDUPDATE
 40
2458708.590747928
  9
$TDUUPDATE
 40
2458708.507414595
  9
$TDINDWG
 40
0.0000000116
  9
$TDUSRTIMER
 40
0.0000000116
  9
$USRTIMER
 70
     1
  9
$ANGBASE
 50
0.0
  9
$ANGDIR
 70
     0
  9
$PDMODE
 70
     0
  9
$PDSIZE
 40
-1.0
  9
$PLINEWID
 40
0.0
  9
$SPLFRAME
 70
     0
  9
$SPLINETYPE
 70
     6
  9
$SPLINESEGS
 70
     8
  9
$HANDSEED
  5
10B
  9
$SURFTAB1
 70
     6
  9
$SURFTAB2
 70
     6
  9
$SURFTYPE
 70
     6
  9
$SURFU
 70
     6
  9
$SURFV
 70
     6
  9
$UCSBASE
  2

  9
$UCSNAME
  2

  9
$UCSORG
 10
0.0
 20
0.0
 30
0.0
  9
$UCSXDIR
 10
1.0
 20
0.0
 30
0.0
  9
$UCSYDIR
 10
0.0
 20
1.0
 30
0.0
  9
$UCSORTHOREF
  2

  9
$UCSORTHOVIEW
 70
     0
  9
$UCSORGTOP
 10
0.0
 20
0.0
 30
0.0
  9
$UCSORGBOTTOM
 10
0.0
 20
0.0
 30
0.0
  9
$UCSORGLEFT
 10
0.0
 20
0.0
 30
0.0
  9
$UCSORGRIGHT
 10
0.0
 20
0.0
 30
0.0
  9
$UCSORGFRONT
 10
0.0
 20
0.0
 30
0.0
  9
$UCSORGBACK
 10
0.0
 20
0.0
 30
0.0
  9
$PUCSBASE
  2

  9
$PUCSNAME
  2

  9
$PUCSORG
 10
0.0
 20
0.0
 30
0.0
  9
$PUCSXDIR
 10
1.0
 20
0.0
 30
0.0
  9
$PUCSYDIR
 10
0.0
 20
1.0
 30
0.0
  9
$PUCSORTHOREF
  2

  9
$PUCSORTHOVIEW
 70
     0
  9
$PUCSORGTOP
 10
0.0
 20
0.0
 30
0.0
  9
$PUCSORGBOTTOM
 10
0.0
 20
0.0
 30
0.0
  9
$PUCSORGLEFT
 10
0.0
 20
0.0
 30
0.0
  9
$PUCSORGRIGHT
 10
0.0
 20
0.0
 30
0.0
  9
$PUCSORGFRONT
 10
0.0
 20
0.0
 30
0.0
  9
$PUCSORGBACK
 10
0.0
 20
0.0
 30
0.0
  9
$USERI1
 70
     0
  9
$USERI2
 70
     0
  9
$USERI3
 70
     0
  9
$USERI4
 70
     0
  9
$USERI5
 70
     0
  9
$USERR1
 40
0.0
  9
$USERR2
 40
0.0
  9
$USERR3
 40
0.0
  9
$USERR4
 40
0.0
  9
$USERR5
 40
0.0
  9
$WORLDVIEW
 70
     1
  9
$SHADEDGE
 70
     3
  9
$SHADEDIF
 70
    70
  9
$TILEMODE
 70
     1
  9
$MAXACTVP
 70
    64
  9
$PINSBASE
 10
0.0
 20
0.0
 30
0.0
  9
$PLIMCHECK
 70
     0
  9
$PEXTMIN
 10
1.0000000000E+20
 20
1.0000000000E+20
 30
1.0000000000E+20
  9
$PEXTMAX
 10
-1.0000000000E+20
 20
-1.0000000000E+20
 30
-1.0000000000E+20
  9
$PLIMMIN
 10
0.0
 20
0.0
  9
$PLIMMAX
 10
420.0
 20
297.0
  9
$UNITMODE
 70
     0
  9
$VISRETAIN
 70
     1
  9
$PLINEGEN
 70
     0
  9
$PSLTSCALE
 70
     1
  9
$TREEDEPTH
 70
  3020
  9
$CMLSTYLE
  2
Standard
  9
$CMLJUST
 70
     0
  9
$CMLSCALE
 40
20.0
  9
$PROXYGRAPHICS
 70
     1
  9
$MEASUREMENT
 70
     1
  9
$CELWEIGHT
370
    -1
  9
$ENDCAPS
280
     0
  9
$JOINSTYLE
280
     0
  9
$LWDISPLAY
290
     1
  9
$INSUNITS
 70
     4
  9
$HYPERLINKBASE
  1

  9
$STYLESHEET
  1

  9
$XEDIT
290
     1
  9
$CEPSNTYPE
380
     0
  9
$PSTYLEMODE
290
     1
  9
$FINGERPRINTGUID
  2
{94DD12C6-4B2B-4AAF-9823-D45F82EC971B}
  9
$VERSIONGUID
  2
{FAEB1C32-E019-11D5-929B-00C0DF256EC4}
  9
$EXTNAMES
290
     1
  9
$PSVPSCALE
 40
0.0
  9
$OLESTARTUP
290
     0
  0
ENDSEC
  0
SECTION
  2
CLASSES
  0
CLASS
  1
ACDBDICTIONARYWDFLT
  2
AcDbDictionaryWithDefault
  3
ObjectDBX Classes
 90
        0
280
     0
281
     0
  0
CLASS
  1
VISUALSTYLE
  2
AcDbVisualStyle
  3
ObjectDBX Classes
 90
     4095
280
     0
281
     0
  0
CLASS
  1
MATERIAL
  2
AcDbMaterial
  3
ObjectDBX Classes
 90
     1153
280
     0
281
     0
  0
CLASS
  1
SCALE
  2
AcDbScale
  3
ObjectDBX Classes
 90
     1153
280
     0
281
     0
  0
CLASS
  1
TABLESTYLE
  2
AcDbTableStyle
  3
ObjectDBX Classes
 90
     4095
280
     0
281
     0
  0
CLASS
  1
MLEADERSTYLE
  2
AcDbMLeaderStyle
  3
ACDB_MLEADERSTYLE_CLASS
 90
     4095
280
     0
281
     0
  0
CLASS
  1
SUN
  2
AcDbSun
  3
SCENEOE
 90
     1153
280
     0
281
     0
  0
CLASS
  1
ACDBPLACEHOLDER
  2
AcDbPlaceHolder
  3
ObjectDBX Classes
 90
        0
280
     0
281
     0
  0
CLASS
  1
LAYOUT
  2
AcDbLayout
  3
ObjectDBX Classes
 90
        0
280
     0
281
     0
  0
ENDSEC
  0
SECTION
  2
TABLES
  0
TABLE
  2
VPORT
  5
8
330
0
100
AcDbSymbolTable
 70
     1
  0
VPORT
  5
29
330
8
100
AcDbSymbolTableRecord
100
AcDbViewportTableRecord
  2
*Active
 70
     0
 10
0.0
 20
0.0
 11
1.0
 21
1.0
 12
10000.0
 22
5000.0
 13
0.0
 23
0.0
 14
10.0
 24
10.0
 15
10.0
 25
10.0
 16
0.0
 26
0.0
 36
1.0
 17
0.0
 27
0.0
 37
0.0
 40
10000.0
 41
2.0
 42
50.0
 43
0.0
 44
0.0
 50
0.0
 51
0.0
 71
     0
 72
  2000
 73
     1
 74
     3
 75
     0
 76
     0
 77
     0
 78
     0
281
     0
 65
     1
110
0.0
120
0.0
130
0.0
111
1.0
121
0.0
131
0.0
112
0.0
122
1.0
132
0.0
 79
     0
146
0.0
  0
ENDTAB
  0
TABLE
  2
LTYPE
  5
5
330
0
100
AcDbSymbolTable
 70
     6
  0
LTYPE
  5
14
330
5
100
AcDbSymbolTableRecord
100
AcDbLinetypeTableRecord
  2
ByBlock
 70
     0
  3

 72
    65
 73
     0
 40
0.0
  0
LTYPE
  5
15
330
5
100
AcDbSymbolTableRecord
100
AcDbLinetypeTableRecord
  2
ByLayer
 70
     0
  3

 72
    65
 73
     0
 40
0.0
  0
LTYPE
  5
16
330
5
100
AcDbSymbolTableRecord
100
AcDbLinetypeTableRecord
  2
Continuous
 70
     0
  3
Solid line
 72
    65
 73
     0
 40
0.0
  0
LTYPE
  5
6E
330
5
100
AcDbSymbolTableRecord
100
AcDbLinetypeTableRecord
  2
HIDDEN
 70
     0
  3
Hidden __ __ __ __ __ __ __ __ __ __ __ __ __ __
 72
    65
 73
     2
 40
1.905
 49
1.27
 74
     0
 49
-0.635
 74
     0
  0
LTYPE
  5
6F
330
5
100
AcDbSymbolTableRecord
100
AcDbLinetypeTableRecord
  2
PHANTOM
 70
     0
  3
Phantom ______  __  __  ______  __  __  ______
 72
    65
 73
     6
 40
12.7
 49
6.35
 74
     0
 49
-1.27
 74
     0
 49
1.27
 74
     0
 49
-1.27
 74
     0
 49
1.27
 74
     0
 49
-1.27
 74
     0
  0
LTYPE
  5
70
330
5
100
AcDbSymbolTableRecord
100
AcDbLinetypeTableRecord
  2
CENTER
 70
     0
  3
Center ____ _ ____ _ ____ _ ____ _ ____ _ ____
 72
    65
 73
     4
 40
10.16
 49
6.35
 74
     0
 49
-1.27
 74
     0
 49
1.27
 74
     0
 49
-1.27
 74
     0
  0
LTYPE
  5
71
330
5
100
AcDbSymbolTableRecord
100
AcDbLinetypeTableRecord
  2
CENTERX2
 70
     0
  3
Center (2x) ________  __  ________  __  _____
 72
    65
 73
     4
 40
20.32
 49
12.7
 74
     0
 49
-2.54
 74
     0
 49
2.54
 74
     0
 49
-2.54
 74
     0
  0
LTYPE
  5
72
330
5
100
AcDbSymbolTableRecord
100
AcDbLinetypeTableRecord
  2
DOT2
 70
     0
  3
Dot (.5x) ........................................
 72
    65
 73
     2
 40
0.635
 49
0.0
 74
     0
 49
-0.635
 74
     0
  0
ENDTAB
  0
TABLE
  2
LAYER
  5
2
330
0
100
AcDbSymbolTable
 70
    13
  0
LAYER
  5
10
330
2
100
AcDbSymbolTableRecord
100
AcDbLayerTableRecord
  2
0
 70
     0
 62
     7
  6
Continuous
370
    -3
390
F
  0
LAYER
  5
73
330
2
100
AcDbSymbolTableRecord
100
AcDbLayerTableRecord
  2
FORMAT
 70
     0
 62
     7
  6
Continuous
370
    -3
390
F
  0
LAYER
  5
74
330
2
100
AcDbSymbolTableRecord
100
AcDbLayerTableRecord
  2
OSA
 70
     0
 62
     7
  6
CENTER
370
    -3
390
F
  0
LAYER
  5
75
330
2
100
AcDbSymbolTableRecord
100
AcDbLayerTableRecord
  2
0_35
 70
     0
 62
     7
  6
Continuous
370
    35
390
F
  0
LAYER
  5
76
330
2
100
AcDbSymbolTableRecord
100
AcDbLayerTableRecord
  2
0_5
 70
     0
 62
     7
  6
Continuous
370
    50
390
F
  0
LAYER
  5
77
330
2
100
AcDbSymbolTableRecord
100
AcDbLayerTableRecord
  2
0_25
 70
     0
 62
     7
  6
Continuous
370
    25
390
F
  0
LAYER
  5
78
330
2
100
AcDbSymbolTableRecord
100
AcDbLayerTableRecord
  2
0_18
 70
     0
 62
     7
  6
Continuous
370
    -3
390
F
  0
LAYER
  5
79
330
2
100
AcDbSymbolTableRecord
100
AcDbLayerTableRecord
  2
SLD-0
 70
     0
 62
   179
  6
Continuous
370
    -3
390
F
  0
LAYER
  5
7A
330
2
100
AcDbSymbolTableRecord
100
AcDbLayerTableRecord
  2
KOTY
 70
     0
 62
     7
  6
Continuous
370
    -3
390
F
  0
LAYER
  5
7B
330
2
100
AcDbSymbolTableRecord
100
AcDbLayerTableRecord
  2
SILNA
 70
     0
 62
   179
  6
Continuous
370
    -3
390
F
  0
LAYER
  5
7C
330
2
100
AcDbSymbolTableRecord
100
AcDbLayerTableRecord
  2
0_18_1
 70
     0
 62
   179
  6
Continuous
370
    -3
390
F
  0
LAYER
  5
7D
330
2
100
AcDbSymbolTableRecord
100
AcDbLayerTableRecord
  2
0_35_1
 70
     0
 62
   179
  6
Continuous
370
    35
390
F
  0
LAYER
  5
7E
330
2
100
AcDbSymbolTableRecord
100
AcDbLayerTableRecord
  2
0_5_1
 70
     0
 62
   179
  6
Continuous
370
    50
390
F
  0
ENDTAB
  0
TABLE
  2
STYLE
  5
3
330
0
100
AcDbSymbolTable
 70
     1
  0
STYLE
  5
11
330
3
100
AcDbSymbolTableRecord
100
AcDbTextStyleTableRecord
  2
Standard
 70
     0
 40
0.0
 41
1.0
 50
0.0
 71
     0
 42
2.0
  3
txt
  4

  0
ENDTAB
  0
TABLE
  2
VIEW
  5
6
330
0
100
AcDbSymbolTable
 70
     0
  0
ENDTAB
  0
TABLE
  2
UCS
  5
7
330
0
100
AcDbSymbolTable
 70
     0
  0
ENDTAB
  0
TABLE
  2
APPID
  5
9
330
0
100
AcDbSymbolTable
 70
     1
  0
APPID
  5
12
330
9
100
AcDbSymbolTableRecord
100
AcDbRegAppTableRecord
  2
ACAD
 70
     0
  0
ENDTAB
  0
TABLE
  2
DIMSTYLE
  5
A
330
0
100
AcDbSymbolTable
 70
     1
100
AcDbDimStyleTable
  0
DIMSTYLE
105
27
330
A
100
AcDbSymbolTableRecord
100
AcDbDimStyleTableRecord
  2
ISO-25
 70
     0
 41
2.5
 42
0.625
 43
3.75
 44
1.25
 73
     0
 74
     0
 77
     1
 78
     8
140
2.5
141
2.5
143
0.0393700787
147
0.625
171
     3
172
     1
178
     0
271
     2
272
     2
274
     3
278
    44
283
     0
284
     8
340
11
  0
ENDTAB
  0
TABLE
  2
BLOCK_RECORD
  5
1
330
0
100
AcDbSymbolTable
 70
     1
  0
BLOCK_RECORD
  5
1F
330
1
100
AcDbSymbolTableRecord
100
AcDbBlockTableRecord
  2
*Model_Space
340
22
  0
BLOCK_RECORD
  5
1B
330
1
100
AcDbSymbolTableRecord
100
AcDbBlockTableRecord
  2
*Paper_Space
340
1E
  0
BLOCK_RECORD
  5
23
330
1
100
AcDbSymbolTableRecord
100
AcDbBlockTableRecord
  2
*Paper_Space0
340
26
  0
ENDTAB
  0
ENDSEC
  0
SECTION
  2
BLOCKS
  0
BLOCK
  5
20
330
1F
100
AcDbEntity
  8
0
100
AcDbBlockBegin
  2
*Model_Space
 70
     0
 10
0.0
 20
0.0
 30
0.0
  3
*Model_Space
  1

  0
ENDBLK
  5
21
330
1F
100
AcDbEntity
  8
0
100
AcDbBlockEnd
  0
BLOCK
  5
1C
330
1B
100
AcDbEntity
 67
     1
  8
0
100
AcDbBlockBegin
  2
*Paper_Space
 70
     0
 10
0.0
 20
0.0
 30
0.0
  3
*Paper_Space
  1

  0
ENDBLK
  5
1D
330
1B
100
AcDbEntity
 67
     1
  8
0
100
AcDbBlockEnd
  0
BLOCK
  5
24
330
23
100
AcDbEntity
  8
0
100
AcDbBlockBegin
  2
*Paper_Space0
 70
     0
 10
0.0
 20
0.0
 30
0.0
  3
*Paper_Space0
  1

  0
ENDBLK
  5
25
330
23
100
AcDbEntity
  8
0
100
AcDbBlockEnd
  0
ENDSEC
  0
SECTION
  2
ENTITIES
  0
CIRCLE
  5
7F
330
1F
100
AcDbEntity
  8
0
  6
Continuous
 62
     7
370
    25
100
AcDbCircle
 10
6274.0187553361
 20
5348.9494545927
 30
0.0
 40
7.0
  0
LINE
  5
80
330
1F
100
AcDbEntity
  8
0
  6
Continuous
 62
     7
370
    25
100
AcDbLine
 10
6268.253653864
 20
5347.6546149165
 30
0.0
 11
6279.7838568082
 21
5347.6546149165
 31
0.0
  0
LINE
  5
81
330
1F
100
AcDbEntity
  8
0
  6
Continuous
 62
     7
370
    25
100
AcDbLine
 10
6279.7838568082
 20
5347.6546149165
 30
0.0
 11
6279.7838568082
 21
5350.2442942689
 31
0.0
  0
LINE
  5
82
330
1F
100
AcDbEntity
  8
0
  6
Continuous
 62
     7
370
    25
100
AcDbLine
 10
6279.7838568082
 20
5350.2442942689
 30
0.0
 11
6268.253653864
 21
5350.2442942689
 31
0.0
  0
LINE
  5
83
330
1F
100
AcDbEntity
  8
0
  6
Continuous
 62
     7
370
    25
100
AcDbLine
 10
6268.253653864
 20
5350.2442942689
 30
0.0
 11
6268.253653864
 21
5347.6546149165
 31
0.0
  0
CIRCLE
  5
84
330
1F
100
AcDbEntity
  8
0
  6
Continuous
 62
     7
370
    25
100
AcDbCircle
 10
6274.0187553361
 20
5348.9494545927
 30
0.0
 40
12.0
  0
LINE
  5
85
330
1F
100
AcDbEntity
  8
0
  6
Continuous
 62
     7
370
    25
100
AcDbLine
 10
6408.0187553361
 20
5384.4494545927
 30
0.0
 11
6408.0187553361
 21
5110.0674885815
 31
0.0
  0
LINE
  5
86
330
1F
100
AcDbEntity
  8
0
  6
Continuous
 62
     7
370
    25
100
AcDbLine
 10
6408.0187553361
 20
5110.0674885815
 30
0.0
 11
6405.5187553361
 21
5110.0674885815
 31
0.0
  0
LINE
  5
87
330
1F
100
AcDbEntity
  8
0
  6
Continuous
 62
     7
370
    25
100
AcDbLine
 10
6405.5187553361
 20
5384.4494545927
 30
0.0
 11
6405.5187553361
 21
5110.0674885815
 31
0.0
  0
LINE
  5
88
330
1F
100
AcDbEntity
  8
0
  6
Continuous
 62
     7
370
    25
100
AcDbLine
 10
6405.5187553361
 20
5384.4494545927
 30
0.0
 11
6408.0187553361
 21
5384.4494545927
 31
0.0
  0
LINE
  5
89
330
1F
100
AcDbEntity
  8
0
  6
Continuous
 62
     7
370
    25
100
AcDbLine
 10
6405.5187553361
 20
5386.9494545927
 30
0.0
 11
6142.5187553361
 21
5386.9494545927
 31
0.0
  0
LINE
  5
8A
330
1F
100
AcDbEntity
  8
0
  6
Continuous
 62
     7
370
    25
100
AcDbLine
 10
6405.5187553361
 20
5384.4494545927
 30
0.0
 11
6142.5187553361
 21
5384.4494545927
 31
0.0
  0
LINE
  5
8B
330
1F
100
AcDbEntity
  8
0
  6
Continuous
 62
     7
370
    25
100
AcDbLine
 10
6405.5187553361
 20
5386.9494545927
 30
0.0
 11
6405.5187553361
 21
5384.4494545927
 31
0.0
  0
LINE
  5
8C
330
1F
100
AcDbEntity
  8
0
  6
Continuous
 62
     7
370
    25
100
AcDbLine
 10
6142.5187553361
 20
5386.9494545927
 30
0.0
 11
6142.5187553361
 21
5384.4494545927
 31
0.0
  0
LINE
  5
8D
330
1F
100
AcDbEntity
  8
0
  6
Continuous
 62
     7
370
    25
100
AcDbLine
 10
6405.5187553361
 20
5110.0674885815
 30
0.0
 11
6142.5187553361
 21
5110.0674885815
 31
0.0
  0
LINE
  5
8E
330
1F
100
AcDbEntity
  8
0
  6
Continuous
 62
     7
370
    25
100
AcDbLine
 10
6142.5187553361
 20
5384.4494545927
 30
0.0
 11
6142.5187553361
 21
5110.0674885815
 31
0.0
  0
LINE
  5
8F
330
1F
100
AcDbEntity
  8
0
  6
Continuous
 62
     7
370
    25
100
AcDbLine
 10
6255.4331291547
 20
5116.2878773574
 30
0.0
 11
6368.4328555853
 21
5286.0642705597
 31
0.0
  0
LINE
  5
90
330
1F
100
AcDbEntity
  8
0
  6
Continuous
 62
     7
370
    25
100
AcDbLine
 10
6189.6858242762
 20
5115.1730613905
 30
0.0
 11
6190.8870721194
 21
5115.1730613905
 31
0.0
  0
LINE
  5
91
330
1F
100
AcDbEntity
  8
0
  6
Continuous
 62
     7
370
    25
100
AcDbLine
 10
6192.9682413087
 20
5116.2878773574
 30
0.0
 11
6219.5914306224
 21
5156.2878773574
 31
0.0
  0
LINE
  5
92
330
1F
100
AcDbEntity
  8
0
  6
Continuous
 62
     7
370
    25
100
AcDbLine
 10
6217.5102614331
 20
5160.1730613905
 30
0.0
 11
6216.3090135899
 21
5160.1730613905
 31
0.0
  0
LINE
  5
93
330
1F
100
AcDbEntity
  8
0
  6
Continuous
 62
     7
370
    25
100
AcDbLine
 10
6366.351686396
 20
5289.9494545927
 30
0.0
 11
6345.9304730618
 21
5289.9494545927
 31
0.0
  0
LINE
  5
94
330
1F
100
AcDbEntity
  8
0
  6
Continuous
 62
     7
370
    25
100
AcDbLine
 10
6343.8493038724
 20
5288.8346386258
 30
0.0
 11
6230.8495774417
 21
5119.0582454235
 31
0.0
  0
LINE
  5
95
330
1F
100
AcDbEntity
  8
0
  6
Continuous
 62
     7
370
    25
100
AcDbLine
 10
6214.2278444006
 20
5159.0582454235
 30
0.0
 11
6187.6046550869
 21
5119.0582454235
 31
0.0
  0
ARC
  5
96
330
1F
100
AcDbEntity
  8
0
  6
Continuous
 62
     7
370
    25
100
AcDbCircle
 10
6345.9304730618
 20
5287.4494545927
 30
0.0
 40
2.500000000000656
100
AcDbArc
 50
90.0
 51
146.3530687585
  0
ARC
  5
97
330
1F
100
AcDbEntity
  8
0
  6
Continuous
 62
     7
370
    25
100
AcDbCircle
 10
6216.3090135899
 20
5157.6730613905
 30
0.0
 40
2.50000000000116
100
AcDbArc
 50
90.0
 51
146.3530687585
  0
ARC
  5
98
330
1F
100
AcDbEntity
  8
0
  6
Continuous
 62
     7
370
    25
100
AcDbCircle
 10
6224.5289232905
 20
5170.0230613905
 30
0.0
 40
2.500000000000909
100
AcDbArc
 50
146.3530687585
 51
270.0
  0
ARC
  5
99
330
1F
100
AcDbEntity
  8
0
  6
Continuous
 62
     7
370
    25
100
AcDbCircle
 10
6225.7301711337
 20
5170.0230613905
 30
0.0
 40
2.500000000000909
100
AcDbArc
 50
270.0
 51
326.3530687585
  0
ARC
  5
9A
330
1F
100
AcDbEntity
  8
0
  6
Continuous
 62
     7
370
    25
100
AcDbCircle
 10
6217.5102614331
 20
5157.6730613905
 30
0.0
 40
2.500000000000909
100
AcDbArc
 50
326.3530687585
 51
90.0
  0
ARC
  5
9B
330
1F
100
AcDbEntity
  8
0
  6
Continuous
 62
     7
370
    25
100
AcDbCircle
 10
6366.351686396
 20
5287.4494545927
 30
0.0
 40
2.5
100
AcDbArc
 50
326.3530687585
 51
90.0
  0
ARC
  5
9C
330
1F
100
AcDbEntity
  8
0
  6
Continuous
 62
     7
370
    25
100
AcDbCircle
 10
6189.6858242762
 20
5117.6730613905
 30
0.0
 40
2.500000000000656
100
AcDbArc
 50
146.3530687585
 51
270.0
  0
ARC
  5
9D
330
1F
100
AcDbEntity
  8
0
  6
Continuous
 62
     7
370
    25
100
AcDbCircle
 10
6253.3519599653
 20
5117.6730613905
 30
0.0
 40
2.5
100
AcDbArc
 50
270.0
 51
326.3530687585
  0
ARC
  5
9E
330
1F
100
AcDbEntity
  8
0
  6
Continuous
 62
     7
370
    25
100
AcDbCircle
 10
6232.9307466311
 20
5117.6730613905
 30
0.0
 40
2.5
100
AcDbArc
 50
146.3530687585
 51
270.0
  0
ARC
  5
9F
330
1F
100
AcDbEntity
  8
0
  6
Continuous
 62
     7
370
    25
100
AcDbCircle
 10
6302.6855507069
 20
5287.4494545927
 30
0.0
 40
2.5
100
AcDbArc
 50
90.0
 51
146.3530687585
  0
ARC
  5
A0
330
1F
100
AcDbEntity
  8
0
  6
Continuous
 62
     7
370
    25
100
AcDbCircle
 10
6303.8867985501
 20
5287.4494545927
 30
0.0
 40
2.500000000000656
100
AcDbArc
 50
326.3530687585
 51
90.0
  0
LINE
  5
A1
330
1F
100
AcDbEntity
  8
0
  6
Continuous
 62
     7
370
    25
100
AcDbLine
 10
6227.8113403231
 20
5168.6378773574
 30
0.0
 11
6305.9679677394
 21
5286.0642705597
 31
0.0
  0
ARC
  5
A2
330
1F
100
AcDbEntity
  8
0
  6
Continuous
 62
     7
370
    25
100
AcDbCircle
 10
6190.8870721194
 20
5117.6730613905
 30
0.0
 40
2.5
100
AcDbArc
 50
270.0
 51
326.3530687585
  0
LINE
  5
A3
330
1F
100
AcDbEntity
  8
0
  6
Continuous
 62
     7
370
    25
100
AcDbLine
 10
6232.9307466311
 20
5115.1730613905
 30
0.0
 11
6253.3519599653
 21
5115.1730613905
 31
0.0
  0
LINE
  5
A4
330
1F
100
AcDbEntity
  8
0
  6
Continuous
 62
     7
370
    25
100
AcDbLine
 10
6303.8867985501
 20
5289.9494545927
 30
0.0
 11
6302.6855507069
 21
5289.9494545927
 31
0.0
  0
LINE
  5
A5
330
1F
100
AcDbEntity
  8
0
  6
Continuous
 62
     7
370
    25
100
AcDbLine
 10
6300.6043815175
 20
5288.8346386258
 30
0.0
 11
6222.4477541012
 21
5171.4082454235
 31
0.0
  0
LINE
  5
A6
330
1F
100
AcDbEntity
  8
0
  6
Continuous
 62
     7
370
    25
100
AcDbLine
 10
6224.5289232905
 20
5167.5230613905
 30
0.0
 11
6225.7301711337
 21
5167.5230613905
 31
0.0
  0
LINE
  5
A7
330
1F
100
AcDbEntity
  8
0
  6
Continuous
 62
     7
370
    25
100
AcDbLine
 10
6140.0187553361
 20
5384.4494545927
 30
0.0
 11
6140.0187553361
 21
5110.0674885815
 31
0.0
  0
LINE
  5
A8
330
1F
100
AcDbEntity
  8
0
  6
Continuous
 62
     7
370
    25
100
AcDbLine
 10
6140.0187553361
 20
5384.4494545927
 30
0.0
 11
6142.5187553361
 21
5384.4494545927
 31
0.0
  0
LINE
  5
A9
330
1F
100
AcDbEntity
  8
0
  6
Continuous
 62
     7
370
    25
100
AcDbLine
 10
6142.5187553361
 20
5110.0674885815
 30
0.0
 11
6140.0187553361
 21
5110.0674885815
 31
0.0
  0
LINE
  5
AA
330
1F
100
AcDbEntity
  8
0
  6
Continuous
 62
     7
370
    25
100
AcDbLine
 10
6405.5187553361
 20
5107.831420604
 30
0.0
 11
6142.5187553361
 21
5107.831420604
 31
0.0
  0
LINE
  5
AB
330
1F
100
AcDbEntity
  8
0
  6
Continuous
 62
     7
370
    25
100
AcDbLine
 10
6142.5187553361
 20
5110.0674885815
 30
0.0
 11
6142.5187553361
 21
5107.831420604
 31
0.0
  0
LINE
  5
AC
330
1F
100
AcDbEntity
  8
0
  6
Continuous
 62
     7
370
    25
100
AcDbLine
 10
6405.5187553361
 20
5110.0674885815
 30
0.0
 11
6405.5187553361
 21
5107.831420604
 31
0.0
  0
LINE
  5
AD
330
1F
100
AcDbEntity
  8
0
  6
Continuous
 62
     7
370
    25
100
AcDbLine
 10
6405.5187553361
 20
5107.831420604
 30
0.0
 11
6405.5187553361
 21
5107.7724036096
 31
0.0
  0
LINE
  5
AE
330
1F
100
AcDbEntity
  8
0
  6
Continuous
 62
     7
370
    25
100
AcDbLine
 10
6405.5187553361
 20
5106.7987968118
 30
0.0
 11
6142.5187553361
 21
5106.7987968118
 31
0.0
  0
LINE
  5
AF
330
1F
100
AcDbEntity
  8
0
  6
Continuous
 62
     7
370
    25
100
AcDbLine
 10
6142.5187553361
 20
5107.831420604
 30
0.0
 11
6142.5187553361
 21
5107.7724036096
 31
0.0
  0
LINE
  5
B0
330
1F
100
AcDbEntity
  8
0
  6
Continuous
 62
     7
370
    25
100
AcDbLine
 10
6405.5187553361
 20
5105.9043696208
 30
0.0
 11
6142.5187553361
 21
5105.9043696208
 31
0.0
  0
LINE
  5
B1
330
1F
100
AcDbEntity
  8
0
  6
Continuous
 62
     7
370
    25
100
AcDbLine
 10
6405.5187553361
 20
5092.9494545927
 30
0.0
 11
6142.5187553361
 21
5092.9494545927
 31
0.0
  0
LINE
  5
B2
330
1F
100
AcDbEntity
  8
0
  6
Continuous
 62
     7
370
    25
100
AcDbLine
 10
6405.5187553361
 20
5091.9772364543
 30
0.0
 11
6142.5187553361
 21
5091.9772364543
 31
0.0
  0
LINE
  5
B3
330
1F
100
AcDbEntity
  8
0
  6
Continuous
 62
     7
370
    25
100
AcDbLine
 10
6142.5187553361
 20
5107.7724036096
 30
0.0
 11
6142.5187553361
 21
5091.9772364543
 31
0.0
  0
LINE
  5
B4
330
1F
100
AcDbEntity
  8
0
  6
Continuous
 62
     7
370
    25
100
AcDbLine
 10
6406.5187553361
 20
5090.4494545927
 30
0.0
 11
6141.5187553361
 21
5090.4494545927
 31
0.0
  0
LINE
  5
B5
330
1F
100
AcDbEntity
  8
0
  6
Continuous
 62
     7
370
    25
100
AcDbLine
 10
6405.5187553361
 20
5107.7724036096
 30
0.0
 11
6405.5187553361
 21
5091.9772364543
 31
0.0
  0
LINE
  5
B6
330
1F
100
AcDbEntity
  8
0
  6
Continuous
 62
     7
370
    25
100
AcDbLine
 10
6406.5187553361
 20
5385.4494545927
 30
0.0
 11
6406.5187553361
 21
5384.4494545927
 31
0.0
  0
LINE
  5
B7
330
1F
100
AcDbEntity
  8
0
  6
Continuous
 62
     7
370
    25
100
AcDbLine
 10
6406.5187553361
 20
5110.0674885815
 30
0.0
 11
6406.5187553361
 21
5090.4494545927
 31
0.0
  0
LINE
  5
B8
330
1F
100
AcDbEntity
  8
0
  6
Continuous
 62
     7
370
    25
100
AcDbLine
 10
6141.5187553361
 20
5385.4494545927
 30
0.0
 11
6141.5187553361
 21
5384.4494545927
 31
0.0
  0
LINE
  5
B9
330
1F
100
AcDbEntity
  8
0
  6
Continuous
 62
     7
370
    25
100
AcDbLine
 10
6141.5187553361
 20
5110.0674885815
 30
0.0
 11
6141.5187553361
 21
5090.4494545927
 31
0.0
  0
LINE
  5
BA
330
1F
100
AcDbEntity
  8
0
  6
Continuous
 62
     7
370
    25
100
AcDbLine
 10
6406.5187553361
 20
5385.4494545927
 30
0.0
 11
6405.5187553361
 21
5385.4494545927
 31
0.0
  0
LINE
  5
BB
330
1F
100
AcDbEntity
  8
0
  6
Continuous
 62
     7
370
    25
100
AcDbLine
 10
6142.5187553361
 20
5385.4494545927
 30
0.0
 11
6141.5187553361
 21
5385.4494545927
 31
0.0
  0
SPLINE
  5
BC
330
1F
100
AcDbEntity
  8
0
  6
Continuous
 62
     7
370
    25
100
AcDbSpline
210
0.0
220
0.0
230
1.0
 70
     8
 71
     3
 72
     8
 73
     4
 74
     0
 42
0.000000001
 43
0.00000001
 40
0.0
 40
0.0
 40
0.0
 40
0.0
 40
1.0
 40
1.0
 40
1.0
 40
1.0
 10
6246.5187553361
 20
5042.272480009397
 30
0.0
 10
6245.837583312332
 20
5042.272480009397
 30
0.0
 10
6245.163626438029
 20
5042.283417768081
 30
0.0
 10
6244.496878103325
 20
5042.305579019051
 30
0.0
  0
LINE
  5
BD
330
1F
100
AcDbEntity
  8
0
  6
Continuous
 62
     7
370
    25
100
AcDbLine
 10
6301.5187553361
 20
5042.2724800094
 30
0.0
 11
6246.5187553361
 21
5042.2724800094
 31
0.0
  0
SPLINE
  5
BE
330
1F
100
AcDbEntity
  8
0
  6
Continuous
 62
     7
370
    25
100
AcDbSpline
210
0.0
220
0.0
230
1.0
 70
     8
 71
     3
 72
     8
 73
     4
 74
     0
 42
0.000000001
 43
0.00000001
 40
0.0
 40
0.0
 40
0.0
 40
0.0
 40
1.0
 40
1.0
 40
1.0
 40
1.0
 10
6303.540632568875
 20
5042.305579019051
 30
0.0
 10
6302.873884234171
 20
5042.283417768081
 30
0.0
 10
6302.199927359869
 20
5042.272480009397
 30
0.0
 10
6301.5187553361
 20
5042.272480009397
 30
0.0
  0
ELLIPSE
  5
BF
330
1F
100
AcDbEntity
  8
0
  6
Continuous
 62
     7
370
    25
100
AcDbEllipse
 10
6191.1339924492
 20
5186.4494545927
 30
0.0
 11
707.1875
 21
0.0
 31
0.0
210
0.0
220
0.0
230
1.0
 40
0.2064516129
 41
4.872014856703974
 42
4.984263829094733
  0
SPLINE
  5
C0
330
1F
100
AcDbEntity
  8
0
  6
Continuous
 62
     7
370
    25
100
AcDbSpline
210
0.0
220
0.0
230
1.0
 70
     8
 71
     3
 72
    46
 73
    42
 74
     0
 42
0.000000001
 43
0.00000001
 40
0.0
 40
0.0
 40
0.0
 40
0.0
 40
0.0624999999999982
 40
0.0624999999999982
 40
0.0937499999999978
 40
0.0937499999999978
 40
0.1249999999999975
 40
0.1249999999999975
 40
0.1874999999999971
 40
0.1874999999999971
 40
0.2187499999999969
 40
0.2187499999999969
 40
0.2499999999999968
 40
0.2499999999999968
 40
0.3124999999999937
 40
0.3124999999999937
 40
0.3437499999999926
 40
0.3437499999999926
 40
0.3749999999999914
 40
0.3749999999999914
 40
0.4374999999999903
 40
0.4374999999999903
 40
0.4687499999999912
 40
0.4687499999999912
 40
0.4999999999999921
 40
0.4999999999999921
 40
0.5624999999999931
 40
0.5624999999999931
 40
0.624999999999994
 40
0.624999999999994
 40
0.687499999999995
 40
0.687499999999995
 40
0.749999999999996
 40
0.749999999999996
 40
0.812499999999997
 40
0.812499999999997
 40
0.8749999999999979
 40
0.8749999999999979
 40
0.9374999999999989
 40
0.9374999999999989
 40
1.0
 40
1.0
 40
1.0
 40
1.0
 10
6381.040632568875
 20
5052.810657312096
 30
0.0
 10
6381.622608187228
 20
5052.757798233404
 30
0.0
 10
6382.182215013489
 20
5052.683546579884
 30
0.0
 10
6382.990551321797
 20
5052.543257681607
 30
0.0
 10
6383.254783652087
 20
5052.491647110441
 30
0.0
 10
6383.772859785296
 20
5052.37894886259
 30
0.0
 10
6384.02789754084
 20
5052.317530970201
 30
0.0
 10
6384.767340466747
 20
5052.121779146679
 30
0.0
 10
6385.224960404305
 20
5051.976691157063
 30
0.0
 10
6385.861944325938
 20
5051.73994972964
 30
0.0
 10
6386.065978403565
 20
5051.657829074425
 30
0.0
 10
6386.457463603328
 20
5051.48740168249
 30
0.0
 10
6386.645210193693
 20
5051.398881310256
 30
0.0
 10
6387.174290190102
 20
5051.128998445683
 30
0.0
 10
6387.485112746866
 20
5050.94200112305
 30
0.0
 10
6387.891185835099
 20
5050.65249908398
 30
0.0
 10
6388.01645827631
 20
5050.554484914631
 30
0.0
 10
6388.246600151495
 20
5050.355560888331
 30
0.0
 10
6388.351373338718
 20
5050.254617228967
 30
0.0
 10
6388.629970814642
 20
5049.952759778609
 30
0.0
 10
6388.770416186591
 20
5049.751135387625
 30
0.0
 10
6388.914487448748
 20
5049.448684905856
 30
0.0
 10
6388.951352619645
 20
5049.347861346259
 30
0.0
 10
6389.002270893261
 20
5049.146245245511
 30
0.0
 10
6389.016267021039
 20
5049.045074991228
 30
0.0
 10
6389.022813472001
 20
5048.746483525833
 30
0.0
 10
6388.98080292373
 20
5048.552815047163
 30
0.0
 10
6388.804945560569
 20
5048.175821637657
 30
0.0
 10
6388.670428222078
 20
5047.991825611103
 30
0.0
 10
6388.305618982986
 20
5047.636910258644
 30
0.0
 10
6388.079478968464
 20
5047.469638461025
 30
0.0
 10
6387.541030747628
 20
5047.153833111138
 30
0.0
 10
6387.228755805884
 20
5047.005300619977
 30
0.0
 10
6386.511911848123
 20
5046.726582853018
 30
0.0
 10
6386.116294683541
 20
5046.600012110431
 30
0.0
 10
6385.258210081453
 20
5046.372069164591
 30
0.0
 10
6384.794849003871
 20
5046.270340426991
 30
0.0
 10
6383.795171264989
 20
5046.091038803982
 30
0.0
 10
6383.270868244904
 20
5046.01574402473
 30
0.0
 10
6382.186127956697
 20
5045.893254515679
 30
0.0
 10
6381.623885780905
 20
5045.845731432176
 30
0.0
 10
6381.040632568875
 20
5045.812162822445
 30
0.0
  0
ELLIPSE
  5
C1
330
1F
100
AcDbEntity
  8
0
  6
Continuous
 62
     7
370
    25
100
AcDbEllipse
 10
6665.8214924492
 20
5186.4494545927
 30
0.0
 11
707.1875000000009
 21
0.0
 31
0.0
210
0.0
220
0.0
230
1.0
 40
0.2064516129
 41
4.174546787392551
 42
4.297929770875524
  0
SPLINE
  5
C2
330
1F
100
AcDbEntity
  8
0
  6
Continuous
 62
     7
370
    25
100
AcDbSpline
210
0.0
220
0.0
230
1.0
 70
     8
 71
     3
 72
     8
 73
     4
 74
     0
 42
0.000000001
 43
0.00000001
 40
0.0
 40
0.0
 40
0.0
 40
0.0
 40
1.0
 40
1.0
 40
1.0
 40
1.0
 10
6301.5187553361
 20
5061.185732789477
 30
0.0
 10
6302.202258322551
 20
5061.185732789477
 30
0.0
 10
6302.876138417437
 20
5061.144136879911
 30
0.0
 10
6303.540632568875
 20
5061.062305460396
 30
0.0
  0
LINE
  5
C3
330
1F
100
AcDbEntity
  8
0
  6
Continuous
 62
     7
370
    25
100
AcDbLine
 10
6246.5187553361
 20
5061.1857327895
 30
0.0
 11
6301.5187553361
 21
5061.1857327895
 31
0.0
  0
SPLINE
  5
C4
330
1F
100
AcDbEntity
  8
0
  6
Continuous
 62
     7
370
    25
100
AcDbSpline
210
0.0
220
0.0
230
1.0
 70
     8
 71
     3
 72
     8
 73
     4
 74
     0
 42
0.000000001
 43
0.00000001
 40
0.0
 40
0.0
 40
0.0
 40
0.0
 40
1.0
 40
1.0
 40
1.0
 40
1.0
 10
6244.496878103325
 20
5061.062305460396
 30
0.0
 10
6245.161372254764
 20
5061.144136879911
 30
0.0
 10
6245.835252349651
 20
5061.185732789477
 30
0.0
 10
6246.5187553361
 20
5061.185732789477
 30
0.0
  0
ELLIPSE
  5
C5
330
1F
100
AcDbEntity
  8
0
  6
Continuous
 62
     7
370
    25
100
AcDbEllipse
 10
5882.216018223
 20
5186.4494545927
 30
0.0
 11
707.1874999999991
 21
0.0
 31
0.0
210
0.0
220
0.0
230
1.0
 40
0.2064516129
 41
5.126848189893883
 42
5.25023117337687
  0
SPLINE
  5
C6
330
1F
100
AcDbEntity
  8
0
  6
Continuous
 62
     7
370
    25
100
AcDbSpline
210
0.0
220
0.0
230
1.0
 70
     8
 71
     3
 72
    50
 73
    46
 74
     0
 42
0.000000001
 43
0.00000001
 40
0.0
 40
0.0
 40
0.0
 40
0.0
 40
0.0625000000000019
 40
0.0625000000000019
 40
0.0937500000000032
 40
0.0937500000000032
 40
0.1250000000000044
 40
0.1250000000000044
 40
0.1875000000000056
 40
0.1875000000000056
 40
0.2187500000000055
 40
0.2187500000000055
 40
0.2500000000000053
 40
0.2500000000000053
 40
0.3125000000000057
 40
0.3125000000000057
 40
0.3437500000000067
 40
0.3437500000000067
 40
0.3750000000000077
 40
0.3750000000000077
 40
0.4375000000000104
 40
0.4375000000000104
 40
0.4687500000000119
 40
0.4687500000000119
 40
0.5000000000000133
 40
0.5000000000000133
 40
0.5625000000000155
 40
0.5625000000000155
 40
0.5937500000000152
 40
0.5937500000000152
 40
0.6250000000000148
 40
0.6250000000000148
 40
0.6875000000000142
 40
0.6875000000000142
 40
0.7187500000000131
 40
0.7187500000000131
 40
0.7500000000000119
 40
0.7500000000000119
 40
0.812500000000009
 40
0.812500000000009
 40
0.875000000000006
 40
0.875000000000006
 40
0.937500000000003
 40
0.937500000000003
 40
1.0
 40
1.0
 40
1.0
 40
1.0
 10
6166.996878103325
 20
5045.812162822445
 30
0.0
 10
6166.413754955873
 20
5045.845723946427
 30
0.0
 10
6165.851311584815
 20
5045.893252197315
 30
0.0
 10
6165.037079602026
 20
5045.985211283187
 30
0.0
 10
6164.770605532522
 20
5046.019333585227
 30
0.0
 10
6164.247620050486
 20
5046.094760864442
 30
0.0
 10
6163.989913600493
 20
5046.136288731456
 30
0.0
 10
6163.241643569613
 20
5046.270573375694
 30
0.0
 10
6162.77804391664
 20
5046.372328783781
 30
0.0
 10
6162.133038030463
 20
5046.543780760123
 30
0.0
 10
6161.926484928094
 20
5046.60408578981
 30
0.0
 10
6161.530435285534
 20
5046.731299219178
 30
0.0
 10
6161.340412753502
 20
5046.798463702284
 30
0.0
 10
6160.806054290862
 20
5047.00659926748
 30
0.0
 10
6160.493873030864
 20
5047.155075118345
 30
0.0
 10
6160.088954210399
 20
5047.392997231014
 30
0.0
 10
6159.964598580957
 20
5047.474849825429
 30
0.0
 10
6159.737346206885
 20
5047.643881463974
 30
0.0
 10
6159.634676442211
 20
5047.731012181542
 30
0.0
 10
6159.363889367807
 20
5047.995926905582
 30
0.0
 10
6159.230599103896
 20
5048.17871897876
 30
0.0
 10
6159.099149081379
 20
5048.462509227635
 30
0.0
 10
6159.06680694914
 20
5048.558710248738
 30
0.0
 10
6159.025396221232
 20
5048.754426105334
 30
0.0
 10
6159.016477581664
 20
5048.853832191509
 30
0.0
 10
6159.024802196287
 20
5049.15195257514
 30
0.0
 10
6159.076435182744
 20
5049.352250249392
 30
0.0
 10
6159.221546636387
 20
5049.654809261111
 30
0.0
 10
6159.281253018454
 20
5049.756012181406
 30
0.0
 10
6159.423818012991
 20
5049.959053379494
 30
0.0
 10
6159.507027376762
 20
5050.061177312846
 30
0.0
 10
6159.787582167674
 20
5050.363207978274
 30
0.0
 10
6160.016441530451
 20
5050.560338120922
 30
0.0
 10
6160.422035450665
 20
5050.848836950874
 30
0.0
 10
6160.567672711247
 20
5050.943795119611
 30
0.0
 10
6160.880452064974
 20
5051.131033437417
 30
0.0
 10
6161.048380087405
 20
5051.223705160884
 30
0.0
 10
6161.580248259706
 20
5051.49421720417
 30
0.0
 10
6161.96906850077
 20
5051.66336936504
 30
0.0
 10
6162.815221860234
 20
5051.977515778876
 30
0.0
 10
6163.272509418405
 20
5052.122535393108
 30
0.0
 10
6164.26215432375
 20
5052.384247734695
 30
0.0
 10
6164.779499445663
 20
5052.496870392461
 30
0.0
 10
6165.855496329964
 20
5052.683550260947
 30
0.0
 10
6166.414678403679
 20
5052.757777880781
 30
0.0
 10
6166.996878103325
 20
5052.810657312096
 30
0.0
  0
ELLIPSE
  5
C7
330
1F
100
AcDbEntity
  8
0
  6
Continuous
 62
     7
370
    25
100
AcDbEllipse
 10
6356.903518223
 20
5186.4494545927
 30
0.0
 11
707.1875
 21
0.0
 31
0.0
210
0.0
220
0.0
230
1.0
 40
0.2064516129
 41
4.440514131674661
 42
4.552763104065412
  0
LINE
  5
C8
330
1F
100
AcDbEntity
  8
0
  6
Continuous
 62
     7
370
    25
100
AcDbLine
 10
6406.5187553361
 20
5040.4494545927
 30
0.0
 11
6141.5187553361
 21
5040.4494545927
 31
0.0
  0
LINE
  5
C9
330
1F
100
AcDbEntity
  8
0
  6
Continuous
 62
     7
370
    25
100
AcDbLine
 10
6406.5187553361
 20
5090.4494545927
 30
0.0
 11
6406.5187553361
 21
5040.4494545927
 31
0.0
  0
LINE
  5
CA
330
1F
100
AcDbEntity
  8
0
  6
Continuous
 62
     7
370
    25
100
AcDbLine
 10
6141.5187553361
 20
5090.4494545927
 30
0.0
 11
6141.5187553361
 21
5040.4494545927
 31
0.0
  0
LINE
  5
CB
330
1F
100
AcDbEntity
  8
0
  6
Continuous
 62
     7
370
    25
100
AcDbLine
 10
6381.0406325689
 20
5046.8505726614
 30
0.0
 11
6381.0406325689
 21
5045.8121628224
 31
0.0
  0
SPLINE
  5
CC
330
1F
100
AcDbEntity
  8
0
  6
Continuous
 62
     7
370
    25
100
AcDbSpline
210
0.0
220
0.0
230
1.0
 70
     8
 71
     3
 72
    14
 73
    10
 74
     0
 42
0.000000001
 43
0.00000001
 40
0.0
 40
0.0
 40
0.0
 40
0.0
 40
0.1347334064245599
 40
0.2856834178737009
 40
0.4365920710520841
 40
0.5804280023340427
 40
0.7242328784064522
 40
0.8621241775031756
 40
0.9999999999999999
 40
0.9999999999999999
 40
0.9999999999999999
 40
0.9999999999999999
 10
6388.878951538301
 20
5049.434979348245
 30
0.0
 10
6388.78072471113
 20
5049.256153672529
 30
0.0
 10
6388.572448408632
 20
5048.876978740357
 30
0.0
 10
6387.8634467588
 20
5048.358371000764
 30
0.0
 10
6386.883752739733
 20
5047.887339193885
 30
0.0
 10
6385.649566883631
 20
5047.498087383145
 30
0.0
 10
6384.24537286702
 20
5047.195606294428
 30
0.0
 10
6382.696636196526
 20
5046.971647116606
 30
0.0
 10
6381.592613124767
 20
5046.890929303114
 30
0.0
 10
6381.040632568875
 20
5046.85057266139
 30
0.0
  0
LINE
  5
CD
330
1F
100
AcDbEntity
  8
0
  6
Continuous
 62
     7
370
    25
100
AcDbLine
 10
6166.9968781033
 20
5046.8505726614
 30
0.0
 11
6166.9968781033
 21
5045.8121628224
 31
0.0
  0
SPLINE
  5
CE
330
1F
100
AcDbEntity
  8
0
  6
Continuous
 62
     7
370
    25
100
AcDbSpline
210
0.0
220
0.0
230
1.0
 70
     8
 71
     3
 72
    11
 73
     7
 74
     0
 42
0.000000001
 43
0.00000001
 40
0.0
 40
0.0
 40
0.0
 40
0.0
 40
0.2604838526660262
 40
0.5207596970433774
 40
0.7866746942795755
 40
1.0
 40
1.0
 40
1.0
 40
1.0
 10
6166.996878103325
 20
5046.85057266139
 30
0.0
 10
6165.937700855113
 20
5046.942464605097
 30
0.0
 10
6163.820192160239
 20
5047.126175112586
 30
0.0
 10
6161.314051651464
 20
5047.777398031141
 30
0.0
 10
6159.626735577848
 20
5048.588764855269
 30
0.0
 10
6159.33024897512
 20
5049.249183449674
 30
0.0
 10
6159.198273231887
 20
5049.543157052658
 30
0.0
  0
LINE
  5
CF
330
1F
100
AcDbEntity
  8
0
  6
Continuous
 62
     7
370
    25
100
AcDbLine
 10
6244.4968781033
 20
5043.3185464513
 30
0.0
 11
6244.4968781033
 21
5042.3055790191
 31
0.0
  0
ELLIPSE
  5
D0
330
1F
100
AcDbEntity
  8
0
  6
Continuous
 62
     7
370
    25
100
AcDbEllipse
 10
6356.903518223
 20
5186.4494545927
 30
0.0
 11
702.34375
 21
0.0
 31
0.0
210
0.0
220
0.0
230
1.0
 40
0.2064516129
 41
4.438591010567693
 42
4.55165268998335
  0
LINE
  5
D1
330
1F
100
AcDbEntity
  8
0
  6
Continuous
 62
     7
370
    25
100
AcDbLine
 10
6303.5406325689
 20
5043.3185464513
 30
0.0
 11
6303.5406325689
 21
5042.3055790191
 31
0.0
  0
ELLIPSE
  5
D2
330
1F
100
AcDbEntity
  8
0
  6
Continuous
 62
     7
370
    25
100
AcDbEllipse
 10
6191.1339924492
 20
5186.4494545927
 30
0.0
 11
702.34375
 21
0.0
 31
0.0
210
0.0
220
0.0
230
1.0
 40
0.2064516129
 41
4.873125270786035
 42
4.9861869502017
  0
LINE
  5
D3
330
1F
100
AcDbEntity
  8
0
  6
Continuous
 62
     7
370
    25
100
AcDbLine
 10
6246.5187553361
 20
5043.2852132473
 30
0.0
 11
6246.5187553361
 21
5042.2724800094
 31
0.0
  0
SPLINE
  5
D4
330
1F
100
AcDbEntity
  8
0
  6
Continuous
 62
     7
370
    25
100
AcDbSpline
210
0.0
220
0.0
230
1.0
 70
     8
 71
     3
 72
     8
 73
     4
 74
     0
 42
0.000000001
 43
0.00000001
 40
0.0
 40
0.0
 40
0.0
 40
0.0
 40
1.0
 40
1.0
 40
1.0
 40
1.0
 10
6246.5187553361
 20
5043.285213247333
 30
0.0
 10
6245.83758074738
 20
5043.285213247333
 30
0.0
 10
6245.16362390515
 20
5043.296228445261
 30
0.0
 10
6244.496878103325
 20
5043.318546451265
 30
0.0
  0
LINE
  5
D5
330
1F
100
AcDbEntity
  8
0
  6
Continuous
 62
     7
370
    25
100
AcDbLine
 10
6301.5187553361
 20
5043.2852132473
 30
0.0
 11
6301.5187553361
 21
5042.2724800094
 31
0.0
  0
SPLINE
  5
D6
330
1F
100
AcDbEntity
  8
0
  6
Continuous
 62
     7
370
    25
100
AcDbSpline
210
0.0
220
0.0
230
1.0
 70
     8
 71
     3
 72
     8
 73
     4
 74
     0
 42
0.000000001
 43
0.00000001
 40
0.0
 40
0.0
 40
0.0
 40
0.0
 40
1.0
 40
1.0
 40
1.0
 40
1.0
 10
6303.540632568875
 20
5043.318546451265
 30
0.0
 10
6302.873886767051
 20
5043.296228445261
 30
0.0
 10
6302.19992992482
 20
5043.285213247333
 30
0.0
 10
6301.5187553361
 20
5043.285213247333
 30
0.0
  0
LINE
  5
D7
330
1F
100
AcDbEntity
  8
0
  6
Continuous
 62
     7
370
    25
100
AcDbLine
 10
6301.5187553361
 20
5043.2852132473
 30
0.0
 11
6246.5187553361
 21
5043.2852132473
 31
0.0
  0
LINE
  5
D8
330
1F
100
AcDbEntity
  8
0
  6
Continuous
 62
     7
370
    25
100
AcDbLine
 10
6742.0000716342
 20
5336.9494545927
 30
0.0
 11
6743.0000716342
 21
5336.9494545927
 31
0.0
  0
LINE
  5
D9
330
1F
100
AcDbEntity
  8
0
  6
Continuous
 62
     7
370
    25
100
AcDbLine
 10
6743.0000716342
 20
5360.9494545927
 30
0.0
 11
6742.0000716342
 21
5360.9494545927
 31
0.0
  0
LINE
  5
DA
330
1F
100
AcDbEntity
  8
0
  6
Continuous
 62
     7
370
    25
100
AcDbLine
 10
6743.0000716342
 20
5336.9494545927
 30
0.0
 11
6748.0000716342
 21
5341.9494545927
 31
0.0
  0
LINE
  5
DB
330
1F
100
AcDbEntity
  8
0
  6
Continuous
 62
     7
370
    25
100
AcDbLine
 10
6748.0000716342
 20
5355.9494545927
 30
0.0
 11
6743.0000716342
 21
5360.9494545927
 31
0.0
  0
LINE
  5
DC
330
1F
100
AcDbEntity
  8
0
  6
Continuous
 62
     7
370
    25
100
AcDbLine
 10
6726.5000716342
 20
5110.0674885815
 30
0.0
 11
6726.5000716342
 21
5384.4494545927
 31
0.0
  0
LINE
  5
DD
330
1F
100
AcDbEntity
  8
0
  6
Continuous
 62
     7
370
    25
100
AcDbLine
 10
6739.5000716342
 20
5384.4494545927
 30
0.0
 11
6739.5000716342
 21
5110.0674885815
 31
0.0
  0
LINE
  5
DE
330
1F
100
AcDbEntity
  8
0
  6
Continuous
 62
     7
370
    25
100
AcDbLine
 10
6726.5000716342
 20
5384.4494545927
 30
0.0
 11
6739.5000716342
 21
5384.4494545927
 31
0.0
  0
LINE
  5
DF
330
1F
100
AcDbEntity
  8
0
  6
Continuous
 62
     7
370
    25
100
AcDbLine
 10
6739.5000716342
 20
5110.0674885815
 30
0.0
 11
6726.5000716342
 21
5110.0674885815
 31
0.0
  0
LINE
  5
E0
330
1F
100
AcDbEntity
  8
0
  6
Continuous
 62
     7
370
    25
100
AcDbLine
 10
6742.0000716342
 20
5384.4494545927
 30
0.0
 11
6742.0000716342
 21
5110.0674885815
 31
0.0
  0
LINE
  5
E1
330
1F
100
AcDbEntity
  8
0
  6
Continuous
 62
     7
370
    25
100
AcDbLine
 10
6742.0000716342
 20
5110.0674885815
 30
0.0
 11
6739.5000716342
 21
5110.0674885815
 31
0.0
  0
LINE
  5
E2
330
1F
100
AcDbEntity
  8
0
  6
Continuous
 62
     7
370
    25
100
AcDbLine
 10
6739.5000716342
 20
5384.4494545927
 30
0.0
 11
6742.0000716342
 21
5384.4494545927
 31
0.0
  0
LINE
  5
E3
330
1F
100
AcDbEntity
  8
0
  6
Continuous
 62
     7
370
    25
100
AcDbLine
 10
6726.5000716342
 20
5386.9494545927
 30
0.0
 11
6726.5000716342
 21
5385.4494545927
 31
0.0
  0
LINE
  5
E4
330
1F
100
AcDbEntity
  8
0
  6
Continuous
 62
     7
370
    25
100
AcDbLine
 10
6726.5000716342
 20
5386.9494545927
 30
0.0
 11
6739.5000716342
 21
5386.9494545927
 31
0.0
  0
LINE
  5
E5
330
1F
100
AcDbEntity
  8
0
  6
Continuous
 62
     7
370
    25
100
AcDbLine
 10
6739.5000716342
 20
5385.4494545927
 30
0.0
 11
6739.5000716342
 21
5386.9494545927
 31
0.0
  0
ARC
  5
E6
330
1F
100
AcDbEntity
  8
0
  6
Continuous
 62
     7
370
    25
100
AcDbCircle
 10
6739.5000716342
 20
5110.0674885815
 30
0.0
 40
2.500000000000222
100
AcDbArc
 50
296.5650511771
 51
0.0
  0
LINE
  5
E7
330
1F
100
AcDbEntity
  8
0
  6
Continuous
 62
     7
370
    25
100
AcDbLine
 10
6740.6181056229
 20
5107.831420604
 30
0.0
 11
6740.5000716342
 21
5107.7724036096
 31
0.0
  0
ARC
  5
E8
330
1F
100
AcDbEntity
  8
0
  6
Continuous
 62
     7
370
    25
100
AcDbCircle
 10
6739.5000716342
 20
5384.4494545927
 30
0.0
 40
2.5
100
AcDbArc
 50
0.0
 51
90.0
  0
LINE
  5
E9
330
1F
100
AcDbEntity
  8
0
  6
Continuous
 62
     7
370
    25
100
AcDbLine
 10
6743.0000716342
 20
5336.9494545927
 30
0.0
 11
6743.0000716342
 21
5360.9494545927
 31
0.0
  0
LINE
  5
EA
330
1F
100
AcDbEntity
  8
0
  6
Continuous
 62
     7
370
    25
100
AcDbLine
 10
6748.0000716342
 20
5355.9494545927
 30
0.0
 11
6748.0000716342
 21
5341.9494545927
 31
0.0
  0
LINE
  5
EB
330
1F
100
AcDbEntity
  8
0
  6
Continuous
 62
     7
370
    25
100
AcDbLine
 10
6740.5000716342
 20
5385.4494545927
 30
0.0
 11
6740.5000716342
 21
5384.4494545927
 31
0.0
  0
LINE
  5
EC
330
1F
100
AcDbEntity
  8
0
  6
Continuous
 62
     7
370
    25
100
AcDbLine
 10
6740.5000716342
 20
5110.0674885815
 30
0.0
 11
6740.5000716342
 21
5090.4494545927
 31
0.0
  0
LINE
  5
ED
330
1F
100
AcDbEntity
  8
0
  6
Continuous
 62
     7
370
    25
100
AcDbLine
 10
6630.5000716342
 20
5385.4494545927
 30
0.0
 11
6740.5000716342
 21
5385.4494545927
 31
0.0
  0
ARC
  5
EE
330
1F
100
AcDbEntity
  8
0
  6
Continuous
 62
     7
370
    25
100
AcDbCircle
 10
6630.5000716342
 20
5186.4494545927
 30
0.0
 40
146.0
100
AcDbArc
 50
270.0
 51
318.8879095608
  0
LINE
  5
EF
330
1F
100
AcDbEntity
  8
0
  6
Continuous
 62
     7
370
    25
100
AcDbLine
 10
6630.5000716342
 20
5040.4494545927
 30
0.0
 11
6630.5000716342
 21
5385.4494545927
 31
0.0
  0
LINE
  5
F0
330
1F
100
AcDbEntity
  8
0
  6
Continuous
 62
     8
370
    25
100
AcDbLine
 10
6740.6181056229
 20
5107.831420604
 30
0.0
 11
6740.5000716342
 21
5108.0674885815
 31
0.0
  0
LINE
  5
F1
330
1F
100
AcDbEntity
  8
0
  6
Continuous
 62
     7
370
    25
100
AcDbLine
 10
6262.0187553361
 20
4703.0566282995
 30
0.0
 11
6262.0187553361
 21
4702.0566282995
 31
0.0
  0
LINE
  5
F2
330
1F
100
AcDbEntity
  8
0
  6
Continuous
 62
     7
370
    25
100
AcDbLine
 10
6286.0187553361
 20
4702.0566282995
 30
0.0
 11
6286.0187553361
 21
4703.0566282995
 31
0.0
  0
LINE
  5
F3
330
1F
100
AcDbEntity
  8
0
  6
Continuous
 62
     7
370
    25
100
AcDbLine
 10
6262.0187553361
 20
4702.0566282995
 30
0.0
 11
6267.0187553361
 21
4697.0566282995
 31
0.0
  0
LINE
  5
F4
330
1F
100
AcDbEntity
  8
0
  6
Continuous
 62
     7
370
    25
100
AcDbLine
 10
6281.0187553361
 20
4697.0566282995
 30
0.0
 11
6286.0187553361
 21
4702.0566282995
 31
0.0
  0
LINE
  5
F5
330
1F
100
AcDbEntity
  8
0
  6
Continuous
 62
     7
370
    25
100
AcDbLine
 10
6405.5187553361
 20
4705.5566282995
 30
0.0
 11
6142.5187553361
 21
4705.5566282995
 31
0.0
  0
LINE
  5
F6
330
1F
100
AcDbEntity
  8
0
  6
Continuous
 62
     7
370
    25
100
AcDbLine
 10
6405.5187553361
 20
4718.5566282995
 30
0.0
 11
6405.5187553361
 21
4705.5566282995
 31
0.0
  0
LINE
  5
F7
330
1F
100
AcDbEntity
  8
0
  6
Continuous
 62
     7
370
    25
100
AcDbLine
 10
6142.5187553361
 20
4718.5566282995
 30
0.0
 11
6142.5187553361
 21
4705.5566282995
 31
0.0
  0
LINE
  5
F8
330
1F
100
AcDbEntity
  8
0
  6
Continuous
 62
     7
370
    25
100
AcDbLine
 10
6405.5187553361
 20
4718.5566282995
 30
0.0
 11
6142.5187553361
 21
4718.5566282995
 31
0.0
  0
LINE
  5
F9
330
1F
100
AcDbEntity
  8
0
  6
Continuous
 62
     7
370
    25
100
AcDbLine
 10
6405.5187553361
 20
4703.0566282995
 30
0.0
 11
6142.5187553361
 21
4703.0566282995
 31
0.0
  0
LINE
  5
FA
330
1F
100
AcDbEntity
  8
0
  6
Continuous
 62
     7
370
    25
100
AcDbLine
 10
6405.5187553361
 20
4705.5566282995
 30
0.0
 11
6405.5187553361
 21
4703.0566282995
 31
0.0
  0
LINE
  5
FB
330
1F
100
AcDbEntity
  8
0
  6
Continuous
 62
     7
370
    25
100
AcDbLine
 10
6142.5187553361
 20
4705.5566282995
 30
0.0
 11
6142.5187553361
 21
4703.0566282995
 31
0.0
  0
LINE
  5
FC
330
1F
100
AcDbEntity
  8
0
  6
Continuous
 62
     7
370
    25
100
AcDbLine
 10
6408.0187553361
 20
4718.5566282995
 30
0.0
 11
6406.5187553361
 21
4718.5566282995
 31
0.0
  0
LINE
  5
FD
330
1F
100
AcDbEntity
  8
0
  6
Continuous
 62
     7
370
    25
100
AcDbLine
 10
6406.5187553361
 20
4705.5566282995
 30
0.0
 11
6408.0187553361
 21
4705.5566282995
 31
0.0
  0
LINE
  5
FE
330
1F
100
AcDbEntity
  8
0
  6
Continuous
 62
     7
370
    25
100
AcDbLine
 10
6408.0187553361
 20
4705.5566282995
 30
0.0
 11
6408.0187553361
 21
4718.5566282995
 31
0.0
  0
LINE
  5
FF
330
1F
100
AcDbEntity
  8
0
  6
Continuous
 62
     7
370
    25
100
AcDbLine
 10
6140.0187553361
 20
4718.5566282995
 30
0.0
 11
6141.5187553361
 21
4718.5566282995
 31
0.0
  0
LINE
  5
100
330
1F
100
AcDbEntity
  8
0
  6
Continuous
 62
     7
370
    25
100
AcDbLine
 10
6141.5187553361
 20
4705.5566282995
 30
0.0
 11
6140.0187553361
 21
4705.5566282995
 31
0.0
  0
LINE
  5
101
330
1F
100
AcDbEntity
  8
0
  6
Continuous
 62
     7
370
    25
100
AcDbLine
 10
6140.0187553361
 20
4718.5566282995
 30
0.0
 11
6140.0187553361
 21
4705.5566282995
 31
0.0
  0
ARC
  5
102
330
1F
100
AcDbEntity
  8
0
  6
Continuous
 62
     7
370
    25
100
AcDbCircle
 10
6405.5187553361
 20
4705.5566282995
 30
0.0
 40
2.5
100
AcDbArc
 50
270.0
 51
0.0
  0
ARC
  5
103
330
1F
100
AcDbEntity
  8
0
  6
Continuous
 62
     7
370
    25
100
AcDbCircle
 10
6142.5187553361
 20
4705.5566282995
 30
0.0
 40
2.5
100
AcDbArc
 50
180.0
 51
270.0
  0
LINE
  5
104
330
1F
100
AcDbEntity
  8
0
  6
Continuous
 62
     7
370
    25
100
AcDbLine
 10
6262.0187553361
 20
4702.0566282995
 30
0.0
 11
6286.0187553361
 21
4702.0566282995
 31
0.0
  0
LINE
  5
105
330
1F
100
AcDbEntity
  8
0
  6
Continuous
 62
     7
370
    25
100
AcDbLine
 10
6281.0187553361
 20
4697.0566282995
 30
0.0
 11
6267.0187553361
 21
4697.0566282995
 31
0.0
  0
LINE
  5
106
330
1F
100
AcDbEntity
  8
0
  6
Continuous
 62
     7
370
    25
100
AcDbLine
 10
6406.5187553361
 20
4814.5566282995
 30
0.0
 11
6406.5187553361
 21
4704.5566282995
 31
0.0
  0
LINE
  5
107
330
1F
100
AcDbEntity
  8
0
  6
Continuous
 62
     7
370
    25
100
AcDbLine
 10
6406.5187553361
 20
4704.5566282995
 30
0.0
 11
6405.5187553361
 21
4704.5566282995
 31
0.0
  0
LINE
  5
108
330
1F
100
AcDbEntity
  8
0
  6
Continuous
 62
     7
370
    25
100
AcDbLine
 10
6142.5187553361
 20
4704.5566282995
 30
0.0
 11
6141.5187553361
 21
4704.5566282995
 31
0.0
  0
LINE
  5
109
330
1F
100
AcDbEntity
  8
0
  6
Continuous
 62
     7
370
    25
100
AcDbLine
 10
6406.5187553361
 20
4814.5566282995
 30
0.0
 11
6141.5187553361
 21
4814.5566282995
 31
0.0
  0
LINE
  5
10A
330
1F
100
AcDbEntity
  8
0
  6
Continuous
 62
     7
370
    25
100
AcDbLine
 10
6141.5187553361
 20
4814.5566282995
 30
0.0
 11
6141.5187553361
 21
4704.5566282995
 31
0.0
  0
ENDSEC
  0
SECTION
  2
OBJECTS
  0
DICTIONARY
  5
C
330
0
100
AcDbDictionary
281
     1
  3
ACAD_GROUP
350
D
  3
ACAD_LAYOUT
350
1A
  3
ACAD_MLINESTYLE
350
17
  3
ACAD_PLOTSETTINGS
350
19
  3
ACAD_PLOTSTYLENAME
350
E
  3
ACAD_SCALELIST
350
47
  0
DICTIONARY
  5
D
102
{ACAD_REACTORS
330
C
102
}
330
C
100
AcDbDictionary
281
     1
  0
DICTIONARY
  5
1A
102
{ACAD_REACTORS
330
C
102
}
330
C
100
AcDbDictionary
281
     1
  3
Layout1
350
1E
  3
Layout2
350
26
  3
Model
350
22
  0
DICTIONARY
  5
17
102
{ACAD_REACTORS
330
C
102
}
330
C
100
AcDbDictionary
281
     1
  3
Standard
350
18
  0
DICTIONARY
  5
19
102
{ACAD_REACTORS
330
C
102
}
330
C
100
AcDbDictionary
281
     1
  0
ACDBDICTIONARYWDFLT
  5
E
102
{ACAD_REACTORS
330
C
102
}
330
C
100
AcDbDictionary
281
     1
  3
Normal
350
F
100
AcDbDictionaryWithDefault
340
F
  0
DICTIONARY
  5
47
102
{ACAD_REACTORS
330
C
102
}
330
C
100
AcDbDictionary
281
     1
  3
A0
350
48
  3
A1
350
49
  3
A2
350
4A
  3
A3
350
4B
  3
A4
350
4C
  3
A5
350
4D
  3
A6
350
4E
  3
A7
350
4F
  3
A8
350
50
  3
A9
350
51
  3
B0
350
52
  3
B1
350
53
  3
B2
350
54
  3
B3
350
55
  3
B4
350
56
  3
B5
350
57
  3
B6
350
58
  3
B7
350
59
  3
B8
350
5A
  3
B9
350
5B
  3
C0
350
5C
  3
C1
350
5D
  3
C2
350
5E
  3
C3
350
5F
  3
C4
350
60
  3
C5
350
61
  3
C6
350
62
  3
C7
350
63
  3
C8
350
64
  3
C9
350
65
  3
D0
350
66
  3
D1
350
67
  3
D2
350
68
  0
LAYOUT
  5
1E
102
{ACAD_REACTORS
330
1A
102
}
330
1A
100
AcDbPlotSettings
  1

  2
none_device
  4

  6

 40
0.0
 41
0.0
 42
0.0
 43
0.0
 44
0.0
 45
0.0
 46
0.0
 47
0.0
 48
0.0
 49
0.0
140
0.0
141
0.0
142
1.0
143
1.0
 70
   688
 72
     1
 73
     0
 74
     5
  7

 75
    16
147
1.0
148
0.0
149
0.0
100
AcDbLayout
  1
Layout1
 70
     1
 71
     1
 10
0.0
 20
0.0
 11
420.0
 21
297.0
 12
0.0
 22
0.0
 32
0.0
 14
1.0000000000E+20
 24
1.0000000000E+20
 34
1.0000000000E+20
 15
-1.0000000000E+20
 25
-1.0000000000E+20
 35
-1.0000000000E+20
146
0.0
 13
0.0
 23
0.0
 33
0.0
 16
1.0
 26
0.0
 36
0.0
 17
0.0
 27
1.0
 37
0.0
 76
     0
330
1B
  0
LAYOUT
  5
26
102
{ACAD_REACTORS
330
1A
102
}
330
1A
100
AcDbPlotSettings
  1

  2
none_device
  4

  6

 40
0.0
 41
0.0
 42
0.0
 43
0.0
 44
0.0
 45
0.0
 46
0.0
 47
0.0
 48
0.0
 49
0.0
140
0.0
141
0.0
142
1.0
143
1.0
 70
   688
 72
     1
 73
     0
 74
     5
  7

 75
    16
147
1.0
148
0.0
149
0.0
100
AcDbLayout
  1
Layout2
 70
     1
 71
     2
 10
0.0
 20
0.0
 11
0.0
 21
0.0
 12
0.0
 22
0.0
 32
0.0
 14
0.0
 24
0.0
 34
0.0
 15
0.0
 25
0.0
 35
0.0
146
0.0
 13
0.0
 23
0.0
 33
0.0
 16
1.0
 26
0.0
 36
0.0
 17
0.0
 27
1.0
 37
0.0
 76
     0
330
23
  0
LAYOUT
  5
22
102
{ACAD_REACTORS
330
1A
102
}
330
1A
100
AcDbPlotSettings
  1

  2
none_device
  4
Letter_(8.50_x_11.00_Inches)
  6

 40
6.35
 41
6.35
 42
6.35000508
 43
6.35000508
 44
215.9
 45
279.4
 46
0.0
 47
0.0
 48
0.0
 49
0.0
140
0.0
141
0.0
142
1.0
143
1.0
 70
  1712
 72
     1
 73
     0
 74
     0
  7

 75
     0
147
1.0
148
0.0
149
0.0
100
AcDbLayout
  1
Model
 70
     1
 71
     0
 10
0.0
 20
0.0
 11
20000.0
 21
10000.0
 12
0.0
 22
0.0
 32
0.0
 14
0.0
 24
0.0
 34
0.0
 15
20000.0
 25
10000.0
 35
0.0
146
0.0
 13
0.0
 23
0.0
 33
0.0
 16
1.0
 26
0.0
 36
0.0
 17
0.0
 27
1.0
 37
0.0
 76
     0
330
1F
331
29
  0
MLINESTYLE
  5
18
102
{ACAD_REACTORS
330
17
102
}
330
17
100
AcDbMlineStyle
  2
Standard
 70
     0
  3

 62
   256
 51
90.0
 52
90.0
 71
     2
 49
0.5
 62
   256
  6
BYLAYER
 49
-0.5
 62
   256
  6
BYLAYER
  0
ACDBPLACEHOLDER
  5
F
102
{ACAD_REACTORS
330
E
102
}
330
E
  0
SCALE
  5
48
102
{ACAD_REACTORS
330
47
102
}
330
47
100
AcDbScale
 70
     0
300
1:1
140
1.0
141
1.0
290
     1
  0
SCALE
  5
49
102
{ACAD_REACTORS
330
47
102
}
330
47
100
AcDbScale
 70
     0
300
1:2
140
1.0
141
2.0
290
     0
  0
SCALE
  5
4A
102
{ACAD_REACTORS
330
47
102
}
330
47
100
AcDbScale
 70
     0
300
1:4
140
1.0
141
4.0
290
     0
  0
SCALE
  5
4B
102
{ACAD_REACTORS
330
47
102
}
330
47
100
AcDbScale
 70
     0
300
1:5
140
1.0
141
5.0
290
     0
  0
SCALE
  5
4C
102
{ACAD_REACTORS
330
47
102
}
330
47
100
AcDbScale
 70
     0
300
1:8
140
1.0
141
8.0
290
     0
  0
SCALE
  5
4D
102
{ACAD_REACTORS
330
47
102
}
330
47
100
AcDbScale
 70
     0
300
1:10
140
1.0
141
10.0
290
     0
  0
SCALE
  5
4E
102
{ACAD_REACTORS
330
47
102
}
330
47
100
AcDbScale
 70
     0
300
1:16
140
1.0
141
16.0
290
     0
  0
SCALE
  5
4F
102
{ACAD_REACTORS
330
47
102
}
330
47
100
AcDbScale
 70
     0
300
1:20
140
1.0
141
20.0
290
     0
  0
SCALE
  5
50
102
{ACAD_REACTORS
330
47
102
}
330
47
100
AcDbScale
 70
     0
300
1:30
140
1.0
141
30.0
290
     0
  0
SCALE
  5
51
102
{ACAD_REACTORS
330
47
102
}
330
47
100
AcDbScale
 70
     0
300
1:40
140
1.0
141
40.0
290
     0
  0
SCALE
  5
52
102
{ACAD_REACTORS
330
47
102
}
330
47
100
AcDbScale
 70
     0
300
1:50
140
1.0
141
50.0
290
     0
  0
SCALE
  5
53
102
{ACAD_REACTORS
330
47
102
}
330
47
100
AcDbScale
 70
     0
300
1:100
140
1.0
141
100.0
290
     0
  0
SCALE
  5
54
102
{ACAD_REACTORS
330
47
102
}
330
47
100
AcDbScale
 70
     0
300
2:1
140
2.0
141
1.0
290
     0
  0
SCALE
  5
55
102
{ACAD_REACTORS
330
47
102
}
330
47
100
AcDbScale
 70
     0
300
4:1
140
4.0
141
1.0
290
     0
  0
SCALE
  5
56
102
{ACAD_REACTORS
330
47
102
}
330
47
100
AcDbScale
 70
     0
300
8:1
140
8.0
141
1.0
290
     0
  0
SCALE
  5
57
102
{ACAD_REACTORS
330
47
102
}
330
47
100
AcDbScale
 70
     0
300
10:1
140
10.0
141
1.0
290
     0
  0
SCALE
  5
58
102
{ACAD_REACTORS
330
47
102
}
330
47
100
AcDbScale
 70
     0
300
100:1
140
100.0
141
1.0
290
     0
  0
SCALE
  5
59
102
{ACAD_REACTORS
330
47
102
}
330
47
100
AcDbScale
 70
     0
300
1/128" = 1'-0"
140
0.0078125
141
12.0
290
     0
  0
SCALE
  5
5A
102
{ACAD_REACTORS
330
47
102
}
330
47
100
AcDbScale
 70
     0
300
1/64" = 1'-0"
140
0.015625
141
12.0
290
     0
  0
SCALE
  5
5B
102
{ACAD_REACTORS
330
47
102
}
330
47
100
AcDbScale
 70
     0
300
1/32" = 1'-0"
140
0.03125
141
12.0
290
     0
  0
SCALE
  5
5C
102
{ACAD_REACTORS
330
47
102
}
330
47
100
AcDbScale
 70
     0
300
1/16" = 1'-0"
140
0.0625
141
12.0
290
     0
  0
SCALE
  5
5D
102
{ACAD_REACTORS
330
47
102
}
330
47
100
AcDbScale
 70
     0
300
3/32" = 1'-0"
140
0.09375
141
12.0
290
     0
  0
SCALE
  5
5E
102
{ACAD_REACTORS
330
47
102
}
330
47
100
AcDbScale
 70
     0
300
1/8" = 1'-0"
140
0.125
141
12.0
290
     0
  0
SCALE
  5
5F
102
{ACAD_REACTORS
330
47
102
}
330
47
100
AcDbScale
 70
     0
300
3/16" = 1'-0"
140
0.1875
141
12.0
290
     0
  0
SCALE
  5
60
102
{ACAD_REACTORS
330
47
102
}
330
47
100
AcDbScale
 70
     0
300
1/4" = 1'-0"
140
0.25
141
12.0
290
     0
  0
SCALE
  5
61
102
{ACAD_REACTORS
330
47
102
}
330
47
100
AcDbScale
 70
     0
300
3/8" = 1'-0"
140
0.375
141
12.0
290
     0
  0
SCALE
  5
62
102
{ACAD_REACTORS
330
47
102
}
330
47
100
AcDbScale
 70
     0
300
1/2" = 1'-0"
140
0.5
141
12.0
290
     0
  0
SCALE
  5
63
102
{ACAD_REACTORS
330
47
102
}
330
47
100
AcDbScale
 70
     0
300
3/4" = 1'-0"
140
0.75
141
12.0
290
     0
  0
SCALE
  5
64
102
{ACAD_REACTORS
330
47
102
}
330
47
100
AcDbScale
 70
     0
300
1" = 1'-0"
140
1.0
141
12.0
290
     0
  0
SCALE
  5
65
102
{ACAD_REACTORS
330
47
102
}
330
47
100
AcDbScale
 70
     0
300
1-1/2" = 1'-0"
140
1.5
141
12.0
290
     0
  0
SCALE
  5
66
102
{ACAD_REACTORS
330
47
102
}
330
47
100
AcDbScale
 70
     0
300
3" = 1'-0"
140
3.0
141
12.0
290
     0
  0
SCALE
  5
67
102
{ACAD_REACTORS
330
47
102
}
330
47
100
AcDbScale
 70
     0
300
6" = 1'-0"
140
6.0
141
12.0
290
     0
  0
SCALE
  5
68
102
{ACAD_REACTORS
330
47
102
}
330
47
100
AcDbScale
 70
     0
300
1'-0" = 1'-0"
140
12.0
141
12.0
290
     0
  0
ENDSEC
  0
EOF
