  0
SECTION
  2
HEADER
  9
$ACADVER
  1
AC1015
  9
$ACADMAINTVER
 70
     6
  9
$DWGCODEPAGE
  3
ANSI_1250
  9
$INSBASE
 10
0.0
 20
0.0
 30
0.0
  9
$EXTMIN
 10
0.0
 20
0.0
 30
0.0
  9
$EXTMAX
 10
20000.0
 20
10000.0
 30
0.0
  9
$LIMMIN
 10
0.0
 20
0.0
  9
$LIMMAX
 10
20000.0
 20
10000.0
  9
$ORTHOMODE
 70
     0
  9
$REGENMODE
 70
     1
  9
$FILLMODE
 70
     1
  9
$QTEXTMODE
 70
     0
  9
$MIRRTEXT
 70
     1
  9
$LTSCALE
 40
1.0
  9
$ATTMODE
 70
     1
  9
$TEXTSIZE
 40
2.0
  9
$TRACEWID
 40
1.0
  9
$TEXTSTYLE
  7
Standard
  9
$CLAYER
  8
0
  9
$CELTYPE
  6
ByLayer
  9
$CECOLOR
 62
   256
  9
$CELTSCALE
 40
1.0
  9
$DISPSILH
 70
     0
  9
$DIMSCALE
 40
1.0
  9
$DIMASZ
 40
2.0
  9
$DIMEXO
 40
1.0
  9
$DIMDLI
 40
3.75
  9
$DIMRND
 40
0.0
  9
$DIMDLE
 40
0.0
  9
$DIMEXE
 40
1.0
  9
$DIMTP
 40
0.0
  9
$DIMTM
 40
0.0
  9
$DIMTXT
 40
2.0
  9
$DIMCEN
 40
2.5
  9
$DIMTSZ
 40
0.0
  9
$DIMTOL
 70
     0
  9
$DIMLIM
 70
     0
  9
$DIMTIH
 70
     1
  9
$DIMTOH
 70
     1
  9
$DIMSE1
 70
     0
  9
$DIMSE2
 70
     0
  9
$DIMTAD
 70
     1
  9
$DIMZIN
 70
     0
  9
$DIMBLK
  1

  9
$DIMASO
 70
     1
  9
$DIMSHO
 70
     1
  9
$DIMPOST
  1

  9
$DIMAPOST
  1

  9
$DIMALT
 70
     0
  9
$DIMALTD
 70
     3
  9
$DIMALTF
 40
0.0393700787
  9
$DIMLFAC
 40
1.0
  9
$DIMTOFL
 70
     1
  9
$DIMTVP
 40
0.0
  9
$DIMTIX
 70
     0
  9
$DIMSOXD
 70
     0
  9
$DIMSAH
 70
     0
  9
$DIMBLK1
  1

  9
$DIMBLK2
  1

  9
$DIMSTYLE
  2
ISO-25
  9
$DIMCLRD
 70
     0
  9
$DIMCLRE
 70
     0
  9
$DIMCLRT
 70
     0
  9
$DIMTFAC
 40
1.0
  9
$DIMGAP
 40
1.524
  9
$DIMJUST
 70
     0
  9
$DIMSD1
 70
     0
  9
$DIMSD2
 70
     0
  9
$DIMTOLJ
 70
     0
  9
$DIMTZIN
 70
     0
  9
$DIMALTZ
 70
     0
  9
$DIMALTTZ
 70
     0
  9
$DIMUPT
 70
     0
  9
$DIMDEC
 70
     2
  9
$DIMTDEC
 70
     0
  9
$DIMALTU
 70
     2
  9
$DIMALTTD
 70
     3
  9
$DIMTXSTY
  7
Standard
  9
$DIMAUNIT
 70
     0
  9
$DIMADEC
 70
     2
  9
$DIMALTRND
 40
0.0
  9
$DIMAZIN
 70
     0
  9
$DIMDSEP
 70
    44
  9
$DIMATFIT
 70
     3
  9
$DIMFRAC
 70
     0
  9
$DIMLDRBLK
  1

  9
$DIMLUNIT
 70
     2
  9
$DIMLWD
 70
    -2
  9
$DIMLWE
 70
    -2
  9
$DIMTMOVE
 70
     0
  9
$LUNITS
 70
     2
  9
$LUPREC
 70
     3
  9
$SKETCHINC
 40
1.0
  9
$FILLETRAD
 40
10.0
  9
$AUNITS
 70
     0
  9
$AUPREC
 70
     2
  9
$MENU
  1
.
  9
$ELEVATION
 40
0.0
  9
$PELEVATION
 40
0.0
  9
$THICKNESS
 40
0.0
  9
$LIMCHECK
 70
     0
  9
$CHAMFERA
 40
0.0
  9
$CHAMFERB
 40
0.0
  9
$CHAMFERC
 40
0.0
  9
$CHAMFERD
 40
0.0
  9
$SKPOLY
 70
     0
  9
$TDCREATE
 40
2459100.556207431
  9
$TDUCREATE
 40
2459100.472874097
  9
$TDUPDATE
 40
2459100.55620765
  9
$TDUUPDATE
 40
2459100.472874317
  9
$TDINDWG
 40
0.0000000116
  9
$TDUSRTIMER
 40
0.0000000116
  9
$USRTIMER
 70
     1
  9
$ANGBASE
 50
0.0
  9
$ANGDIR
 70
     0
  9
$PDMODE
 70
     0
  9
$PDSIZE
 40
-1.0
  9
$PLINEWID
 40
0.0
  9
$SPLFRAME
 70
     0
  9
$SPLINETYPE
 70
     6
  9
$SPLINESEGS
 70
     8
  9
$HANDSEED
  5
1F8
  9
$SURFTAB1
 70
     6
  9
$SURFTAB2
 70
     6
  9
$SURFTYPE
 70
     6
  9
$SURFU
 70
     6
  9
$SURFV
 70
     6
  9
$UCSBASE
  2

  9
$UCSNAME
  2

  9
$UCSORG
 10
0.0
 20
0.0
 30
0.0
  9
$UCSXDIR
 10
1.0
 20
0.0
 30
0.0
  9
$UCSYDIR
 10
0.0
 20
1.0
 30
0.0
  9
$UCSORTHOREF
  2

  9
$UCSORTHOVIEW
 70
     0
  9
$UCSORGTOP
 10
0.0
 20
0.0
 30
0.0
  9
$UCSORGBOTTOM
 10
0.0
 20
0.0
 30
0.0
  9
$UCSORGLEFT
 10
0.0
 20
0.0
 30
0.0
  9
$UCSORGRIGHT
 10
0.0
 20
0.0
 30
0.0
  9
$UCSORGFRONT
 10
0.0
 20
0.0
 30
0.0
  9
$UCSORGBACK
 10
0.0
 20
0.0
 30
0.0
  9
$PUCSBASE
  2

  9
$PUCSNAME
  2

  9
$PUCSORG
 10
0.0
 20
0.0
 30
0.0
  9
$PUCSXDIR
 10
1.0
 20
0.0
 30
0.0
  9
$PUCSYDIR
 10
0.0
 20
1.0
 30
0.0
  9
$PUCSORTHOREF
  2

  9
$PUCSORTHOVIEW
 70
     0
  9
$PUCSORGTOP
 10
0.0
 20
0.0
 30
0.0
  9
$PUCSORGBOTTOM
 10
0.0
 20
0.0
 30
0.0
  9
$PUCSORGLEFT
 10
0.0
 20
0.0
 30
0.0
  9
$PUCSORGRIGHT
 10
0.0
 20
0.0
 30
0.0
  9
$PUCSORGFRONT
 10
0.0
 20
0.0
 30
0.0
  9
$PUCSORGBACK
 10
0.0
 20
0.0
 30
0.0
  9
$USERI1
 70
     0
  9
$USERI2
 70
     0
  9
$USERI3
 70
     0
  9
$USERI4
 70
     0
  9
$USERI5
 70
     0
  9
$USERR1
 40
0.0
  9
$USERR2
 40
0.0
  9
$USERR3
 40
0.0
  9
$USERR4
 40
0.0
  9
$USERR5
 40
0.0
  9
$WORLDVIEW
 70
     1
  9
$SHADEDGE
 70
     3
  9
$SHADEDIF
 70
    70
  9
$TILEMODE
 70
     1
  9
$MAXACTVP
 70
    64
  9
$PINSBASE
 10
0.0
 20
0.0
 30
0.0
  9
$PLIMCHECK
 70
     0
  9
$PEXTMIN
 10
1.0000000000E+20
 20
1.0000000000E+20
 30
1.0000000000E+20
  9
$PEXTMAX
 10
-1.0000000000E+20
 20
-1.0000000000E+20
 30
-1.0000000000E+20
  9
$PLIMMIN
 10
0.0
 20
0.0
  9
$PLIMMAX
 10
420.0
 20
297.0
  9
$UNITMODE
 70
     0
  9
$VISRETAIN
 70
     1
  9
$PLINEGEN
 70
     0
  9
$PSLTSCALE
 70
     1
  9
$TREEDEPTH
 70
  3020
  9
$CMLSTYLE
  2
Standard
  9
$CMLJUST
 70
     0
  9
$CMLSCALE
 40
20.0
  9
$PROXYGRAPHICS
 70
     1
  9
$MEASUREMENT
 70
     1
  9
$CELWEIGHT
370
    -1
  9
$ENDCAPS
280
     0
  9
$JOINSTYLE
280
     0
  9
$LWDISPLAY
290
     1
  9
$INSUNITS
 70
     4
  9
$HYPERLINKBASE
  1

  9
$STYLESHEET
  1

  9
$XEDIT
290
     1
  9
$CEPSNTYPE
380
     0
  9
$PSTYLEMODE
290
     1
  9
$FINGERPRINTGUID
  2
{c4ef7a28-d6e0-420d-8cf9-7d950f89291c}
  9
$VERSIONGUID
  2
{FAEB1C32-E019-11D5-929B-00C0DF256EC4}
  9
$EXTNAMES
290
     1
  9
$PSVPSCALE
 40
0.0
  9
$OLESTARTUP
290
     0
  0
ENDSEC
  0
SECTION
  2
CLASSES
  0
CLASS
  1
ACDBDICTIONARYWDFLT
  2
AcDbDictionaryWithDefault
  3
ObjectDBX Classes
 90
        0
280
     0
281
     0
  0
CLASS
  1
VISUALSTYLE
  2
AcDbVisualStyle
  3
ObjectDBX Classes
 90
     4095
280
     0
281
     0
  0
CLASS
  1
MATERIAL
  2
AcDbMaterial
  3
ObjectDBX Classes
 90
     1153
280
     0
281
     0
  0
CLASS
  1
SCALE
  2
AcDbScale
  3
ObjectDBX Classes
 90
     1153
280
     0
281
     0
  0
CLASS
  1
TABLESTYLE
  2
AcDbTableStyle
  3
ObjectDBX Classes
 90
     4095
280
     0
281
     0
  0
CLASS
  1
MLEADERSTYLE
  2
AcDbMLeaderStyle
  3
ACDB_MLEADERSTYLE_CLASS
 90
     4095
280
     0
281
     0
  0
CLASS
  1
SUN
  2
AcDbSun
  3
SCENEOE
 90
     1153
280
     0
281
     0
  0
CLASS
  1
ACDBPLACEHOLDER
  2
AcDbPlaceHolder
  3
ObjectDBX Classes
 90
        0
280
     0
281
     0
  0
CLASS
  1
LAYOUT
  2
AcDbLayout
  3
ObjectDBX Classes
 90
        0
280
     0
281
     0
  0
ENDSEC
  0
SECTION
  2
TABLES
  0
TABLE
  2
VPORT
  5
8
330
0
100
AcDbSymbolTable
 70
     1
  0
VPORT
  5
29
330
8
100
AcDbSymbolTableRecord
100
AcDbViewportTableRecord
  2
*Active
 70
     0
 10
0.0
 20
0.0
 11
1.0
 21
1.0
 12
10000.0
 22
5000.0
 13
0.0
 23
0.0
 14
10.0
 24
10.0
 15
10.0
 25
10.0
 16
0.0
 26
0.0
 36
1.0
 17
0.0
 27
0.0
 37
0.0
 40
10000.0
 41
2.0
 42
50.0
 43
0.0
 44
0.0
 50
0.0
 51
0.0
 71
     0
 72
  2000
 73
     1
 74
     3
 75
     0
 76
     0
 77
     0
 78
     0
281
     0
 65
     1
110
0.0
120
0.0
130
0.0
111
1.0
121
0.0
131
0.0
112
0.0
122
1.0
132
0.0
 79
     0
146
0.0
  0
ENDTAB
  0
TABLE
  2
LTYPE
  5
5
330
0
100
AcDbSymbolTable
 70
     6
  0
LTYPE
  5
14
330
5
100
AcDbSymbolTableRecord
100
AcDbLinetypeTableRecord
  2
ByBlock
 70
     0
  3

 72
    65
 73
     0
 40
0.0
  0
LTYPE
  5
15
330
5
100
AcDbSymbolTableRecord
100
AcDbLinetypeTableRecord
  2
ByLayer
 70
     0
  3

 72
    65
 73
     0
 40
0.0
  0
LTYPE
  5
16
330
5
100
AcDbSymbolTableRecord
100
AcDbLinetypeTableRecord
  2
Continuous
 70
     0
  3
Solid line
 72
    65
 73
     0
 40
0.0
  0
LTYPE
  5
6E
330
5
100
AcDbSymbolTableRecord
100
AcDbLinetypeTableRecord
  2
HIDDEN
 70
     0
  3
Hidden __ __ __ __ __ __ __ __ __ __ __ __ __ __
 72
    65
 73
     2
 40
1.905
 49
1.27
 74
     0
 49
-0.635
 74
     0
  0
LTYPE
  5
6F
330
5
100
AcDbSymbolTableRecord
100
AcDbLinetypeTableRecord
  2
PHANTOM
 70
     0
  3
Phantom ______  __  __  ______  __  __  ______
 72
    65
 73
     6
 40
12.7
 49
6.35
 74
     0
 49
-1.27
 74
     0
 49
1.27
 74
     0
 49
-1.27
 74
     0
 49
1.27
 74
     0
 49
-1.27
 74
     0
  0
LTYPE
  5
70
330
5
100
AcDbSymbolTableRecord
100
AcDbLinetypeTableRecord
  2
CENTER
 70
     0
  3
Center ____ _ ____ _ ____ _ ____ _ ____ _ ____
 72
    65
 73
     4
 40
10.16
 49
6.35
 74
     0
 49
-1.27
 74
     0
 49
1.27
 74
     0
 49
-1.27
 74
     0
  0
LTYPE
  5
71
330
5
100
AcDbSymbolTableRecord
100
AcDbLinetypeTableRecord
  2
CENTERX2
 70
     0
  3
Center (2x) ________  __  ________  __  _____
 72
    65
 73
     4
 40
20.32
 49
12.7
 74
     0
 49
-2.54
 74
     0
 49
2.54
 74
     0
 49
-2.54
 74
     0
  0
LTYPE
  5
72
330
5
100
AcDbSymbolTableRecord
100
AcDbLinetypeTableRecord
  2
DOT2
 70
     0
  3
Dot (.5x) ........................................
 72
    65
 73
     2
 40
0.635
 49
0.0
 74
     0
 49
-0.635
 74
     0
  0
ENDTAB
  0
TABLE
  2
LAYER
  5
2
330
0
100
AcDbSymbolTable
 70
    13
  0
LAYER
  5
10
330
2
100
AcDbSymbolTableRecord
100
AcDbLayerTableRecord
  2
0
 70
     0
 62
     7
  6
Continuous
370
    -3
390
F
  0
LAYER
  5
73
330
2
100
AcDbSymbolTableRecord
100
AcDbLayerTableRecord
  2
FORMAT
 70
     0
 62
     7
  6
Continuous
370
    -3
390
F
  0
LAYER
  5
74
330
2
100
AcDbSymbolTableRecord
100
AcDbLayerTableRecord
  2
OSA
 70
     0
 62
     7
  6
CENTER
370
    -3
390
F
  0
LAYER
  5
75
330
2
100
AcDbSymbolTableRecord
100
AcDbLayerTableRecord
  2
0_35
 70
     0
 62
     7
  6
Continuous
370
    35
390
F
  0
LAYER
  5
76
330
2
100
AcDbSymbolTableRecord
100
AcDbLayerTableRecord
  2
0_5
 70
     0
 62
     7
  6
Continuous
370
    50
390
F
  0
LAYER
  5
77
330
2
100
AcDbSymbolTableRecord
100
AcDbLayerTableRecord
  2
0_25
 70
     0
 62
     7
  6
Continuous
370
    25
390
F
  0
LAYER
  5
78
330
2
100
AcDbSymbolTableRecord
100
AcDbLayerTableRecord
  2
0_18
 70
     0
 62
     7
  6
Continuous
370
    -3
390
F
  0
LAYER
  5
79
330
2
100
AcDbSymbolTableRecord
100
AcDbLayerTableRecord
  2
SLD-0
 70
     0
 62
   179
  6
Continuous
370
    -3
390
F
  0
LAYER
  5
7A
330
2
100
AcDbSymbolTableRecord
100
AcDbLayerTableRecord
  2
KOTY
 70
     0
 62
     7
  6
Continuous
370
    -3
390
F
  0
LAYER
  5
7B
330
2
100
AcDbSymbolTableRecord
100
AcDbLayerTableRecord
  2
SILNA
 70
     0
 62
   179
  6
Continuous
370
    -3
390
F
  0
LAYER
  5
7C
330
2
100
AcDbSymbolTableRecord
100
AcDbLayerTableRecord
  2
0_18_1
 70
     0
 62
   179
  6
Continuous
370
    -3
390
F
  0
LAYER
  5
7D
330
2
100
AcDbSymbolTableRecord
100
AcDbLayerTableRecord
  2
0_35_1
 70
     0
 62
   179
  6
Continuous
370
    35
390
F
  0
LAYER
  5
7E
330
2
100
AcDbSymbolTableRecord
100
AcDbLayerTableRecord
  2
0_5_1
 70
     0
 62
   179
  6
Continuous
370
    50
390
F
  0
ENDTAB
  0
TABLE
  2
STYLE
  5
3
330
0
100
AcDbSymbolTable
 70
     1
  0
STYLE
  5
11
330
3
100
AcDbSymbolTableRecord
100
AcDbTextStyleTableRecord
  2
Standard
 70
     0
 40
0.0
 41
1.0
 50
0.0
 71
     0
 42
2.0
  3
txt
  4

  0
ENDTAB
  0
TABLE
  2
VIEW
  5
6
330
0
100
AcDbSymbolTable
 70
     0
  0
ENDTAB
  0
TABLE
  2
UCS
  5
7
330
0
100
AcDbSymbolTable
 70
     0
  0
ENDTAB
  0
TABLE
  2
APPID
  5
9
330
0
100
AcDbSymbolTable
 70
     1
  0
APPID
  5
12
330
9
100
AcDbSymbolTableRecord
100
AcDbRegAppTableRecord
  2
ACAD
 70
     0
  0
ENDTAB
  0
TABLE
  2
DIMSTYLE
  5
A
330
0
100
AcDbSymbolTable
 70
     1
100
AcDbDimStyleTable
  0
DIMSTYLE
105
27
330
A
100
AcDbSymbolTableRecord
100
AcDbDimStyleTableRecord
  2
ISO-25
 70
     0
 41
2.5
 42
0.625
 43
3.75
 44
1.25
 73
     0
 74
     0
 77
     1
 78
     8
140
2.5
141
2.5
143
0.0393700787
147
0.625
171
     3
172
     1
178
     0
271
     2
272
     2
274
     3
278
    44
283
     0
284
     8
340
11
  0
ENDTAB
  0
TABLE
  2
BLOCK_RECORD
  5
1
330
0
100
AcDbSymbolTable
 70
     1
  0
BLOCK_RECORD
  5
1F
330
1
100
AcDbSymbolTableRecord
100
AcDbBlockTableRecord
  2
*Model_Space
340
22
  0
BLOCK_RECORD
  5
1B
330
1
100
AcDbSymbolTableRecord
100
AcDbBlockTableRecord
  2
*Paper_Space
340
1E
  0
BLOCK_RECORD
  5
23
330
1
100
AcDbSymbolTableRecord
100
AcDbBlockTableRecord
  2
*Paper_Space0
340
26
  0
ENDTAB
  0
ENDSEC
  0
SECTION
  2
BLOCKS
  0
BLOCK
  5
20
330
1F
100
AcDbEntity
  8
0
100
AcDbBlockBegin
  2
*Model_Space
 70
     0
 10
0.0
 20
0.0
 30
0.0
  3
*Model_Space
  1

  0
ENDBLK
  5
21
330
1F
100
AcDbEntity
  8
0
100
AcDbBlockEnd
  0
BLOCK
  5
1C
330
1B
100
AcDbEntity
 67
     1
  8
0
100
AcDbBlockBegin
  2
*Paper_Space
 70
     0
 10
0.0
 20
0.0
 30
0.0
  3
*Paper_Space
  1

  0
ENDBLK
  5
1D
330
1B
100
AcDbEntity
 67
     1
  8
0
100
AcDbBlockEnd
  0
BLOCK
  5
24
330
23
100
AcDbEntity
  8
0
100
AcDbBlockBegin
  2
*Paper_Space0
 70
     0
 10
0.0
 20
0.0
 30
0.0
  3
*Paper_Space0
  1

  0
ENDBLK
  5
25
330
23
100
AcDbEntity
  8
0
100
AcDbBlockEnd
  0
ENDSEC
  0
SECTION
  2
ENTITIES
  0
LINE
  5
7F
330
1F
100
AcDbEntity
  8
0
  6
Continuous
 62
     7
370
    25
100
AcDbLine
 10
7983.9807692308
 20
6206.6916478565
 30
0.0
 11
7943.9807692308
 21
6206.6916478565
 31
0.0
  0
LINE
  5
80
330
1F
100
AcDbEntity
  8
0
  6
Continuous
 62
     7
370
    25
100
AcDbLine
 10
7943.9807692308
 20
6161.6916478565
 30
0.0
 11
7983.9807692308
 21
6161.6916478565
 31
0.0
  0
LINE
  5
81
330
1F
100
AcDbEntity
  8
0
  6
Continuous
 62
     7
370
    25
100
AcDbLine
 10
8181.9807692308
 20
6129.0144230769
 30
0.0
 11
8181.9807692308
 21
6149.0144230769
 31
0.0
  0
LINE
  5
82
330
1F
100
AcDbEntity
  8
0
  6
Continuous
 62
     7
370
    25
100
AcDbLine
 10
7991.9807692308
 20
6149.0144230769
 30
0.0
 11
7991.9807692308
 21
6129.0144230769
 31
0.0
  0
LINE
  5
83
330
1F
100
AcDbEntity
  8
0
  6
Continuous
 62
     7
370
    25
100
AcDbLine
 10
7996.9807692308
 20
6129.0144230769
 30
0.0
 11
8001.9738082052
 21
6023.7774612499
 31
0.0
  0
LINE
  5
84
330
1F
100
AcDbEntity
  8
0
  6
Continuous
 62
     7
370
    25
100
AcDbLine
 10
8171.9877302564
 20
6023.7774612499
 30
0.0
 11
8176.9807692308
 21
6129.0144230769
 31
0.0
  0
LINE
  5
85
330
1F
100
AcDbEntity
  8
0
  6
Continuous
 62
     7
370
    25
100
AcDbLine
 10
8176.9807692308
 20
6149.0144230769
 30
0.0
 11
8171.9807692308
 21
6219.3688726362
 31
0.0
  0
LINE
  5
86
330
1F
100
AcDbEntity
  8
0
  6
Continuous
 62
     7
370
    25
100
AcDbLine
 10
7998.0516116917
 20
6164.0821294578
 30
0.0
 11
7996.9807692308
 21
6149.0144230769
 31
0.0
  0
LINE
  5
87
330
1F
100
AcDbEntity
  8
0
  6
Continuous
 62
     7
370
    25
100
AcDbLine
 10
8001.9807692308
 20
6219.3688726362
 30
0.0
 11
8000.908148019
 21
6204.2761376483
 31
0.0
  0
ARC
  5
88
330
1F
100
AcDbEntity
  8
0
  6
Continuous
 62
     7
370
    25
100
AcDbCircle
 10
8166.9933485036
 20
6024.0144230769
 30
0.0
 40
5.000000000001311
100
AcDbArc
 50
270.0
 51
357.2835999778
  0
ARC
  5
89
330
1F
100
AcDbEntity
  8
0
  6
Continuous
 62
     7
370
    25
100
AcDbCircle
 10
8006.968189958
 20
6024.0144230769
 30
0.0
 40
5.000000000000402
100
AcDbArc
 50
182.7164000222
 51
270.0
  0
ARC
  5
8A
330
1F
100
AcDbEntity
  8
0
  6
Continuous
 62
     7
370
    25
100
AcDbCircle
 10
8166.9933485036
 20
6219.0144230769
 30
0.0
 40
5.000000000000998
100
AcDbArc
 50
4.0651023997
 51
90.0
  0
ARC
  5
8B
330
1F
100
AcDbEntity
  8
0
  6
Continuous
 62
     7
370
    25
100
AcDbCircle
 10
8006.968189958
 20
6219.0144230769
 30
0.0
 40
5.000000000000091
100
AcDbArc
 50
90.0
 51
175.9348976003
  0
LINE
  5
8C
330
1F
100
AcDbEntity
  8
0
  6
Continuous
 62
     7
370
    25
100
AcDbLine
 10
8114.9807692308
 20
6224.0144230769
 30
0.0
 11
8114.9807692308
 21
6249.0144230769
 31
0.0
  0
LINE
  5
8D
330
1F
100
AcDbEntity
  8
0
  6
Continuous
 62
     7
370
    25
100
AcDbLine
 10
8058.9807692308
 20
6249.0144230769
 30
0.0
 11
8058.9807692308
 21
6224.0144230769
 31
0.0
  0
LINE
  5
8E
330
1F
100
AcDbEntity
  8
0
  6
Continuous
 62
     7
370
    25
100
AcDbLine
 10
8000.923621
 20
6204.3416478565
 30
0.0
 11
7983.9807692308
 21
6204.3416478565
 31
0.0
  0
LINE
  5
8F
330
1F
100
AcDbEntity
  8
0
  6
Continuous
 62
     7
370
    25
100
AcDbLine
 10
7983.9807692308
 20
6164.0416478565
 30
0.0
 11
7998.060534837
 21
6164.0416478565
 31
0.0
  0
LINE
  5
90
330
1F
100
AcDbEntity
  8
0
  6
Continuous
 62
     7
370
    25
100
AcDbLine
 10
8095.9807692308
 20
6124.2970853397
 30
0.0
 11
8077.9807692308
 21
6124.2970853397
 31
0.0
  0
ARC
  5
91
330
1F
100
AcDbEntity
  8
0
  6
Continuous
 62
     7
370
    25
100
AcDbCircle
 10
8097.2307692308
 20
6151.6175192691
 30
0.0
 40
0.75
100
AcDbArc
 50
0.0
 51
90.0
  0
ARC
  5
92
330
1F
100
AcDbEntity
  8
0
  6
Continuous
 62
     7
370
    25
100
AcDbCircle
 10
8076.7307692308
 20
6151.6175192691
 30
0.0
 40
0.75
100
AcDbArc
 50
0.0
 51
90.0
  0
ARC
  5
93
330
1F
100
AcDbEntity
  8
0
  6
Continuous
 62
     7
370
    25
100
AcDbCircle
 10
8076.7307692308
 20
6151.6175192691
 30
0.0
 40
0.75
100
AcDbArc
 50
90.0
 51
180.0
  0
ARC
  5
94
330
1F
100
AcDbEntity
  8
0
  6
Continuous
 62
     7
370
    25
100
AcDbCircle
 10
8097.2307692308
 20
6151.6175192691
 30
0.0
 40
0.75
100
AcDbArc
 50
90.0
 51
180.0
  0
LINE
  5
95
330
1F
100
AcDbEntity
  8
0
  6
Continuous
 62
     7
370
    25
100
AcDbLine
 10
8076.7307692308
 20
6112.2340890676
 30
0.0
 11
8077.9807692308
 21
6112.2340890676
 31
0.0
  0
LINE
  5
96
330
1F
100
AcDbEntity
  8
0
  6
Continuous
 62
     7
370
    25
100
AcDbLine
 10
8095.9807692308
 20
6112.2340890676
 30
0.0
 11
8097.2307692308
 21
6112.2340890676
 31
0.0
  0
ARC
  5
97
330
1F
100
AcDbEntity
  8
0
  6
Continuous
 62
     7
370
    25
100
AcDbCircle
 10
8076.7307692308
 20
6112.9840890676
 30
0.0
 40
0.75
100
AcDbArc
 50
180.0
 51
270.0
  0
ARC
  5
98
330
1F
100
AcDbEntity
  8
0
  6
Continuous
 62
     7
370
    25
100
AcDbCircle
 10
8097.2307692308
 20
6112.9840890676
 30
0.0
 40
0.75
100
AcDbArc
 50
270.0
 51
0.0
  0
SPLINE
  5
99
330
1F
100
AcDbEntity
  8
0
  6
Continuous
 62
     7
370
    25
100
AcDbSpline
210
0.0
220
0.0
230
1.0
 70
     8
 71
     3
 72
    12
 73
     8
 74
     0
 42
0.00000001
 43
0.00000001
 40
0.0
 40
0.0
 40
0.0
 40
0.0
 40
0.2011707969349038
 40
0.4455694780535325
 40
0.717576141913283
 40
0.9266768455410553
 40
1.0
 40
1.0
 40
1.0
 40
1.0
 10
8096.48076923077
 20
6114.358096523238
 30
0.0
 10
8096.475466876031
 20
6114.298637814662
 30
0.0
 10
8096.463722788572
 20
6114.166943820556
 30
0.0
 10
8096.335035017855
 20
6113.939247869563
 30
0.0
 10
8096.131742939173
 20
6113.785662490974
 30
0.0
 10
8095.943576424929
 20
6113.734229595337
 30
0.0
 10
8095.877469402817
 20
6113.736370572577
 30
0.0
 10
8095.860306633972
 20
6113.736926415152
 30
0.0
  0
SPLINE
  5
9A
330
1F
100
AcDbEntity
  8
0
  6
Continuous
 62
     7
370
    25
100
AcDbSpline
210
0.0
220
0.0
230
1.0
 70
     8
 71
     3
 72
    11
 73
     7
 74
     0
 42
0.00000001
 43
0.00000001
 40
0.0
 40
0.0
 40
0.0
 40
0.0
 40
0.1858124707987384
 40
0.4782924976819724
 40
0.766117769363548
 40
1.0
 40
1.0
 40
1.0
 40
1.0
 10
8077.984638303102
 20
6113.754556418247
 30
0.0
 10
8077.935394342189
 20
6113.766249969361
 30
0.0
 10
8077.808637419152
 20
6113.796349874629
 30
0.0
 10
8077.622156596567
 20
6113.947307942128
 30
0.0
 10
8077.49800816859
 20
6114.166213789724
 30
0.0
 10
8077.486105302787
 20
6114.298701907644
 30
0.0
 10
8077.48076923077
 20
6114.358096523238
 30
0.0
  0
LINE
  5
9B
330
1F
100
AcDbEntity
  8
0
  6
Continuous
 62
     7
370
    25
100
AcDbLine
 10
8077.4807692308
 20
6149.0644230769
 30
0.0
 11
8096.4807692308
 21
6149.0644230769
 31
0.0
  0
LINE
  5
9C
330
1F
100
AcDbEntity
  8
0
  6
Continuous
 62
     7
370
    25
100
AcDbLine
 10
8096.3589119402
 20
6150.5644230769
 30
0.0
 11
8077.6026265213
 21
6150.5644230769
 31
0.0
  0
LINE
  5
9D
330
1F
100
AcDbEntity
  8
0
  6
Continuous
 62
     7
370
    25
100
AcDbLine
 10
7983.9807692308
 20
6184.1916478565
 30
0.0
 11
7983.9807692308
 21
6206.6916478565
 31
0.0
  0
LINE
  5
9E
330
1F
100
AcDbEntity
  8
0
  6
Continuous
 62
     7
370
    25
100
AcDbLine
 10
7983.9807692308
 20
6161.6916478565
 30
0.0
 11
7983.9807692308
 21
6184.1916478565
 31
0.0
  0
LINE
  5
9F
330
1F
100
AcDbEntity
  8
0
  6
Continuous
 62
     7
370
    25
100
AcDbLine
 10
7943.9807692308
 20
6184.1916478565
 30
0.0
 11
7943.9807692308
 21
6206.6916478565
 31
0.0
  0
LINE
  5
A0
330
1F
100
AcDbEntity
  8
0
  6
Continuous
 62
     7
370
    25
100
AcDbLine
 10
7943.9807692308
 20
6161.6916478565
 30
0.0
 11
7943.9807692308
 21
6184.1916478565
 31
0.0
  0
LINE
  5
A1
330
1F
100
AcDbEntity
  8
0
  6
Continuous
 62
     7
370
    25
100
AcDbLine
 10
8181.9807692308
 20
6129.0144230769
 30
0.0
 11
8097.9807692308
 21
6129.0144230769
 31
0.0
  0
LINE
  5
A2
330
1F
100
AcDbEntity
  8
0
  6
Continuous
 62
     7
370
    25
100
AcDbLine
 10
8096.4807692308
 20
6129.0144230769
 30
0.0
 11
8077.4807692308
 21
6129.0144230769
 31
0.0
  0
LINE
  5
A3
330
1F
100
AcDbEntity
  8
0
  6
Continuous
 62
     7
370
    25
100
AcDbLine
 10
8075.9807692308
 20
6129.0144230769
 30
0.0
 11
7991.9807692308
 21
6129.0144230769
 31
0.0
  0
LINE
  5
A4
330
1F
100
AcDbEntity
  8
0
  6
Continuous
 62
     7
370
    25
100
AcDbLine
 10
8181.9807692308
 20
6149.0144230769
 30
0.0
 11
8097.9807692308
 21
6149.0144230769
 31
0.0
  0
LINE
  5
A5
330
1F
100
AcDbEntity
  8
0
  6
Continuous
 62
     7
370
    25
100
AcDbLine
 10
8096.4807692308
 20
6149.0144230769
 30
0.0
 11
8077.4807692308
 21
6149.0144230769
 31
0.0
  0
LINE
  5
A6
330
1F
100
AcDbEntity
  8
0
  6
Continuous
 62
     7
370
    25
100
AcDbLine
 10
8075.9807692308
 20
6149.0144230769
 30
0.0
 11
7991.9807692308
 21
6149.0144230769
 31
0.0
  0
SPLINE
  5
A7
330
1F
100
AcDbEntity
  8
0
  6
Continuous
 62
     7
370
    25
100
AcDbSpline
210
0.0
220
0.0
230
1.0
 70
     8
 71
     3
 72
    27
 73
    23
 74
     0
 42
0.00000001
 43
0.00000001
 40
0.0
 40
0.0
 40
0.0
 40
0.0
 40
0.0094635307037585
 40
0.0624960399469834
 40
0.1130912178165157
 40
0.1650938017367188
 40
0.2168526863258593
 40
0.2700103131747435
 40
0.3236285356213005
 40
0.3787753184213747
 40
0.4327454842703781
 40
0.4883664540563497
 40
0.5408583024415458
 40
0.5949407633902566
 40
0.6463503712731878
 40
0.6992243972557826
 40
0.751156396979079
 40
0.8045429961488475
 40
0.8573621165402326
 40
0.9117175579738825
 40
0.9644066645896063
 40
1.0
 40
1.0
 40
1.0
 40
1.0
 10
7998.060564491439
 20
6164.081493193917
 30
0.0
 10
7998.056846565459
 20
6164.068969262001
 30
0.0
 10
7998.032293821048
 20
6163.986262693616
 30
0.0
 10
7998.14463794422
 20
6164.363232021749
 30
0.0
 10
7998.396713032246
 20
6165.228222644119
 30
0.0
 10
7998.786700135223
 20
6166.621489195648
 30
0.0
 10
7999.27539321543
 20
6168.483579982143
 30
0.0
 10
7999.828026470926
 20
6170.785099963714
 30
0.0
 10
8000.406135470535
 20
6173.506088054602
 30
0.0
 10
8000.954142481534
 20
6176.551742278821
 30
0.0
 10
8001.429617495874
 20
6179.867406780202
 30
0.0
 10
8001.783406628762
 20
6183.270844845239
 30
0.0
 10
8002.001637811244
 20
6186.711760498445
 30
0.0
 10
8002.078413083398
 20
6190.000825171533
 30
0.0
 10
8002.031393820923
 20
6193.134842020831
 30
0.0
 10
8001.887467387139
 20
6195.983580234417
 30
0.0
 10
8001.676209064927
 20
6198.541960226314
 30
0.0
 10
8001.437633438107
 20
6200.70340553474
 30
0.0
 10
8001.206286782725
 20
6202.440171479588
 30
0.0
 10
8001.027252513682
 20
6203.632452424809
 30
0.0
 10
8000.92268291087
 20
6204.281403666803
 30
0.0
 10
8000.923356676697
 20
6204.276866684188
 30
0.0
 10
8000.923628322706
 20
6204.275037483045
 30
0.0
  0
LINE
  5
A8
330
1F
100
AcDbEntity
  8
0
  6
Continuous
 62
     7
370
    25
100
AcDbLine
 10
8166.9933485036
 20
6019.0144230769
 30
0.0
 11
8006.968189958
 21
6019.0144230769
 31
0.0
  0
LINE
  5
A9
330
1F
100
AcDbEntity
  8
0
  6
Continuous
 62
     7
370
    25
100
AcDbLine
 10
8166.9933485036
 20
6224.0144230769
 30
0.0
 11
8006.968189958
 21
6224.0144230769
 31
0.0
  0
LINE
  5
AA
330
1F
100
AcDbEntity
  8
0
  6
Continuous
 62
     7
370
    25
100
AcDbLine
 10
8086.9807692308
 20
6249.0144230769
 30
0.0
 11
8114.9807692308
 21
6249.0144230769
 31
0.0
  0
LINE
  5
AB
330
1F
100
AcDbEntity
  8
0
  6
Continuous
 62
     7
370
    25
100
AcDbLine
 10
8058.9807692308
 20
6249.0144230769
 30
0.0
 11
8086.9807692308
 21
6249.0144230769
 31
0.0
  0
LINE
  5
AC
330
1F
100
AcDbEntity
  8
0
  6
Continuous
 62
     7
370
    25
100
AcDbLine
 10
8075.9807692308
 20
6132.3609632847
 30
0.0
 11
8075.9807692308
 21
6138.4807464719
 31
0.0
  0
LWPOLYLINE
  5
AD
330
1F
100
AcDbEntity
  8
0
  6
Continuous
 62
     7
370
    25
100
AcDbPolyline
 90
        9
 70
   128
 43
0.0
 10
8076.7307692308
 20
6138.7519699616
 10
8076.5844514893
 20
6138.7467584783
 10
8076.4437566565
 20
6138.7313243028
 10
8076.314091556
 20
6138.7062605617
 10
8076.2004391449
 20
6138.6725304407
 10
8076.1071670215
 20
6138.6314301693
 10
8076.0378595814
 20
6138.5845392078
 10
8075.9951802705
 20
6138.5336595498
 10
8075.9807692308
 20
6138.4807464719
  0
LINE
  5
AE
330
1F
100
AcDbEntity
  8
0
  6
Continuous
 62
     7
370
    25
100
AcDbLine
 10
8076.7307692308
 20
6138.7519699616
 30
0.0
 11
8076.7307692308
 21
6132.060088098
 31
0.0
  0
LWPOLYLINE
  5
AF
330
1F
100
AcDbEntity
  8
0
  6
Continuous
 62
     7
370
    25
100
AcDbPolyline
 90
        9
 70
   128
 43
0.0
 10
8076.7307692308
 20
6132.060088098
 10
8076.5844514893
 20
6132.0658693304
 10
8076.4437566565
 20
6132.0829908579
 10
8076.314091556
 20
6132.1107947099
 10
8076.2004391449
 20
6132.1482123999
 10
8076.1071670215
 20
6132.1938059871
 10
8076.0378595814
 20
6132.2458233355
 10
8075.9951802705
 20
6132.3022654476
 10
8075.9807692308
 20
6132.3609632847
  0
LINE
  5
B0
330
1F
100
AcDbEntity
  8
0
  6
Continuous
 62
     7
370
    25
100
AcDbLine
 10
8096.4807692308
 20
6132.3609632847
 30
0.0
 11
8096.4807692308
 21
6138.4807464719
 31
0.0
  0
LWPOLYLINE
  5
B1
330
1F
100
AcDbEntity
  8
0
  6
Continuous
 62
     7
370
    25
100
AcDbPolyline
 90
        9
 70
   128
 43
0.0
 10
8097.2307692308
 20
6138.7519699616
 10
8097.0844514893
 20
6138.7467584783
 10
8096.9437566565
 20
6138.7313243028
 10
8096.814091556
 20
6138.7062605617
 10
8096.7004391449
 20
6138.6725304407
 10
8096.6071670215
 20
6138.6314301693
 10
8096.5378595814
 20
6138.5845392078
 10
8096.4951802705
 20
6138.5336595498
 10
8096.4807692308
 20
6138.4807464719
  0
LINE
  5
B2
330
1F
100
AcDbEntity
  8
0
  6
Continuous
 62
     7
370
    25
100
AcDbLine
 10
8097.2307692308
 20
6132.060088098
 30
0.0
 11
8097.2307692308
 21
6138.7519699616
 31
0.0
  0
LWPOLYLINE
  5
B3
330
1F
100
AcDbEntity
  8
0
  6
Continuous
 62
     7
370
    25
100
AcDbPolyline
 90
        9
 70
   128
 43
0.0
 10
8097.2307692308
 20
6132.060088098
 10
8097.0844514893
 20
6132.0658693304
 10
8096.9437566565
 20
6132.0829908579
 10
8096.814091556
 20
6132.1107947099
 10
8096.7004391449
 20
6132.1482123999
 10
8096.6071670215
 20
6132.1938059871
 10
8096.5378595814
 20
6132.2458233355
 10
8096.4951802705
 20
6132.3022654476
 10
8096.4807692308
 20
6132.3609632847
  0
LINE
  5
B4
330
1F
100
AcDbEntity
  8
0
  6
Continuous
 62
     7
370
    25
100
AcDbLine
 10
8077.4807692308
 20
6138.4807464719
 30
0.0
 11
8077.4807692308
 21
6132.3609632847
 31
0.0
  0
LWPOLYLINE
  5
B5
330
1F
100
AcDbEntity
  8
0
  6
Continuous
 62
     7
370
    25
100
AcDbPolyline
 90
        9
 70
   128
 43
0.0
 10
8077.4807692308
 20
6132.3609632847
 10
8077.4663581911
 20
6132.3022654476
 10
8077.4236788802
 20
6132.2458233355
 10
8077.35437144
 20
6132.1938059871
 10
8077.2610993167
 20
6132.1482123999
 10
8077.1474469055
 20
6132.1107947099
 10
8077.017781805
 20
6132.0829908579
 10
8076.8770869723
 20
6132.0658693304
 10
8076.7307692308
 20
6132.060088098
  0
LWPOLYLINE
  5
B6
330
1F
100
AcDbEntity
  8
0
  6
Continuous
 62
     7
370
    25
100
AcDbPolyline
 90
        9
 70
   128
 43
0.0
 10
8077.4807692308
 20
6138.4807464719
 10
8077.4663581911
 20
6138.5336595498
 10
8077.4236788802
 20
6138.5845392078
 10
8077.35437144
 20
6138.6314301693
 10
8077.2610993167
 20
6138.6725304407
 10
8077.1474469055
 20
6138.7062605617
 10
8077.017781805
 20
6138.7313243028
 10
8076.8770869723
 20
6138.7467584783
 10
8076.7307692308
 20
6138.7519699616
  0
LWPOLYLINE
  5
B7
330
1F
100
AcDbEntity
  8
0
  6
Continuous
 62
     7
370
    25
100
AcDbPolyline
 90
        9
 70
   128
 43
0.0
 10
8097.9807692308
 20
6138.4807464719
 10
8097.9663581911
 20
6138.5336595498
 10
8097.9236788802
 20
6138.5845392078
 10
8097.85437144
 20
6138.6314301693
 10
8097.7610993167
 20
6138.6725304407
 10
8097.6474469055
 20
6138.7062605617
 10
8097.517781805
 20
6138.7313243028
 10
8097.3770869723
 20
6138.7467584783
 10
8097.2307692308
 20
6138.7519699616
  0
LINE
  5
B8
330
1F
100
AcDbEntity
  8
0
  6
Continuous
 62
     7
370
    25
100
AcDbLine
 10
8097.9807692308
 20
6138.4807464719
 30
0.0
 11
8097.9807692308
 21
6132.3609632847
 31
0.0
  0
LWPOLYLINE
  5
B9
330
1F
100
AcDbEntity
  8
0
  6
Continuous
 62
     7
370
    25
100
AcDbPolyline
 90
        9
 70
   128
 43
0.0
 10
8097.9807692308
 20
6132.3609632847
 10
8097.9663581911
 20
6132.3022654476
 10
8097.9236788802
 20
6132.2458233355
 10
8097.85437144
 20
6132.1938059871
 10
8097.7610993167
 20
6132.1482123999
 10
8097.6474469055
 20
6132.1107947099
 10
8097.517781805
 20
6132.0829908579
 10
8097.3770869723
 20
6132.0658693304
 10
8097.2307692308
 20
6132.060088098
  0
LINE
  5
BA
330
1F
100
AcDbEntity
  8
0
  6
Continuous
 62
     7
370
    25
100
AcDbLine
 10
8075.9807692308
 20
6138.4807464719
 30
0.0
 11
8075.9807692308
 21
6148.4905785907
 31
0.0
  0
LWPOLYLINE
  5
BB
330
1F
100
AcDbEntity
  8
0
  6
Continuous
 62
     7
370
    25
100
AcDbPolyline
 90
        9
 70
   128
 43
0.0
 10
8076.7307692308
 20
6148.7618020805
 10
8076.5844514893
 20
6148.7565905972
 10
8076.4437566565
 20
6148.7411564216
 10
8076.314091556
 20
6148.7160926806
 10
8076.2004391449
 20
6148.6823625595
 10
8076.1071670215
 20
6148.6412622881
 10
8076.0378595814
 20
6148.5943713267
 10
8075.9951802705
 20
6148.5434916687
 10
8075.9807692308
 20
6148.4905785907
  0
LINE
  5
BC
330
1F
100
AcDbEntity
  8
0
  6
Continuous
 62
     7
370
    25
100
AcDbLine
 10
8076.7307692308
 20
6148.7618020805
 30
0.0
 11
8076.7307692308
 21
6138.7519699616
 31
0.0
  0
LINE
  5
BD
330
1F
100
AcDbEntity
  8
0
  6
Continuous
 62
     7
370
    25
100
AcDbLine
 10
8096.4807692308
 20
6138.4807464719
 30
0.0
 11
8096.4807692308
 21
6148.4905785907
 31
0.0
  0
LWPOLYLINE
  5
BE
330
1F
100
AcDbEntity
  8
0
  6
Continuous
 62
     7
370
    25
100
AcDbPolyline
 90
        9
 70
   128
 43
0.0
 10
8097.2307692308
 20
6148.7618020805
 10
8097.0844514893
 20
6148.7565905972
 10
8096.9437566565
 20
6148.7411564216
 10
8096.814091556
 20
6148.7160926806
 10
8096.7004391449
 20
6148.6823625595
 10
8096.6071670215
 20
6148.6412622881
 10
8096.5378595814
 20
6148.5943713267
 10
8096.4951802705
 20
6148.5434916687
 10
8096.4807692308
 20
6148.4905785907
  0
LINE
  5
BF
330
1F
100
AcDbEntity
  8
0
  6
Continuous
 62
     7
370
    25
100
AcDbLine
 10
8097.2307692308
 20
6138.7519699616
 30
0.0
 11
8097.2307692308
 21
6148.7618020805
 31
0.0
  0
LWPOLYLINE
  5
C0
330
1F
100
AcDbEntity
  8
0
  6
Continuous
 62
     7
370
    25
100
AcDbPolyline
 90
        9
 70
   128
 43
0.0
 10
8097.9807692308
 20
6148.4905785907
 10
8097.9663581911
 20
6148.5434916687
 10
8097.9236788802
 20
6148.5943713267
 10
8097.85437144
 20
6148.6412622881
 10
8097.7610993167
 20
6148.6823625595
 10
8097.6474469055
 20
6148.7160926806
 10
8097.517781805
 20
6148.7411564216
 10
8097.3770869723
 20
6148.7565905972
 10
8097.2307692308
 20
6148.7618020805
  0
LINE
  5
C1
330
1F
100
AcDbEntity
  8
0
  6
Continuous
 62
     7
370
    25
100
AcDbLine
 10
8097.9807692308
 20
6148.4905785907
 30
0.0
 11
8097.9807692308
 21
6138.4807464719
 31
0.0
  0
LINE
  5
C2
330
1F
100
AcDbEntity
  8
0
  6
Continuous
 62
     7
370
    25
100
AcDbLine
 10
8077.4807692308
 20
6148.4905785907
 30
0.0
 11
8077.4807692308
 21
6138.4807464719
 31
0.0
  0
LWPOLYLINE
  5
C3
330
1F
100
AcDbEntity
  8
0
  6
Continuous
 62
     7
370
    25
100
AcDbPolyline
 90
        9
 70
   128
 43
0.0
 10
8077.4807692308
 20
6148.4905785907
 10
8077.4663581911
 20
6148.5434916687
 10
8077.4236788802
 20
6148.5943713267
 10
8077.35437144
 20
6148.6412622881
 10
8077.2610993167
 20
6148.6823625595
 10
8077.1474469055
 20
6148.7160926806
 10
8077.017781805
 20
6148.7411564216
 10
8076.8770869723
 20
6148.7565905972
 10
8076.7307692308
 20
6148.7618020805
  0
LWPOLYLINE
  5
C4
330
1F
100
AcDbEntity
  8
0
  6
Continuous
 62
     7
370
    25
100
AcDbPolyline
 90
        9
 70
   128
 43
0.0
 10
8075.9807692308
 20
6112.9840890676
 10
8075.9951802705
 20
6112.9253912305
 10
8076.0378595814
 20
6112.8689491184
 10
8076.1071670215
 20
6112.81693177
 10
8076.2004391449
 20
6112.7713381828
 10
8076.314091556
 20
6112.7339204928
 10
8076.4437566565
 20
6112.7061166408
 10
8076.5844514893
 20
6112.6889951133
 10
8076.7307692308
 20
6112.6832138809
  0
LINE
  5
C5
330
1F
100
AcDbEntity
  8
0
  6
Continuous
 62
     7
370
    25
100
AcDbLine
 10
8075.9807692308
 20
6112.9840890676
 30
0.0
 11
8075.9807692308
 21
6132.3609632847
 31
0.0
  0
LINE
  5
C6
330
1F
100
AcDbEntity
  8
0
  6
Continuous
 62
     7
370
    25
100
AcDbLine
 10
8076.7307692308
 20
6132.060088098
 30
0.0
 11
8076.7307692308
 21
6112.6832138809
 31
0.0
  0
LINE
  5
C7
330
1F
100
AcDbEntity
  8
0
  6
Continuous
 62
     7
370
    25
100
AcDbLine
 10
8077.4807692308
 20
6132.3609632847
 30
0.0
 11
8077.4807692308
 21
6114.3580965232
 31
0.0
  0
ELLIPSE
  5
C8
330
1F
100
AcDbEntity
  8
0
  6
Continuous
 62
     7
370
    25
100
AcDbEllipse
 10
8076.7307692308
 20
6112.9840890676
 30
0.0
 11
0.73937823272081
 21
1.405005804093889
 31
0.0
210
0.0
220
0.0
230
1.0
 40
0.0895205566
 41
4.54389024495239
 42
6.114686571750783
  0
LINE
  5
C9
330
1F
100
AcDbEntity
  8
0
  6
Continuous
 62
     7
370
    25
100
AcDbLine
 10
8097.2307692308
 20
6112.6832138809
 30
0.0
 11
8097.2307692308
 21
6132.060088098
 31
0.0
  0
ELLIPSE
  5
CA
330
1F
100
AcDbEntity
  8
0
  6
Continuous
 62
     7
370
    25
100
AcDbEllipse
 10
8097.2307692308
 20
6112.9840890676
 30
0.0
 11
-0.73937823272081
 21
1.405005804093889
 31
0.0
210
0.0
220
0.0
230
1.0
 40
0.0895205566
 41
0.168498735428462
 42
1.739295062227694
  0
LINE
  5
CB
330
1F
100
AcDbEntity
  8
0
  6
Continuous
 62
     7
370
    25
100
AcDbLine
 10
8096.4807692308
 20
6114.3580965232
 30
0.0
 11
8096.4807692308
 21
6132.3609632847
 31
0.0
  0
LWPOLYLINE
  5
CC
330
1F
100
AcDbEntity
  8
0
  6
Continuous
 62
     7
370
    25
100
AcDbPolyline
 90
        9
 70
   128
 43
0.0
 10
8097.2307692308
 20
6112.6832138809
 10
8097.3770869723
 20
6112.6889951133
 10
8097.517781805
 20
6112.7061166408
 10
8097.6474469055
 20
6112.7339204928
 10
8097.7610993167
 20
6112.7713381828
 10
8097.85437144
 20
6112.81693177
 10
8097.9236788802
 20
6112.8689491184
 10
8097.9663581911
 20
6112.9253912305
 10
8097.9807692308
 20
6112.9840890676
  0
LINE
  5
CD
330
1F
100
AcDbEntity
  8
0
  6
Continuous
 62
     7
370
    25
100
AcDbLine
 10
8097.9807692308
 20
6132.3609632847
 30
0.0
 11
8097.9807692308
 21
6112.9840890676
 31
0.0
  0
LINE
  5
CE
330
1F
100
AcDbEntity
  8
0
  6
Continuous
 62
     7
370
    25
100
AcDbLine
 10
8095.9807692308
 20
6115.8428973296
 30
0.0
 11
8077.9807692308
 21
6115.8428973296
 31
0.0
  0
LINE
  5
CF
330
1F
100
AcDbEntity
  8
0
  6
Continuous
 62
     7
370
    25
100
AcDbLine
 10
8095.9807692308
 20
6124.2970853397
 30
0.0
 11
8095.9807692308
 21
6115.8428973296
 31
0.0
  0
LINE
  5
D0
330
1F
100
AcDbEntity
  8
0
  6
Continuous
 62
     7
370
    25
100
AcDbLine
 10
8077.9807692308
 20
6124.2970853397
 30
0.0
 11
8077.9807692308
 21
6115.8428973296
 31
0.0
  0
LINE
  5
D1
330
1F
100
AcDbEntity
  8
0
  6
Continuous
 62
     7
370
    25
100
AcDbLine
 10
8095.9807692308
 20
6093.0852468134
 30
0.0
 11
8077.9807692308
 21
6093.0852468134
 31
0.0
  0
LINE
  5
D2
330
1F
100
AcDbEntity
  8
0
  6
Continuous
 62
     7
370
    25
100
AcDbLine
 10
8095.9807692308
 20
6115.8428973296
 30
0.0
 11
8095.9807692308
 21
6093.0852468134
 31
0.0
  0
LINE
  5
D3
330
1F
100
AcDbEntity
  8
0
  6
Continuous
 62
     7
370
    25
100
AcDbLine
 10
8077.9807692308
 20
6115.8428973296
 30
0.0
 11
8077.9807692308
 21
6093.0852468134
 31
0.0
  0
LINE
  5
D4
330
1F
100
AcDbEntity
  8
0
  6
Continuous
 62
     7
370
    25
100
AcDbLine
 10
8097.9807692308
 20
6151.6175192691
 30
0.0
 11
8097.9807692308
 21
6148.4905785907
 31
0.0
  0
LINE
  5
D5
330
1F
100
AcDbEntity
  8
0
  6
Continuous
 62
     7
370
    25
100
AcDbLine
 10
8077.4807692308
 20
6151.6175192691
 30
0.0
 11
8077.4807692308
 21
6148.4905785907
 31
0.0
  0
LINE
  5
D6
330
1F
100
AcDbEntity
  8
0
  6
Continuous
 62
     7
370
    25
100
AcDbLine
 10
8075.9807692308
 20
6148.4905785907
 30
0.0
 11
8075.9807692308
 21
6151.6175192691
 31
0.0
  0
LINE
  5
D7
330
1F
100
AcDbEntity
  8
0
  6
Continuous
 62
     7
370
    25
100
AcDbLine
 10
8096.4807692308
 20
6148.4905785907
 30
0.0
 11
8096.4807692308
 21
6151.6175192691
 31
0.0
  0
ELLIPSE
  5
D8
330
1F
100
AcDbEntity
  8
0
  6
Continuous
 62
     7
370
    25
100
AcDbEllipse
 10
8097.2307692308
 20
6112.9840890676
 30
0.0
 11
1.49544936240909
 21
-0.7083381946713416
 31
0.0
210
0.0
220
0.0
230
1.0
 40
0.1648262796
 41
3.805192169920064
 42
4.790302953255123
  0
ARC
  5
D9
330
1F
100
AcDbEntity
  8
0
  6
Continuous
 62
     7
370
    25
100
AcDbCircle
 10
8095.7869138679
 20
6114.3768724299
 30
0.0
 40
0.6941093567965535
100
AcDbArc
 50
286.2176245604
 51
358.4499395739
  0
ELLIPSE
  5
DA
330
1F
100
AcDbEntity
  8
0
  6
Continuous
 62
     7
370
    25
100
AcDbEllipse
 10
8076.7307692308
 20
6112.9840890676
 30
0.0
 11
1.495449362408181
 21
0.7083381946695225
 31
0.0
210
0.0
220
0.0
230
1.0
 40
0.1648262796
 41
4.63447500751445
 42
5.61958579085292
  0
ARC
  5
DB
330
1F
100
AcDbEntity
  8
0
  6
Continuous
 62
     7
370
    25
100
AcDbCircle
 10
8078.1746245936
 20
6114.3768724299
 30
0.0
 40
0.6941093567983964
100
AcDbArc
 50
181.5500604262
 51
253.7823754394
  0
LINE
  5
DC
330
1F
100
AcDbEntity
  8
0
  6
Continuous
 62
     7
370
    25
100
AcDbLine
 10
8095.9807692308
 20
6080.8561247787
 30
0.0
 11
8077.9807692308
 21
6080.8561247787
 31
0.0
  0
LINE
  5
DD
330
1F
100
AcDbEntity
  8
0
  6
Continuous
 62
     7
370
    25
100
AcDbLine
 10
8095.9807692308
 20
6069.6258127636
 30
0.0
 11
8077.9807692308
 21
6069.6258127636
 31
0.0
  0
LINE
  5
DE
330
1F
100
AcDbEntity
  8
0
  6
Continuous
 62
     7
370
    25
100
AcDbLine
 10
8095.9807692308
 20
6080.8561247787
 30
0.0
 11
8095.9807692308
 21
6069.6258127636
 31
0.0
  0
LINE
  5
DF
330
1F
100
AcDbEntity
  8
0
  6
Continuous
 62
     7
370
    25
100
AcDbLine
 10
8077.9807692308
 20
6080.8561247787
 30
0.0
 11
8077.9807692308
 21
6069.6258127636
 31
0.0
  0
LINE
  5
E0
330
1F
100
AcDbEntity
  8
0
  6
Continuous
 62
     7
370
    25
100
AcDbLine
 10
8095.9807692308
 20
6069.2833586322
 30
0.0
 11
8077.9807692308
 21
6069.2833586322
 31
0.0
  0
LINE
  5
E1
330
1F
100
AcDbEntity
  8
0
  6
Continuous
 62
     7
370
    25
100
AcDbLine
 10
8095.9807692308
 20
6069.6258127636
 30
0.0
 11
8095.9807692308
 21
6069.2833586322
 31
0.0
  0
LINE
  5
E2
330
1F
100
AcDbEntity
  8
0
  6
Continuous
 62
     7
370
    25
100
AcDbLine
 10
8077.9807692308
 20
6069.6258127636
 30
0.0
 11
8077.9807692308
 21
6069.2833586322
 31
0.0
  0
LWPOLYLINE
  5
E3
330
1F
100
AcDbEntity
  8
0
  6
Continuous
 62
     7
370
    25
100
AcDbPolyline
 90
        9
 70
   128
 43
0.0
 10
8096.4807692308
 20
6150.6862803675
 10
8096.4663581911
 20
6150.6012349077
 10
8096.4236788802
 20
6150.5194576973
 10
8096.35437144
 20
6150.4440913885
 10
8096.2610993167
 20
6150.3780322663
 10
8096.1474469055
 20
6150.3238189458
 10
8096.017781805
 20
6150.2835348145
 10
8095.8770869723
 20
6150.2587279689
 10
8095.7307692308
 20
6150.2503517222
  0
LWPOLYLINE
  5
E4
330
1F
100
AcDbEntity
  8
0
  6
Continuous
 62
     7
370
    25
100
AcDbPolyline
 90
        9
 70
   128
 43
0.0
 10
8078.2307692308
 20
6150.2503517222
 10
8078.0844514893
 20
6150.2587279689
 10
8077.9437566565
 20
6150.2835348145
 10
8077.814091556
 20
6150.3238189458
 10
8077.7004391449
 20
6150.3780322663
 10
8077.6071670215
 20
6150.4440913885
 10
8077.5378595814
 20
6150.5194576973
 10
8077.4951802705
 20
6150.6012349077
 10
8077.4807692308
 20
6150.6862803675
  0
LINE
  5
E5
330
1F
100
AcDbEntity
  8
0
  6
Continuous
 62
     7
370
    25
100
AcDbLine
 10
8095.9807692308
 20
6093.0852468134
 30
0.0
 11
8095.9807692308
 21
6080.8561247787
 31
0.0
  0
LINE
  5
E6
330
1F
100
AcDbEntity
  8
0
  6
Continuous
 62
     7
370
    25
100
AcDbLine
 10
8077.9807692308
 20
6093.0852468134
 30
0.0
 11
8077.9807692308
 21
6080.8561247787
 31
0.0
  0
LINE
  5
E7
330
1F
100
AcDbEntity
  8
0
  6
Continuous
 62
     8
370
    25
100
AcDbLine
 10
8171.9877302564
 20
6023.7774612499
 30
0.0
 11
8001.9738082052
 21
6023.7774612499
 31
0.0
  0
LINE
  5
E8
330
1F
100
AcDbEntity
  8
0
  6
Continuous
 62
     8
370
    25
100
AcDbLine
 10
8171.9807692308
 20
6219.3688726362
 30
0.0
 11
8001.9807692308
 21
6219.3688726362
 31
0.0
  0
LINE
  5
E9
330
1F
100
AcDbEntity
  8
0
  6
Continuous
 62
     8
370
    25
100
AcDbLine
 10
8097.2307692308
 20
6148.7618020805
 30
0.0
 11
8097.2307692308
 21
6152.3675192691
 31
0.0
  0
LINE
  5
EA
330
1F
100
AcDbEntity
  8
0
  6
Continuous
 62
     8
370
    25
100
AcDbLine
 10
8076.7307692308
 20
6152.3675192691
 30
0.0
 11
8076.7307692308
 21
6148.7618020805
 31
0.0
  0
LINE
  5
EB
330
1F
100
AcDbEntity
  8
0
  6
Continuous
 62
     8
370
    25
100
AcDbLine
 10
8076.7307692308
 20
6112.6832138809
 30
0.0
 11
8076.7307692308
 21
6112.2340890676
 31
0.0
  0
LINE
  5
EC
330
1F
100
AcDbEntity
  8
0
  6
Continuous
 62
     8
370
    25
100
AcDbLine
 10
8097.2307692308
 20
6112.2340890676
 30
0.0
 11
8097.2307692308
 21
6112.6832138809
 31
0.0
  0
ELLIPSE
  5
ED
330
1F
100
AcDbEntity
  8
0
  6
Continuous
 62
     8
370
    25
100
AcDbEllipse
 10
8097.2307692308
 20
6149.8144230769
 30
0.0
 11
1.488119391002329
 21
-0.5091362124512672
 31
0.0
210
0.0
220
0.0
230
1.0
 40
0.3700703893
 41
3.267536161633646
 42
4.314733712831226
  0
ELLIPSE
  5
EE
330
1F
100
AcDbEntity
  8
0
  6
Continuous
 62
     8
370
    25
100
AcDbEllipse
 10
8076.7307692308
 20
6149.8144230769
 30
0.0
 11
1.488119391003238
 21
0.5091362124521768
 31
0.0
210
0.0
220
0.0
230
1.0
 40
0.3700703893
 41
5.110044247937472
 42
6.157241799134693
  0
ELLIPSE
  5
EF
330
1F
100
AcDbEntity
  8
0
  6
Continuous
 62
     8
370
    25
100
AcDbEllipse
 10
8076.7307692308
 20
6149.8144230769
 30
0.0
 11
1.488119391003238
 21
0.5091362124521768
 31
0.0
210
0.0
220
0.0
230
1.0
 40
0.3700703893
 41
6.157241799134693
 42
7.08581881460184
  0
ELLIPSE
  5
F0
330
1F
100
AcDbEntity
  8
0
  6
Continuous
 62
     8
370
    25
100
AcDbEllipse
 10
8097.2307692308
 20
6149.8144230769
 30
0.0
 11
1.488119391002329
 21
-0.5091362124512672
 31
0.0
210
0.0
220
0.0
230
1.0
 40
0.3700703893
 41
2.356100660906402
 42
3.267536161633646
  0
LINE
  5
F1
330
1F
100
AcDbEntity
  8
0
  6
Continuous
 62
     7
370
    25
100
AcDbLine
 10
8594.7261422671
 20
6129.0144230769
 30
0.0
 11
8594.7261422671
 21
6149.0144230769
 31
0.0
  0
LINE
  5
F2
330
1F
100
AcDbEntity
  8
0
  6
Continuous
 62
     7
370
    25
100
AcDbLine
 10
8404.7261422671
 20
6149.0144230769
 30
0.0
 11
8404.7261422671
 21
6129.0144230769
 31
0.0
  0
LINE
  5
F3
330
1F
100
AcDbEntity
  8
0
  6
Continuous
 62
     7
370
    25
100
AcDbLine
 10
8589.7261422671
 20
6149.0144230769
 30
0.0
 11
8584.7261422671
 21
6219.3688726362
 31
0.0
  0
LINE
  5
F4
330
1F
100
AcDbEntity
  8
0
  6
Continuous
 62
     7
370
    25
100
AcDbLine
 10
8414.7261422671
 20
6219.3688726362
 30
0.0
 11
8409.7261422671
 21
6149.0144230769
 31
0.0
  0
LINE
  5
F5
330
1F
100
AcDbEntity
  8
0
  6
Continuous
 62
     7
370
    25
100
AcDbLine
 10
8409.7261422671
 20
6129.0144230769
 30
0.0
 11
8414.7191812415
 21
6023.7774612499
 31
0.0
  0
LINE
  5
F6
330
1F
100
AcDbEntity
  8
0
  6
Continuous
 62
     7
370
    25
100
AcDbLine
 10
8584.7331032927
 20
6023.7774612499
 30
0.0
 11
8589.7261422671
 21
6129.0144230769
 31
0.0
  0
ARC
  5
F7
330
1F
100
AcDbEntity
  8
0
  6
Continuous
 62
     7
370
    25
100
AcDbCircle
 10
8579.7387215399
 20
6024.0144230769
 30
0.0
 40
5.0
100
AcDbArc
 50
270.0
 51
357.2835999778
  0
ARC
  5
F8
330
1F
100
AcDbEntity
  8
0
  6
Continuous
 62
     7
370
    25
100
AcDbCircle
 10
8419.7135629943
 20
6024.0144230769
 30
0.0
 40
5.0
100
AcDbArc
 50
182.7164000222
 51
270.0
  0
ARC
  5
F9
330
1F
100
AcDbEntity
  8
0
  6
Continuous
 62
     7
370
    25
100
AcDbCircle
 10
8579.7387215399
 20
6219.0144230769
 30
0.0
 40
5.0
100
AcDbArc
 50
4.0651023997
 51
90.0
  0
ARC
  5
FA
330
1F
100
AcDbEntity
  8
0
  6
Continuous
 62
     7
370
    25
100
AcDbCircle
 10
8419.7135629943
 20
6219.0144230769
 30
0.0
 40
5.000000000000091
100
AcDbArc
 50
90.0
 51
175.9348976003
  0
LINE
  5
FB
330
1F
100
AcDbEntity
  8
0
  6
Continuous
 62
     7
370
    25
100
AcDbLine
 10
8527.7261422671
 20
6224.0144230769
 30
0.0
 11
8527.7261422671
 21
6249.0144230769
 31
0.0
  0
LINE
  5
FC
330
1F
100
AcDbEntity
  8
0
  6
Continuous
 62
     7
370
    25
100
AcDbLine
 10
8471.7261422671
 20
6249.0144230769
 30
0.0
 11
8471.7261422671
 21
6224.0144230769
 31
0.0
  0
LINE
  5
FD
330
1F
100
AcDbEntity
  8
0
  6
Continuous
 62
     7
370
    25
100
AcDbLine
 10
8482.2261422671
 20
6190.1916478565
 30
0.0
 11
8482.2261422671
 21
6178.1916478565
 31
0.0
  0
LINE
  5
FE
330
1F
100
AcDbEntity
  8
0
  6
Continuous
 62
     7
370
    25
100
AcDbLine
 10
8517.2261422671
 20
6178.1916478565
 30
0.0
 11
8517.2261422671
 21
6190.1916478565
 31
0.0
  0
CIRCLE
  5
FF
330
1F
100
AcDbEntity
  8
0
  6
Continuous
 62
     7
370
    25
100
AcDbCircle
 10
8499.7261422671
 20
6184.1916478565
 30
0.0
 40
20.0
  0
CIRCLE
  5
100
330
1F
100
AcDbEntity
  8
0
  6
Continuous
 62
     7
370
    25
100
AcDbCircle
 10
8499.7261422671
 20
6184.1916478565
 30
0.0
 40
22.5
  0
CIRCLE
  5
101
330
1F
100
AcDbEntity
  8
0
  6
Continuous
 62
     7
370
    25
100
AcDbCircle
 10
8499.7261422671
 20
6184.1916478565
 30
0.0
 40
18.49999999999909
  0
LINE
  5
102
330
1F
100
AcDbEntity
  8
0
  6
Continuous
 62
     7
370
    25
100
AcDbLine
 10
8594.7261422671
 20
6149.0144230769
 30
0.0
 11
8404.7261422671
 21
6149.0144230769
 31
0.0
  0
LINE
  5
103
330
1F
100
AcDbEntity
  8
0
  6
Continuous
 62
     7
370
    25
100
AcDbLine
 10
8594.7261422671
 20
6129.0144230769
 30
0.0
 11
8404.7261422671
 21
6129.0144230769
 31
0.0
  0
LINE
  5
104
330
1F
100
AcDbEntity
  8
0
  6
Continuous
 62
     7
370
    25
100
AcDbLine
 10
8419.7135629943
 20
6019.0144230769
 30
0.0
 11
8579.7387215399
 21
6019.0144230769
 31
0.0
  0
LINE
  5
105
330
1F
100
AcDbEntity
  8
0
  6
Continuous
 62
     7
370
    25
100
AcDbLine
 10
8419.7135629943
 20
6224.0144230769
 30
0.0
 11
8579.7387215399
 21
6224.0144230769
 31
0.0
  0
LINE
  5
106
330
1F
100
AcDbEntity
  8
0
  6
Continuous
 62
     7
370
    25
100
AcDbLine
 10
8471.7261422671
 20
6249.0144230769
 30
0.0
 11
8527.7261422671
 21
6249.0144230769
 31
0.0
  0
LINE
  5
107
330
1F
100
AcDbEntity
  8
0
  6
Continuous
 62
     7
370
    25
100
AcDbLine
 10
8591.4345871425
 20
6149.8144230769
 30
0.0
 11
8591.8705157878
 21
6149.2041229735
 31
0.0
  0
ARC
  5
108
330
1F
100
AcDbEntity
  8
0
  6
Continuous
 62
     7
370
    25
100
AcDbCircle
 10
8591.4345871425
 20
6149.8144230769
 30
0.0
 40
0.7500000000000541
100
AcDbArc
 50
125.537677792
 51
305.537677792
  0
LINE
  5
109
330
1F
100
AcDbEntity
  8
0
  6
Continuous
 62
     7
370
    25
100
AcDbLine
 10
8590.9986584972
 20
6150.4247231803
 30
0.0
 11
8591.4345871425
 21
6149.8144230769
 31
0.0
  0
LINE
  5
10A
330
1F
100
AcDbEntity
  8
0
  6
Continuous
 62
     7
370
    25
100
AcDbLine
 10
8592.2456401799
 20
6151.3154243822
 30
0.0
 11
8592.6815688251
 21
6150.7051242788
 31
0.0
  0
LINE
  5
10B
330
1F
100
AcDbEntity
  8
0
  6
Continuous
 62
     7
370
    25
100
AcDbLine
 10
8592.6815688251
 20
6150.7051242788
 30
0.0
 11
8591.4345871425
 21
6149.8144230769
 31
0.0
  0
LINE
  5
10C
330
1F
100
AcDbEntity
  8
0
  6
Continuous
 62
     7
370
    25
100
AcDbLine
 10
8590.9986584972
 20
6150.4247231803
 30
0.0
 11
8592.2456401799
 21
6151.3154243822
 31
0.0
  0
LINE
  5
10D
330
1F
100
AcDbEntity
  8
0
  6
Continuous
 62
     7
370
    25
100
AcDbLine
 10
8592.6815688251
 20
6150.7051242788
 30
0.0
 11
8593.1174974704
 21
6150.0948241754
 31
0.0
  0
LINE
  5
10E
330
1F
100
AcDbEntity
  8
0
  6
Continuous
 62
     7
370
    25
100
AcDbLine
 10
8593.1174974704
 20
6150.0948241754
 30
0.0
 11
8591.8705157878
 21
6149.2041229735
 31
0.0
  0
LINE
  5
10F
330
1F
100
AcDbEntity
  8
0
  6
Continuous
 62
     7
370
    25
100
AcDbLine
 10
8600.7947235378
 20
6148.7618020805
 30
0.0
 11
8600.0954826504
 21
6148.4905785907
 31
0.0
  0
ARC
  5
110
330
1F
100
AcDbEntity
  8
0
  6
Continuous
 62
     7
370
    25
100
AcDbCircle
 10
8595.5286655072
 20
6146.7191889239
 30
0.0
 40
4.898330345227243
100
AcDbArc
 50
21.2004147946
 51
125.537677792
  0
ARC
  5
111
330
1F
100
AcDbEntity
  8
0
  6
Continuous
 62
     7
370
    25
100
AcDbCircle
 10
8595.5286655072
 20
6146.7191889239
 30
0.0
 40
5.648330345227371
100
AcDbArc
 50
21.2004147946
 51
125.537677792
  0
LINE
  5
112
330
1F
100
AcDbEntity
  8
0
  6
Continuous
 62
     7
370
    25
100
AcDbLine
 10
8600.0954826504
 20
6148.4905785907
 30
0.0
 11
8599.396241763
 21
6148.219355101
 31
0.0
  0
ARC
  5
113
330
1F
100
AcDbEntity
  8
0
  6
Continuous
 62
     7
370
    25
100
AcDbCircle
 10
8595.5286655072
 20
6146.7191889239
 30
0.0
 40
4.148330345226785
100
AcDbArc
 50
21.2004147946
 51
125.537677792
  0
ARC
  5
114
330
1F
100
AcDbEntity
  8
0
  6
Continuous
 62
     7
370
    25
100
AcDbCircle
 10
8595.3610664274
 20
6112.9840890676
 30
0.0
 40
0.7500000000002409
100
AcDbArc
 50
156.3488517082
 51
336.3488517082
  0
LINE
  5
115
330
1F
100
AcDbEntity
  8
0
  6
Continuous
 62
     7
370
    25
100
AcDbLine
 10
8594.6740626996
 20
6113.2849642542
 30
0.0
 11
8595.3610664274
 21
6112.9840890676
 31
0.0
  0
LINE
  5
116
330
1F
100
AcDbEntity
  8
0
  6
Continuous
 62
     7
370
    25
100
AcDbLine
 10
8595.3610664274
 20
6112.9840890676
 30
0.0
 11
8596.0480701553
 21
6112.6832138809
 31
0.0
  0
LINE
  5
117
330
1F
100
AcDbEntity
  8
0
  6
Continuous
 62
     7
370
    25
100
AcDbLine
 10
8594.6740626996
 20
6113.2849642542
 30
0.0
 11
8603.1602184661
 21
6132.6618384713
 31
0.0
  0
LINE
  5
118
330
1F
100
AcDbEntity
  8
0
  6
Continuous
 62
     7
370
    25
100
AcDbLine
 10
8603.8472221939
 20
6132.3609632847
 30
0.0
 11
8603.1602184661
 21
6132.6618384713
 31
0.0
  0
LINE
  5
119
330
1F
100
AcDbEntity
  8
0
  6
Continuous
 62
     7
370
    25
100
AcDbLine
 10
8595.3610664274
 20
6112.9840890676
 30
0.0
 11
8603.8472221939
 21
6132.3609632847
 31
0.0
  0
LINE
  5
11A
330
1F
100
AcDbEntity
  8
0
  6
Continuous
 62
     7
370
    25
100
AcDbLine
 10
8604.5342259217
 20
6132.060088098
 30
0.0
 11
8603.8472221939
 21
6132.3609632847
 31
0.0
  0
LINE
  5
11B
330
1F
100
AcDbEntity
  8
0
  6
Continuous
 62
     7
370
    25
100
AcDbLine
 10
8604.5342259217
 20
6132.060088098
 30
0.0
 11
8596.0480701553
 21
6112.6832138809
 31
0.0
  0
LINE
  5
11C
330
1F
100
AcDbEntity
  8
0
  6
Continuous
 62
     7
370
    25
100
AcDbLine
 10
8603.9781240233
 20
6138.4807464719
 30
0.0
 11
8603.2788831359
 21
6138.2095229821
 31
0.0
  0
LINE
  5
11D
330
1F
100
AcDbEntity
  8
0
  6
Continuous
 62
     7
370
    25
100
AcDbLine
 10
8603.2788831359
 20
6138.2095229821
 30
0.0
 11
8599.396241763
 21
6148.219355101
 31
0.0
  0
LINE
  5
11E
330
1F
100
AcDbEntity
  8
0
  6
Continuous
 62
     7
370
    25
100
AcDbLine
 10
8603.9781240233
 20
6138.4807464719
 30
0.0
 11
8600.0954826504
 21
6148.4905785907
 31
0.0
  0
LINE
  5
11F
330
1F
100
AcDbEntity
  8
0
  6
Continuous
 62
     7
370
    25
100
AcDbLine
 10
8604.6773649107
 20
6138.7519699616
 30
0.0
 11
8603.9781240233
 21
6138.4807464719
 31
0.0
  0
LINE
  5
120
330
1F
100
AcDbEntity
  8
0
  6
Continuous
 62
     7
370
    25
100
AcDbLine
 10
8600.7947235378
 20
6148.7618020805
 30
0.0
 11
8604.6773649107
 21
6138.7519699616
 31
0.0
  0
ARC
  5
121
330
1F
100
AcDbEntity
  8
0
  6
Continuous
 62
     7
370
    25
100
AcDbCircle
 10
8596.4982909051
 20
6135.5794481102
 30
0.0
 40
7.272807218153314
100
AcDbArc
 50
336.3488517083
 51
21.2004147946
  0
ARC
  5
122
330
1F
100
AcDbEntity
  8
0
  6
Continuous
 62
     7
370
    25
100
AcDbCircle
 10
8596.4982909051
 20
6135.5794481102
 30
0.0
 40
8.022807218153556
100
AcDbArc
 50
336.3488517083
 51
21.2004147946
  0
ARC
  5
123
330
1F
100
AcDbEntity
  8
0
  6
Continuous
 62
     7
370
    25
100
AcDbCircle
 10
8596.4982909051
 20
6135.5794481102
 30
0.0
 40
8.772807218153432
100
AcDbArc
 50
336.3488517083
 51
21.2004147946
  0
LINE
  5
124
330
1F
100
AcDbEntity
  8
0
  6
Continuous
 62
     7
370
    25
100
AcDbLine
 10
8594.3494494406
 20
6069.2833586322
 30
0.0
 11
8589.5399840979
 21
6082.4782902616
 31
0.0
  0
LINE
  5
125
330
1F
100
AcDbEntity
  8
0
  6
Continuous
 62
     7
370
    25
100
AcDbLine
 10
8588.4415435027
 20
6090.2239749428
 30
0.0
 11
8590.3748435288
 21
6118.7034539009
 31
0.0
  0
ARC
  5
126
330
1F
100
AcDbEntity
  8
0
  6
Continuous
 62
     7
370
    25
100
AcDbCircle
 10
8596.3610664274
 20
6118.2970853397
 30
0.0
 40
6.000000000000263
100
AcDbArc
 50
61.9002040738
 51
176.1164932166
  0
ARC
  5
127
330
1F
100
AcDbEntity
  8
0
  6
Continuous
 62
     7
370
    25
100
AcDbCircle
 10
8596.3610664274
 20
6118.2970853397
 30
0.0
 40
6.00000000000126
100
AcDbArc
 50
335.8560007045
 51
47.2277704176
  0
LINE
  5
128
330
1F
100
AcDbEntity
  8
0
  6
Continuous
 62
     7
370
    25
100
AcDbLine
 10
8601.8361884545
 20
6115.8428973296
 30
0.0
 11
8591.6352189129
 21
6093.0852468134
 31
0.0
  0
ARC
  5
129
330
1F
100
AcDbEntity
  8
0
  6
Continuous
 62
     7
370
    25
100
AcDbCircle
 10
8606.4849040633
 20
6086.4289715616
 30
0.0
 40
16.27326486269505
100
AcDbArc
 50
155.8560007045
 51
200.026463732
  0
LINE
  5
12A
330
1F
100
AcDbEntity
  8
0
  6
Continuous
 62
     7
370
    25
100
AcDbLine
 10
8591.1956095071
 20
6080.8561247787
 30
0.0
 11
8595.2889839891
 21
6069.6258127636
 31
0.0
  0
LINE
  5
12B
330
1F
100
AcDbEntity
  8
0
  6
Continuous
 62
     7
370
    25
100
AcDbLine
 10
8595.2889839891
 20
6069.6258127636
 30
0.0
 11
8594.3494494406
 21
6069.2833586322
 31
0.0
  0
ARC
  5
12C
330
1F
100
AcDbEntity
  8
0
  6
Continuous
 62
     7
370
    25
100
AcDbCircle
 10
8607.2817045302
 20
6088.9450300625
 30
0.0
 40
18.88352105802464
100
AcDbArc
 50
176.1164932166
 51
200.026463732
  0
ARC
  5
12D
330
1F
100
AcDbEntity
  8
0
  6
Continuous
 62
     7
370
    25
100
AcDbCircle
 10
8402.953993629
 20
6135.5794481102
 30
0.0
 40
8.772807218153432
100
AcDbArc
 50
158.7995852054
 51
203.6511482917
  0
LINE
  5
12E
330
1F
100
AcDbEntity
  8
0
  6
Continuous
 62
     7
370
    25
100
AcDbLine
 10
8394.7749196234
 20
6138.7519699616
 30
0.0
 11
8395.4741605108
 21
6138.4807464719
 31
0.0
  0
ARC
  5
12F
330
1F
100
AcDbEntity
  8
0
  6
Continuous
 62
     7
370
    25
100
AcDbCircle
 10
8402.953993629
 20
6135.5794481102
 30
0.0
 40
8.022807218153671
100
AcDbArc
 50
158.7995852054
 51
203.6511482917
  0
LINE
  5
130
330
1F
100
AcDbEntity
  8
0
  6
Continuous
 62
     7
370
    25
100
AcDbLine
 10
8394.9180586124
 20
6132.060088098
 30
0.0
 11
8395.6050623402
 21
6132.3609632847
 31
0.0
  0
LINE
  5
131
330
1F
100
AcDbEntity
  8
0
  6
Continuous
 62
     7
370
    25
100
AcDbLine
 10
8404.0912181067
 20
6112.9840890676
 30
0.0
 11
8395.6050623402
 21
6132.3609632847
 31
0.0
  0
LINE
  5
132
330
1F
100
AcDbEntity
  8
0
  6
Continuous
 62
     7
370
    25
100
AcDbLine
 10
8404.0912181067
 20
6112.9840890676
 30
0.0
 11
8403.4042143789
 21
6112.6832138809
 31
0.0
  0
LINE
  5
133
330
1F
100
AcDbEntity
  8
0
  6
Continuous
 62
     7
370
    25
100
AcDbLine
 10
8394.9180586124
 20
6132.060088098
 30
0.0
 11
8403.4042143789
 21
6112.6832138809
 31
0.0
  0
LINE
  5
134
330
1F
100
AcDbEntity
  8
0
  6
Continuous
 62
     7
370
    25
100
AcDbLine
 10
8398.6575609964
 20
6148.7618020805
 30
0.0
 11
8399.3568018838
 21
6148.4905785907
 31
0.0
  0
LINE
  5
135
330
1F
100
AcDbEntity
  8
0
  6
Continuous
 62
     7
370
    25
100
AcDbLine
 10
8395.4741605108
 20
6138.4807464719
 30
0.0
 11
8399.3568018838
 21
6148.4905785907
 31
0.0
  0
LINE
  5
136
330
1F
100
AcDbEntity
  8
0
  6
Continuous
 62
     7
370
    25
100
AcDbLine
 10
8398.6575609964
 20
6148.7618020805
 30
0.0
 11
8394.7749196234
 21
6138.7519699616
 31
0.0
  0
LINE
  5
137
330
1F
100
AcDbEntity
  8
0
  6
Continuous
 62
     7
370
    25
100
AcDbLine
 10
8395.4741605108
 20
6138.4807464719
 30
0.0
 11
8396.1734013982
 21
6138.2095229821
 31
0.0
  0
ARC
  5
138
330
1F
100
AcDbEntity
  8
0
  6
Continuous
 62
     7
370
    25
100
AcDbCircle
 10
8402.953993629
 20
6135.5794481102
 30
0.0
 40
7.272807218153314
100
AcDbArc
 50
158.7995852054
 51
203.6511482917
  0
LINE
  5
139
330
1F
100
AcDbEntity
  8
0
  6
Continuous
 62
     7
370
    25
100
AcDbLine
 10
8395.6050623402
 20
6132.3609632847
 30
0.0
 11
8396.2920660681
 21
6132.6618384713
 31
0.0
  0
LINE
  5
13A
330
1F
100
AcDbEntity
  8
0
  6
Continuous
 62
     7
370
    25
100
AcDbLine
 10
8404.7782218346
 20
6113.2849642542
 30
0.0
 11
8396.2920660681
 21
6132.6618384713
 31
0.0
  0
LINE
  5
13B
330
1F
100
AcDbEntity
  8
0
  6
Continuous
 62
     7
370
    25
100
AcDbLine
 10
8404.7782218346
 20
6113.2849642542
 30
0.0
 11
8404.0912181067
 21
6112.9840890676
 31
0.0
  0
LINE
  5
13C
330
1F
100
AcDbEntity
  8
0
  6
Continuous
 62
     7
370
    25
100
AcDbLine
 10
8399.3568018838
 20
6148.4905785907
 30
0.0
 11
8400.0560427711
 21
6148.219355101
 31
0.0
  0
LINE
  5
13D
330
1F
100
AcDbEntity
  8
0
  6
Continuous
 62
     7
370
    25
100
AcDbLine
 10
8396.1734013982
 20
6138.2095229821
 30
0.0
 11
8400.0560427711
 21
6148.219355101
 31
0.0
  0
LINE
  5
13E
330
1F
100
AcDbEntity
  8
0
  6
Continuous
 62
     7
370
    25
100
AcDbLine
 10
8407.2066443543
 20
6151.3154243822
 30
0.0
 11
8406.770715709
 21
6150.7051242788
 31
0.0
  0
ARC
  5
13F
330
1F
100
AcDbEntity
  8
0
  6
Continuous
 62
     7
370
    25
100
AcDbCircle
 10
8403.9236190269
 20
6146.7191889239
 30
0.0
 40
4.898330345227243
100
AcDbArc
 50
54.462322208
 51
158.7995852054
  0
ARC
  5
140
330
1F
100
AcDbEntity
  8
0
  6
Continuous
 62
     7
370
    25
100
AcDbCircle
 10
8403.9236190269
 20
6146.7191889239
 30
0.0
 40
5.648330345227371
100
AcDbArc
 50
54.462322208
 51
158.7995852054
  0
LINE
  5
141
330
1F
100
AcDbEntity
  8
0
  6
Continuous
 62
     7
370
    25
100
AcDbLine
 10
8406.770715709
 20
6150.7051242788
 30
0.0
 11
8406.3347870637
 21
6150.0948241754
 31
0.0
  0
ARC
  5
142
330
1F
100
AcDbEntity
  8
0
  6
Continuous
 62
     7
370
    25
100
AcDbCircle
 10
8403.9236190269
 20
6146.7191889239
 30
0.0
 40
4.148330345226785
100
AcDbArc
 50
54.462322208
 51
158.7995852054
  0
ARC
  5
143
330
1F
100
AcDbEntity
  8
0
  6
Continuous
 62
     7
370
    25
100
AcDbCircle
 10
8404.0912181067
 20
6112.9840890676
 30
0.0
 40
0.7500000000002409
100
AcDbArc
 50
203.6511482918
 51
23.6511482918
  0
LINE
  5
144
330
1F
100
AcDbEntity
  8
0
  6
Continuous
 62
     7
370
    25
100
AcDbLine
 10
8408.0176973916
 20
6149.8144230769
 30
0.0
 11
8407.5817687463
 21
6149.2041229735
 31
0.0
  0
LINE
  5
145
330
1F
100
AcDbEntity
  8
0
  6
Continuous
 62
     7
370
    25
100
AcDbLine
 10
8406.3347870637
 20
6150.0948241754
 30
0.0
 11
8407.5817687463
 21
6149.2041229735
 31
0.0
  0
LINE
  5
146
330
1F
100
AcDbEntity
  8
0
  6
Continuous
 62
     7
370
    25
100
AcDbLine
 10
8406.770715709
 20
6150.7051242788
 30
0.0
 11
8408.0176973916
 21
6149.8144230769
 31
0.0
  0
LINE
  5
147
330
1F
100
AcDbEntity
  8
0
  6
Continuous
 62
     7
370
    25
100
AcDbLine
 10
8408.4536260369
 20
6150.4247231803
 30
0.0
 11
8408.0176973916
 21
6149.8144230769
 31
0.0
  0
LINE
  5
148
330
1F
100
AcDbEntity
  8
0
  6
Continuous
 62
     7
370
    25
100
AcDbLine
 10
8408.4536260369
 20
6150.4247231803
 30
0.0
 11
8407.2066443543
 21
6151.3154243822
 31
0.0
  0
ARC
  5
149
330
1F
100
AcDbEntity
  8
0
  6
Continuous
 62
     7
370
    25
100
AcDbCircle
 10
8408.0176973916
 20
6149.8144230769
 30
0.0
 40
0.7500000000000541
100
AcDbArc
 50
234.462322208
 51
54.462322208
  0
LINE
  5
14A
330
1F
100
AcDbEntity
  8
0
  6
Continuous
 62
     7
370
    25
100
AcDbLine
 10
8408.2566750271
 20
6080.8561247787
 30
0.0
 11
8404.163300545
 21
6069.6258127636
 31
0.0
  0
ARC
  5
14B
330
1F
100
AcDbEntity
  8
0
  6
Continuous
 62
     7
370
    25
100
AcDbCircle
 10
8392.9673804709
 20
6086.4289715616
 30
0.0
 40
16.27326486269505
100
AcDbArc
 50
339.973536268
 51
24.1439992955
  0
LINE
  5
14C
330
1F
100
AcDbEntity
  8
0
  6
Continuous
 62
     7
370
    25
100
AcDbLine
 10
8397.6160960796
 20
6115.8428973296
 30
0.0
 11
8407.8170656212
 21
6093.0852468134
 31
0.0
  0
ARC
  5
14D
330
1F
100
AcDbEntity
  8
0
  6
Continuous
 62
     7
370
    25
100
AcDbCircle
 10
8403.0912181067
 20
6118.2970853397
 30
0.0
 40
6.000000000001172
100
AcDbArc
 50
3.8835067834
 51
118.0997959262
  0
ARC
  5
14E
330
1F
100
AcDbEntity
  8
0
  6
Continuous
 62
     7
370
    25
100
AcDbCircle
 10
8403.0912181067
 20
6118.2970853397
 30
0.0
 40
5.999999999999601
100
AcDbArc
 50
132.7722295824
 51
204.1439992955
  0
LINE
  5
14F
330
1F
100
AcDbEntity
  8
0
  6
Continuous
 62
     7
370
    25
100
AcDbLine
 10
8411.0107410315
 20
6090.2239749428
 30
0.0
 11
8409.0774410054
 21
6118.7034539009
 31
0.0
  0
ARC
  5
150
330
1F
100
AcDbEntity
  8
0
  6
Continuous
 62
     7
370
    25
100
AcDbCircle
 10
8392.170580004
 20
6088.9450300625
 30
0.0
 40
18.88352105802464
100
AcDbArc
 50
339.973536268
 51
3.8835067834
  0
LINE
  5
151
330
1F
100
AcDbEntity
  8
0
  6
Continuous
 62
     7
370
    25
100
AcDbLine
 10
8405.1028350936
 20
6069.2833586322
 30
0.0
 11
8409.9123004362
 21
6082.4782902616
 31
0.0
  0
LINE
  5
152
330
1F
100
AcDbEntity
  8
0
  6
Continuous
 62
     7
370
    25
100
AcDbLine
 10
8404.163300545
 20
6069.6258127636
 30
0.0
 11
8405.1028350936
 21
6069.2833586322
 31
0.0
  0
LINE
  5
153
330
1F
100
AcDbEntity
  8
0
  6
Continuous
 62
     8
370
    25
100
AcDbLine
 10
8584.7261422671
 20
6219.3688726362
 30
0.0
 11
8414.7261422671
 21
6219.3688726362
 31
0.0
  0
LINE
  5
154
330
1F
100
AcDbEntity
  8
0
  6
Continuous
 62
     8
370
    25
100
AcDbLine
 10
8584.7331032927
 20
6023.7774612499
 30
0.0
 11
8414.7191812415
 21
6023.7774612499
 31
0.0
  0
LINE
  5
155
330
1F
100
AcDbEntity
  8
0
  6
Continuous
 62
     7
370
    25
100
AcDbLine
 10
7983.9807692308
 20
5735.9227435662
 30
0.0
 11
7943.9807692308
 21
5735.9227435662
 31
0.0
  0
LINE
  5
156
330
1F
100
AcDbEntity
  8
0
  6
Continuous
 62
     7
370
    25
100
AcDbLine
 10
7943.9807692308
 20
5690.9227435662
 30
0.0
 11
7983.9807692308
 21
5690.9227435662
 31
0.0
  0
LINE
  5
157
330
1F
100
AcDbEntity
  8
0
  6
Continuous
 62
     7
370
    25
100
AcDbLine
 10
8001.8298451833
 20
5733.5727435662
 30
0.0
 11
7983.9807692308
 21
5733.5727435662
 31
0.0
  0
LINE
  5
158
330
1F
100
AcDbEntity
  8
0
  6
Continuous
 62
     7
370
    25
100
AcDbLine
 10
7983.9807692308
 20
5693.2727435662
 30
0.0
 11
8001.8200121942
 21
5693.2727435662
 31
0.0
  0
SPLINE
  5
159
330
1F
100
AcDbEntity
  8
0
  6
Continuous
 62
     7
370
    25
100
AcDbSpline
210
0.0
220
0.0
230
1.0
 70
     8
 71
     3
 72
    12
 73
     8
 74
     0
 42
0.00000001
 43
0.00000001
 40
0.0
 40
0.0
 40
0.0
 40
0.0
 40
0.1681545555106726
 40
0.3866874997019382
 40
0.6863730052678761
 40
0.9030802709326743
 40
1.0
 40
1.0
 40
1.0
 40
1.0
 10
8077.48076923077
 20
5620.49369848397
 30
0.0
 10
8077.482767013812
 20
5620.523488883304
 30
0.0
 10
8077.48736110719
 20
5620.591994758739
 30
0.0
 10
8077.57326275142
 20
5620.780151581394
 30
0.0
 10
8077.743219793454
 20
5620.92213679418
 30
0.0
 10
8077.903228820262
 20
5620.963744344737
 30
0.0
 10
8077.933432269035
 20
5620.962962883699
 30
0.0
 10
8077.942766000254
 20
5620.962721389844
 30
0.0
  0
SPLINE
  5
15A
330
1F
100
AcDbEntity
  8
0
  6
Continuous
 62
     7
370
    25
100
AcDbSpline
210
0.0
220
0.0
230
1.0
 70
     8
 71
     3
 72
    13
 73
     9
 74
     0
 42
0.00000001
 43
0.00000001
 40
0.0
 40
0.0
 40
0.0
 40
0.0
 40
0.0481293946455159
 40
0.2512043675262302
 40
0.5059032543614461
 40
0.7919770969576644
 40
0.9674320641861278
 40
1.0
 40
1.0
 40
1.0
 40
1.0
 10
8096.021975577287
 20
5620.96329785974
 30
0.0
 10
8096.025480651132
 20
5620.963435373781
 30
0.0
 10
8096.043774873722
 20
5620.964153108298
 30
0.0
 10
8096.170433647828
 20
5620.940602432511
 30
0.0
 10
8096.34815295456
 20
5620.824978754821
 30
0.0
 10
8096.462604304492
 20
5620.64089590481
 30
0.0
 10
8096.480345828784
 20
5620.52565036352
 30
0.0
 10
8096.480711916332
 20
5620.498023697545
 30
0.0
 10
8096.48076923077
 20
5620.49369848397
 30
0.0
  0
LINE
  5
15B
330
1F
100
AcDbEntity
  8
0
  6
Continuous
 62
     7
370
    25
100
AcDbLine
 10
8077.9513694376
 20
5620.9642986908
 30
0.0
 11
8096.010169024
 21
5620.9642986908
 31
0.0
  0
LINE
  5
15C
330
1F
100
AcDbEntity
  8
0
  6
Continuous
 62
     7
370
    25
100
AcDbLine
 10
8097.2307692308
 20
5622.4642986908
 30
0.0
 11
8076.7307692308
 21
5622.4642986908
 31
0.0
  0
ARC
  5
15D
330
1F
100
AcDbEntity
  8
0
  6
Continuous
 62
     7
370
    25
100
AcDbCircle
 10
8076.7307692308
 20
5621.7142986908
 30
0.0
 40
0.75
100
AcDbArc
 50
90.0
 51
180.0
  0
ARC
  5
15E
330
1F
100
AcDbEntity
  8
0
  6
Continuous
 62
     7
370
    25
100
AcDbCircle
 10
8097.2307692308
 20
5621.7142986908
 30
0.0
 40
0.75
100
AcDbArc
 50
0.0
 51
90.0
  0
ARC
  5
15F
330
1F
100
AcDbEntity
  8
0
  6
Continuous
 62
     7
370
    25
100
AcDbCircle
 10
8076.7307692308
 20
5608.62778771
 30
0.0
 40
0.75
100
AcDbArc
 50
180.0
 51
270.0
  0
ARC
  5
160
330
1F
100
AcDbEntity
  8
0
  6
Continuous
 62
     7
370
    25
100
AcDbCircle
 10
8097.2307692308
 20
5608.62778771
 30
0.0
 40
0.75
100
AcDbArc
 50
270.0
 51
0.0
  0
ARC
  5
161
330
1F
100
AcDbEntity
  8
0
  6
Continuous
 62
     7
370
    25
100
AcDbCircle
 10
8097.2307692308
 20
5608.62778771
 30
0.0
 40
0.75
100
AcDbArc
 50
180.0
 51
270.0
  0
ARC
  5
162
330
1F
100
AcDbEntity
  8
0
  6
Continuous
 62
     7
370
    25
100
AcDbCircle
 10
8076.7307692308
 20
5608.62778771
 30
0.0
 40
0.75
100
AcDbArc
 50
270.0
 51
0.0
  0
LINE
  5
163
330
1F
100
AcDbEntity
  8
0
  6
Continuous
 62
     7
370
    25
100
AcDbLine
 10
8077.9807692308
 20
5610.7878194059
 30
0.0
 11
8095.9807692308
 21
5610.7878194059
 31
0.0
  0
LINE
  5
164
330
1F
100
AcDbEntity
  8
0
  6
Continuous
 62
     7
370
    25
100
AcDbLine
 10
8077.4807692308
 20
5617.0378194059
 30
0.0
 11
8077.9807692308
 21
5617.0378194059
 31
0.0
  0
LINE
  5
165
330
1F
100
AcDbEntity
  8
0
  6
Continuous
 62
     7
370
    25
100
AcDbLine
 10
8077.9807692308
 20
5618.5378194059
 30
0.0
 11
8077.4807692308
 21
5618.5378194059
 31
0.0
  0
LINE
  5
166
330
1F
100
AcDbEntity
  8
0
  6
Continuous
 62
     7
370
    25
100
AcDbLine
 10
8095.9807692308
 20
5617.0378194059
 30
0.0
 11
8096.4807692308
 21
5617.0378194059
 31
0.0
  0
LINE
  5
167
330
1F
100
AcDbEntity
  8
0
  6
Continuous
 62
     7
370
    25
100
AcDbLine
 10
8096.4807692308
 20
5618.5378194059
 30
0.0
 11
8095.9807692308
 21
5618.5378194059
 31
0.0
  0
SPLINE
  5
168
330
1F
100
AcDbEntity
  8
0
  6
Continuous
 62
     7
370
    25
100
AcDbSpline
210
0.0
220
0.0
230
1.0
 70
     8
 71
     3
 72
    13
 73
     9
 74
     0
 42
0.00000001
 43
0.00000001
 40
0.0
 40
0.0
 40
0.0
 40
0.0
 40
0.061106199907206
 40
0.2614126616459981
 40
0.5126392510531472
 40
0.7948130629887584
 40
0.9678760612572151
 40
1.0
 40
1.0
 40
1.0
 40
1.0
 10
8077.943052685454
 20
5805.882176903151
 30
0.0
 10
8077.938690864918
 20
5805.881958206372
 30
0.0
 10
8077.92003097251
 20
5805.881022620335
 30
0.0
 10
8077.791680360081
 20
5805.904724522937
 30
0.0
 10
8077.613190372817
 20
5806.020562684294
 30
0.0
 10
8077.498967928138
 20
5806.204581829
 30
0.0
 10
8077.481191702399
 20
5806.319837027851
 30
0.0
 10
8077.480826419269
 20
5806.347463469952
 30
0.0
 10
8077.48076923077
 20
5806.35178864848
 30
0.0
  0
SPLINE
  5
169
330
1F
100
AcDbEntity
  8
0
  6
Continuous
 62
     7
370
    25
100
AcDbSpline
210
0.0
220
0.0
230
1.0
 70
     8
 71
     3
 72
    12
 73
     8
 74
     0
 42
0.00000001
 43
0.00000001
 40
0.0
 40
0.0
 40
0.0
 40
0.0
 40
0.1703668338864221
 40
0.3917748456329593
 40
0.6954030797290699
 40
0.9149613939203154
 40
1.0
 40
1.0
 40
1.0
 40
1.0
 10
8096.48076923077
 20
5806.35178864848
 30
0.0
 10
8096.478776111235
 20
5806.322000241958
 30
0.0
 10
8096.474192742045
 20
5806.253498949185
 30
0.0
 10
8096.388178811411
 20
5806.065294144275
 30
0.0
 10
8096.218768418052
 20
5805.92354252554
 30
0.0
 10
8096.060828263504
 20
5805.882252309107
 30
0.0
 10
8096.031400358806
 20
5805.882798438941
 30
0.0
 10
8096.023184556776
 20
5805.882950909689
 30
0.0
  0
LINE
  5
16A
330
1F
100
AcDbEntity
  8
0
  6
Continuous
 62
     7
370
    25
100
AcDbLine
 10
8076.7307692308
 20
5804.3811884417
 30
0.0
 11
8097.2307692308
 21
5804.3811884417
 31
0.0
  0
LINE
  5
16B
330
1F
100
AcDbEntity
  8
0
  6
Continuous
 62
     7
370
    25
100
AcDbLine
 10
8096.010169024
 20
5805.8811884417
 30
0.0
 11
8077.9513694376
 21
5805.8811884417
 31
0.0
  0
ARC
  5
16C
330
1F
100
AcDbEntity
  8
0
  6
Continuous
 62
     7
370
    25
100
AcDbCircle
 10
8076.7307692308
 20
5805.1311884417
 30
0.0
 40
0.75
100
AcDbArc
 50
180.0
 51
270.0
  0
ARC
  5
16D
330
1F
100
AcDbEntity
  8
0
  6
Continuous
 62
     7
370
    25
100
AcDbCircle
 10
8097.2307692308
 20
5805.1311884417
 30
0.0
 40
0.75
100
AcDbArc
 50
270.0
 51
0.0
  0
ARC
  5
16E
330
1F
100
AcDbEntity
  8
0
  6
Continuous
 62
     7
370
    25
100
AcDbCircle
 10
8097.2307692308
 20
5818.2176994224
 30
0.0
 40
0.7500000000009095
100
AcDbArc
 50
0.0
 51
90.0
  0
ARC
  5
16F
330
1F
100
AcDbEntity
  8
0
  6
Continuous
 62
     7
370
    25
100
AcDbCircle
 10
8076.7307692308
 20
5818.2176994224
 30
0.0
 40
0.7500000000009095
100
AcDbArc
 50
90.0
 51
180.0
  0
ARC
  5
170
330
1F
100
AcDbEntity
  8
0
  6
Continuous
 62
     7
370
    25
100
AcDbCircle
 10
8076.7307692308
 20
5818.2176994224
 30
0.0
 40
0.7500000000009095
100
AcDbArc
 50
0.0
 51
90.0
  0
ARC
  5
171
330
1F
100
AcDbEntity
  8
0
  6
Continuous
 62
     7
370
    25
100
AcDbCircle
 10
8097.2307692308
 20
5818.2176994224
 30
0.0
 40
0.7500000000009095
100
AcDbArc
 50
90.0
 51
180.0
  0
LINE
  5
172
330
1F
100
AcDbEntity
  8
0
  6
Continuous
 62
     7
370
    25
100
AcDbLine
 10
8095.9807692308
 20
5816.0576677266
 30
0.0
 11
8077.9807692308
 21
5816.0576677266
 31
0.0
  0
LINE
  5
173
330
1F
100
AcDbEntity
  8
0
  6
Continuous
 62
     7
370
    25
100
AcDbLine
 10
8095.9807692308
 20
5808.3076677266
 30
0.0
 11
8096.4807692308
 21
5808.3076677266
 31
0.0
  0
LINE
  5
174
330
1F
100
AcDbEntity
  8
0
  6
Continuous
 62
     7
370
    25
100
AcDbLine
 10
8096.4807692308
 20
5809.8076677266
 30
0.0
 11
8095.9807692308
 21
5809.8076677266
 31
0.0
  0
LINE
  5
175
330
1F
100
AcDbEntity
  8
0
  6
Continuous
 62
     7
370
    25
100
AcDbLine
 10
8077.4807692308
 20
5808.3076677266
 30
0.0
 11
8077.9807692308
 21
5808.3076677266
 31
0.0
  0
LINE
  5
176
330
1F
100
AcDbEntity
  8
0
  6
Continuous
 62
     7
370
    25
100
AcDbLine
 10
8077.9807692308
 20
5809.8076677266
 30
0.0
 11
8077.4807692308
 21
5809.8076677266
 31
0.0
  0
LINE
  5
177
330
1F
100
AcDbEntity
  8
0
  6
Continuous
 62
     7
370
    25
100
AcDbLine
 10
7983.9807692308
 20
5690.9227435662
 30
0.0
 11
7983.9807692308
 21
5735.9227435662
 31
0.0
  0
LINE
  5
178
330
1F
100
AcDbEntity
  8
0
  6
Continuous
 62
     7
370
    25
100
AcDbLine
 10
7943.9807692308
 20
5690.9227435662
 30
0.0
 11
7943.9807692308
 21
5735.9227435662
 31
0.0
  0
CIRCLE
  5
179
330
1F
100
AcDbEntity
  8
0
  6
Continuous
 62
     7
370
    25
100
AcDbCircle
 10
8086.9807692308
 20
5713.4227435662
 30
0.0
 40
22.625
  0
CIRCLE
  5
17A
330
1F
100
AcDbEntity
  8
0
  6
Continuous
 62
     7
370
    25
100
AcDbCircle
 10
8086.9807692308
 20
5713.4227435662
 30
0.0
 40
28.0
  0
CIRCLE
  5
17B
330
1F
100
AcDbEntity
  8
0
  6
Continuous
 62
     7
370
    25
100
AcDbCircle
 10
8086.9807692308
 20
5713.4227435662
 30
0.0
 40
80.01257927281495
  0
CIRCLE
  5
17C
330
1F
100
AcDbEntity
  8
0
  6
Continuous
 62
     7
370
    25
100
AcDbCircle
 10
8086.9807692308
 20
5713.4227435662
 30
0.0
 40
85.0
  0
CIRCLE
  5
17D
330
1F
100
AcDbEntity
  8
0
  6
Continuous
 62
     7
370
    25
100
AcDbCircle
 10
8086.9807692308
 20
5713.4227435662
 30
0.0
 40
15.5
  0
SPLINE
  5
17E
330
1F
100
AcDbEntity
  8
0
  6
Continuous
 62
     7
370
    25
100
AcDbSpline
210
0.0
220
0.0
230
1.0
 70
     8
 71
     3
 72
    27
 73
    23
 74
     0
 42
0.00000001
 43
0.00000001
 40
0.0
 40
0.0
 40
0.0
 40
0.0
 40
0.0392596827775555
 40
0.0935299539772437
 40
0.1451180901887638
 40
0.1981757299329325
 40
0.2502880720765014
 40
0.303860065002638
 40
0.3568626084868908
 40
0.4114068081412016
 40
0.4642788863555488
 40
0.5187202080509242
 40
0.5709959989842985
 40
0.624781698282864
 40
0.6772083246193632
 40
0.7311202649691665
 40
0.7841494966410946
 40
0.8387264265213058
 40
0.8915168377446571
 40
0.9458973087454428
 40
0.9976930995714229
 40
1.0
 40
1.0
 40
1.0
 40
1.0
 10
8001.820012194189
 20
5693.324970108436
 30
0.0
 10
8001.878398218006
 20
5693.333643241717
 30
0.0
 10
8002.017493639423
 20
5693.354305603186
 30
0.0
 10
8002.075729064817
 20
5694.042176810444
 30
0.0
 10
8002.032123131688
 20
5695.261424374003
 30
0.0
 10
8001.8872628661
 20
5696.971218120368
 30
0.0
 10
8001.676305191985
 20
5699.145383707821
 30
0.0
 10
8001.43745355062
 20
5701.711669545005
 30
0.0
 10
8001.206908855866
 20
5704.64612876982
 30
0.0
 10
8001.024899861251
 20
5707.820249283463
 30
0.0
 10
8000.917579252331
 20
5711.184436412879
 30
0.0
 10
8000.902577825851
 20
5714.567923948197
 30
0.0
 10
8000.980583533156
 20
5717.935450986994
 30
0.0
 10
8001.137829117196
 20
5721.134651920697
 30
0.0
 10
8001.354065654601
 20
5724.147442664168
 30
0.0
 10
8001.594151993876
 20
5726.847843832492
 30
0.0
 10
8001.823566178059
 20
5729.206455603526
 30
0.0
 10
8001.995669174439
 20
5731.100643056669
 30
0.0
 10
8002.079815848619
 20
5732.524901294502
 30
0.0
 10
8002.027725974697
 20
5733.324883736796
 30
0.0
 10
8001.938207323393
 20
5733.655211919501
 30
0.0
 10
8001.834276710973
 20
5733.56498442164
 30
0.0
 10
8001.829845183284
 20
5733.561137185049
 30
0.0
  0
ARC
  5
17F
330
1F
100
AcDbEntity
  8
0
  6
Continuous
 62
     7
370
    25
100
AcDbCircle
 10
8086.9807692308
 20
5713.4227435662
 30
0.0
 40
90.00000000000145
100
AcDbArc
 50
192.9375494426
 51
90.0
  0
ARC
  5
180
330
1F
100
AcDbEntity
  8
0
  6
Continuous
 62
     7
370
    25
100
AcDbCircle
 10
8086.9807692308
 20
5713.4227435662
 30
0.0
 40
90.00000000000124
100
AcDbArc
 50
90.0
 51
167.0624505574
  0
LWPOLYLINE
  5
181
330
1F
100
AcDbEntity
  8
0
  6
Continuous
 62
     7
370
    25
100
AcDbPolyline
 90
        3
 70
   128
 43
0.0
 10
8086.9807692308
 20
5808.4227435662
 10
8092.0368758408
 20
5808.2880996555
 10
8096.4807692308
 20
5807.9465500914
  0
ARC
  5
182
330
1F
100
AcDbEntity
  8
0
  6
Continuous
 62
     7
370
    25
100
AcDbCircle
 10
8086.9807692308
 20
5713.4227435662
 30
0.0
 40
95.00000000000063
100
AcDbArc
 50
276.6491627651
 51
83.3508372349
  0
ARC
  5
183
330
1F
100
AcDbEntity
  8
0
  6
Continuous
 62
     7
370
    25
100
AcDbCircle
 10
8086.9807692308
 20
5713.4227435662
 30
0.0
 40
94.99999999999905
100
AcDbArc
 50
264.2608295227
 51
275.7391704773
  0
ARC
  5
184
330
1F
100
AcDbEntity
  8
0
  6
Continuous
 62
     7
370
    25
100
AcDbCircle
 10
8086.9807692308
 20
5713.4227435662
 30
0.0
 40
95.0000000000012
100
AcDbArc
 50
192.2457546412
 51
263.3508372349
  0
ARC
  5
185
330
1F
100
AcDbEntity
  8
0
  6
Continuous
 62
     7
370
    25
100
AcDbCircle
 10
8086.9807692308
 20
5713.4227435662
 30
0.0
 40
95.00000000000098
100
AcDbArc
 50
96.6491627651
 51
167.7542453588
  0
LWPOLYLINE
  5
186
330
1F
100
AcDbEntity
  8
0
  6
Continuous
 62
     7
370
    25
100
AcDbPolyline
 90
        3
 70
   128
 43
0.0
 10
8077.4807692308
 20
5807.9465500914
 10
8081.9246626208
 20
5808.2880996555
 10
8086.9807692308
 20
5808.4227435662
  0
LINE
  5
187
330
1F
100
AcDbEntity
  8
0
  6
Continuous
 62
     7
370
    25
100
AcDbLine
 10
8077.4807692308
 20
5620.4673170082
 30
0.0
 11
8077.4807692308
 21
5613.0534031829
 31
0.0
  0
ARC
  5
188
330
1F
100
AcDbEntity
  8
0
  6
Continuous
 62
     7
370
    25
100
AcDbCircle
 10
8076.7552899579
 20
5613.0797039123
 30
0.0
 40
0.7259558552191189
100
AcDbArc
 50
268.0643431005
 51
357.923770948
  0
LINE
  5
189
330
1F
100
AcDbEntity
  8
0
  6
Continuous
 62
     7
370
    25
100
AcDbLine
 10
8076.7307692308
 20
5620.9032456534
 30
0.0
 11
8076.7307692308
 21
5612.3541622955
 31
0.0
  0
LWPOLYLINE
  5
18A
330
1F
100
AcDbEntity
  8
0
  6
Continuous
 62
     7
370
    25
100
AcDbPolyline
 90
        9
 70
   128
 43
0.0
 10
8077.4807692308
 20
5620.4673170082
 10
8077.4663581911
 20
5620.5523624679
 10
8077.4236788802
 20
5620.6341396784
 10
8077.35437144
 20
5620.7095059872
 10
8077.2610993167
 20
5620.7755651094
 10
8077.1474469055
 20
5620.8297784298
 10
8077.017781805
 20
5620.8700625612
 10
8076.8770869723
 20
5620.8948694068
 10
8076.7307692308
 20
5620.9032456534
  0
ARC
  5
18B
330
1F
100
AcDbEntity
  8
0
  6
Continuous
 62
     7
370
    25
100
AcDbCircle
 10
8097.2552899579
 20
5613.0797039123
 30
0.0
 40
0.7259558552191189
100
AcDbArc
 50
268.0643431005
 51
357.923770948
  0
LINE
  5
18C
330
1F
100
AcDbEntity
  8
0
  6
Continuous
 62
     7
370
    25
100
AcDbLine
 10
8097.2307692308
 20
5612.3541622955
 30
0.0
 11
8097.2307692308
 21
5620.9032456534
 31
0.0
  0
LWPOLYLINE
  5
18D
330
1F
100
AcDbEntity
  8
0
  6
Continuous
 62
     7
370
    25
100
AcDbPolyline
 90
        9
 70
   128
 43
0.0
 10
8097.9807692308
 20
5620.4673170082
 10
8097.9663581911
 20
5620.5523624679
 10
8097.9236788802
 20
5620.6341396784
 10
8097.85437144
 20
5620.7095059872
 10
8097.7610993167
 20
5620.7755651094
 10
8097.6474469055
 20
5620.8297784298
 10
8097.517781805
 20
5620.8700625612
 10
8097.3770869723
 20
5620.8948694068
 10
8097.2307692308
 20
5620.9032456534
  0
LINE
  5
18E
330
1F
100
AcDbEntity
  8
0
  6
Continuous
 62
     7
370
    25
100
AcDbLine
 10
8097.9807692308
 20
5620.4673170082
 30
0.0
 11
8097.9807692308
 21
5613.0534031829
 31
0.0
  0
ARC
  5
18F
330
1F
100
AcDbEntity
  8
0
  6
Continuous
 62
     7
370
    25
100
AcDbCircle
 10
8076.7062485036
 20
5613.0797039123
 30
0.0
 40
0.7259558552191495
100
AcDbArc
 50
182.076229052
 51
271.9356568996
  0
LINE
  5
190
330
1F
100
AcDbEntity
  8
0
  6
Continuous
 62
     7
370
    25
100
AcDbLine
 10
8075.9807692308
 20
5613.0534031829
 30
0.0
 11
8075.9807692308
 21
5620.4673170082
 31
0.0
  0
LWPOLYLINE
  5
191
330
1F
100
AcDbEntity
  8
0
  6
Continuous
 62
     7
370
    25
100
AcDbPolyline
 90
        9
 70
   128
 43
0.0
 10
8076.7307692308
 20
5620.9032456534
 10
8076.5844514893
 20
5620.8948694068
 10
8076.4437566565
 20
5620.8700625612
 10
8076.314091556
 20
5620.8297784298
 10
8076.2004391449
 20
5620.7755651094
 10
8076.1071670215
 20
5620.7095059872
 10
8076.0378595814
 20
5620.6341396784
 10
8075.9951802705
 20
5620.5523624679
 10
8075.9807692308
 20
5620.4673170082
  0
ARC
  5
192
330
1F
100
AcDbEntity
  8
0
  6
Continuous
 62
     7
370
    25
100
AcDbCircle
 10
8097.2062485036
 20
5613.0797039123
 30
0.0
 40
0.7259558552200173
100
AcDbArc
 50
182.076229052
 51
271.9356568995
  0
LINE
  5
193
330
1F
100
AcDbEntity
  8
0
  6
Continuous
 62
     7
370
    25
100
AcDbLine
 10
8096.4807692308
 20
5613.0534031829
 30
0.0
 11
8096.4807692308
 21
5620.4673170082
 31
0.0
  0
LWPOLYLINE
  5
194
330
1F
100
AcDbEntity
  8
0
  6
Continuous
 62
     7
370
    25
100
AcDbPolyline
 90
        9
 70
   128
 43
0.0
 10
8097.2307692308
 20
5620.9032456534
 10
8097.0844514893
 20
5620.8948694068
 10
8096.9437566565
 20
5620.8700625612
 10
8096.814091556
 20
5620.8297784298
 10
8096.7004391449
 20
5620.7755651094
 10
8096.6071670215
 20
5620.7095059872
 10
8096.5378595814
 20
5620.6341396784
 10
8096.4951802705
 20
5620.5523624679
 10
8096.4807692308
 20
5620.4673170082
  0
LINE
  5
195
330
1F
100
AcDbEntity
  8
0
  6
Continuous
 62
     7
370
    25
100
AcDbLine
 10
8097.2307692308
 20
5620.9032456534
 30
0.0
 11
8097.2307692308
 21
5622.1502273361
 31
0.0
  0
LWPOLYLINE
  5
196
330
1F
100
AcDbEntity
  8
0
  6
Continuous
 62
     7
370
    25
100
AcDbPolyline
 90
        9
 70
   128
 43
0.0
 10
8097.9807692308
 20
5621.7142986908
 10
8097.9663581911
 20
5621.7993441506
 10
8097.9236788802
 20
5621.881121361
 10
8097.85437144
 20
5621.9564876698
 10
8097.7610993167
 20
5622.022546792
 10
8097.6474469055
 20
5622.0767601125
 10
8097.517781805
 20
5622.1170442438
 10
8097.3770869723
 20
5622.1418510894
 10
8097.2307692308
 20
5622.1502273361
  0
LINE
  5
197
330
1F
100
AcDbEntity
  8
0
  6
Continuous
 62
     7
370
    25
100
AcDbLine
 10
8097.9807692308
 20
5621.7142986908
 30
0.0
 11
8097.9807692308
 21
5620.4673170082
 31
0.0
  0
LINE
  5
198
330
1F
100
AcDbEntity
  8
0
  6
Continuous
 62
     7
370
    25
100
AcDbLine
 10
8076.7307692308
 20
5622.1502273361
 30
0.0
 11
8076.7307692308
 21
5620.9032456534
 31
0.0
  0
ELLIPSE
  5
199
330
1F
100
AcDbEntity
  8
0
  6
Continuous
 62
     7
370
    25
100
AcDbEllipse
 10
8076.7307692308
 20
5621.7142986908
 30
0.0
 11
-0.7248747365729287
 21
1.291598576425713
 31
0.0
210
0.0
220
0.0
230
1.0
 40
0.1490408513
 41
3.401165710713151
 42
4.971962037507986
  0
LINE
  5
19A
330
1F
100
AcDbEntity
  8
0
  6
Continuous
 62
     7
370
    25
100
AcDbLine
 10
8077.4807692308
 20
5620.493698484
 30
0.0
 11
8077.4807692308
 21
5620.4673170082
 31
0.0
  0
LINE
  5
19B
330
1F
100
AcDbEntity
  8
0
  6
Continuous
 62
     7
370
    25
100
AcDbLine
 10
8075.9807692308
 20
5620.4673170082
 30
0.0
 11
8075.9807692308
 21
5621.7142986908
 31
0.0
  0
LWPOLYLINE
  5
19C
330
1F
100
AcDbEntity
  8
0
  6
Continuous
 62
     7
370
    25
100
AcDbPolyline
 90
        9
 70
   128
 43
0.0
 10
8076.7307692308
 20
5622.1502273361
 10
8076.5844514893
 20
5622.1418510894
 10
8076.4437566565
 20
5622.1170442438
 10
8076.314091556
 20
5622.0767601125
 10
8076.2004391449
 20
5622.022546792
 10
8076.1071670215
 20
5621.9564876698
 10
8076.0378595814
 20
5621.881121361
 10
8075.9951802705
 20
5621.7993441506
 10
8075.9807692308
 20
5621.7142986908
  0
LINE
  5
19D
330
1F
100
AcDbEntity
  8
0
  6
Continuous
 62
     7
370
    25
100
AcDbLine
 10
8096.4807692308
 20
5620.4673170082
 30
0.0
 11
8096.4807692308
 21
5620.493698484
 31
0.0
  0
ELLIPSE
  5
19E
330
1F
100
AcDbEntity
  8
0
  6
Continuous
 62
     7
370
    25
100
AcDbEllipse
 10
8097.2307692308
 20
5621.7142986908
 30
0.0
 11
0.7248747365729287
 21
1.291598576425713
 31
0.0
210
0.0
220
0.0
230
1.0
 40
0.1490408513
 41
1.311223269671107
 42
2.882019596467023
  0
ARC
  5
19F
330
1F
100
AcDbEntity
  8
0
  6
Continuous
 62
     7
370
    25
100
AcDbCircle
 10
8095.7941138254
 20
5620.415854083
 30
0.0
 40
0.691053830412668
100
AcDbArc
 50
6.4678643998
 51
95.2593293986
  0
ELLIPSE
  5
1A0
330
1F
100
AcDbEntity
  8
0
  6
Continuous
 62
     7
370
    25
100
AcDbEllipse
 10
8097.2307692308
 20
5621.7142986908
 30
0.0
 11
1.491312348091924
 21
0.6536150245028693
 31
0.0
210
0.0
220
0.0
230
1.0
 40
0.2466380403
 41
1.463117476946056
 42
3.03391380374093
  0
ARC
  5
1A1
330
1F
100
AcDbEntity
  8
0
  6
Continuous
 62
     7
370
    25
100
AcDbCircle
 10
8078.1674246362
 20
5620.415854083
 30
0.0
 40
0.6910538304118458
100
AcDbArc
 50
84.7406706013
 51
173.5321356003
  0
ELLIPSE
  5
1A2
330
1F
100
AcDbEntity
  8
0
  6
Continuous
 62
     7
370
    25
100
AcDbEllipse
 10
8076.7307692308
 20
5621.7142986908
 30
0.0
 11
1.491312348091924
 21
-0.65361502450196
 31
0.0
210
0.0
220
0.0
230
1.0
 40
0.2466380403
 41
0.1076788498467884
 42
1.678475176643613
  0
ARC
  5
1A3
330
1F
100
AcDbEntity
  8
0
  6
Continuous
 62
     7
370
    25
100
AcDbCircle
 10
8076.7062485036
 20
5609.1970625394
 30
0.0
 40
0.725955855221835
100
AcDbArc
 50
182.076229052
 51
271.9356568993
  0
LINE
  5
1A4
330
1F
100
AcDbEntity
  8
0
  6
Continuous
 62
     7
370
    25
100
AcDbLine
 10
8075.9807692308
 20
5609.17076181
 30
0.0
 11
8075.9807692308
 21
5613.0534031829
 31
0.0
  0
LINE
  5
1A5
330
1F
100
AcDbEntity
  8
0
  6
Continuous
 62
     7
370
    25
100
AcDbLine
 10
8076.7307692308
 20
5612.3541622955
 30
0.0
 11
8076.7307692308
 21
5608.4715209226
 31
0.0
  0
ARC
  5
1A6
330
1F
100
AcDbEntity
  8
0
  6
Continuous
 62
     7
370
    25
100
AcDbCircle
 10
8097.2552899579
 20
5609.1970625394
 30
0.0
 40
0.7259558552209061
100
AcDbArc
 50
268.0643431005
 51
357.923770948
  0
LINE
  5
1A7
330
1F
100
AcDbEntity
  8
0
  6
Continuous
 62
     7
370
    25
100
AcDbLine
 10
8097.2307692308
 20
5608.4715209226
 30
0.0
 11
8097.2307692308
 21
5612.3541622955
 31
0.0
  0
LINE
  5
1A8
330
1F
100
AcDbEntity
  8
0
  6
Continuous
 62
     7
370
    25
100
AcDbLine
 10
8097.9807692308
 20
5613.0534031829
 30
0.0
 11
8097.9807692308
 21
5609.17076181
 31
0.0
  0
LINE
  5
1A9
330
1F
100
AcDbEntity
  8
0
  6
Continuous
 62
     7
370
    25
100
AcDbLine
 10
8077.4807692308
 20
5613.0534031829
 30
0.0
 11
8077.4807692308
 21
5609.17076181
 31
0.0
  0
ARC
  5
1AA
330
1F
100
AcDbEntity
  8
0
  6
Continuous
 62
     7
370
    25
100
AcDbCircle
 10
8076.7552899579
 20
5609.1970625394
 30
0.0
 40
0.7259558552209262
100
AcDbArc
 50
268.0643431006
 51
357.923770948
  0
ARC
  5
1AB
330
1F
100
AcDbEntity
  8
0
  6
Continuous
 62
     7
370
    25
100
AcDbCircle
 10
8097.2062485036
 20
5609.1970625394
 30
0.0
 40
0.7259558552209061
100
AcDbArc
 50
182.076229052
 51
271.9356568995
  0
LINE
  5
1AC
330
1F
100
AcDbEntity
  8
0
  6
Continuous
 62
     7
370
    25
100
AcDbLine
 10
8096.4807692308
 20
5609.17076181
 30
0.0
 11
8096.4807692308
 21
5613.0534031829
 31
0.0
  0
LINE
  5
1AD
330
1F
100
AcDbEntity
  8
0
  6
Continuous
 62
     7
370
    25
100
AcDbLine
 10
8075.9807692308
 20
5608.62778771
 30
0.0
 11
8075.9807692308
 21
5609.17076181
 31
0.0
  0
LINE
  5
1AE
330
1F
100
AcDbEntity
  8
0
  6
Continuous
 62
     7
370
    25
100
AcDbLine
 10
8097.9807692308
 20
5609.17076181
 30
0.0
 11
8097.9807692308
 21
5608.62778771
 31
0.0
  0
LINE
  5
1AF
330
1F
100
AcDbEntity
  8
0
  6
Continuous
 62
     7
370
    25
100
AcDbLine
 10
8096.4807692308
 20
5608.62778771
 30
0.0
 11
8096.4807692308
 21
5609.17076181
 31
0.0
  0
LINE
  5
1B0
330
1F
100
AcDbEntity
  8
0
  6
Continuous
 62
     7
370
    25
100
AcDbLine
 10
8077.4807692308
 20
5609.17076181
 30
0.0
 11
8077.4807692308
 21
5608.62778771
 31
0.0
  0
LINE
  5
1B1
330
1F
100
AcDbEntity
  8
0
  6
Continuous
 62
     7
370
    25
100
AcDbLine
 10
8095.9807692308
 20
5618.8500202259
 30
0.0
 11
8095.9807692308
 21
5610.7878194059
 31
0.0
  0
LINE
  5
1B2
330
1F
100
AcDbEntity
  8
0
  6
Continuous
 62
     7
370
    25
100
AcDbLine
 10
8077.9807692308
 20
5618.8500202259
 30
0.0
 11
8077.9807692308
 21
5610.7878194059
 31
0.0
  0
LWPOLYLINE
  5
1B3
330
1F
100
AcDbEntity
  8
0
  6
Continuous
 62
     7
370
    25
100
AcDbPolyline
 90
        9
 70
   128
 43
0.0
 10
8077.9807692308
 20
5617.4697368789
 10
8077.8753492475
 20
5617.4510143866
 10
8077.778327582
 20
5617.4260314267
 10
8077.6919967864
 20
5617.3953783285
 10
8077.6183967951
 20
5617.3597794026
 10
8077.5592667227
 20
5617.3200758259
 10
8077.5160037704
 20
5617.2772057653
 10
8077.4896302103
 20
5617.2321822095
 10
8077.4807692308
 20
5617.1860690326
  0
LWPOLYLINE
  5
1B4
330
1F
100
AcDbEntity
  8
0
  6
Continuous
 62
     7
370
    25
100
AcDbPolyline
 90
        9
 70
   128
 43
0.0
 10
8096.4807692308
 20
5617.1860690326
 10
8096.4719082512
 20
5617.2321822095
 10
8096.4455346912
 20
5617.2772057653
 10
8096.4022717388
 20
5617.3200758259
 10
8096.3431416665
 20
5617.3597794026
 10
8096.2695416751
 20
5617.3953783285
 10
8096.1832108795
 20
5617.4260314267
 10
8096.0861892141
 20
5617.4510143866
 10
8095.9807692308
 20
5617.4697368789
  0
LINE
  5
1B5
330
1F
100
AcDbEntity
  8
0
  6
Continuous
 62
     7
370
    25
100
AcDbLine
 10
8076.7307692308
 20
5805.942241479
 30
0.0
 11
8076.7307692308
 21
5814.4913248369
 31
0.0
  0
ARC
  5
1B6
330
1F
100
AcDbEntity
  8
0
  6
Continuous
 62
     7
370
    25
100
AcDbCircle
 10
8076.7552899579
 20
5813.7657832202
 30
0.0
 40
0.7259558552200278
100
AcDbArc
 50
2.076229052
 51
91.9356568995
  0
LINE
  5
1B7
330
1F
100
AcDbEntity
  8
0
  6
Continuous
 62
     7
370
    25
100
AcDbLine
 10
8077.4807692308
 20
5806.3781701243
 30
0.0
 11
8077.4807692308
 21
5813.7920839496
 31
0.0
  0
LWPOLYLINE
  5
1B8
330
1F
100
AcDbEntity
  8
0
  6
Continuous
 62
     7
370
    25
100
AcDbPolyline
 90
        9
 70
   128
 43
0.0
 10
8077.4807692308
 20
5806.3781701243
 10
8077.4663581911
 20
5806.2931246645
 10
8077.4236788802
 20
5806.211347454
 10
8077.35437144
 20
5806.1359811452
 10
8077.2610993167
 20
5806.0699220231
 10
8077.1474469055
 20
5806.0157087026
 10
8077.017781805
 20
5805.9754245713
 10
8076.8770869723
 20
5805.9506177257
 10
8076.7307692308
 20
5805.942241479
  0
LWPOLYLINE
  5
1B9
330
1F
100
AcDbEntity
  8
0
  6
Continuous
 62
     7
370
    25
100
AcDbPolyline
 90
        9
 70
   128
 43
0.0
 10
8097.9807692308
 20
5806.3781701243
 10
8097.9663581911
 20
5806.2931246645
 10
8097.9236788802
 20
5806.211347454
 10
8097.85437144
 20
5806.1359811452
 10
8097.7610993167
 20
5806.0699220231
 10
8097.6474469055
 20
5806.0157087026
 10
8097.517781805
 20
5805.9754245713
 10
8097.3770869723
 20
5805.9506177257
 10
8097.2307692308
 20
5805.942241479
  0
LINE
  5
1BA
330
1F
100
AcDbEntity
  8
0
  6
Continuous
 62
     7
370
    25
100
AcDbLine
 10
8097.2307692308
 20
5814.4913248369
 30
0.0
 11
8097.2307692308
 21
5805.942241479
 31
0.0
  0
ARC
  5
1BB
330
1F
100
AcDbEntity
  8
0
  6
Continuous
 62
     7
370
    25
100
AcDbCircle
 10
8097.2552899579
 20
5813.7657832202
 30
0.0
 40
0.7259558552200278
100
AcDbArc
 50
2.076229052
 51
91.9356568995
  0
LINE
  5
1BC
330
1F
100
AcDbEntity
  8
0
  6
Continuous
 62
     7
370
    25
100
AcDbLine
 10
8097.9807692308
 20
5806.3781701243
 30
0.0
 11
8097.9807692308
 21
5813.7920839496
 31
0.0
  0
LWPOLYLINE
  5
1BD
330
1F
100
AcDbEntity
  8
0
  6
Continuous
 62
     7
370
    25
100
AcDbPolyline
 90
        9
 70
   128
 43
0.0
 10
8097.2307692308
 20
5805.942241479
 10
8097.0844514893
 20
5805.9506177257
 10
8096.9437566565
 20
5805.9754245713
 10
8096.814091556
 20
5806.0157087026
 10
8096.7004391449
 20
5806.0699220231
 10
8096.6071670215
 20
5806.1359811452
 10
8096.5378595814
 20
5806.211347454
 10
8096.4951802705
 20
5806.2931246645
 10
8096.4807692308
 20
5806.3781701243
  0
LINE
  5
1BE
330
1F
100
AcDbEntity
  8
0
  6
Continuous
 62
     7
370
    25
100
AcDbLine
 10
8096.4807692308
 20
5813.7920839496
 30
0.0
 11
8096.4807692308
 21
5806.3781701243
 31
0.0
  0
ARC
  5
1BF
330
1F
100
AcDbEntity
  8
0
  6
Continuous
 62
     7
370
    25
100
AcDbCircle
 10
8097.2062485036
 20
5813.7657832202
 30
0.0
 40
0.7259558552199843
100
AcDbArc
 50
88.0643431005
 51
177.9237709481
  0
LWPOLYLINE
  5
1C0
330
1F
100
AcDbEntity
  8
0
  6
Continuous
 62
     7
370
    25
100
AcDbPolyline
 90
        9
 70
   128
 43
0.0
 10
8076.7307692308
 20
5805.942241479
 10
8076.5844514893
 20
5805.9506177257
 10
8076.4437566565
 20
5805.9754245713
 10
8076.314091556
 20
5806.0157087026
 10
8076.2004391449
 20
5806.0699220231
 10
8076.1071670215
 20
5806.1359811452
 10
8076.0378595814
 20
5806.211347454
 10
8075.9951802705
 20
5806.2931246645
 10
8075.9807692308
 20
5806.3781701243
  0
LINE
  5
1C1
330
1F
100
AcDbEntity
  8
0
  6
Continuous
 62
     7
370
    25
100
AcDbLine
 10
8075.9807692308
 20
5813.7920839496
 30
0.0
 11
8075.9807692308
 21
5806.3781701243
 31
0.0
  0
ARC
  5
1C2
330
1F
100
AcDbEntity
  8
0
  6
Continuous
 62
     7
370
    25
100
AcDbCircle
 10
8076.7062485036
 20
5813.7657832202
 30
0.0
 40
0.7259558552191495
100
AcDbArc
 50
88.0643431004
 51
177.9237709481
  0
LWPOLYLINE
  5
1C3
330
1F
100
AcDbEntity
  8
0
  6
Continuous
 62
     7
370
    25
100
AcDbPolyline
 90
        9
 70
   128
 43
0.0
 10
8097.9807692308
 20
5805.1311884417
 10
8097.9663581911
 20
5805.0461429819
 10
8097.9236788802
 20
5804.9643657714
 10
8097.85437144
 20
5804.8889994626
 10
8097.7610993167
 20
5804.8229403405
 10
8097.6474469055
 20
5804.76872702
 10
8097.517781805
 20
5804.7284428887
 10
8097.3770869723
 20
5804.7036360431
 10
8097.2307692308
 20
5804.6952597964
  0
LINE
  5
1C4
330
1F
100
AcDbEntity
  8
0
  6
Continuous
 62
     7
370
    25
100
AcDbLine
 10
8097.2307692308
 20
5805.942241479
 30
0.0
 11
8097.2307692308
 21
5804.6952597964
 31
0.0
  0
LINE
  5
1C5
330
1F
100
AcDbEntity
  8
0
  6
Continuous
 62
     7
370
    25
100
AcDbLine
 10
8097.9807692308
 20
5805.1311884417
 30
0.0
 11
8097.9807692308
 21
5806.3781701243
 31
0.0
  0
ELLIPSE
  5
1C6
330
1F
100
AcDbEntity
  8
0
  6
Continuous
 62
     7
370
    25
100
AcDbEllipse
 10
8097.2307692308
 20
5805.1311884417
 30
0.0
 11
-0.7248747365729287
 21
1.291598576425713
 31
0.0
210
0.0
220
0.0
230
1.0
 40
0.1490408513
 41
0.259573057123271
 42
1.830369383918186
  0
LINE
  5
1C7
330
1F
100
AcDbEntity
  8
0
  6
Continuous
 62
     7
370
    25
100
AcDbLine
 10
8096.4807692308
 20
5806.3781701243
 30
0.0
 11
8096.4807692308
 21
5806.3517886485
 31
0.0
  0
LWPOLYLINE
  5
1C8
330
1F
100
AcDbEntity
  8
0
  6
Continuous
 62
     7
370
    25
100
AcDbPolyline
 90
        9
 70
   128
 43
0.0
 10
8076.7307692308
 20
5804.6952597964
 10
8076.5844514893
 20
5804.7036360431
 10
8076.4437566565
 20
5804.7284428887
 10
8076.314091556
 20
5804.76872702
 10
8076.2004391449
 20
5804.8229403405
 10
8076.1071670215
 20
5804.8889994626
 10
8076.0378595814
 20
5804.9643657714
 10
8075.9951802705
 20
5805.0461429819
 10
8075.9807692308
 20
5805.1311884417
  0
LINE
  5
1C9
330
1F
100
AcDbEntity
  8
0
  6
Continuous
 62
     7
370
    25
100
AcDbLine
 10
8075.9807692308
 20
5806.3781701243
 30
0.0
 11
8075.9807692308
 21
5805.1311884417
 31
0.0
  0
LINE
  5
1CA
330
1F
100
AcDbEntity
  8
0
  6
Continuous
 62
     7
370
    25
100
AcDbLine
 10
8076.7307692308
 20
5804.6952597964
 30
0.0
 11
8076.7307692308
 21
5805.942241479
 31
0.0
  0
ELLIPSE
  5
1CB
330
1F
100
AcDbEntity
  8
0
  6
Continuous
 62
     7
370
    25
100
AcDbEllipse
 10
8076.7307692308
 20
5805.1311884417
 30
0.0
 11
0.7248747365729287
 21
1.291598576425713
 31
0.0
210
0.0
220
0.0
230
1.0
 40
0.1490408513
 41
4.4528159232618
 42
6.023612250056011
  0
LINE
  5
1CC
330
1F
100
AcDbEntity
  8
0
  6
Continuous
 62
     7
370
    25
100
AcDbLine
 10
8077.4807692308
 20
5806.3517886485
 30
0.0
 11
8077.4807692308
 21
5806.3781701243
 31
0.0
  0
ELLIPSE
  5
1CD
330
1F
100
AcDbEntity
  8
0
  6
Continuous
 62
     7
370
    25
100
AcDbEllipse
 10
8097.2307692308
 20
5805.1311884417
 30
0.0
 11
1.491312348091924
 21
-0.6536150245028693
 31
0.0
210
0.0
220
0.0
230
1.0
 40
0.2466380403
 41
3.249271503438934
 42
4.820067830233313
  0
ARC
  5
1CE
330
1F
100
AcDbEntity
  8
0
  6
Continuous
 62
     7
370
    25
100
AcDbCircle
 10
8095.7941138254
 20
5806.4296330494
 30
0.0
 40
0.6910538304122023
100
AcDbArc
 50
264.7406706013
 51
353.5321356002
  0
ARC
  5
1CF
330
1F
100
AcDbEntity
  8
0
  6
Continuous
 62
     7
370
    25
100
AcDbCircle
 10
8078.1674246362
 20
5806.4296330494
 30
0.0
 40
0.6910538304111962
100
AcDbArc
 50
186.4678643997
 51
275.2593293987
  0
ELLIPSE
  5
1D0
330
1F
100
AcDbEntity
  8
0
  6
Continuous
 62
     7
370
    25
100
AcDbEllipse
 10
8076.7307692308
 20
5805.1311884417
 30
0.0
 11
1.491312348091924
 21
0.65361502450196
 31
0.0
210
0.0
220
0.0
230
1.0
 40
0.2466380403
 41
4.604710130536199
 42
6.175506457332632
  0
LINE
  5
1D1
330
1F
100
AcDbEntity
  8
0
  6
Continuous
 62
     7
370
    25
100
AcDbLine
 10
8075.9807692308
 20
5817.6747253225
 30
0.0
 11
8075.9807692308
 21
5813.7920839496
 31
0.0
  0
ARC
  5
1D2
330
1F
100
AcDbEntity
  8
0
  6
Continuous
 62
     7
370
    25
100
AcDbCircle
 10
8076.7062485036
 20
5817.6484245931
 30
0.0
 40
0.7259558552182406
100
AcDbArc
 50
88.0643431004
 51
177.9237709481
  0
LINE
  5
1D3
330
1F
100
AcDbEntity
  8
0
  6
Continuous
 62
     7
370
    25
100
AcDbLine
 10
8076.7307692308
 20
5814.4913248369
 30
0.0
 11
8076.7307692308
 21
5818.3739662099
 31
0.0
  0
LINE
  5
1D4
330
1F
100
AcDbEntity
  8
0
  6
Continuous
 62
     7
370
    25
100
AcDbLine
 10
8096.4807692308
 20
5817.6747253225
 30
0.0
 11
8096.4807692308
 21
5813.7920839496
 31
0.0
  0
ARC
  5
1D5
330
1F
100
AcDbEntity
  8
0
  6
Continuous
 62
     7
370
    25
100
AcDbCircle
 10
8097.2062485036
 20
5817.6484245931
 30
0.0
 40
0.7259558552182406
100
AcDbArc
 50
88.0643431004
 51
177.9237709481
  0
LINE
  5
1D6
330
1F
100
AcDbEntity
  8
0
  6
Continuous
 62
     7
370
    25
100
AcDbLine
 10
8097.2307692308
 20
5818.3739662099
 30
0.0
 11
8097.2307692308
 21
5814.4913248369
 31
0.0
  0
ARC
  5
1D7
330
1F
100
AcDbEntity
  8
0
  6
Continuous
 62
     7
370
    25
100
AcDbCircle
 10
8076.7552899579
 20
5817.6484245931
 30
0.0
 40
0.7259558552200278
100
AcDbArc
 50
2.076229052
 51
91.9356568995
  0
LINE
  5
1D8
330
1F
100
AcDbEntity
  8
0
  6
Continuous
 62
     7
370
    25
100
AcDbLine
 10
8077.4807692308
 20
5813.7920839496
 30
0.0
 11
8077.4807692308
 21
5817.6747253225
 31
0.0
  0
ARC
  5
1D9
330
1F
100
AcDbEntity
  8
0
  6
Continuous
 62
     7
370
    25
100
AcDbCircle
 10
8097.2552899579
 20
5817.6484245931
 30
0.0
 40
0.7259558552200278
100
AcDbArc
 50
2.076229052
 51
91.9356568995
  0
LINE
  5
1DA
330
1F
100
AcDbEntity
  8
0
  6
Continuous
 62
     7
370
    25
100
AcDbLine
 10
8097.9807692308
 20
5813.7920839496
 30
0.0
 11
8097.9807692308
 21
5817.6747253225
 31
0.0
  0
LINE
  5
1DB
330
1F
100
AcDbEntity
  8
0
  6
Continuous
 62
     7
370
    25
100
AcDbLine
 10
8097.9807692308
 20
5817.6747253225
 30
0.0
 11
8097.9807692308
 21
5818.2176994224
 31
0.0
  0
LINE
  5
1DC
330
1F
100
AcDbEntity
  8
0
  6
Continuous
 62
     7
370
    25
100
AcDbLine
 10
8075.9807692308
 20
5818.2176994224
 30
0.0
 11
8075.9807692308
 21
5817.6747253225
 31
0.0
  0
LINE
  5
1DD
330
1F
100
AcDbEntity
  8
0
  6
Continuous
 62
     7
370
    25
100
AcDbLine
 10
8077.4807692308
 20
5817.6747253225
 30
0.0
 11
8077.4807692308
 21
5818.2176994224
 31
0.0
  0
LINE
  5
1DE
330
1F
100
AcDbEntity
  8
0
  6
Continuous
 62
     7
370
    25
100
AcDbLine
 10
8096.4807692308
 20
5818.2176994224
 30
0.0
 11
8096.4807692308
 21
5817.6747253225
 31
0.0
  0
LINE
  5
1DF
330
1F
100
AcDbEntity
  8
0
  6
Continuous
 62
     7
370
    25
100
AcDbLine
 10
8095.9807692308
 20
5807.9954669065
 30
0.0
 11
8095.9807692308
 21
5816.0576677266
 31
0.0
  0
LINE
  5
1E0
330
1F
100
AcDbEntity
  8
0
  6
Continuous
 62
     7
370
    25
100
AcDbLine
 10
8077.9807692308
 20
5807.9954669065
 30
0.0
 11
8077.9807692308
 21
5816.0576677266
 31
0.0
  0
LWPOLYLINE
  5
1E1
330
1F
100
AcDbEntity
  8
0
  6
Continuous
 62
     7
370
    25
100
AcDbPolyline
 90
        9
 70
   128
 43
0.0
 10
8077.9807692308
 20
5809.3757502535
 10
8077.8753492475
 20
5809.3944727458
 10
8077.778327582
 20
5809.4194557057
 10
8077.6919967864
 20
5809.4501088039
 10
8077.6183967951
 20
5809.4857077299
 10
8077.5592667227
 20
5809.5254113066
 10
8077.5160037704
 20
5809.5682813671
 10
8077.4896302103
 20
5809.6133049229
 10
8077.4807692308
 20
5809.6594180999
  0
LWPOLYLINE
  5
1E2
330
1F
100
AcDbEntity
  8
0
  6
Continuous
 62
     7
370
    25
100
AcDbPolyline
 90
        9
 70
   128
 43
0.0
 10
8096.4807692308
 20
5809.6594180999
 10
8096.4719082512
 20
5809.6133049229
 10
8096.4455346912
 20
5809.5682813671
 10
8096.4022717388
 20
5809.5254113066
 10
8096.3431416665
 20
5809.4857077299
 10
8096.2695416751
 20
5809.4501088039
 10
8096.1832108795
 20
5809.4194557057
 10
8096.0861892141
 20
5809.3944727458
 10
8095.9807692308
 20
5809.3757502535
  0
ELLIPSE
  5
1E3
330
1F
100
AcDbEntity
  8
0
  6
Continuous
 62
     8
370
    25
100
AcDbEllipse
 10
8076.7307692308
 20
5621.7142986908
 30
0.0
 11
1.491312348091924
 21
-0.65361502450196
 31
0.0
210
0.0
220
0.0
230
1.0
 40
0.2466380403
 41
5.770123930620798
 42
6.390864157026374
  0
ELLIPSE
  5
1E4
330
1F
100
AcDbEntity
  8
0
  6
Continuous
 62
     8
370
    25
100
AcDbEllipse
 10
8097.2307692308
 20
5621.7142986908
 30
0.0
 11
1.491312348091924
 21
0.6536150245028693
 31
0.0
210
0.0
220
0.0
230
1.0
 40
0.2466380403
 41
3.03391380374093
 42
3.633157699790615
  0
LINE
  5
1E5
330
1F
100
AcDbEntity
  8
0
  6
Continuous
 62
     8
370
    25
100
AcDbLine
 10
8076.7307692308
 20
5622.4642986908
 30
0.0
 11
8076.7307692308
 21
5622.1502273361
 31
0.0
  0
LINE
  5
1E6
330
1F
100
AcDbEntity
  8
0
  6
Continuous
 62
     8
370
    25
100
AcDbLine
 10
8097.2307692308
 20
5622.1502273361
 30
0.0
 11
8097.2307692308
 21
5622.4642986908
 31
0.0
  0
LINE
  5
1E7
330
1F
100
AcDbEntity
  8
0
  6
Continuous
 62
     8
370
    25
100
AcDbLine
 10
8076.7307692308
 20
5608.4715209226
 30
0.0
 11
8076.7307692308
 21
5607.87778771
 31
0.0
  0
LINE
  5
1E8
330
1F
100
AcDbEntity
  8
0
  6
Continuous
 62
     8
370
    25
100
AcDbLine
 10
8097.2307692308
 20
5607.87778771
 30
0.0
 11
8097.2307692308
 21
5608.4715209226
 31
0.0
  0
ELLIPSE
  5
1E9
330
1F
100
AcDbEntity
  8
0
  6
Continuous
 62
     8
370
    25
100
AcDbEllipse
 10
8076.7307692308
 20
5617.7878194059
 30
0.0
 11
1.491119595525561
 21
-0.3737389888065082
 31
0.0
210
0.0
220
0.0
230
1.0
 40
0.4360786818
 41
0.6945535414001334
 42
1.156065549140065
  0
ELLIPSE
  5
1EA
330
1F
100
AcDbEntity
  8
0
  6
Continuous
 62
     8
370
    25
100
AcDbEllipse
 10
8097.2307692308
 20
5617.7878194059
 30
0.0
 11
1.491119595525561
 21
0.3737389888065082
 31
0.0
210
0.0
220
0.0
230
1.0
 40
0.4360786818
 41
1.985527104449607
 42
2.447039112189612
  0
ELLIPSE
  5
1EB
330
1F
100
AcDbEntity
  8
0
  6
Continuous
 62
     8
370
    25
100
AcDbEllipse
 10
8076.7307692308
 20
5617.7878194059
 30
0.0
 11
1.491119595525561
 21
-0.3737389888065082
 31
0.0
210
0.0
220
0.0
230
1.0
 40
0.4360786818
 41
5.344855753927041
 42
5.806367761667344
  0
ELLIPSE
  5
1EC
330
1F
100
AcDbEntity
  8
0
  6
Continuous
 62
     8
370
    25
100
AcDbEllipse
 10
8097.2307692308
 20
5617.7878194059
 30
0.0
 11
1.491119595525561
 21
0.3737389888065082
 31
0.0
210
0.0
220
0.0
230
1.0
 40
0.4360786818
 41
3.618410199101667
 42
4.079922206842527
  0
ELLIPSE
  5
1ED
330
1F
100
AcDbEntity
  8
0
  6
Continuous
 62
     8
370
    25
100
AcDbEllipse
 10
8076.7307692308
 20
5805.1311884417
 30
0.0
 11
1.491312348091924
 21
0.65361502450196
 31
0.0
210
0.0
220
0.0
230
1.0
 40
0.2466380403
 41
6.175506457332632
 42
6.795690482943948
  0
ELLIPSE
  5
1EE
330
1F
100
AcDbEntity
  8
0
  6
Continuous
 62
     8
370
    25
100
AcDbEllipse
 10
8097.2307692308
 20
5805.1311884417
 30
0.0
 11
1.491312348091924
 21
-0.6536150245028693
 31
0.0
210
0.0
220
0.0
230
1.0
 40
0.2466380403
 41
2.648241894555432
 42
3.249271503438934
  0
LINE
  5
1EF
330
1F
100
AcDbEntity
  8
0
  6
Continuous
 62
     8
370
    25
100
AcDbLine
 10
8076.7307692308
 20
5804.3811884417
 30
0.0
 11
8076.7307692308
 21
5804.6952597964
 31
0.0
  0
LINE
  5
1F0
330
1F
100
AcDbEntity
  8
0
  6
Continuous
 62
     8
370
    25
100
AcDbLine
 10
8097.2307692308
 20
5804.6952597964
 30
0.0
 11
8097.2307692308
 21
5804.3811884417
 31
0.0
  0
LINE
  5
1F1
330
1F
100
AcDbEntity
  8
0
  6
Continuous
 62
     8
370
    25
100
AcDbLine
 10
8097.2307692308
 20
5818.9676994224
 30
0.0
 11
8097.2307692308
 21
5818.3739662099
 31
0.0
  0
LINE
  5
1F2
330
1F
100
AcDbEntity
  8
0
  6
Continuous
 62
     8
370
    25
100
AcDbLine
 10
8076.7307692308
 20
5818.3739662099
 30
0.0
 11
8076.7307692308
 21
5818.9676994224
 31
0.0
  0
ELLIPSE
  5
1F3
330
1F
100
AcDbEntity
  8
0
  6
Continuous
 62
     8
370
    25
100
AcDbEllipse
 10
8076.7307692308
 20
5809.0576677266
 30
0.0
 11
1.491119595525561
 21
0.3737389888065082
 31
0.0
210
0.0
220
0.0
230
1.0
 40
0.4360786818
 41
5.127119758038869
 42
5.588631765779475
  0
ELLIPSE
  5
1F4
330
1F
100
AcDbEntity
  8
0
  6
Continuous
 62
     8
370
    25
100
AcDbEllipse
 10
8097.2307692308
 20
5809.0576677266
 30
0.0
 11
1.491119595525561
 21
-0.3737389888065082
 31
0.0
210
0.0
220
0.0
230
1.0
 40
0.4360786818
 41
3.836146194989996
 42
4.297658202730652
  0
ELLIPSE
  5
1F5
330
1F
100
AcDbEntity
  8
0
  6
Continuous
 62
     8
370
    25
100
AcDbEllipse
 10
8097.2307692308
 20
5809.0576677266
 30
0.0
 11
1.491119595525561
 21
-0.3737389888065082
 31
0.0
210
0.0
220
0.0
230
1.0
 40
0.4360786818
 41
2.117182253382003
 42
2.664775108077946
  0
ELLIPSE
  5
1F6
330
1F
100
AcDbEntity
  8
0
  6
Continuous
 62
     8
370
    25
100
AcDbEllipse
 10
8076.7307692308
 20
5809.0576677266
 30
0.0
 11
1.491119595525561
 21
0.3737389888065082
 31
0.0
210
0.0
220
0.0
230
1.0
 40
0.4360786818
 41
0.4768175455122686
 42
0.9383295532525608
  0
ENDSEC
  0
SECTION
  2
OBJECTS
  0
DICTIONARY
  5
C
330
0
100
AcDbDictionary
281
     1
  3
ACAD_GROUP
350
D
  3
ACAD_LAYOUT
350
1A
  3
ACAD_MLINESTYLE
350
17
  3
ACAD_PLOTSETTINGS
350
19
  3
ACAD_PLOTSTYLENAME
350
E
  3
ACAD_SCALELIST
350
47
  3
DWGPROPS
350
1F7
  0
DICTIONARY
  5
D
102
{ACAD_REACTORS
330
C
102
}
330
C
100
AcDbDictionary
281
     1
  0
DICTIONARY
  5
1A
102
{ACAD_REACTORS
330
C
102
}
330
C
100
AcDbDictionary
281
     1
  3
Layout1
350
1E
  3
Layout2
350
26
  3
Model
350
22
  0
DICTIONARY
  5
17
102
{ACAD_REACTORS
330
C
102
}
330
C
100
AcDbDictionary
281
     1
  3
Standard
350
18
  0
DICTIONARY
  5
19
102
{ACAD_REACTORS
330
C
102
}
330
C
100
AcDbDictionary
281
     1
  0
ACDBDICTIONARYWDFLT
  5
E
102
{ACAD_REACTORS
330
C
102
}
330
C
100
AcDbDictionary
281
     1
  3
Normal
350
F
100
AcDbDictionaryWithDefault
340
F
  0
DICTIONARY
  5
47
102
{ACAD_REACTORS
330
C
102
}
330
C
100
AcDbDictionary
281
     1
  3
A0
350
48
  3
A1
350
49
  3
A2
350
4A
  3
A3
350
4B
  3
A4
350
4C
  3
A5
350
4D
  3
A6
350
4E
  3
A7
350
4F
  3
A8
350
50
  3
A9
350
51
  3
B0
350
52
  3
B1
350
53
  3
B2
350
54
  3
B3
350
55
  3
B4
350
56
  3
B5
350
57
  3
B6
350
58
  3
B7
350
59
  3
B8
350
5A
  3
B9
350
5B
  3
C0
350
5C
  3
C1
350
5D
  3
C2
350
5E
  3
C3
350
5F
  3
C4
350
60
  3
C5
350
61
  3
C6
350
62
  3
C7
350
63
  3
C8
350
64
  3
C9
350
65
  3
D0
350
66
  3
D1
350
67
  3
D2
350
68
  0
XRECORD
  5
1F7
102
{ACAD_REACTORS
330
C
102
}
330
C
100
AcDbXrecord
280
     1
  1
DWGPROPS COOKIE
  2

  3

  4

  6

  7

  8
radek.stransky
  9

300
=
301
=
302
=
303
=
304
=
305
=
306
=
307
=
308
=
309
=
 40
0.0
 41
2459100.472874097
 42
2459100.472874317
  1

 90
        0
  0
LAYOUT
  5
1E
102
{ACAD_REACTORS
330
1A
102
}
330
1A
100
AcDbPlotSettings
  1

  2
none_device
  4

  6

 40
0.0
 41
0.0
 42
0.0
 43
0.0
 44
0.0
 45
0.0
 46
0.0
 47
0.0
 48
0.0
 49
0.0
140
0.0
141
0.0
142
1.0
143
1.0
 70
   688
 72
     1
 73
     0
 74
     5
  7

 75
    16
147
1.0
148
0.0
149
0.0
100
AcDbLayout
  1
Layout1
 70
     1
 71
     1
 10
0.0
 20
0.0
 11
420.0
 21
297.0
 12
0.0
 22
0.0
 32
0.0
 14
1.0000000000E+20
 24
1.0000000000E+20
 34
1.0000000000E+20
 15
-1.0000000000E+20
 25
-1.0000000000E+20
 35
-1.0000000000E+20
146
0.0
 13
0.0
 23
0.0
 33
0.0
 16
1.0
 26
0.0
 36
0.0
 17
0.0
 27
1.0
 37
0.0
 76
     0
330
1B
  0
LAYOUT
  5
26
102
{ACAD_REACTORS
330
1A
102
}
330
1A
100
AcDbPlotSettings
  1

  2
none_device
  4

  6

 40
0.0
 41
0.0
 42
0.0
 43
0.0
 44
0.0
 45
0.0
 46
0.0
 47
0.0
 48
0.0
 49
0.0
140
0.0
141
0.0
142
1.0
143
1.0
 70
   688
 72
     1
 73
     0
 74
     5
  7

 75
    16
147
1.0
148
0.0
149
0.0
100
AcDbLayout
  1
Layout2
 70
     1
 71
     2
 10
0.0
 20
0.0
 11
0.0
 21
0.0
 12
0.0
 22
0.0
 32
0.0
 14
0.0
 24
0.0
 34
0.0
 15
0.0
 25
0.0
 35
0.0
146
0.0
 13
0.0
 23
0.0
 33
0.0
 16
1.0
 26
0.0
 36
0.0
 17
0.0
 27
1.0
 37
0.0
 76
     0
330
23
  0
LAYOUT
  5
22
102
{ACAD_REACTORS
330
1A
102
}
330
1A
100
AcDbPlotSettings
  1

  2
none_device
  4
Letter_(8.50_x_11.00_Inches)
  6

 40
6.35
 41
6.35
 42
6.35000508
 43
6.35000508
 44
215.9
 45
279.4
 46
0.0
 47
0.0
 48
0.0
 49
0.0
140
0.0
141
0.0
142
1.0
143
1.0
 70
  1712
 72
     1
 73
     0
 74
     0
  7

 75
     0
147
1.0
148
0.0
149
0.0
100
AcDbLayout
  1
Model
 70
     1
 71
     0
 10
0.0
 20
0.0
 11
20000.0
 21
10000.0
 12
0.0
 22
0.0
 32
0.0
 14
0.0
 24
0.0
 34
0.0
 15
20000.0
 25
10000.0
 35
0.0
146
0.0
 13
0.0
 23
0.0
 33
0.0
 16
1.0
 26
0.0
 36
0.0
 17
0.0
 27
1.0
 37
0.0
 76
     0
330
1F
331
29
  0
MLINESTYLE
  5
18
102
{ACAD_REACTORS
330
17
102
}
330
17
100
AcDbMlineStyle
  2
Standard
 70
     0
  3

 62
   256
 51
90.0
 52
90.0
 71
     2
 49
0.5
 62
   256
  6
BYLAYER
 49
-0.5
 62
   256
  6
BYLAYER
  0
ACDBPLACEHOLDER
  5
F
102
{ACAD_REACTORS
330
E
102
}
330
E
  0
SCALE
  5
48
102
{ACAD_REACTORS
330
47
102
}
330
47
100
AcDbScale
 70
     0
300
1:1
140
1.0
141
1.0
290
     1
  0
SCALE
  5
49
102
{ACAD_REACTORS
330
47
102
}
330
47
100
AcDbScale
 70
     0
300
1:2
140
1.0
141
2.0
290
     0
  0
SCALE
  5
4A
102
{ACAD_REACTORS
330
47
102
}
330
47
100
AcDbScale
 70
     0
300
1:4
140
1.0
141
4.0
290
     0
  0
SCALE
  5
4B
102
{ACAD_REACTORS
330
47
102
}
330
47
100
AcDbScale
 70
     0
300
1:5
140
1.0
141
5.0
290
     0
  0
SCALE
  5
4C
102
{ACAD_REACTORS
330
47
102
}
330
47
100
AcDbScale
 70
     0
300
1:8
140
1.0
141
8.0
290
     0
  0
SCALE
  5
4D
102
{ACAD_REACTORS
330
47
102
}
330
47
100
AcDbScale
 70
     0
300
1:10
140
1.0
141
10.0
290
     0
  0
SCALE
  5
4E
102
{ACAD_REACTORS
330
47
102
}
330
47
100
AcDbScale
 70
     0
300
1:16
140
1.0
141
16.0
290
     0
  0
SCALE
  5
4F
102
{ACAD_REACTORS
330
47
102
}
330
47
100
AcDbScale
 70
     0
300
1:20
140
1.0
141
20.0
290
     0
  0
SCALE
  5
50
102
{ACAD_REACTORS
330
47
102
}
330
47
100
AcDbScale
 70
     0
300
1:30
140
1.0
141
30.0
290
     0
  0
SCALE
  5
51
102
{ACAD_REACTORS
330
47
102
}
330
47
100
AcDbScale
 70
     0
300
1:40
140
1.0
141
40.0
290
     0
  0
SCALE
  5
52
102
{ACAD_REACTORS
330
47
102
}
330
47
100
AcDbScale
 70
     0
300
1:50
140
1.0
141
50.0
290
     0
  0
SCALE
  5
53
102
{ACAD_REACTORS
330
47
102
}
330
47
100
AcDbScale
 70
     0
300
1:100
140
1.0
141
100.0
290
     0
  0
SCALE
  5
54
102
{ACAD_REACTORS
330
47
102
}
330
47
100
AcDbScale
 70
     0
300
2:1
140
2.0
141
1.0
290
     0
  0
SCALE
  5
55
102
{ACAD_REACTORS
330
47
102
}
330
47
100
AcDbScale
 70
     0
300
4:1
140
4.0
141
1.0
290
     0
  0
SCALE
  5
56
102
{ACAD_REACTORS
330
47
102
}
330
47
100
AcDbScale
 70
     0
300
8:1
140
8.0
141
1.0
290
     0
  0
SCALE
  5
57
102
{ACAD_REACTORS
330
47
102
}
330
47
100
AcDbScale
 70
     0
300
10:1
140
10.0
141
1.0
290
     0
  0
SCALE
  5
58
102
{ACAD_REACTORS
330
47
102
}
330
47
100
AcDbScale
 70
     0
300
100:1
140
100.0
141
1.0
290
     0
  0
SCALE
  5
59
102
{ACAD_REACTORS
330
47
102
}
330
47
100
AcDbScale
 70
     0
300
1/128" = 1'-0"
140
0.0078125
141
12.0
290
     0
  0
SCALE
  5
5A
102
{ACAD_REACTORS
330
47
102
}
330
47
100
AcDbScale
 70
     0
300
1/64" = 1'-0"
140
0.015625
141
12.0
290
     0
  0
SCALE
  5
5B
102
{ACAD_REACTORS
330
47
102
}
330
47
100
AcDbScale
 70
     0
300
1/32" = 1'-0"
140
0.03125
141
12.0
290
     0
  0
SCALE
  5
5C
102
{ACAD_REACTORS
330
47
102
}
330
47
100
AcDbScale
 70
     0
300
1/16" = 1'-0"
140
0.0625
141
12.0
290
     0
  0
SCALE
  5
5D
102
{ACAD_REACTORS
330
47
102
}
330
47
100
AcDbScale
 70
     0
300
3/32" = 1'-0"
140
0.09375
141
12.0
290
     0
  0
SCALE
  5
5E
102
{ACAD_REACTORS
330
47
102
}
330
47
100
AcDbScale
 70
     0
300
1/8" = 1'-0"
140
0.125
141
12.0
290
     0
  0
SCALE
  5
5F
102
{ACAD_REACTORS
330
47
102
}
330
47
100
AcDbScale
 70
     0
300
3/16" = 1'-0"
140
0.1875
141
12.0
290
     0
  0
SCALE
  5
60
102
{ACAD_REACTORS
330
47
102
}
330
47
100
AcDbScale
 70
     0
300
1/4" = 1'-0"
140
0.25
141
12.0
290
     0
  0
SCALE
  5
61
102
{ACAD_REACTORS
330
47
102
}
330
47
100
AcDbScale
 70
     0
300
3/8" = 1'-0"
140
0.375
141
12.0
290
     0
  0
SCALE
  5
62
102
{ACAD_REACTORS
330
47
102
}
330
47
100
AcDbScale
 70
     0
300
1/2" = 1'-0"
140
0.5
141
12.0
290
     0
  0
SCALE
  5
63
102
{ACAD_REACTORS
330
47
102
}
330
47
100
AcDbScale
 70
     0
300
3/4" = 1'-0"
140
0.75
141
12.0
290
     0
  0
SCALE
  5
64
102
{ACAD_REACTORS
330
47
102
}
330
47
100
AcDbScale
 70
     0
300
1" = 1'-0"
140
1.0
141
12.0
290
     0
  0
SCALE
  5
65
102
{ACAD_REACTORS
330
47
102
}
330
47
100
AcDbScale
 70
     0
300
1-1/2" = 1'-0"
140
1.5
141
12.0
290
     0
  0
SCALE
  5
66
102
{ACAD_REACTORS
330
47
102
}
330
47
100
AcDbScale
 70
     0
300
3" = 1'-0"
140
3.0
141
12.0
290
     0
  0
SCALE
  5
67
102
{ACAD_REACTORS
330
47
102
}
330
47
100
AcDbScale
 70
     0
300
6" = 1'-0"
140
6.0
141
12.0
290
     0
  0
SCALE
  5
68
102
{ACAD_REACTORS
330
47
102
}
330
47
100
AcDbScale
 70
     0
300
1'-0" = 1'-0"
140
12.0
141
12.0
290
     0
  0
ENDSEC
  0
EOF
