  0
SECTION
  2
HEADER
  9
$ACADVER
  1
AC1015
  9
$ACADMAINTVER
 70
     6
  9
$DWGCODEPAGE
  3
ANSI_1250
  9
$INSBASE
 10
0.0
 20
0.0
 30
0.0
  9
$EXTMIN
 10
0.0
 20
0.0
 30
0.0
  9
$EXTMAX
 10
20000.0
 20
10000.0
 30
0.0
  9
$LIMMIN
 10
0.0
 20
0.0
  9
$LIMMAX
 10
20000.0
 20
10000.0
  9
$ORTHOMODE
 70
     0
  9
$REGENMODE
 70
     1
  9
$FILLMODE
 70
     1
  9
$QTEXTMODE
 70
     0
  9
$MIRRTEXT
 70
     1
  9
$LTSCALE
 40
1.0
  9
$ATTMODE
 70
     1
  9
$TEXTSIZE
 40
2.0
  9
$TRACEWID
 40
1.0
  9
$TEXTSTYLE
  7
Standard
  9
$CLAYER
  8
0
  9
$CELTYPE
  6
ByLayer
  9
$CECOLOR
 62
   256
  9
$CELTSCALE
 40
1.0
  9
$DISPSILH
 70
     0
  9
$DIMSCALE
 40
1.0
  9
$DIMASZ
 40
2.0
  9
$DIMEXO
 40
1.0
  9
$DIMDLI
 40
3.75
  9
$DIMRND
 40
0.0
  9
$DIMDLE
 40
0.0
  9
$DIMEXE
 40
1.0
  9
$DIMTP
 40
0.0
  9
$DIMTM
 40
0.0
  9
$DIMTXT
 40
2.0
  9
$DIMCEN
 40
2.5
  9
$DIMTSZ
 40
0.0
  9
$DIMTOL
 70
     0
  9
$DIMLIM
 70
     0
  9
$DIMTIH
 70
     1
  9
$DIMTOH
 70
     1
  9
$DIMSE1
 70
     0
  9
$DIMSE2
 70
     0
  9
$DIMTAD
 70
     1
  9
$DIMZIN
 70
     0
  9
$DIMBLK
  1

  9
$DIMASO
 70
     1
  9
$DIMSHO
 70
     1
  9
$DIMPOST
  1

  9
$DIMAPOST
  1

  9
$DIMALT
 70
     0
  9
$DIMALTD
 70
     3
  9
$DIMALTF
 40
0.0393700787
  9
$DIMLFAC
 40
1.0
  9
$DIMTOFL
 70
     1
  9
$DIMTVP
 40
0.0
  9
$DIMTIX
 70
     0
  9
$DIMSOXD
 70
     0
  9
$DIMSAH
 70
     0
  9
$DIMBLK1
  1

  9
$DIMBLK2
  1

  9
$DIMSTYLE
  2
ISO-25
  9
$DIMCLRD
 70
     0
  9
$DIMCLRE
 70
     0
  9
$DIMCLRT
 70
     0
  9
$DIMTFAC
 40
1.0
  9
$DIMGAP
 40
1.524
  9
$DIMJUST
 70
     0
  9
$DIMSD1
 70
     0
  9
$DIMSD2
 70
     0
  9
$DIMTOLJ
 70
     0
  9
$DIMTZIN
 70
     0
  9
$DIMALTZ
 70
     0
  9
$DIMALTTZ
 70
     0
  9
$DIMUPT
 70
     0
  9
$DIMDEC
 70
     2
  9
$DIMTDEC
 70
     0
  9
$DIMALTU
 70
     2
  9
$DIMALTTD
 70
     3
  9
$DIMTXSTY
  7
Standard
  9
$DIMAUNIT
 70
     0
  9
$DIMADEC
 70
     2
  9
$DIMALTRND
 40
0.0
  9
$DIMAZIN
 70
     0
  9
$DIMDSEP
 70
    44
  9
$DIMATFIT
 70
     3
  9
$DIMFRAC
 70
     0
  9
$DIMLDRBLK
  1

  9
$DIMLUNIT
 70
     2
  9
$DIMLWD
 70
    -2
  9
$DIMLWE
 70
    -2
  9
$DIMTMOVE
 70
     0
  9
$LUNITS
 70
     2
  9
$LUPREC
 70
     3
  9
$SKETCHINC
 40
1.0
  9
$FILLETRAD
 40
10.0
  9
$AUNITS
 70
     0
  9
$AUPREC
 70
     2
  9
$MENU
  1
.
  9
$ELEVATION
 40
0.0
  9
$PELEVATION
 40
0.0
  9
$THICKNESS
 40
0.0
  9
$LIMCHECK
 70
     0
  9
$CHAMFERA
 40
0.0
  9
$CHAMFERB
 40
0.0
  9
$CHAMFERC
 40
0.0
  9
$CHAMFERD
 40
0.0
  9
$SKPOLY
 70
     0
  9
$TDCREATE
 40
2459087.534604294
  9
$TDUCREATE
 40
2459087.451270961
  9
$TDUPDATE
 40
2459087.534604641
  9
$TDUUPDATE
 40
2459087.451271308
  9
$TDINDWG
 40
0.0000000116
  9
$TDUSRTIMER
 40
0.0000000116
  9
$USRTIMER
 70
     1
  9
$ANGBASE
 50
0.0
  9
$ANGDIR
 70
     0
  9
$PDMODE
 70
     0
  9
$PDSIZE
 40
-1.0
  9
$PLINEWID
 40
0.0
  9
$SPLFRAME
 70
     0
  9
$SPLINETYPE
 70
     6
  9
$SPLINESEGS
 70
     8
  9
$HANDSEED
  5
CA
  9
$SURFTAB1
 70
     6
  9
$SURFTAB2
 70
     6
  9
$SURFTYPE
 70
     6
  9
$SURFU
 70
     6
  9
$SURFV
 70
     6
  9
$UCSBASE
  2

  9
$UCSNAME
  2

  9
$UCSORG
 10
0.0
 20
0.0
 30
0.0
  9
$UCSXDIR
 10
1.0
 20
0.0
 30
0.0
  9
$UCSYDIR
 10
0.0
 20
1.0
 30
0.0
  9
$UCSORTHOREF
  2

  9
$UCSORTHOVIEW
 70
     0
  9
$UCSORGTOP
 10
0.0
 20
0.0
 30
0.0
  9
$UCSORGBOTTOM
 10
0.0
 20
0.0
 30
0.0
  9
$UCSORGLEFT
 10
0.0
 20
0.0
 30
0.0
  9
$UCSORGRIGHT
 10
0.0
 20
0.0
 30
0.0
  9
$UCSORGFRONT
 10
0.0
 20
0.0
 30
0.0
  9
$UCSORGBACK
 10
0.0
 20
0.0
 30
0.0
  9
$PUCSBASE
  2

  9
$PUCSNAME
  2

  9
$PUCSORG
 10
0.0
 20
0.0
 30
0.0
  9
$PUCSXDIR
 10
1.0
 20
0.0
 30
0.0
  9
$PUCSYDIR
 10
0.0
 20
1.0
 30
0.0
  9
$PUCSORTHOREF
  2

  9
$PUCSORTHOVIEW
 70
     0
  9
$PUCSORGTOP
 10
0.0
 20
0.0
 30
0.0
  9
$PUCSORGBOTTOM
 10
0.0
 20
0.0
 30
0.0
  9
$PUCSORGLEFT
 10
0.0
 20
0.0
 30
0.0
  9
$PUCSORGRIGHT
 10
0.0
 20
0.0
 30
0.0
  9
$PUCSORGFRONT
 10
0.0
 20
0.0
 30
0.0
  9
$PUCSORGBACK
 10
0.0
 20
0.0
 30
0.0
  9
$USERI1
 70
     0
  9
$USERI2
 70
     0
  9
$USERI3
 70
     0
  9
$USERI4
 70
     0
  9
$USERI5
 70
     0
  9
$USERR1
 40
0.0
  9
$USERR2
 40
0.0
  9
$USERR3
 40
0.0
  9
$USERR4
 40
0.0
  9
$USERR5
 40
0.0
  9
$WORLDVIEW
 70
     1
  9
$SHADEDGE
 70
     3
  9
$SHADEDIF
 70
    70
  9
$TILEMODE
 70
     1
  9
$MAXACTVP
 70
    64
  9
$PINSBASE
 10
0.0
 20
0.0
 30
0.0
  9
$PLIMCHECK
 70
     0
  9
$PEXTMIN
 10
1.0000000000E+20
 20
1.0000000000E+20
 30
1.0000000000E+20
  9
$PEXTMAX
 10
-1.0000000000E+20
 20
-1.0000000000E+20
 30
-1.0000000000E+20
  9
$PLIMMIN
 10
0.0
 20
0.0
  9
$PLIMMAX
 10
420.0
 20
297.0
  9
$UNITMODE
 70
     0
  9
$VISRETAIN
 70
     1
  9
$PLINEGEN
 70
     0
  9
$PSLTSCALE
 70
     1
  9
$TREEDEPTH
 70
  3020
  9
$CMLSTYLE
  2
Standard
  9
$CMLJUST
 70
     0
  9
$CMLSCALE
 40
20.0
  9
$PROXYGRAPHICS
 70
     1
  9
$MEASUREMENT
 70
     1
  9
$CELWEIGHT
370
    -1
  9
$ENDCAPS
280
     0
  9
$JOINSTYLE
280
     0
  9
$LWDISPLAY
290
     1
  9
$INSUNITS
 70
     4
  9
$HYPERLINKBASE
  1

  9
$STYLESHEET
  1

  9
$XEDIT
290
     1
  9
$CEPSNTYPE
380
     0
  9
$PSTYLEMODE
290
     1
  9
$FINGERPRINTGUID
  2
{cb60436b-eefa-43c8-bbc0-0b6765494e17}
  9
$VERSIONGUID
  2
{FAEB1C32-E019-11D5-929B-00C0DF256EC4}
  9
$EXTNAMES
290
     1
  9
$PSVPSCALE
 40
0.0
  9
$OLESTARTUP
290
     0
  0
ENDSEC
  0
SECTION
  2
CLASSES
  0
CLASS
  1
ACDBDICTIONARYWDFLT
  2
AcDbDictionaryWithDefault
  3
ObjectDBX Classes
 90
        0
280
     0
281
     0
  0
CLASS
  1
VISUALSTYLE
  2
AcDbVisualStyle
  3
ObjectDBX Classes
 90
     4095
280
     0
281
     0
  0
CLASS
  1
MATERIAL
  2
AcDbMaterial
  3
ObjectDBX Classes
 90
     1153
280
     0
281
     0
  0
CLASS
  1
SCALE
  2
AcDbScale
  3
ObjectDBX Classes
 90
     1153
280
     0
281
     0
  0
CLASS
  1
TABLESTYLE
  2
AcDbTableStyle
  3
ObjectDBX Classes
 90
     4095
280
     0
281
     0
  0
CLASS
  1
MLEADERSTYLE
  2
AcDbMLeaderStyle
  3
ACDB_MLEADERSTYLE_CLASS
 90
     4095
280
     0
281
     0
  0
CLASS
  1
SUN
  2
AcDbSun
  3
SCENEOE
 90
     1153
280
     0
281
     0
  0
CLASS
  1
ACDBPLACEHOLDER
  2
AcDbPlaceHolder
  3
ObjectDBX Classes
 90
        0
280
     0
281
     0
  0
CLASS
  1
LAYOUT
  2
AcDbLayout
  3
ObjectDBX Classes
 90
        0
280
     0
281
     0
  0
ENDSEC
  0
SECTION
  2
TABLES
  0
TABLE
  2
VPORT
  5
8
330
0
100
AcDbSymbolTable
 70
     1
  0
VPORT
  5
29
330
8
100
AcDbSymbolTableRecord
100
AcDbViewportTableRecord
  2
*Active
 70
     0
 10
0.0
 20
0.0
 11
1.0
 21
1.0
 12
10000.0
 22
5000.0
 13
0.0
 23
0.0
 14
10.0
 24
10.0
 15
10.0
 25
10.0
 16
0.0
 26
0.0
 36
1.0
 17
0.0
 27
0.0
 37
0.0
 40
10000.0
 41
2.0
 42
50.0
 43
0.0
 44
0.0
 50
0.0
 51
0.0
 71
     0
 72
  2000
 73
     1
 74
     3
 75
     0
 76
     0
 77
     0
 78
     0
281
     0
 65
     1
110
0.0
120
0.0
130
0.0
111
1.0
121
0.0
131
0.0
112
0.0
122
1.0
132
0.0
 79
     0
146
0.0
  0
ENDTAB
  0
TABLE
  2
LTYPE
  5
5
330
0
100
AcDbSymbolTable
 70
     6
  0
LTYPE
  5
14
330
5
100
AcDbSymbolTableRecord
100
AcDbLinetypeTableRecord
  2
ByBlock
 70
     0
  3

 72
    65
 73
     0
 40
0.0
  0
LTYPE
  5
15
330
5
100
AcDbSymbolTableRecord
100
AcDbLinetypeTableRecord
  2
ByLayer
 70
     0
  3

 72
    65
 73
     0
 40
0.0
  0
LTYPE
  5
16
330
5
100
AcDbSymbolTableRecord
100
AcDbLinetypeTableRecord
  2
Continuous
 70
     0
  3
Solid line
 72
    65
 73
     0
 40
0.0
  0
LTYPE
  5
6E
330
5
100
AcDbSymbolTableRecord
100
AcDbLinetypeTableRecord
  2
HIDDEN
 70
     0
  3
Hidden __ __ __ __ __ __ __ __ __ __ __ __ __ __
 72
    65
 73
     2
 40
1.905
 49
1.27
 74
     0
 49
-0.635
 74
     0
  0
LTYPE
  5
6F
330
5
100
AcDbSymbolTableRecord
100
AcDbLinetypeTableRecord
  2
PHANTOM
 70
     0
  3
Phantom ______  __  __  ______  __  __  ______
 72
    65
 73
     6
 40
12.7
 49
6.35
 74
     0
 49
-1.27
 74
     0
 49
1.27
 74
     0
 49
-1.27
 74
     0
 49
1.27
 74
     0
 49
-1.27
 74
     0
  0
LTYPE
  5
70
330
5
100
AcDbSymbolTableRecord
100
AcDbLinetypeTableRecord
  2
CENTER
 70
     0
  3
Center ____ _ ____ _ ____ _ ____ _ ____ _ ____
 72
    65
 73
     4
 40
10.16
 49
6.35
 74
     0
 49
-1.27
 74
     0
 49
1.27
 74
     0
 49
-1.27
 74
     0
  0
LTYPE
  5
71
330
5
100
AcDbSymbolTableRecord
100
AcDbLinetypeTableRecord
  2
CENTERX2
 70
     0
  3
Center (2x) ________  __  ________  __  _____
 72
    65
 73
     4
 40
20.32
 49
12.7
 74
     0
 49
-2.54
 74
     0
 49
2.54
 74
     0
 49
-2.54
 74
     0
  0
LTYPE
  5
72
330
5
100
AcDbSymbolTableRecord
100
AcDbLinetypeTableRecord
  2
DOT2
 70
     0
  3
Dot (.5x) ........................................
 72
    65
 73
     2
 40
0.635
 49
0.0
 74
     0
 49
-0.635
 74
     0
  0
ENDTAB
  0
TABLE
  2
LAYER
  5
2
330
0
100
AcDbSymbolTable
 70
    13
  0
LAYER
  5
10
330
2
100
AcDbSymbolTableRecord
100
AcDbLayerTableRecord
  2
0
 70
     0
 62
     7
  6
Continuous
370
    -3
390
F
  0
LAYER
  5
73
330
2
100
AcDbSymbolTableRecord
100
AcDbLayerTableRecord
  2
FORMAT
 70
     0
 62
     7
  6
Continuous
370
    -3
390
F
  0
LAYER
  5
74
330
2
100
AcDbSymbolTableRecord
100
AcDbLayerTableRecord
  2
OSA
 70
     0
 62
     7
  6
CENTER
370
    -3
390
F
  0
LAYER
  5
75
330
2
100
AcDbSymbolTableRecord
100
AcDbLayerTableRecord
  2
0_35
 70
     0
 62
     7
  6
Continuous
370
    35
390
F
  0
LAYER
  5
76
330
2
100
AcDbSymbolTableRecord
100
AcDbLayerTableRecord
  2
0_5
 70
     0
 62
     7
  6
Continuous
370
    50
390
F
  0
LAYER
  5
77
330
2
100
AcDbSymbolTableRecord
100
AcDbLayerTableRecord
  2
0_25
 70
     0
 62
     7
  6
Continuous
370
    25
390
F
  0
LAYER
  5
78
330
2
100
AcDbSymbolTableRecord
100
AcDbLayerTableRecord
  2
0_18
 70
     0
 62
     7
  6
Continuous
370
    -3
390
F
  0
LAYER
  5
79
330
2
100
AcDbSymbolTableRecord
100
AcDbLayerTableRecord
  2
SLD-0
 70
     0
 62
   179
  6
Continuous
370
    -3
390
F
  0
LAYER
  5
7A
330
2
100
AcDbSymbolTableRecord
100
AcDbLayerTableRecord
  2
KOTY
 70
     0
 62
     7
  6
Continuous
370
    -3
390
F
  0
LAYER
  5
7B
330
2
100
AcDbSymbolTableRecord
100
AcDbLayerTableRecord
  2
SILNA
 70
     0
 62
   179
  6
Continuous
370
    -3
390
F
  0
LAYER
  5
7C
330
2
100
AcDbSymbolTableRecord
100
AcDbLayerTableRecord
  2
0_18_1
 70
     0
 62
   179
  6
Continuous
370
    -3
390
F
  0
LAYER
  5
7D
330
2
100
AcDbSymbolTableRecord
100
AcDbLayerTableRecord
  2
0_35_1
 70
     0
 62
   179
  6
Continuous
370
    35
390
F
  0
LAYER
  5
7E
330
2
100
AcDbSymbolTableRecord
100
AcDbLayerTableRecord
  2
0_5_1
 70
     0
 62
   179
  6
Continuous
370
    50
390
F
  0
ENDTAB
  0
TABLE
  2
STYLE
  5
3
330
0
100
AcDbSymbolTable
 70
     1
  0
STYLE
  5
11
330
3
100
AcDbSymbolTableRecord
100
AcDbTextStyleTableRecord
  2
Standard
 70
     0
 40
0.0
 41
1.0
 50
0.0
 71
     0
 42
2.0
  3
txt
  4

  0
ENDTAB
  0
TABLE
  2
VIEW
  5
6
330
0
100
AcDbSymbolTable
 70
     0
  0
ENDTAB
  0
TABLE
  2
UCS
  5
7
330
0
100
AcDbSymbolTable
 70
     0
  0
ENDTAB
  0
TABLE
  2
APPID
  5
9
330
0
100
AcDbSymbolTable
 70
     1
  0
APPID
  5
12
330
9
100
AcDbSymbolTableRecord
100
AcDbRegAppTableRecord
  2
ACAD
 70
     0
  0
ENDTAB
  0
TABLE
  2
DIMSTYLE
  5
A
330
0
100
AcDbSymbolTable
 70
     1
100
AcDbDimStyleTable
  0
DIMSTYLE
105
27
330
A
100
AcDbSymbolTableRecord
100
AcDbDimStyleTableRecord
  2
ISO-25
 70
     0
 41
2.5
 42
0.625
 43
3.75
 44
1.25
 73
     0
 74
     0
 77
     1
 78
     8
140
2.5
141
2.5
143
0.0393700787
147
0.625
171
     3
172
     1
178
     0
271
     2
272
     2
274
     3
278
    44
283
     0
284
     8
340
11
  0
ENDTAB
  0
TABLE
  2
BLOCK_RECORD
  5
1
330
0
100
AcDbSymbolTable
 70
     1
  0
BLOCK_RECORD
  5
1F
330
1
100
AcDbSymbolTableRecord
100
AcDbBlockTableRecord
  2
*Model_Space
340
22
  0
BLOCK_RECORD
  5
1B
330
1
100
AcDbSymbolTableRecord
100
AcDbBlockTableRecord
  2
*Paper_Space
340
1E
  0
BLOCK_RECORD
  5
23
330
1
100
AcDbSymbolTableRecord
100
AcDbBlockTableRecord
  2
*Paper_Space0
340
26
  0
ENDTAB
  0
ENDSEC
  0
SECTION
  2
BLOCKS
  0
BLOCK
  5
20
330
1F
100
AcDbEntity
  8
0
100
AcDbBlockBegin
  2
*Model_Space
 70
     0
 10
0.0
 20
0.0
 30
0.0
  3
*Model_Space
  1

  0
ENDBLK
  5
21
330
1F
100
AcDbEntity
  8
0
100
AcDbBlockEnd
  0
BLOCK
  5
1C
330
1B
100
AcDbEntity
 67
     1
  8
0
100
AcDbBlockBegin
  2
*Paper_Space
 70
     0
 10
0.0
 20
0.0
 30
0.0
  3
*Paper_Space
  1

  0
ENDBLK
  5
1D
330
1B
100
AcDbEntity
 67
     1
  8
0
100
AcDbBlockEnd
  0
BLOCK
  5
24
330
23
100
AcDbEntity
  8
0
100
AcDbBlockBegin
  2
*Paper_Space0
 70
     0
 10
0.0
 20
0.0
 30
0.0
  3
*Paper_Space0
  1

  0
ENDBLK
  5
25
330
23
100
AcDbEntity
  8
0
100
AcDbBlockEnd
  0
ENDSEC
  0
SECTION
  2
ENTITIES
  0
SPLINE
  5
7F
330
1F
100
AcDbEntity
  8
0
  6
Continuous
 62
     7
370
    25
100
AcDbSpline
210
0.0
220
0.0
230
1.0
 70
     8
 71
     3
 72
    23
 73
    19
 74
     0
 42
0.00000001
 43
0.00000001
 40
0.0
 40
0.0
 40
0.0
 40
0.0
 40
0.0562798431375564
 40
0.1097589746383906
 40
0.1604463355248094
 40
0.2083525144772035
 40
0.2534901419838717
 40
0.295874408118006
 40
0.3355237519365907
 40
0.3724607927302652
 40
0.4067136074291878
 40
0.4383175112803808
 40
0.4673175812882837
 40
0.49377229005832
 40
0.5830939448664774
 40
0.6971892440924401
 40
0.8361456434147918
 40
1.0
 40
1.0
 40
1.0
 40
1.0
 10
6075.089466014219
 20
4764.699454592719
 30
0.0
 10
6075.099380701024
 20
4764.700410223842
 30
0.0
 10
6075.118716679889
 20
4764.702273930037
 30
0.0
 10
6075.148438443734
 20
4764.716627483126
 30
0.0
 10
6075.177772964455
 20
4764.737554147932
 30
0.0
 10
6075.206809961324
 20
4764.764324032691
 30
0.0
 10
6075.235526740653
 20
4764.795282056181
 30
0.0
 10
6075.263928707917
 20
4764.829138549735
 30
0.0
 10
6075.292012994933
 20
4764.864668742329
 30
0.0
 10
6075.319783450323
 20
4764.900791518444
 30
0.0
 10
6075.3472269575
 20
4764.936561559298
 30
0.0
 10
6075.374386517262
 20
4764.971133636104
 30
0.0
 10
6075.401122262765
 20
4765.003874857502
 30
0.0
 10
6075.449917254425
 20
4765.058707833093
 30
0.0
 10
6075.535011937172
 20
4765.148694713291
 30
0.0
 10
6075.66598537687
 20
4765.293659097099
 30
0.0
 10
6075.830504746745
 20
4765.481679737183
 30
0.0
 10
6075.952657231978
 20
4765.622989997704
 30
0.0
 10
6076.018755336101
 20
4765.69945459272
 30
0.0
  0
SPLINE
  5
80
330
1F
100
AcDbEntity
  8
0
  6
Continuous
 62
     7
370
    25
100
AcDbSpline
210
0.0
220
0.0
230
1.0
 70
     8
 71
     3
 72
    20
 73
    16
 74
     0
 42
0.00000001
 43
0.00000001
 40
0.0
 40
0.0
 40
0.0
 40
0.0
 40
0.125
 40
0.125
 40
0.25
 40
0.25
 40
0.375
 40
0.375
 40
0.4375
 40
0.4375
 40
0.5
 40
0.5
 40
0.75
 40
0.75
 40
1.0
 40
1.0
 40
1.0
 40
1.0
 10
6075.089466014219
 20
4763.699454592719
 30
0.0
 10
6075.119662406873
 20
4763.699454592719
 30
0.0
 10
6075.149321874167
 20
4763.730768393532
 30
0.0
 10
6075.207772589128
 20
4763.82713984689
 30
0.0
 10
6075.236529564944
 20
4763.89206504614
 30
0.0
 10
6075.293106753253
 20
4764.031332153915
 30
0.0
 10
6075.320926965745
 20
4764.1056594979
 30
0.0
 10
6075.361954711988
 20
4764.211319511177
 30
0.0
 10
6075.375513531986
 20
4764.245623061281
 30
0.0
 10
6075.402396981151
 20
4764.310869538554
 30
0.0
 10
6075.415477426207
 20
4764.341283890124
 30
0.0
 10
6075.482736015524
 20
4764.487335126315
 30
0.0
 10
6075.55879163392
 20
4764.649218808185
 30
0.0
 10
6075.755400364596
 20
4765.090077847092
 30
0.0
 10
6075.875437215809
 20
4765.370085714541
 30
0.0
 10
6076.018755336101
 20
4765.699454592721
 30
0.0
  0
LINE
  5
81
330
1F
100
AcDbEntity
  8
0
  6
Continuous
 62
     7
370
    25
100
AcDbLine
 10
6075.0894660142
 20
4763.6994545927
 30
0.0
 11
6075.0894660142
 21
4764.6994545927
 31
0.0
  0
SPLINE
  5
82
330
1F
100
AcDbEntity
  8
0
  6
Continuous
 62
     7
370
    25
100
AcDbSpline
210
0.0
220
0.0
230
1.0
 70
     8
 71
     3
 72
    14
 73
    10
 74
     0
 42
0.00000001
 43
0.00000001
 40
0.0
 40
0.0
 40
0.0
 40
0.0
 40
0.25
 40
0.25
 40
0.5
 40
0.5
 40
0.75
 40
0.75
 40
1.0
 40
1.0
 40
1.0
 40
1.0
 10
6076.018755336101
 20
4765.69945459272
 30
0.0
 10
6075.90805092205
 20
4765.589629414237
 30
0.0
 10
6075.795760817033
 20
4765.485120311791
 30
0.0
 10
6075.572326290949
 20
4765.283616727731
 30
0.0
 10
6075.464514069043
 20
4765.18928748845
 30
0.0
 10
6075.268341272577
 20
4765.016529753725
 30
0.0
 10
6075.181901925424
 20
4764.939319914822
 30
0.0
 10
6075.056301296123
 20
4764.819511963095
 30
0.0
 10
6075.0187553361
 20
4764.77750436805
 30
0.0
 10
6075.0187553361
 20
4764.770165270838
 30
0.0
  0
LINE
  5
83
330
1F
100
AcDbEntity
  8
0
  6
Continuous
 62
     7
370
    25
100
AcDbLine
 10
6074.0187553361
 20
4764.7701652708
 30
0.0
 11
6075.0187553361
 21
4764.7701652708
 31
0.0
  0
SPLINE
  5
84
330
1F
100
AcDbEntity
  8
0
  6
Continuous
 62
     7
370
    25
100
AcDbSpline
210
0.0
220
0.0
230
1.0
 70
     8
 71
     3
 72
    18
 73
    14
 74
     0
 42
0.00000001
 43
0.00000001
 40
0.0
 40
0.0
 40
0.0
 40
0.0
 40
0.2499999999999913
 40
0.2499999999999913
 40
0.4999999999999827
 40
0.4999999999999827
 40
0.624999999999987
 40
0.624999999999987
 40
0.7499999999999913
 40
0.7499999999999913
 40
0.8749999999999957
 40
0.8749999999999957
 40
1.0
 40
1.0
 40
1.0
 40
1.0
 10
6076.018755336101
 20
4765.69945459272
 30
0.0
 10
6075.770194456243
 20
4765.576161211745
 30
0.0
 10
6075.524771263013
 20
4765.462975746628
 30
0.0
 10
6075.048343070265
 20
4765.249302378678
 30
0.0
 10
6074.830338381719
 20
4765.154301196522
 30
0.0
 10
6074.543630016311
 20
4765.027675529569
 30
0.0
 10
6074.457782014661
 20
4764.98938250582
 30
0.0
 10
6074.305753158652
 20
4764.920199604079
 30
0.0
 10
6074.238926548499
 20
4764.88902061031
 30
0.0
 10
6074.130867070488
 20
4764.836576983398
 30
0.0
 10
6074.089670846753
 20
4764.815330946828
 30
0.0
 10
6074.033504311075
 20
4764.783727169625
 30
0.0
 10
6074.0187553361
 20
4764.773416339355
 30
0.0
 10
6074.0187553361
 20
4764.770165270838
 30
0.0
  0
SPLINE
  5
85
330
1F
100
AcDbEntity
  8
0
  6
Continuous
 62
     7
370
    25
100
AcDbSpline
210
0.0
220
0.0
230
1.0
 70
     8
 71
     3
 72
    16
 73
    12
 74
     0
 42
0.00000001
 43
0.00000001
 40
0.0
 40
0.0
 40
0.0
 40
0.0
 40
0.2500000000000538
 40
0.2500000000000538
 40
0.375000000000055
 40
0.375000000000055
 40
0.5000000000000562
 40
0.5000000000000562
 40
0.7500000000000281
 40
0.7500000000000281
 40
1.0
 40
1.0
 40
1.0
 40
1.0
 10
6472.948044657982
 20
5662.69945459272
 30
0.0
 10
6472.903952044395
 20
5662.699454592719
 30
0.0
 10
6472.857264483887
 20
5662.665655799708
 30
0.0
 10
6472.775760138541
 20
5662.573425330529
 30
0.0
 10
6472.746963038755
 20
5662.536195419679
 30
0.0
 10
6472.681434454519
 20
5662.450849942291
 30
0.0
 10
6472.644782779591
 20
5662.403160926817
 30
0.0
 10
6472.513309817619
 20
5662.260676398121
 30
0.0
 10
6472.415357911054
 20
5662.154670216695
 30
0.0
 10
6472.221016926776
 20
5661.933285644713
 30
0.0
 10
6472.120407738626
 20
5661.816261657018
 30
0.0
 10
6472.0187553361
 20
5661.699454592719
 30
0.0
  0
SPLINE
  5
86
330
1F
100
AcDbEntity
  8
0
  6
Continuous
 62
     7
370
    25
100
AcDbSpline
210
0.0
220
0.0
230
1.0
 70
     8
 71
     3
 72
    22
 73
    18
 74
     0
 42
0.00000001
 43
0.00000001
 40
0.0
 40
0.0
 40
0.0
 40
0.0
 40
0.125
 40
0.125
 40
0.25
 40
0.25
 40
0.375
 40
0.375
 40
0.5
 40
0.5
 40
0.625
 40
0.625
 40
0.75
 40
0.75
 40
0.875
 40
0.875
 40
1.0
 40
1.0
 40
1.0
 40
1.0
 10
6472.948044657982
 20
5663.699454592719
 30
0.0
 10
6472.927846962451
 20
5663.699454592719
 30
0.0
 10
6472.907165315977
 20
5663.68552090427
 30
0.0
 10
6472.863519945273
 20
5663.631110192237
 30
0.0
 10
6472.840236576969
 20
5663.589920058079
 30
0.0
 10
6472.790673947829
 20
5663.483203281812
 30
0.0
 10
6472.764521571758
 20
5663.418058537317
 30
0.0
 10
6472.705430835925
 20
5663.265142421541
 30
0.0
 10
6472.672862488866
 20
5663.176745577858
 30
0.0
 10
6472.592317076264
 20
5662.988440427315
 30
0.0
 10
6472.543475844612
 20
5662.888011088876
 30
0.0
 10
6472.444030766175
 20
5662.671252116033
 30
0.0
 10
6472.392861399192
 20
5662.557950591961
 30
0.0
 10
6472.289214647837
 20
5662.322929867057
 30
0.0
 10
6472.235938861173
 20
5662.20013111152
 30
0.0
 10
6472.128213353192
 20
5661.951642411528
 30
0.0
 10
6472.073872983102
 20
5661.826124113111
 30
0.0
 10
6472.0187553361
 20
5661.699454592719
 30
0.0
  0
LINE
  5
87
330
1F
100
AcDbEntity
  8
0
  6
Continuous
 62
     7
370
    25
100
AcDbLine
 10
6472.948044658
 20
5663.6994545927
 30
0.0
 11
6472.948044658
 21
5662.6994545927
 31
0.0
  0
SPLINE
  5
88
330
1F
100
AcDbEntity
  8
0
  6
Continuous
 62
     7
370
    25
100
AcDbSpline
210
0.0
220
0.0
230
1.0
 70
     8
 71
     3
 72
    23
 73
    19
 74
     0
 42
0.00000001
 43
0.00000001
 40
0.0
 40
0.0
 40
0.0
 40
0.0
 40
0.0453307574903722
 40
0.0921112965229908
 40
0.140592778067292
 40
0.1910009411587868
 40
0.2435366914213152
 40
0.2983775535283889
 40
0.3556796290401217
 40
0.415579777630211
 40
0.4781978231174783
 40
0.543638658563773
 40
0.6119941805879747
 40
0.6833450220389078
 40
0.7577620772323258
 40
0.835307828721077
 40
0.916037492281418
 40
0.9999999999999999
 40
0.9999999999999999
 40
0.9999999999999999
 40
0.9999999999999999
 10
6473.0187553361
 20
4764.770165270837
 30
0.0
 10
6473.01806716811
 20
4764.772141999376
 30
0.0
 10
6473.01666882294
 20
4764.776158676761
 30
0.0
 10
6473.00526409904
 20
4764.790758730333
 30
0.0
 10
6472.986603456085
 20
4764.811627735387
 30
0.0
 10
6472.959662172031
 20
4764.839426543767
 30
0.0
 10
6472.924379357544
 20
4764.873958903326
 30
0.0
 10
6472.880525460074
 20
4764.915273751729
 30
0.0
 10
6472.828039368163
 20
4764.963352403225
 30
0.0
 10
6472.766948565485
 20
4765.018197242624
 30
0.0
 10
6472.697407589417
 20
4765.079805921683
 30
0.0
 10
6472.619702170344
 20
4765.148178653439
 30
0.0
 10
6472.534260296414
 20
4765.223314653217
 30
0.0
 10
6472.441665114945
 20
4765.305217552796
 30
0.0
 10
6472.342641705896
 20
4765.393875246251
 30
0.0
 10
6472.238139929676
 20
4765.48933878452
 30
0.0
 10
6472.12902209657
 20
4765.591409026551
 30
0.0
 10
6472.055988794824
 20
4765.662971158264
 30
0.0
 10
6472.018755336099
 20
4765.69945459272
 30
0.0
  0
SPLINE
  5
89
330
1F
100
AcDbEntity
  8
0
  6
Continuous
 62
     7
370
    25
100
AcDbSpline
210
0.0
220
0.0
230
1.0
 70
     8
 71
     3
 72
    14
 73
    10
 74
     0
 42
0.00000001
 43
0.00000001
 40
0.0
 40
0.0
 40
0.0
 40
0.0
 40
0.25
 40
0.25
 40
0.5
 40
0.5
 40
0.75
 40
0.75
 40
1.0
 40
1.0
 40
1.0
 40
1.0
 10
6474.0187553361
 20
4764.770165270837
 30
0.0
 10
6474.0187553361
 20
4764.775343155779
 30
0.0
 10
6473.981461824576
 20
4764.798595008382
 30
0.0
 10
6473.81667867589
 20
4764.881218381399
 30
0.0
 10
6473.688904713461
 20
4764.940594613065
 30
0.0
 10
6473.341529109372
 20
4765.095476166712
 30
0.0
 10
6473.121691716186
 20
4765.190981488692
 30
0.0
 10
6472.611226685997
 20
4765.41812122297
 30
0.0
 10
6472.320891825658
 20
4765.549586160749
 30
0.0
 10
6472.018755336097
 20
4765.69945459272
 30
0.0
  0
LINE
  5
8A
330
1F
100
AcDbEntity
  8
0
  6
Continuous
 62
     7
370
    25
100
AcDbLine
 10
6474.0187553361
 20
4764.7701652708
 30
0.0
 11
6473.0187553361
 21
4764.7701652708
 31
0.0
  0
SPLINE
  5
8B
330
1F
100
AcDbEntity
  8
0
  6
Continuous
 62
     7
370
    25
100
AcDbSpline
210
0.0
220
0.0
230
1.0
 70
     8
 71
     3
 72
    22
 73
    18
 74
     0
 42
0.00000001
 43
0.00000001
 40
0.0
 40
0.0
 40
0.0
 40
0.0
 40
0.0686242697162228
 40
0.1332561348597434
 40
0.1938976721838381
 40
0.2505514587412674
 40
0.3032207192203871
 40
0.3519095332207675
 40
0.3966231341624353
 40
0.4373683528366494
 40
0.4741542978976372
 40
0.5069934417546992
 40
0.5748762091788657
 40
0.657724446851018
 40
0.7560272268583067
 40
0.8700637390524223
 40
1.0
 40
1.0
 40
1.0
 40
1.0
 10
6472.018755336099
 20
5661.699454592719
 30
0.0
 10
6472.050640211918
 20
5661.727233649243
 30
0.0
 10
6472.112554973703
 20
5661.781175639704
 30
0.0
 10
6472.202376330752
 20
5661.859041946534
 30
0.0
 10
6472.285688608723
 20
5661.931589752531
 30
0.0
 10
6472.362213220688
 20
5661.998782805193
 30
0.0
 10
6472.431827847005
 20
5662.06062941771
 30
0.0
 10
6472.494577141929
 20
5662.117133657596
 30
0.0
 10
6472.550641385751
 20
5662.168280488379
 30
0.0
 10
6472.600261237193
 20
5662.214127611027
 30
0.0
 10
6472.643861282701
 20
5662.254498699845
 30
0.0
 10
6472.696439609754
 20
5662.303996999764
 30
0.0
 10
6472.766140189987
 20
5662.361695818525
 30
0.0
 10
6472.852932578999
 20
5662.426715580767
 30
0.0
 10
6472.93619272155
 20
5662.49369440033
 30
0.0
 10
6473.004031083718
 20
5662.562565331566
 30
0.0
 10
6473.013638545316
 20
5662.605746348749
 30
0.0
 10
6473.0187553361
 20
5662.628743914601
 30
0.0
  0
LINE
  5
8C
330
1F
100
AcDbEntity
  8
0
  6
Continuous
 62
     7
370
    25
100
AcDbLine
 10
6474.0187553361
 20
5662.6287439146
 30
0.0
 11
6473.0187553361
 21
5662.6287439146
 31
0.0
  0
SPLINE
  5
8D
330
1F
100
AcDbEntity
  8
0
  6
Continuous
 62
     7
370
    25
100
AcDbSpline
210
0.0
220
0.0
230
1.0
 70
     8
 71
     3
 72
    22
 73
    18
 74
     0
 42
0.00000001
 43
0.00000001
 40
0.0
 40
0.0
 40
0.0
 40
0.0
 40
0.25
 40
0.25
 40
0.375
 40
0.375
 40
0.4375
 40
0.4375
 40
0.5
 40
0.5
 40
0.625
 40
0.625
 40
0.75
 40
0.75
 40
0.875
 40
0.875
 40
1.0
 40
1.0
 40
1.0
 40
1.0
 10
6472.018755336099
 20
5661.699454592719
 30
0.0
 10
6472.347662489137
 20
5661.843134407374
 30
0.0
 10
6472.627425964011
 20
5661.96348887226
 30
0.0
 10
6472.957996394913
 20
5662.111348639043
 30
0.0
 10
6473.053791211209
 20
5662.155061234319
 30
0.0
 10
6473.177798455224
 20
5662.212269136754
 30
0.0
 10
6473.215872596897
 20
5662.229944939153
 30
0.0
 10
6473.285973787819
 20
5662.262509547123
 30
0.0
 10
6473.318490714611
 20
5662.277623592106
 30
0.0
 10
6473.404821666082
 20
5662.317433795351
 30
0.0
 10
6473.471560067279
 20
5662.344377443948
 30
0.0
 10
6473.612629346464
 20
5662.399071767341
 30
0.0
 10
6473.687001760458
 20
5662.426822442136
 30
0.0
 10
6473.826285633789
 20
5662.483130817927
 30
0.0
 10
6473.891182241103
 20
5662.511688518922
 30
0.0
 10
6473.987483153064
 20
5662.569610947112
 30
0.0
 10
6474.0187553361
 20
5662.598941936729
 30
0.0
 10
6474.0187553361
 20
5662.628743914601
 30
0.0
  0
SPLINE
  5
8E
330
1F
100
AcDbEntity
  8
0
  6
Continuous
 62
     7
370
    25
100
AcDbSpline
210
0.0
220
0.0
230
1.0
 70
     8
 71
     3
 72
    14
 73
    10
 74
     0
 42
0.00000001
 43
0.00000001
 40
0.0
 40
0.0
 40
0.0
 40
0.0
 40
0.25
 40
0.25
 40
0.5
 40
0.5
 40
0.75
 40
0.75
 40
1.0
 40
1.0
 40
1.0
 40
1.0
 10
6472.018755336099
 20
4765.699454592719
 30
0.0
 10
6472.128580514581
 20
4765.588750178668
 30
0.0
 10
6472.233089617027
 20
4765.476460073651
 30
0.0
 10
6472.434593201086
 20
4765.253025547567
 30
0.0
 10
6472.528922440368
 20
4765.145213325661
 30
0.0
 10
6472.701680175093
 20
4764.949040529196
 30
0.0
 10
6472.778890013997
 20
4764.862601182042
 30
0.0
 10
6472.898697965723
 20
4764.737000552741
 30
0.0
 10
6472.940705560768
 20
4764.699454592719
 30
0.0
 10
6472.948044657982
 20
4764.699454592719
 30
0.0
  0
LINE
  5
8F
330
1F
100
AcDbEntity
  8
0
  6
Continuous
 62
     7
370
    25
100
AcDbLine
 10
6472.948044658
 20
4763.6994545927
 30
0.0
 11
6472.948044658
 21
4764.6994545927
 31
0.0
  0
SPLINE
  5
90
330
1F
100
AcDbEntity
  8
0
  6
Continuous
 62
     7
370
    25
100
AcDbSpline
210
0.0
220
0.0
230
1.0
 70
     8
 71
     3
 72
    18
 73
    14
 74
     0
 42
0.00000001
 43
0.00000001
 40
0.0
 40
0.0
 40
0.0
 40
0.0
 40
0.2499999999999828
 40
0.2499999999999828
 40
0.4999999999999656
 40
0.4999999999999656
 40
0.6249999999999741
 40
0.6249999999999741
 40
0.7499999999999828
 40
0.7499999999999828
 40
0.8749999999999913
 40
0.8749999999999913
 40
1.0
 40
1.0
 40
1.0
 40
1.0
 10
6472.018755336099
 20
4765.699454592718
 30
0.0
 10
6472.142048717073
 20
4765.45089371286
 30
0.0
 10
6472.25523418219
 20
4765.205470519631
 30
0.0
 10
6472.46890755014
 20
4764.729042326882
 30
0.0
 10
6472.563908732296
 20
4764.511037638337
 30
0.0
 10
6472.690534399249
 20
4764.224329272929
 30
0.0
 10
6472.728827422998
 20
4764.138481271279
 30
0.0
 10
6472.798010324739
 20
4763.98645241527
 30
0.0
 10
6472.829189318509
 20
4763.919625805117
 30
0.0
 10
6472.88163294542
 20
4763.811566327107
 30
0.0
 10
6472.902878981991
 20
4763.770370103371
 30
0.0
 10
6472.934482759194
 20
4763.714203567693
 30
0.0
 10
6472.944793589464
 20
4763.699454592719
 30
0.0
 10
6472.948044657982
 20
4763.699454592719
 30
0.0
  0
LINE
  5
91
330
1F
100
AcDbEntity
  8
0
  6
Continuous
 62
     7
370
    25
100
AcDbLine
 10
6075.0894660142
 20
4763.6994545927
 30
0.0
 11
6472.948044658
 21
4763.6994545927
 31
0.0
  0
LINE
  5
92
330
1F
100
AcDbEntity
  8
0
  6
Continuous
 62
     7
370
    25
100
AcDbLine
 10
6076.0187553361
 20
4765.6994545927
 30
0.0
 11
6472.0187553361
 21
4765.6994545927
 31
0.0
  0
LINE
  5
93
330
1F
100
AcDbEntity
  8
0
  6
Continuous
 62
     7
370
    25
100
AcDbLine
 10
6076.0187553361
 20
5661.6994545927
 30
0.0
 11
6076.0187553361
 21
4765.6994545927
 31
0.0
  0
LINE
  5
94
330
1F
100
AcDbEntity
  8
0
  6
Continuous
 62
     7
370
    25
100
AcDbLine
 10
6472.0187553361
 20
5661.6994545927
 30
0.0
 11
6076.0187553361
 21
5661.6994545927
 31
0.0
  0
LINE
  5
95
330
1F
100
AcDbEntity
  8
0
  6
Continuous
 62
     7
370
    25
100
AcDbLine
 10
6472.0187553361
 20
4765.6994545927
 30
0.0
 11
6472.0187553361
 21
5661.6994545927
 31
0.0
  0
CIRCLE
  5
96
330
1F
100
AcDbEntity
  8
0
  6
Continuous
 62
     7
370
    25
100
AcDbCircle
 10
6099.0187553361
 20
5638.6994545927
 30
0.0
 40
2.75
  0
CIRCLE
  5
97
330
1F
100
AcDbEntity
  8
0
  6
Continuous
 62
     7
370
    25
100
AcDbCircle
 10
6449.0187553361
 20
5638.6994545927
 30
0.0
 40
2.75
  0
CIRCLE
  5
98
330
1F
100
AcDbEntity
  8
0
  6
Continuous
 62
     7
370
    25
100
AcDbCircle
 10
6099.0187553361
 20
4788.6994545927
 30
0.0
 40
2.75
  0
CIRCLE
  5
99
330
1F
100
AcDbEntity
  8
0
  6
Continuous
 62
     7
370
    25
100
AcDbCircle
 10
6449.0187553361
 20
4788.6994545927
 30
0.0
 40
2.75
  0
SPLINE
  5
9A
330
1F
100
AcDbEntity
  8
0
  6
Continuous
 62
     7
370
    25
100
AcDbSpline
210
0.0
220
0.0
230
1.0
 70
     8
 71
     3
 72
    18
 73
    14
 74
     0
 42
0.00000001
 43
0.00000001
 40
0.0
 40
0.0
 40
0.0
 40
0.0
 40
0.2499999999999827
 40
0.2499999999999827
 40
0.4999999999999654
 40
0.4999999999999654
 40
0.624999999999974
 40
0.624999999999974
 40
0.7499999999999827
 40
0.7499999999999827
 40
0.8749999999999913
 40
0.8749999999999913
 40
1.0
 40
1.0
 40
1.0
 40
1.0
 10
6076.018755336099
 20
5661.699454592719
 30
0.0
 10
6075.895461955124
 20
5661.948015472577
 30
0.0
 10
6075.782276490007
 20
5662.193438665807
 30
0.0
 10
6075.568603122058
 20
5662.669866858555
 30
0.0
 10
6075.473601939902
 20
5662.8878715471
 30
0.0
 10
6075.346976272948
 20
5663.174579912508
 30
0.0
 10
6075.308683249199
 20
5663.260427914159
 30
0.0
 10
6075.239500347458
 20
5663.412456770168
 30
0.0
 10
6075.20832135369
 20
5663.479283380321
 30
0.0
 10
6075.155877726778
 20
5663.587342858331
 30
0.0
 10
6075.134631690207
 20
5663.628539082068
 30
0.0
 10
6075.103027913005
 20
5663.684705617745
 30
0.0
 10
6075.092717082736
 20
5663.699454592719
 30
0.0
 10
6075.089466014219
 20
5663.699454592719
 30
0.0
  0
LINE
  5
9B
330
1F
100
AcDbEntity
  8
0
  6
Continuous
 62
     7
370
    25
100
AcDbLine
 10
6472.948044658
 20
5663.6994545927
 30
0.0
 11
6075.0894660142
 21
5663.6994545927
 31
0.0
  0
LINE
  5
9C
330
1F
100
AcDbEntity
  8
0
  6
Continuous
 62
     7
370
    25
100
AcDbLine
 10
6474.0187553361
 20
5662.6287439146
 30
0.0
 11
6474.0187553361
 21
4764.7701652708
 31
0.0
  0
SPLINE
  5
9D
330
1F
100
AcDbEntity
  8
0
  6
Continuous
 62
     7
370
    25
100
AcDbSpline
210
0.0
220
0.0
230
1.0
 70
     8
 71
     3
 72
    23
 73
    19
 74
     0
 42
0.00000001
 43
0.00000001
 40
0.0
 40
0.0
 40
0.0
 40
0.0
 40
0.0562798431182753
 40
0.1097589746032933
 40
0.1604463354774492
 40
0.2083525144211311
 40
0.2534901419226207
 40
0.2958744080550785
 40
0.3355237518754689
 40
0.3724607926743632
 40
0.4067136073821835
 40
0.4383175112454313
 40
0.4673175812687547
 40
0.4937722900574831
 40
0.5830939447331216
 40
0.697189243914896
 40
0.8361456432817956
 40
0.9999999999999999
 40
0.9999999999999999
 40
0.9999999999999999
 40
0.9999999999999999
 10
6075.0187553361
 20
5662.628743914601
 30
0.0
 10
6075.019710967224
 20
5662.618829227799
 30
0.0
 10
6075.021574673417
 20
5662.599493248939
 30
0.0
 10
6075.035928226497
 20
5662.569771485105
 30
0.0
 10
6075.056854891292
 20
5662.54043696439
 30
0.0
 10
6075.083624776037
 20
5662.511399967524
 30
0.0
 10
6075.114582799517
 20
5662.482683188198
 30
0.0
 10
6075.148439293062
 20
5662.454281220936
 30
0.0
 10
6075.183969485651
 20
5662.426196933919
 30
0.0
 10
6075.220092261766
 20
5662.398426478526
 30
0.0
 10
6075.255862302626
 20
5662.370982971343
 30
0.0
 10
6075.290434379444
 20
5662.343823411576
 30
0.0
 10
6075.323175600859
 20
5662.317087666064
 30
0.0
 10
6075.37800857642
 20
5662.268292674456
 30
0.0
 10
6075.467995456558
 20
5662.183197991779
 30
0.0
 10
6075.612959840291
 20
5662.052224552131
 30
0.0
 10
6075.800980480421
 20
5661.887705182202
 30
0.0
 10
6075.942290741023
 20
5661.765552696896
 30
0.0
 10
6076.018755336101
 20
5661.699454592719
 30
0.0
  0
SPLINE
  5
9E
330
1F
100
AcDbEntity
  8
0
  6
Continuous
 62
     7
370
    25
100
AcDbSpline
210
0.0
220
0.0
230
1.0
 70
     8
 71
     3
 72
    20
 73
    16
 74
     0
 42
0.00000001
 43
0.00000001
 40
0.0
 40
0.0
 40
0.0
 40
0.0
 40
0.125
 40
0.125
 40
0.25
 40
0.25
 40
0.375
 40
0.375
 40
0.4375
 40
0.4375
 40
0.5
 40
0.5
 40
0.75
 40
0.75
 40
1.0
 40
1.0
 40
1.0
 40
1.0
 10
6074.0187553361
 20
5662.628743914601
 30
0.0
 10
6074.018755336101
 20
5662.598547521958
 30
0.0
 10
6074.050069136892
 20
5662.568888054672
 30
0.0
 10
6074.146440590201
 20
5662.510437339723
 30
0.0
 10
6074.211365789425
 20
5662.481680363909
 30
0.0
 10
6074.350632897173
 20
5662.4251031756
 30
0.0
 10
6074.424960241155
 20
5662.397282963106
 30
0.0
 10
6074.530620254459
 20
5662.356255216855
 30
0.0
 10
6074.564923804575
 20
5662.342696396853
 30
0.0
 10
6074.630170281884
 20
5662.315812947679
 30
0.0
 10
6074.660584633568
 20
5662.302732502577
 30
0.0
 10
6074.80663586945
 20
5662.23547391344
 30
0.0
 10
6074.96851955114
 20
5662.159418295115
 30
0.0
 10
6075.409378589997
 20
5661.962809564438
 30
0.0
 10
6075.689386457586
 20
5661.842772713157
 30
0.0
 10
6076.018755336101
 20
5661.699454592719
 30
0.0
  0
LINE
  5
9F
330
1F
100
AcDbEntity
  8
0
  6
Continuous
 62
     7
370
    25
100
AcDbLine
 10
6074.0187553361
 20
5662.6287439146
 30
0.0
 11
6075.0187553361
 21
5662.6287439146
 31
0.0
  0
SPLINE
  5
A0
330
1F
100
AcDbEntity
  8
0
  6
Continuous
 62
     7
370
    25
100
AcDbSpline
210
0.0
220
0.0
230
1.0
 70
     8
 71
     3
 72
    14
 73
    10
 74
     0
 42
0.00000001
 43
0.00000001
 40
0.0
 40
0.0
 40
0.0
 40
0.0
 40
0.25
 40
0.25
 40
0.5
 40
0.5
 40
0.75
 40
0.75
 40
1.0
 40
1.0
 40
1.0
 40
1.0
 10
6076.018755336099
 20
5661.699454592719
 30
0.0
 10
6075.908930157617
 20
5661.81015900677
 30
0.0
 10
6075.804421055171
 20
5661.922449111787
 30
0.0
 10
6075.602917471111
 20
5662.145883637872
 30
0.0
 10
6075.50858823183
 20
5662.253695859777
 30
0.0
 10
6075.335830497105
 20
5662.449868656242
 30
0.0
 10
6075.258620658201
 20
5662.536308003397
 30
0.0
 10
6075.138812706476
 20
5662.661908632697
 30
0.0
 10
6075.096805111431
 20
5662.69945459272
 30
0.0
 10
6075.089466014219
 20
5662.69945459272
 30
0.0
  0
LINE
  5
A1
330
1F
100
AcDbEntity
  8
0
  6
Continuous
 62
     7
370
    25
100
AcDbLine
 10
6075.0894660142
 20
5663.6994545927
 30
0.0
 11
6075.0894660142
 21
5662.6994545927
 31
0.0
  0
LINE
  5
A2
330
1F
100
AcDbEntity
  8
0
  6
Continuous
 62
     7
370
    25
100
AcDbLine
 10
6074.0187553361
 20
5662.6287439146
 30
0.0
 11
6074.0187553361
 21
4764.7701652708
 31
0.0
  0
LINE
  5
A3
330
1F
100
AcDbEntity
  8
0
  6
Continuous
 62
     7
370
    25
100
AcDbLine
 10
6860.7631651739
 20
4764.7701652708
 30
0.0
 11
6860.7631651739
 21
5662.6287439146
 31
0.0
  0
LINE
  5
A4
330
1F
100
AcDbEntity
  8
0
  6
Continuous
 62
     7
370
    25
100
AcDbLine
 10
6865.7631651739
 20
5662.6287439146
 30
0.0
 11
6865.7631651739
 21
4764.7701652708
 31
0.0
  0
LINE
  5
A5
330
1F
100
AcDbEntity
  8
0
  6
Continuous
 62
     7
370
    25
100
AcDbLine
 10
6865.7631651739
 20
4764.7701652708
 30
0.0
 11
6860.7631651739
 21
4764.7701652708
 31
0.0
  0
LINE
  5
A6
330
1F
100
AcDbEntity
  8
0
  6
Continuous
 62
     7
370
    25
100
AcDbLine
 10
6865.7631651739
 20
5662.6287439146
 30
0.0
 11
6860.7631651739
 21
5662.6287439146
 31
0.0
  0
SPLINE
  5
A7
330
1F
100
AcDbEntity
  8
0
  6
Continuous
 62
     7
370
    25
100
AcDbSpline
210
0.0
220
0.0
230
1.0
 70
     8
 71
     3
 72
    20
 73
    16
 74
     0
 42
0.00000001
 43
0.00000001
 40
0.0
 40
0.0
 40
0.0
 40
0.0
 40
0.125
 40
0.125
 40
0.25
 40
0.25
 40
0.375
 40
0.375
 40
0.4375
 40
0.4375
 40
0.5
 40
0.5
 40
0.75
 40
0.75
 40
1.0
 40
1.0
 40
1.0
 40
1.0
 10
6865.763165173878
 20
5662.628743914601
 30
0.0
 10
6865.967974642269
 20
5662.598547521958
 30
0.0
 10
6866.155686382231
 20
5662.568888054672
 30
0.0
 10
6866.48720643116
 20
5662.510437339723
 30
0.0
 10
6866.630995834623
 20
5662.481680363909
 30
0.0
 10
6866.875439671429
 20
5662.4251031756
 30
0.0
 10
6866.976274933434
 20
5662.397282963106
 30
0.0
 10
6867.100479086965
 20
5662.356255216855
 30
0.0
 10
6867.137400870017
 20
5662.342696396853
 30
0.0
 10
6867.203297604527
 20
5662.315812947679
 30
0.0
 10
6867.231804056688
 20
5662.302732502577
 30
0.0
 10
6867.361668099676
 20
5662.23547391344
 30
0.0
 10
6867.482379419622
 20
5662.159418295115
 30
0.0
 10
6867.683413284954
 20
5661.962809564438
 30
0.0
 10
6867.763165173876
 20
5661.842772713157
 30
0.0
 10
6867.763165173876
 20
5661.699454592719
 30
0.0
  0
LINE
  5
A8
330
1F
100
AcDbEntity
  8
0
  6
Continuous
 62
     7
370
    25
100
AcDbLine
 10
6867.7631651739
 20
5661.6994545927
 30
0.0
 11
6867.7631651739
 21
4765.6994545927
 31
0.0
  0
SPLINE
  5
A9
330
1F
100
AcDbEntity
  8
0
  6
Continuous
 62
     7
370
    25
100
AcDbSpline
210
0.0
220
0.0
230
1.0
 70
     8
 71
     3
 72
    18
 73
    14
 74
     0
 42
0.00000001
 43
0.00000001
 40
0.0
 40
0.0
 40
0.0
 40
0.0
 40
0.2499999999999913
 40
0.2499999999999913
 40
0.4999999999999827
 40
0.4999999999999827
 40
0.624999999999987
 40
0.624999999999987
 40
0.7499999999999913
 40
0.7499999999999913
 40
0.8749999999999957
 40
0.8749999999999957
 40
1.0
 40
1.0
 40
1.0
 40
1.0
 10
6867.763165173876
 20
4765.69945459272
 30
0.0
 10
6867.763165173876
 20
4765.576161211745
 30
0.0
 10
6867.718033047377
 20
4765.462975746628
 30
0.0
 10
6867.530600802583
 20
4765.249302378678
 30
0.0
 10
6867.393306033574
 20
4765.154301196522
 30
0.0
 10
6867.120157734982
 20
4765.027675529569
 30
0.0
 10
6867.020491054795
 20
4764.98938250582
 30
0.0
 10
6866.80390030883
 20
4764.920199604079
 30
0.0
 10
6866.685413275167
 20
4764.88902061031
 30
0.0
 10
6866.437116188475
 20
4764.836576983398
 30
0.0
 10
6866.308367274904
 20
4764.815330946828
 30
0.0
 10
6866.041356952419
 20
4764.783727169625
 30
0.0
 10
6865.902303900383
 20
4764.773416339355
 30
0.0
 10
6865.763165173876
 20
4764.770165270838
 30
0.0
  0
SPLINE
  5
AA
330
1F
100
AcDbEntity
  8
0
  6
Continuous
 62
     7
370
    25
100
AcDbSpline
210
0.0
220
0.0
230
1.0
 70
     8
 71
     3
 72
    12
 73
     8
 74
     0
 42
0.00000001
 43
0.00000001
 40
0.0
 40
0.0
 40
0.0
 40
0.0
 40
0.1210063277099781
 40
0.3747311337407944
 40
0.635124886342654
 40
0.8158425603724861
 40
1.0
 40
1.0
 40
1.0
 40
1.0
 10
6866.289816171889
 20
5662.545601436236
 30
0.0
 10
6866.272559269823
 20
5662.557428338667
 30
0.0
 10
6866.21911827547
 20
5662.594053766774
 30
0.0
 10
6866.111958877218
 20
5662.639430400777
 30
0.0
 10
6865.987823663708
 20
5662.676555910053
 30
0.0
 10
6865.869617045767
 20
5662.696110967486
 30
0.0
 10
6865.798871443119
 20
5662.698333068215
 30
0.0
 10
6865.763165173876
 20
5662.69945459272
 30
0.0
  0
LINE
  5
AB
330
1F
100
AcDbEntity
  8
0
  6
Continuous
 62
     7
370
    25
100
AcDbLine
 10
6865.7631651739
 20
5663.6994545927
 30
0.0
 11
6865.7631651739
 21
5662.6994545927
 31
0.0
  0
SPLINE
  5
AC
330
1F
100
AcDbEntity
  8
0
  6
Continuous
 62
     7
370
    25
100
AcDbSpline
210
0.0
220
0.0
230
1.0
 70
     8
 71
     3
 72
    18
 73
    14
 74
     0
 42
0.00000001
 43
0.00000001
 40
0.0
 40
0.0
 40
0.0
 40
0.0
 40
0.2499999999999827
 40
0.2499999999999827
 40
0.4999999999999654
 40
0.4999999999999654
 40
0.624999999999974
 40
0.624999999999974
 40
0.7499999999999827
 40
0.7499999999999827
 40
0.8749999999999913
 40
0.8749999999999913
 40
1.0
 40
1.0
 40
1.0
 40
1.0
 10
6867.763165173876
 20
5661.699454592719
 30
0.0
 10
6867.763165173876
 20
5661.948015472577
 30
0.0
 10
6867.718033047377
 20
5662.193438665807
 30
0.0
 10
6867.530600802583
 20
5662.669866858555
 30
0.0
 10
6867.393306033575
 20
5662.8878715471
 30
0.0
 10
6867.120157734982
 20
5663.174579912508
 30
0.0
 10
6867.020491054795
 20
5663.260427914159
 30
0.0
 10
6866.803900308831
 20
5663.412456770168
 30
0.0
 10
6866.685413275168
 20
5663.479283380321
 30
0.0
 10
6866.437116188475
 20
5663.587342858331
 30
0.0
 10
6866.308367274904
 20
5663.628539082068
 30
0.0
 10
6866.041356952419
 20
5663.684705617745
 30
0.0
 10
6865.902303900382
 20
5663.699454592719
 30
0.0
 10
6865.763165173876
 20
5663.699454592719
 30
0.0
  0
LINE
  5
AD
330
1F
100
AcDbEntity
  8
0
  6
Continuous
 62
     7
370
    25
100
AcDbLine
 10
6860.7631651739
 20
5663.6994545927
 30
0.0
 11
6860.7631651739
 21
5662.6994545927
 31
0.0
  0
LINE
  5
AE
330
1F
100
AcDbEntity
  8
0
  6
Continuous
 62
     7
370
    25
100
AcDbLine
 10
6865.7631651739
 20
5663.6994545927
 30
0.0
 11
6860.7631651739
 21
5663.6994545927
 31
0.0
  0
LINE
  5
AF
330
1F
100
AcDbEntity
  8
0
  6
Continuous
 62
     7
370
    25
100
AcDbLine
 10
6865.7631651739
 20
5662.6994545927
 30
0.0
 11
6860.7631651739
 21
5662.6994545927
 31
0.0
  0
LINE
  5
B0
330
1F
100
AcDbEntity
  8
0
  6
Continuous
 62
     7
370
    25
100
AcDbLine
 10
6865.7631651739
 20
4763.6994545927
 30
0.0
 11
6865.7631651739
 21
4764.6994545927
 31
0.0
  0
LINE
  5
B1
330
1F
100
AcDbEntity
  8
0
  6
Continuous
 62
     7
370
    25
100
AcDbLine
 10
6860.7631651739
 20
4763.6994545927
 30
0.0
 11
6860.7631651739
 21
4764.6994545927
 31
0.0
  0
LINE
  5
B2
330
1F
100
AcDbEntity
  8
0
  6
Continuous
 62
     7
370
    25
100
AcDbLine
 10
6865.7631651739
 20
4764.6994545927
 30
0.0
 11
6860.7631651739
 21
4764.6994545927
 31
0.0
  0
LINE
  5
B3
330
1F
100
AcDbEntity
  8
0
  6
Continuous
 62
     7
370
    25
100
AcDbLine
 10
6865.7631651739
 20
4763.6994545927
 30
0.0
 11
6860.7631651739
 21
4763.6994545927
 31
0.0
  0
SPLINE
  5
B4
330
1F
100
AcDbEntity
  8
0
  6
Continuous
 62
     7
370
    25
100
AcDbSpline
210
0.0
220
0.0
230
1.0
 70
     8
 71
     3
 72
     9
 73
     5
 74
     0
 42
0.00000001
 43
0.00000001
 40
0.0
 40
0.0
 40
0.0
 40
0.0
 40
0.5794167753576256
 40
1.0
 40
1.0
 40
1.0
 40
1.0
 10
6865.763165173877
 20
4764.699454592719
 30
0.0
 10
6865.858489917839
 20
4764.706098071878
 30
0.0
 10
6866.023008357788
 20
4764.717563875841
 30
0.0
 10
6866.167171924458
 20
4764.788064297828
 30
0.0
 10
6866.227804702204
 20
4764.817715592645
 30
0.0
  0
SPLINE
  5
B5
330
1F
100
AcDbEntity
  8
0
  6
Continuous
 62
     7
370
    25
100
AcDbSpline
210
0.0
220
0.0
230
1.0
 70
     8
 71
     3
 72
    20
 73
    16
 74
     0
 42
0.00000001
 43
0.00000001
 40
0.0
 40
0.0
 40
0.0
 40
0.0
 40
0.125
 40
0.125
 40
0.25
 40
0.25
 40
0.375
 40
0.375
 40
0.4375
 40
0.4375
 40
0.5
 40
0.5
 40
0.75
 40
0.75
 40
1.0
 40
1.0
 40
1.0
 40
1.0
 10
6865.763165173877
 20
4763.699454592719
 30
0.0
 10
6865.967974642343
 20
4763.699454592719
 30
0.0
 10
6866.15568638236
 20
4763.730768393532
 30
0.0
 10
6866.487206431353
 20
4763.82713984689
 30
0.0
 10
6866.630995834825
 20
4763.89206504614
 30
0.0
 10
6866.875439671617
 20
4764.031332153915
 30
0.0
 10
6866.976274933597
 20
4764.1056594979
 30
0.0
 10
6867.100479087076
 20
4764.211319511177
 30
0.0
 10
6867.137400870109
 20
4764.245623061281
 30
0.0
 10
6867.203297604575
 20
4764.310869538554
 30
0.0
 10
6867.231804056634
 20
4764.341283890124
 30
0.0
 10
6867.361668099896
 20
4764.487335126315
 30
0.0
 10
6867.482379419883
 20
4764.649218808185
 30
0.0
 10
6867.683413285105
 20
4765.090077847092
 30
0.0
 10
6867.763165173877
 20
4765.370085714541
 30
0.0
 10
6867.763165173877
 20
4765.699454592721
 30
0.0
  0
LINE
  5
B6
330
1F
100
AcDbEntity
  8
0
  6
Continuous
 62
     7
370
    25
100
AcDbLine
 10
6075.0894660142
 20
4375.2653275553
 30
0.0
 11
6472.948044658
 21
4375.2653275553
 31
0.0
  0
LINE
  5
B7
330
1F
100
AcDbEntity
  8
0
  6
Continuous
 62
     7
370
    25
100
AcDbLine
 10
6472.948044658
 20
4370.2653275553
 30
0.0
 11
6075.0894660142
 21
4370.2653275553
 31
0.0
  0
LINE
  5
B8
330
1F
100
AcDbEntity
  8
0
  6
Continuous
 62
     7
370
    25
100
AcDbLine
 10
6075.0894660142
 20
4370.2653275553
 30
0.0
 11
6075.0894660142
 21
4375.2653275553
 31
0.0
  0
LINE
  5
B9
330
1F
100
AcDbEntity
  8
0
  6
Continuous
 62
     7
370
    25
100
AcDbLine
 10
6472.948044658
 20
4370.2653275553
 30
0.0
 11
6472.948044658
 21
4375.2653275553
 31
0.0
  0
LINE
  5
BA
330
1F
100
AcDbEntity
  8
0
  6
Continuous
 62
     7
370
    25
100
AcDbLine
 10
6472.0187553361
 20
4368.2653275553
 30
0.0
 11
6076.0187553361
 21
4368.2653275553
 31
0.0
  0
SPLINE
  5
BB
330
1F
100
AcDbEntity
  8
0
  6
Continuous
 62
     7
370
    25
100
AcDbSpline
210
0.0
220
0.0
230
1.0
 70
     8
 71
     3
 72
    18
 73
    14
 74
     0
 42
0.00000001
 43
0.00000001
 40
0.0
 40
0.0
 40
0.0
 40
0.0
 40
0.2499999999999827
 40
0.2499999999999827
 40
0.4999999999999654
 40
0.4999999999999654
 40
0.624999999999974
 40
0.624999999999974
 40
0.7499999999999827
 40
0.7499999999999827
 40
0.8749999999999913
 40
0.8749999999999913
 40
1.0
 40
1.0
 40
1.0
 40
1.0
 10
6076.018755336099
 20
4368.265327555297
 30
0.0
 10
6075.895461955124
 20
4368.265327555297
 30
0.0
 10
6075.782276490007
 20
4368.310459681796
 30
0.0
 10
6075.568603122058
 20
4368.49789192659
 30
0.0
 10
6075.473601939902
 20
4368.635186695597
 30
0.0
 10
6075.346976272948
 20
4368.90833499419
 30
0.0
 10
6075.308683249199
 20
4369.008001674378
 30
0.0
 10
6075.239500347458
 20
4369.224592420342
 30
0.0
 10
6075.20832135369
 20
4369.343079454005
 30
0.0
 10
6075.155877726778
 20
4369.591376540698
 30
0.0
 10
6075.134631690207
 20
4369.720125454268
 30
0.0
 10
6075.103027913005
 20
4369.987135776753
 30
0.0
 10
6075.092717082736
 20
4370.12618882879
 30
0.0
 10
6075.089466014219
 20
4370.265327555297
 30
0.0
  0
SPLINE
  5
BC
330
1F
100
AcDbEntity
  8
0
  6
Continuous
 62
     7
370
    25
100
AcDbSpline
210
0.0
220
0.0
230
1.0
 70
     8
 71
     3
 72
    22
 73
    18
 74
     0
 42
0.00000001
 43
0.00000001
 40
0.0
 40
0.0
 40
0.0
 40
0.0
 40
0.125
 40
0.125
 40
0.25
 40
0.25
 40
0.375
 40
0.375
 40
0.5
 40
0.5
 40
0.625
 40
0.625
 40
0.75
 40
0.75
 40
0.875
 40
0.875
 40
1.0
 40
1.0
 40
1.0
 40
1.0
 10
6472.948044657982
 20
4370.265327555297
 30
0.0
 10
6472.927846962451
 20
4370.128335056447
 30
0.0
 10
6472.907165315977
 20
4369.993815983277
 30
0.0
 10
6472.863519945273
 20
4369.729711487141
 30
0.0
 10
6472.840236576969
 20
4369.598723639117
 30
0.0
 10
6472.790673947829
 20
4369.35074509814
 30
0.0
 10
6472.764521571758
 20
4369.233658355504
 30
0.0
 10
6472.705430835925
 20
4369.013703618618
 30
0.0
 10
6472.672862488866
 20
4368.910852651304
 30
0.0
 10
6472.592317076264
 20
4368.730561632255
 30
0.0
 10
6472.543475844612
 20
4368.651661889633
 30
0.0
 10
6472.444030766175
 20
4368.512560314965
 30
0.0
 10
6472.392861399192
 20
4368.454529298483
 30
0.0
 10
6472.289214647837
 20
4368.360784489392
 30
0.0
 10
6472.235938861173
 20
4368.324882602733
 30
0.0
 10
6472.128213353192
 20
4368.277261939063
 30
0.0
 10
6472.073872983102
 20
4368.265327555297
 30
0.0
 10
6472.0187553361
 20
4368.265327555297
 30
0.0
  0
SPLINE
  5
BD
330
1F
100
AcDbEntity
  8
0
  6
Continuous
 62
     7
370
    25
100
AcDbSpline
210
0.0
220
0.0
230
1.0
 70
     8
 71
     3
 72
     9
 73
     5
 74
     0
 42
0.00000001
 43
0.00000001
 40
0.0
 40
0.0
 40
0.0
 40
0.0
 40
0.6188448334091531
 40
0.9999999999999999
 40
0.9999999999999999
 40
0.9999999999999999
 40
0.9999999999999999
 10
6075.0187553361
 20
4370.265327555296
 30
0.0
 10
6075.024949261163
 20
4370.169847807114
 30
0.0
 10
6075.034958111086
 20
4370.01556074996
 30
0.0
 10
6075.100240344815
 20
4369.880331709281
 30
0.0
 10
6075.125123005486
 20
4369.828788461754
 30
0.0
  0
SPLINE
  5
BE
330
1F
100
AcDbEntity
  8
0
  6
Continuous
 62
     7
370
    25
100
AcDbSpline
210
0.0
220
0.0
230
1.0
 70
     8
 71
     3
 72
    20
 73
    16
 74
     0
 42
0.00000001
 43
0.00000001
 40
0.0
 40
0.0
 40
0.0
 40
0.0
 40
0.125
 40
0.125
 40
0.25
 40
0.25
 40
0.375
 40
0.375
 40
0.4375
 40
0.4375
 40
0.5
 40
0.5
 40
0.75
 40
0.75
 40
1.0
 40
1.0
 40
1.0
 40
1.0
 10
6074.0187553361
 20
4370.265327555294
 30
0.0
 10
6074.018755336101
 20
4370.060518086903
 30
0.0
 10
6074.050069136892
 20
4369.872806346942
 30
0.0
 10
6074.146440590201
 20
4369.541286298012
 30
0.0
 10
6074.211365789425
 20
4369.397496894549
 30
0.0
 10
6074.350632897173
 20
4369.153053057743
 30
0.0
 10
6074.424960241155
 20
4369.052217795738
 30
0.0
 10
6074.530620254459
 20
4368.928013642208
 30
0.0
 10
6074.564923804575
 20
4368.891091859155
 30
0.0
 10
6074.630170281884
 20
4368.825195124646
 30
0.0
 10
6074.660584633568
 20
4368.796688672484
 30
0.0
 10
6074.80663586945
 20
4368.666824629497
 30
0.0
 10
6074.96851955114
 20
4368.54611330955
 30
0.0
 10
6075.409378589997
 20
4368.345079444219
 30
0.0
 10
6075.689386457586
 20
4368.265327555297
 30
0.0
 10
6076.018755336101
 20
4368.265327555297
 30
0.0
  0
LINE
  5
BF
330
1F
100
AcDbEntity
  8
0
  6
Continuous
 62
     7
370
    25
100
AcDbLine
 10
6074.0187553361
 20
4370.2653275553
 30
0.0
 11
6075.0187553361
 21
4370.2653275553
 31
0.0
  0
LINE
  5
C0
330
1F
100
AcDbEntity
  8
0
  6
Continuous
 62
     7
370
    25
100
AcDbLine
 10
6074.0187553361
 20
4370.2653275553
 30
0.0
 11
6074.0187553361
 21
4375.2653275553
 31
0.0
  0
LINE
  5
C1
330
1F
100
AcDbEntity
  8
0
  6
Continuous
 62
     7
370
    25
100
AcDbLine
 10
6074.0187553361
 20
4375.2653275553
 30
0.0
 11
6075.0187553361
 21
4375.2653275553
 31
0.0
  0
LINE
  5
C2
330
1F
100
AcDbEntity
  8
0
  6
Continuous
 62
     7
370
    25
100
AcDbLine
 10
6075.0187553361
 20
4370.2653275553
 30
0.0
 11
6075.0187553361
 21
4375.2653275553
 31
0.0
  0
LINE
  5
C3
330
1F
100
AcDbEntity
  8
0
  6
Continuous
 62
     7
370
    25
100
AcDbLine
 10
6474.0187553361
 20
4375.2653275553
 30
0.0
 11
6473.0187553361
 21
4375.2653275553
 31
0.0
  0
LINE
  5
C4
330
1F
100
AcDbEntity
  8
0
  6
Continuous
 62
     7
370
    25
100
AcDbLine
 10
6474.0187553361
 20
4370.2653275553
 30
0.0
 11
6474.0187553361
 21
4375.2653275553
 31
0.0
  0
LINE
  5
C5
330
1F
100
AcDbEntity
  8
0
  6
Continuous
 62
     7
370
    25
100
AcDbLine
 10
6474.0187553361
 20
4370.2653275553
 30
0.0
 11
6473.0187553361
 21
4370.2653275553
 31
0.0
  0
LINE
  5
C6
330
1F
100
AcDbEntity
  8
0
  6
Continuous
 62
     7
370
    25
100
AcDbLine
 10
6473.0187553361
 20
4370.2653275553
 30
0.0
 11
6473.0187553361
 21
4375.2653275553
 31
0.0
  0
SPLINE
  5
C7
330
1F
100
AcDbEntity
  8
0
  6
Continuous
 62
     7
370
    25
100
AcDbSpline
210
0.0
220
0.0
230
1.0
 70
     8
 71
     3
 72
    10
 73
     6
 74
     0
 42
0.00000001
 43
0.00000001
 40
0.0
 40
0.0
 40
0.0
 40
0.0
 40
0.0721738064699974
 40
0.4971987424842087
 40
1.0
 40
1.0
 40
1.0
 40
1.0
 10
6472.863877414151
 20
4369.741019823951
 30
0.0
 10
6472.87198073687
 20
4369.750645005563
 30
0.0
 10
6472.927803784911
 20
4369.816952000133
 30
0.0
 10
6472.993512673682
 20
4370.000145322584
 30
0.0
 10
6473.00988367465
 20
4370.172127917627
 30
0.0
 10
6473.0187553361
 20
4370.265327555297
 30
0.0
  0
SPLINE
  5
C8
330
1F
100
AcDbEntity
  8
0
  6
Continuous
 62
     7
370
    25
100
AcDbSpline
210
0.0
220
0.0
230
1.0
 70
     8
 71
     3
 72
    22
 73
    18
 74
     0
 42
0.00000001
 43
0.00000001
 40
0.0
 40
0.0
 40
0.0
 40
0.0
 40
0.25
 40
0.25
 40
0.375
 40
0.375
 40
0.4375
 40
0.4375
 40
0.5
 40
0.5
 40
0.625
 40
0.625
 40
0.75
 40
0.75
 40
0.875
 40
0.875
 40
1.0
 40
1.0
 40
1.0
 40
1.0
 10
6472.018755336099
 20
4368.265327555296
 30
0.0
 10
6472.347662489137
 20
4368.265327555296
 30
0.0
 10
6472.627425964011
 20
4368.344868108151
 30
0.0
 10
6472.957996394913
 20
4368.495444130097
 30
0.0
 10
6473.053791211209
 20
4368.551081569452
 30
0.0
 10
6473.177798455224
 20
4368.634651717277
 30
0.0
 10
6473.215872596897
 20
4368.662551719524
 30
0.0
 10
6473.285973787819
 20
4368.7173813316
 30
0.0
 10
6473.318490714611
 20
4368.744745431868
 30
0.0
 10
6473.404821666082
 20
4368.821461799119
 30
0.0
 10
6473.471560067279
 20
4368.886484582596
 30
0.0
 10
6473.612629346464
 20
4369.052308524371
 30
0.0
 10
6473.687001760458
 20
4369.153232705507
 30
0.0
 10
6473.826285633789
 20
4369.397781988625
 30
0.0
 10
6473.891182241103
 20
4369.541587028983
 30
0.0
 10
6473.987483153064
 20
4369.873034747918
 30
0.0
 10
6474.0187553361
 20
4370.060657944068
 30
0.0
 10
6474.0187553361
 20
4370.265327555298
 30
0.0
  0
ENDSEC
  0
SECTION
  2
OBJECTS
  0
DICTIONARY
  5
C
330
0
100
AcDbDictionary
281
     1
  3
ACAD_GROUP
350
D
  3
ACAD_LAYOUT
350
1A
  3
ACAD_MLINESTYLE
350
17
  3
ACAD_PLOTSETTINGS
350
19
  3
ACAD_PLOTSTYLENAME
350
E
  3
ACAD_SCALELIST
350
47
  3
DWGPROPS
350
C9
  0
DICTIONARY
  5
D
102
{ACAD_REACTORS
330
C
102
}
330
C
100
AcDbDictionary
281
     1
  0
DICTIONARY
  5
1A
102
{ACAD_REACTORS
330
C
102
}
330
C
100
AcDbDictionary
281
     1
  3
Layout1
350
1E
  3
Layout2
350
26
  3
Model
350
22
  0
DICTIONARY
  5
17
102
{ACAD_REACTORS
330
C
102
}
330
C
100
AcDbDictionary
281
     1
  3
Standard
350
18
  0
DICTIONARY
  5
19
102
{ACAD_REACTORS
330
C
102
}
330
C
100
AcDbDictionary
281
     1
  0
ACDBDICTIONARYWDFLT
  5
E
102
{ACAD_REACTORS
330
C
102
}
330
C
100
AcDbDictionary
281
     1
  3
Normal
350
F
100
AcDbDictionaryWithDefault
340
F
  0
DICTIONARY
  5
47
102
{ACAD_REACTORS
330
C
102
}
330
C
100
AcDbDictionary
281
     1
  3
A0
350
48
  3
A1
350
49
  3
A2
350
4A
  3
A3
350
4B
  3
A4
350
4C
  3
A5
350
4D
  3
A6
350
4E
  3
A7
350
4F
  3
A8
350
50
  3
A9
350
51
  3
B0
350
52
  3
B1
350
53
  3
B2
350
54
  3
B3
350
55
  3
B4
350
56
  3
B5
350
57
  3
B6
350
58
  3
B7
350
59
  3
B8
350
5A
  3
B9
350
5B
  3
C0
350
5C
  3
C1
350
5D
  3
C2
350
5E
  3
C3
350
5F
  3
C4
350
60
  3
C5
350
61
  3
C6
350
62
  3
C7
350
63
  3
C8
350
64
  3
C9
350
65
  3
D0
350
66
  3
D1
350
67
  3
D2
350
68
  0
XRECORD
  5
C9
102
{ACAD_REACTORS
330
C
102
}
330
C
100
AcDbXrecord
280
     1
  1
DWGPROPS COOKIE
  2

  3

  4

  6

  7

  8
radek.stransky
  9

300
=
301
=
302
=
303
=
304
=
305
=
306
=
307
=
308
=
309
=
 40
0.0
 41
2459087.451270961
 42
2459087.451271308
  1

 90
        0
  0
LAYOUT
  5
1E
102
{ACAD_REACTORS
330
1A
102
}
330
1A
100
AcDbPlotSettings
  1

  2
none_device
  4

  6

 40
0.0
 41
0.0
 42
0.0
 43
0.0
 44
0.0
 45
0.0
 46
0.0
 47
0.0
 48
0.0
 49
0.0
140
0.0
141
0.0
142
1.0
143
1.0
 70
   688
 72
     1
 73
     0
 74
     5
  7

 75
    16
147
1.0
148
0.0
149
0.0
100
AcDbLayout
  1
Layout1
 70
     1
 71
     1
 10
0.0
 20
0.0
 11
420.0
 21
297.0
 12
0.0
 22
0.0
 32
0.0
 14
1.0000000000E+20
 24
1.0000000000E+20
 34
1.0000000000E+20
 15
-1.0000000000E+20
 25
-1.0000000000E+20
 35
-1.0000000000E+20
146
0.0
 13
0.0
 23
0.0
 33
0.0
 16
1.0
 26
0.0
 36
0.0
 17
0.0
 27
1.0
 37
0.0
 76
     0
330
1B
  0
LAYOUT
  5
26
102
{ACAD_REACTORS
330
1A
102
}
330
1A
100
AcDbPlotSettings
  1

  2
none_device
  4

  6

 40
0.0
 41
0.0
 42
0.0
 43
0.0
 44
0.0
 45
0.0
 46
0.0
 47
0.0
 48
0.0
 49
0.0
140
0.0
141
0.0
142
1.0
143
1.0
 70
   688
 72
     1
 73
     0
 74
     5
  7

 75
    16
147
1.0
148
0.0
149
0.0
100
AcDbLayout
  1
Layout2
 70
     1
 71
     2
 10
0.0
 20
0.0
 11
0.0
 21
0.0
 12
0.0
 22
0.0
 32
0.0
 14
0.0
 24
0.0
 34
0.0
 15
0.0
 25
0.0
 35
0.0
146
0.0
 13
0.0
 23
0.0
 33
0.0
 16
1.0
 26
0.0
 36
0.0
 17
0.0
 27
1.0
 37
0.0
 76
     0
330
23
  0
LAYOUT
  5
22
102
{ACAD_REACTORS
330
1A
102
}
330
1A
100
AcDbPlotSettings
  1

  2
none_device
  4
Letter_(8.50_x_11.00_Inches)
  6

 40
6.35
 41
6.35
 42
6.35000508
 43
6.35000508
 44
215.9
 45
279.4
 46
0.0
 47
0.0
 48
0.0
 49
0.0
140
0.0
141
0.0
142
1.0
143
1.0
 70
  1712
 72
     1
 73
     0
 74
     0
  7

 75
     0
147
1.0
148
0.0
149
0.0
100
AcDbLayout
  1
Model
 70
     1
 71
     0
 10
0.0
 20
0.0
 11
20000.0
 21
10000.0
 12
0.0
 22
0.0
 32
0.0
 14
0.0
 24
0.0
 34
0.0
 15
20000.0
 25
10000.0
 35
0.0
146
0.0
 13
0.0
 23
0.0
 33
0.0
 16
1.0
 26
0.0
 36
0.0
 17
0.0
 27
1.0
 37
0.0
 76
     0
330
1F
331
29
  0
MLINESTYLE
  5
18
102
{ACAD_REACTORS
330
17
102
}
330
17
100
AcDbMlineStyle
  2
Standard
 70
     0
  3

 62
   256
 51
90.0
 52
90.0
 71
     2
 49
0.5
 62
   256
  6
BYLAYER
 49
-0.5
 62
   256
  6
BYLAYER
  0
ACDBPLACEHOLDER
  5
F
102
{ACAD_REACTORS
330
E
102
}
330
E
  0
SCALE
  5
48
102
{ACAD_REACTORS
330
47
102
}
330
47
100
AcDbScale
 70
     0
300
1:1
140
1.0
141
1.0
290
     1
  0
SCALE
  5
49
102
{ACAD_REACTORS
330
47
102
}
330
47
100
AcDbScale
 70
     0
300
1:2
140
1.0
141
2.0
290
     0
  0
SCALE
  5
4A
102
{ACAD_REACTORS
330
47
102
}
330
47
100
AcDbScale
 70
     0
300
1:4
140
1.0
141
4.0
290
     0
  0
SCALE
  5
4B
102
{ACAD_REACTORS
330
47
102
}
330
47
100
AcDbScale
 70
     0
300
1:5
140
1.0
141
5.0
290
     0
  0
SCALE
  5
4C
102
{ACAD_REACTORS
330
47
102
}
330
47
100
AcDbScale
 70
     0
300
1:8
140
1.0
141
8.0
290
     0
  0
SCALE
  5
4D
102
{ACAD_REACTORS
330
47
102
}
330
47
100
AcDbScale
 70
     0
300
1:10
140
1.0
141
10.0
290
     0
  0
SCALE
  5
4E
102
{ACAD_REACTORS
330
47
102
}
330
47
100
AcDbScale
 70
     0
300
1:16
140
1.0
141
16.0
290
     0
  0
SCALE
  5
4F
102
{ACAD_REACTORS
330
47
102
}
330
47
100
AcDbScale
 70
     0
300
1:20
140
1.0
141
20.0
290
     0
  0
SCALE
  5
50
102
{ACAD_REACTORS
330
47
102
}
330
47
100
AcDbScale
 70
     0
300
1:30
140
1.0
141
30.0
290
     0
  0
SCALE
  5
51
102
{ACAD_REACTORS
330
47
102
}
330
47
100
AcDbScale
 70
     0
300
1:40
140
1.0
141
40.0
290
     0
  0
SCALE
  5
52
102
{ACAD_REACTORS
330
47
102
}
330
47
100
AcDbScale
 70
     0
300
1:50
140
1.0
141
50.0
290
     0
  0
SCALE
  5
53
102
{ACAD_REACTORS
330
47
102
}
330
47
100
AcDbScale
 70
     0
300
1:100
140
1.0
141
100.0
290
     0
  0
SCALE
  5
54
102
{ACAD_REACTORS
330
47
102
}
330
47
100
AcDbScale
 70
     0
300
2:1
140
2.0
141
1.0
290
     0
  0
SCALE
  5
55
102
{ACAD_REACTORS
330
47
102
}
330
47
100
AcDbScale
 70
     0
300
4:1
140
4.0
141
1.0
290
     0
  0
SCALE
  5
56
102
{ACAD_REACTORS
330
47
102
}
330
47
100
AcDbScale
 70
     0
300
8:1
140
8.0
141
1.0
290
     0
  0
SCALE
  5
57
102
{ACAD_REACTORS
330
47
102
}
330
47
100
AcDbScale
 70
     0
300
10:1
140
10.0
141
1.0
290
     0
  0
SCALE
  5
58
102
{ACAD_REACTORS
330
47
102
}
330
47
100
AcDbScale
 70
     0
300
100:1
140
100.0
141
1.0
290
     0
  0
SCALE
  5
59
102
{ACAD_REACTORS
330
47
102
}
330
47
100
AcDbScale
 70
     0
300
1/128" = 1'-0"
140
0.0078125
141
12.0
290
     0
  0
SCALE
  5
5A
102
{ACAD_REACTORS
330
47
102
}
330
47
100
AcDbScale
 70
     0
300
1/64" = 1'-0"
140
0.015625
141
12.0
290
     0
  0
SCALE
  5
5B
102
{ACAD_REACTORS
330
47
102
}
330
47
100
AcDbScale
 70
     0
300
1/32" = 1'-0"
140
0.03125
141
12.0
290
     0
  0
SCALE
  5
5C
102
{ACAD_REACTORS
330
47
102
}
330
47
100
AcDbScale
 70
     0
300
1/16" = 1'-0"
140
0.0625
141
12.0
290
     0
  0
SCALE
  5
5D
102
{ACAD_REACTORS
330
47
102
}
330
47
100
AcDbScale
 70
     0
300
3/32" = 1'-0"
140
0.09375
141
12.0
290
     0
  0
SCALE
  5
5E
102
{ACAD_REACTORS
330
47
102
}
330
47
100
AcDbScale
 70
     0
300
1/8" = 1'-0"
140
0.125
141
12.0
290
     0
  0
SCALE
  5
5F
102
{ACAD_REACTORS
330
47
102
}
330
47
100
AcDbScale
 70
     0
300
3/16" = 1'-0"
140
0.1875
141
12.0
290
     0
  0
SCALE
  5
60
102
{ACAD_REACTORS
330
47
102
}
330
47
100
AcDbScale
 70
     0
300
1/4" = 1'-0"
140
0.25
141
12.0
290
     0
  0
SCALE
  5
61
102
{ACAD_REACTORS
330
47
102
}
330
47
100
AcDbScale
 70
     0
300
3/8" = 1'-0"
140
0.375
141
12.0
290
     0
  0
SCALE
  5
62
102
{ACAD_REACTORS
330
47
102
}
330
47
100
AcDbScale
 70
     0
300
1/2" = 1'-0"
140
0.5
141
12.0
290
     0
  0
SCALE
  5
63
102
{ACAD_REACTORS
330
47
102
}
330
47
100
AcDbScale
 70
     0
300
3/4" = 1'-0"
140
0.75
141
12.0
290
     0
  0
SCALE
  5
64
102
{ACAD_REACTORS
330
47
102
}
330
47
100
AcDbScale
 70
     0
300
1" = 1'-0"
140
1.0
141
12.0
290
     0
  0
SCALE
  5
65
102
{ACAD_REACTORS
330
47
102
}
330
47
100
AcDbScale
 70
     0
300
1-1/2" = 1'-0"
140
1.5
141
12.0
290
     0
  0
SCALE
  5
66
102
{ACAD_REACTORS
330
47
102
}
330
47
100
AcDbScale
 70
     0
300
3" = 1'-0"
140
3.0
141
12.0
290
     0
  0
SCALE
  5
67
102
{ACAD_REACTORS
330
47
102
}
330
47
100
AcDbScale
 70
     0
300
6" = 1'-0"
140
6.0
141
12.0
290
     0
  0
SCALE
  5
68
102
{ACAD_REACTORS
330
47
102
}
330
47
100
AcDbScale
 70
     0
300
1'-0" = 1'-0"
140
12.0
141
12.0
290
     0
  0
ENDSEC
  0
EOF
