  0
SECTION
  2
HEADER
  9
$ACADVER
  1
AC1015
  9
$ACADMAINTVER
 70
     6
  9
$DWGCODEPAGE
  3
ANSI_1250
  9
$INSBASE
 10
0.0
 20
0.0
 30
0.0
  9
$EXTMIN
 10
0.0
 20
0.0
 30
0.0
  9
$EXTMAX
 10
20000.0
 20
10000.0
 30
0.0
  9
$LIMMIN
 10
0.0
 20
0.0
  9
$LIMMAX
 10
20000.0
 20
10000.0
  9
$ORTHOMODE
 70
     0
  9
$REGENMODE
 70
     1
  9
$FILLMODE
 70
     1
  9
$QTEXTMODE
 70
     0
  9
$MIRRTEXT
 70
     1
  9
$LTSCALE
 40
1.0
  9
$ATTMODE
 70
     1
  9
$TEXTSIZE
 40
2.0
  9
$TRACEWID
 40
1.0
  9
$TEXTSTYLE
  7
Standard
  9
$CLAYER
  8
0
  9
$CELTYPE
  6
ByLayer
  9
$CECOLOR
 62
   256
  9
$CELTSCALE
 40
1.0
  9
$DISPSILH
 70
     0
  9
$DIMSCALE
 40
1.0
  9
$DIMASZ
 40
2.0
  9
$DIMEXO
 40
1.0
  9
$DIMDLI
 40
3.75
  9
$DIMRND
 40
0.0
  9
$DIMDLE
 40
0.0
  9
$DIMEXE
 40
1.0
  9
$DIMTP
 40
0.0
  9
$DIMTM
 40
0.0
  9
$DIMTXT
 40
2.0
  9
$DIMCEN
 40
2.5
  9
$DIMTSZ
 40
0.0
  9
$DIMTOL
 70
     0
  9
$DIMLIM
 70
     0
  9
$DIMTIH
 70
     1
  9
$DIMTOH
 70
     1
  9
$DIMSE1
 70
     0
  9
$DIMSE2
 70
     0
  9
$DIMTAD
 70
     1
  9
$DIMZIN
 70
     0
  9
$DIMBLK
  1

  9
$DIMASO
 70
     1
  9
$DIMSHO
 70
     1
  9
$DIMPOST
  1

  9
$DIMAPOST
  1

  9
$DIMALT
 70
     0
  9
$DIMALTD
 70
     3
  9
$DIMALTF
 40
0.0393700787
  9
$DIMLFAC
 40
1.0
  9
$DIMTOFL
 70
     1
  9
$DIMTVP
 40
0.0
  9
$DIMTIX
 70
     0
  9
$DIMSOXD
 70
     0
  9
$DIMSAH
 70
     0
  9
$DIMBLK1
  1

  9
$DIMBLK2
  1

  9
$DIMSTYLE
  2
ISO-25
  9
$DIMCLRD
 70
     0
  9
$DIMCLRE
 70
     0
  9
$DIMCLRT
 70
     0
  9
$DIMTFAC
 40
1.0
  9
$DIMGAP
 40
1.524
  9
$DIMJUST
 70
     0
  9
$DIMSD1
 70
     0
  9
$DIMSD2
 70
     0
  9
$DIMTOLJ
 70
     0
  9
$DIMTZIN
 70
     0
  9
$DIMALTZ
 70
     0
  9
$DIMALTTZ
 70
     0
  9
$DIMUPT
 70
     0
  9
$DIMDEC
 70
     2
  9
$DIMTDEC
 70
     0
  9
$DIMALTU
 70
     2
  9
$DIMALTTD
 70
     3
  9
$DIMTXSTY
  7
Standard
  9
$DIMAUNIT
 70
     0
  9
$DIMADEC
 70
     2
  9
$DIMALTRND
 40
0.0
  9
$DIMAZIN
 70
     0
  9
$DIMDSEP
 70
    44
  9
$DIMATFIT
 70
     3
  9
$DIMFRAC
 70
     0
  9
$DIMLDRBLK
  1

  9
$DIMLUNIT
 70
     2
  9
$DIMLWD
 70
    -2
  9
$DIMLWE
 70
    -2
  9
$DIMTMOVE
 70
     0
  9
$LUNITS
 70
     2
  9
$LUPREC
 70
     3
  9
$SKETCHINC
 40
1.0
  9
$FILLETRAD
 40
10.0
  9
$AUNITS
 70
     0
  9
$AUPREC
 70
     2
  9
$MENU
  1
.
  9
$ELEVATION
 40
0.0
  9
$PELEVATION
 40
0.0
  9
$THICKNESS
 40
0.0
  9
$LIMCHECK
 70
     0
  9
$CHAMFERA
 40
0.0
  9
$CHAMFERB
 40
0.0
  9
$CHAMFERC
 40
0.0
  9
$CHAMFERD
 40
0.0
  9
$SKPOLY
 70
     0
  9
$TDCREATE
 40
2458704.610532384
  9
$TDUCREATE
 40
2458704.527199051
  9
$TDUPDATE
 40
2458704.610532569
  9
$TDUUPDATE
 40
2458704.527199236
  9
$TDINDWG
 40
0.0000000116
  9
$TDUSRTIMER
 40
0.0000000116
  9
$USRTIMER
 70
     1
  9
$ANGBASE
 50
0.0
  9
$ANGDIR
 70
     0
  9
$PDMODE
 70
     0
  9
$PDSIZE
 40
-1.0
  9
$PLINEWID
 40
0.0
  9
$SPLFRAME
 70
     0
  9
$SPLINETYPE
 70
     6
  9
$SPLINESEGS
 70
     8
  9
$HANDSEED
  5
C9
  9
$SURFTAB1
 70
     6
  9
$SURFTAB2
 70
     6
  9
$SURFTYPE
 70
     6
  9
$SURFU
 70
     6
  9
$SURFV
 70
     6
  9
$UCSBASE
  2

  9
$UCSNAME
  2

  9
$UCSORG
 10
0.0
 20
0.0
 30
0.0
  9
$UCSXDIR
 10
1.0
 20
0.0
 30
0.0
  9
$UCSYDIR
 10
0.0
 20
1.0
 30
0.0
  9
$UCSORTHOREF
  2

  9
$UCSORTHOVIEW
 70
     0
  9
$UCSORGTOP
 10
0.0
 20
0.0
 30
0.0
  9
$UCSORGBOTTOM
 10
0.0
 20
0.0
 30
0.0
  9
$UCSORGLEFT
 10
0.0
 20
0.0
 30
0.0
  9
$UCSORGRIGHT
 10
0.0
 20
0.0
 30
0.0
  9
$UCSORGFRONT
 10
0.0
 20
0.0
 30
0.0
  9
$UCSORGBACK
 10
0.0
 20
0.0
 30
0.0
  9
$PUCSBASE
  2

  9
$PUCSNAME
  2

  9
$PUCSORG
 10
0.0
 20
0.0
 30
0.0
  9
$PUCSXDIR
 10
1.0
 20
0.0
 30
0.0
  9
$PUCSYDIR
 10
0.0
 20
1.0
 30
0.0
  9
$PUCSORTHOREF
  2

  9
$PUCSORTHOVIEW
 70
     0
  9
$PUCSORGTOP
 10
0.0
 20
0.0
 30
0.0
  9
$PUCSORGBOTTOM
 10
0.0
 20
0.0
 30
0.0
  9
$PUCSORGLEFT
 10
0.0
 20
0.0
 30
0.0
  9
$PUCSORGRIGHT
 10
0.0
 20
0.0
 30
0.0
  9
$PUCSORGFRONT
 10
0.0
 20
0.0
 30
0.0
  9
$PUCSORGBACK
 10
0.0
 20
0.0
 30
0.0
  9
$USERI1
 70
     0
  9
$USERI2
 70
     0
  9
$USERI3
 70
     0
  9
$USERI4
 70
     0
  9
$USERI5
 70
     0
  9
$USERR1
 40
0.0
  9
$USERR2
 40
0.0
  9
$USERR3
 40
0.0
  9
$USERR4
 40
0.0
  9
$USERR5
 40
0.0
  9
$WORLDVIEW
 70
     1
  9
$SHADEDGE
 70
     3
  9
$SHADEDIF
 70
    70
  9
$TILEMODE
 70
     1
  9
$MAXACTVP
 70
    64
  9
$PINSBASE
 10
0.0
 20
0.0
 30
0.0
  9
$PLIMCHECK
 70
     0
  9
$PEXTMIN
 10
1.0000000000E+20
 20
1.0000000000E+20
 30
1.0000000000E+20
  9
$PEXTMAX
 10
-1.0000000000E+20
 20
-1.0000000000E+20
 30
-1.0000000000E+20
  9
$PLIMMIN
 10
0.0
 20
0.0
  9
$PLIMMAX
 10
420.0
 20
297.0
  9
$UNITMODE
 70
     0
  9
$VISRETAIN
 70
     1
  9
$PLINEGEN
 70
     0
  9
$PSLTSCALE
 70
     1
  9
$TREEDEPTH
 70
  3020
  9
$CMLSTYLE
  2
Standard
  9
$CMLJUST
 70
     0
  9
$CMLSCALE
 40
20.0
  9
$PROXYGRAPHICS
 70
     1
  9
$MEASUREMENT
 70
     1
  9
$CELWEIGHT
370
    -1
  9
$ENDCAPS
280
     0
  9
$JOINSTYLE
280
     0
  9
$LWDISPLAY
290
     1
  9
$INSUNITS
 70
     4
  9
$HYPERLINKBASE
  1

  9
$STYLESHEET
  1

  9
$XEDIT
290
     1
  9
$CEPSNTYPE
380
     0
  9
$PSTYLEMODE
290
     1
  9
$FINGERPRINTGUID
  2
{70BB7A26-FCDC-4637-82ED-D7C0F49E0C5A}
  9
$VERSIONGUID
  2
{FAEB1C32-E019-11D5-929B-00C0DF256EC4}
  9
$EXTNAMES
290
     1
  9
$PSVPSCALE
 40
0.0
  9
$OLESTARTUP
290
     0
  0
ENDSEC
  0
SECTION
  2
CLASSES
  0
CLASS
  1
ACDBDICTIONARYWDFLT
  2
AcDbDictionaryWithDefault
  3
ObjectDBX Classes
 90
        0
280
     0
281
     0
  0
CLASS
  1
VISUALSTYLE
  2
AcDbVisualStyle
  3
ObjectDBX Classes
 90
     4095
280
     0
281
     0
  0
CLASS
  1
MATERIAL
  2
AcDbMaterial
  3
ObjectDBX Classes
 90
     1153
280
     0
281
     0
  0
CLASS
  1
SCALE
  2
AcDbScale
  3
ObjectDBX Classes
 90
     1153
280
     0
281
     0
  0
CLASS
  1
TABLESTYLE
  2
AcDbTableStyle
  3
ObjectDBX Classes
 90
     4095
280
     0
281
     0
  0
CLASS
  1
MLEADERSTYLE
  2
AcDbMLeaderStyle
  3
ACDB_MLEADERSTYLE_CLASS
 90
     4095
280
     0
281
     0
  0
CLASS
  1
SUN
  2
AcDbSun
  3
SCENEOE
 90
     1153
280
     0
281
     0
  0
CLASS
  1
ACDBPLACEHOLDER
  2
AcDbPlaceHolder
  3
ObjectDBX Classes
 90
        0
280
     0
281
     0
  0
CLASS
  1
LAYOUT
  2
AcDbLayout
  3
ObjectDBX Classes
 90
        0
280
     0
281
     0
  0
ENDSEC
  0
SECTION
  2
TABLES
  0
TABLE
  2
VPORT
  5
8
330
0
100
AcDbSymbolTable
 70
     1
  0
VPORT
  5
29
330
8
100
AcDbSymbolTableRecord
100
AcDbViewportTableRecord
  2
*Active
 70
     0
 10
0.0
 20
0.0
 11
1.0
 21
1.0
 12
10000.0
 22
5000.0
 13
0.0
 23
0.0
 14
10.0
 24
10.0
 15
10.0
 25
10.0
 16
0.0
 26
0.0
 36
1.0
 17
0.0
 27
0.0
 37
0.0
 40
10000.0
 41
2.0
 42
50.0
 43
0.0
 44
0.0
 50
0.0
 51
0.0
 71
     0
 72
  2000
 73
     1
 74
     3
 75
     0
 76
     0
 77
     0
 78
     0
281
     0
 65
     1
110
0.0
120
0.0
130
0.0
111
1.0
121
0.0
131
0.0
112
0.0
122
1.0
132
0.0
 79
     0
146
0.0
  0
ENDTAB
  0
TABLE
  2
LTYPE
  5
5
330
0
100
AcDbSymbolTable
 70
     6
  0
LTYPE
  5
14
330
5
100
AcDbSymbolTableRecord
100
AcDbLinetypeTableRecord
  2
ByBlock
 70
     0
  3

 72
    65
 73
     0
 40
0.0
  0
LTYPE
  5
15
330
5
100
AcDbSymbolTableRecord
100
AcDbLinetypeTableRecord
  2
ByLayer
 70
     0
  3

 72
    65
 73
     0
 40
0.0
  0
LTYPE
  5
16
330
5
100
AcDbSymbolTableRecord
100
AcDbLinetypeTableRecord
  2
Continuous
 70
     0
  3
Solid line
 72
    65
 73
     0
 40
0.0
  0
LTYPE
  5
6E
330
5
100
AcDbSymbolTableRecord
100
AcDbLinetypeTableRecord
  2
HIDDEN
 70
     0
  3
Hidden __ __ __ __ __ __ __ __ __ __ __ __ __ __
 72
    65
 73
     2
 40
1.905
 49
1.27
 74
     0
 49
-0.635
 74
     0
  0
LTYPE
  5
6F
330
5
100
AcDbSymbolTableRecord
100
AcDbLinetypeTableRecord
  2
PHANTOM
 70
     0
  3
Phantom ______  __  __  ______  __  __  ______
 72
    65
 73
     6
 40
12.7
 49
6.35
 74
     0
 49
-1.27
 74
     0
 49
1.27
 74
     0
 49
-1.27
 74
     0
 49
1.27
 74
     0
 49
-1.27
 74
     0
  0
LTYPE
  5
70
330
5
100
AcDbSymbolTableRecord
100
AcDbLinetypeTableRecord
  2
CENTER
 70
     0
  3
Center ____ _ ____ _ ____ _ ____ _ ____ _ ____
 72
    65
 73
     4
 40
10.16
 49
6.35
 74
     0
 49
-1.27
 74
     0
 49
1.27
 74
     0
 49
-1.27
 74
     0
  0
LTYPE
  5
71
330
5
100
AcDbSymbolTableRecord
100
AcDbLinetypeTableRecord
  2
CENTERX2
 70
     0
  3
Center (2x) ________  __  ________  __  _____
 72
    65
 73
     4
 40
20.32
 49
12.7
 74
     0
 49
-2.54
 74
     0
 49
2.54
 74
     0
 49
-2.54
 74
     0
  0
LTYPE
  5
72
330
5
100
AcDbSymbolTableRecord
100
AcDbLinetypeTableRecord
  2
DOT2
 70
     0
  3
Dot (.5x) ........................................
 72
    65
 73
     2
 40
0.635
 49
0.0
 74
     0
 49
-0.635
 74
     0
  0
ENDTAB
  0
TABLE
  2
LAYER
  5
2
330
0
100
AcDbSymbolTable
 70
    13
  0
LAYER
  5
10
330
2
100
AcDbSymbolTableRecord
100
AcDbLayerTableRecord
  2
0
 70
     0
 62
     7
  6
Continuous
370
    -3
390
F
  0
LAYER
  5
73
330
2
100
AcDbSymbolTableRecord
100
AcDbLayerTableRecord
  2
FORMAT
 70
     0
 62
     7
  6
Continuous
370
    -3
390
F
  0
LAYER
  5
74
330
2
100
AcDbSymbolTableRecord
100
AcDbLayerTableRecord
  2
OSA
 70
     0
 62
     7
  6
CENTER
370
    -3
390
F
  0
LAYER
  5
75
330
2
100
AcDbSymbolTableRecord
100
AcDbLayerTableRecord
  2
0_35
 70
     0
 62
     7
  6
Continuous
370
    35
390
F
  0
LAYER
  5
76
330
2
100
AcDbSymbolTableRecord
100
AcDbLayerTableRecord
  2
0_5
 70
     0
 62
     7
  6
Continuous
370
    50
390
F
  0
LAYER
  5
77
330
2
100
AcDbSymbolTableRecord
100
AcDbLayerTableRecord
  2
0_25
 70
     0
 62
     7
  6
Continuous
370
    25
390
F
  0
LAYER
  5
78
330
2
100
AcDbSymbolTableRecord
100
AcDbLayerTableRecord
  2
0_18
 70
     0
 62
     7
  6
Continuous
370
    -3
390
F
  0
LAYER
  5
79
330
2
100
AcDbSymbolTableRecord
100
AcDbLayerTableRecord
  2
SLD-0
 70
     0
 62
   179
  6
Continuous
370
    -3
390
F
  0
LAYER
  5
7A
330
2
100
AcDbSymbolTableRecord
100
AcDbLayerTableRecord
  2
KOTY
 70
     0
 62
     7
  6
Continuous
370
    -3
390
F
  0
LAYER
  5
7B
330
2
100
AcDbSymbolTableRecord
100
AcDbLayerTableRecord
  2
SILNA
 70
     0
 62
   179
  6
Continuous
370
    -3
390
F
  0
LAYER
  5
7C
330
2
100
AcDbSymbolTableRecord
100
AcDbLayerTableRecord
  2
0_18_1
 70
     0
 62
   179
  6
Continuous
370
    -3
390
F
  0
LAYER
  5
7D
330
2
100
AcDbSymbolTableRecord
100
AcDbLayerTableRecord
  2
0_35_1
 70
     0
 62
   179
  6
Continuous
370
    35
390
F
  0
LAYER
  5
7E
330
2
100
AcDbSymbolTableRecord
100
AcDbLayerTableRecord
  2
0_5_1
 70
     0
 62
   179
  6
Continuous
370
    50
390
F
  0
ENDTAB
  0
TABLE
  2
STYLE
  5
3
330
0
100
AcDbSymbolTable
 70
     1
  0
STYLE
  5
11
330
3
100
AcDbSymbolTableRecord
100
AcDbTextStyleTableRecord
  2
Standard
 70
     0
 40
0.0
 41
1.0
 50
0.0
 71
     0
 42
2.0
  3
txt
  4

  0
ENDTAB
  0
TABLE
  2
VIEW
  5
6
330
0
100
AcDbSymbolTable
 70
     0
  0
ENDTAB
  0
TABLE
  2
UCS
  5
7
330
0
100
AcDbSymbolTable
 70
     0
  0
ENDTAB
  0
TABLE
  2
APPID
  5
9
330
0
100
AcDbSymbolTable
 70
     1
  0
APPID
  5
12
330
9
100
AcDbSymbolTableRecord
100
AcDbRegAppTableRecord
  2
ACAD
 70
     0
  0
ENDTAB
  0
TABLE
  2
DIMSTYLE
  5
A
330
0
100
AcDbSymbolTable
 70
     1
100
AcDbDimStyleTable
  0
DIMSTYLE
105
27
330
A
100
AcDbSymbolTableRecord
100
AcDbDimStyleTableRecord
  2
ISO-25
 70
     0
 41
2.5
 42
0.625
 43
3.75
 44
1.25
 73
     0
 74
     0
 77
     1
 78
     8
140
2.5
141
2.5
143
0.0393700787
147
0.625
171
     3
172
     1
178
     0
271
     2
272
     2
274
     3
278
    44
283
     0
284
     8
340
11
  0
ENDTAB
  0
TABLE
  2
BLOCK_RECORD
  5
1
330
0
100
AcDbSymbolTable
 70
     1
  0
BLOCK_RECORD
  5
1F
330
1
100
AcDbSymbolTableRecord
100
AcDbBlockTableRecord
  2
*Model_Space
340
22
  0
BLOCK_RECORD
  5
1B
330
1
100
AcDbSymbolTableRecord
100
AcDbBlockTableRecord
  2
*Paper_Space
340
1E
  0
BLOCK_RECORD
  5
23
330
1
100
AcDbSymbolTableRecord
100
AcDbBlockTableRecord
  2
*Paper_Space0
340
26
  0
ENDTAB
  0
ENDSEC
  0
SECTION
  2
BLOCKS
  0
BLOCK
  5
20
330
1F
100
AcDbEntity
  8
0
100
AcDbBlockBegin
  2
*Model_Space
 70
     0
 10
0.0
 20
0.0
 30
0.0
  3
*Model_Space
  1

  0
ENDBLK
  5
21
330
1F
100
AcDbEntity
  8
0
100
AcDbBlockEnd
  0
BLOCK
  5
1C
330
1B
100
AcDbEntity
 67
     1
  8
0
100
AcDbBlockBegin
  2
*Paper_Space
 70
     0
 10
0.0
 20
0.0
 30
0.0
  3
*Paper_Space
  1

  0
ENDBLK
  5
1D
330
1B
100
AcDbEntity
 67
     1
  8
0
100
AcDbBlockEnd
  0
BLOCK
  5
24
330
23
100
AcDbEntity
  8
0
100
AcDbBlockBegin
  2
*Paper_Space0
 70
     0
 10
0.0
 20
0.0
 30
0.0
  3
*Paper_Space0
  1

  0
ENDBLK
  5
25
330
23
100
AcDbEntity
  8
0
100
AcDbBlockEnd
  0
ENDSEC
  0
SECTION
  2
ENTITIES
  0
SPLINE
  5
7F
330
1F
100
AcDbEntity
  8
0
  6
Continuous
 62
     7
370
    25
100
AcDbSpline
210
0.0
220
0.0
230
1.0
 70
     8
 71
     3
 72
    23
 73
    19
 74
     0
 42
0.000000001
 43
0.00000001
 40
0.0
 40
0.0
 40
0.0
 40
0.0
 40
0.0562798431231201
 40
0.1097589746121512
 40
0.1604463354893905
 40
0.2083525144352609
 40
0.2534901419380453
 40
0.2958744080709175
 40
0.3355237518908561
 40
0.3724607926884883
 40
0.4067136073939741
 40
0.4383175112542509
 40
0.4673175812737286
 40
0.4937722900577113
 40
0.5830939447666063
 40
0.6971892439595054
 40
0.8361456433151534
 40
1.0
 40
1.0
 40
1.0
 40
1.0
 10
6075.089466014218
 20
4964.699454592718
 30
0.0
 10
6075.099380701021
 20
4964.700410223842
 30
0.0
 10
6075.118716679883
 20
4964.702273930036
 30
0.0
 10
6075.14843844372
 20
4964.716627483117
 30
0.0
 10
6075.177772964435
 20
4964.737554147916
 30
0.0
 10
6075.206809961302
 20
4964.764324032664
 30
0.0
 10
6075.235526740629
 20
4964.795282056146
 30
0.0
 10
6075.263928707893
 20
4964.829138549693
 30
0.0
 10
6075.292012994908
 20
4964.864668742283
 30
0.0
 10
6075.319783450302
 20
4964.900791518398
 30
0.0
 10
6075.347226957483
 20
4964.936561559257
 30
0.0
 10
6075.374386517248
 20
4964.971133636072
 30
0.0
 10
6075.401122262759
 20
4965.003874857483
 30
0.0
 10
6075.449917254379
 20
4965.058707833052
 30
0.0
 10
6075.535011937073
 20
4965.148694713204
 30
0.0
 10
6075.665985376734
 20
4965.293659096957
 30
0.0
 10
6075.830504746649
 20
4965.481679737074
 30
0.0
 10
6075.952657231937
 20
4965.622989997657
 30
0.0
 10
6076.0187553361
 20
4965.699454592718
 30
0.0
  0
SPLINE
  5
80
330
1F
100
AcDbEntity
  8
0
  6
Continuous
 62
     7
370
    25
100
AcDbSpline
210
0.0
220
0.0
230
1.0
 70
     8
 71
     3
 72
    20
 73
    16
 74
     0
 42
0.000000001
 43
0.00000001
 40
0.0
 40
0.0
 40
0.0
 40
0.0
 40
0.125
 40
0.125
 40
0.25
 40
0.25
 40
0.375
 40
0.375
 40
0.4375
 40
0.4375
 40
0.5
 40
0.5
 40
0.75
 40
0.75
 40
1.0
 40
1.0
 40
1.0
 40
1.0
 10
6075.089466014218
 20
4963.699454592718
 30
0.0
 10
6075.119662406864
 20
4963.699454592718
 30
0.0
 10
6075.149321874153
 20
4963.730768393515
 30
0.0
 10
6075.207772589105
 20
4963.827139846836
 30
0.0
 10
6075.23652956492
 20
4963.892065046067
 30
0.0
 10
6075.293106753228
 20
4964.031332153821
 30
0.0
 10
6075.320926965722
 20
4964.105659497804
 30
0.0
 10
6075.361954711971
 20
4964.211319511101
 30
0.0
 10
6075.375513531972
 20
4964.245623061214
 30
0.0
 10
6075.402396981143
 20
4964.310869538514
 30
0.0
 10
6075.415477426234
 20
4964.34128389017
 30
0.0
 10
6075.482736015417
 20
4964.487335126129
 30
0.0
 10
6075.558791633758
 20
4964.649218807863
 30
0.0
 10
6075.755400364435
 20
4965.090077846734
 30
0.0
 10
6075.8754372157
 20
4965.370085714287
 30
0.0
 10
6076.0187553361
 20
4965.699454592717
 30
0.0
  0
LINE
  5
81
330
1F
100
AcDbEntity
  8
0
  6
Continuous
 62
     7
370
    25
100
AcDbLine
 10
6075.0894660142
 20
4963.6994545927
 30
0.0
 11
6075.0894660142
 21
4964.6994545927
 31
0.0
  0
SPLINE
  5
82
330
1F
100
AcDbEntity
  8
0
  6
Continuous
 62
     7
370
    25
100
AcDbSpline
210
0.0
220
0.0
230
1.0
 70
     8
 71
     3
 72
    14
 73
    10
 74
     0
 42
0.000000001
 43
0.00000001
 40
0.0
 40
0.0
 40
0.0
 40
0.0
 40
0.25
 40
0.25
 40
0.5
 40
0.5
 40
0.75
 40
0.75
 40
1.0
 40
1.0
 40
1.0
 40
1.0
 10
6076.018755336101
 20
4965.699454592719
 30
0.0
 10
6075.908050922049
 20
4965.589629414236
 30
0.0
 10
6075.795760817033
 20
4965.485120311791
 30
0.0
 10
6075.572326290949
 20
4965.283616727731
 30
0.0
 10
6075.464514069043
 20
4965.189287488449
 30
0.0
 10
6075.268341272577
 20
4965.016529753725
 30
0.0
 10
6075.181901925423
 20
4964.939319914821
 30
0.0
 10
6075.056301296123
 20
4964.819511963095
 30
0.0
 10
6075.0187553361
 20
4964.777504368049
 30
0.0
 10
6075.0187553361
 20
4964.770165270837
 30
0.0
  0
LINE
  5
83
330
1F
100
AcDbEntity
  8
0
  6
Continuous
 62
     7
370
    25
100
AcDbLine
 10
6074.0187553361
 20
4964.7701652708
 30
0.0
 11
6075.0187553361
 21
4964.7701652708
 31
0.0
  0
SPLINE
  5
84
330
1F
100
AcDbEntity
  8
0
  6
Continuous
 62
     7
370
    25
100
AcDbSpline
210
0.0
220
0.0
230
1.0
 70
     8
 71
     3
 72
    18
 73
    14
 74
     0
 42
0.000000001
 43
0.00000001
 40
0.0
 40
0.0
 40
0.0
 40
0.0
 40
0.2499999999999962
 40
0.2499999999999962
 40
0.4999999999999925
 40
0.4999999999999925
 40
0.6249999999999943
 40
0.6249999999999943
 40
0.7499999999999962
 40
0.7499999999999962
 40
0.8749999999999981
 40
0.8749999999999981
 40
1.0
 40
1.0
 40
1.0
 40
1.0
 10
6076.018755336101
 20
4965.699454592719
 30
0.0
 10
6075.770194456243
 20
4965.576161211744
 30
0.0
 10
6075.524771263013
 20
4965.462975746627
 30
0.0
 10
6075.048343070265
 20
4965.249302378677
 30
0.0
 10
6074.830338381719
 20
4965.154301196522
 30
0.0
 10
6074.543630016311
 20
4965.027675529568
 30
0.0
 10
6074.457782014661
 20
4964.989382505819
 30
0.0
 10
6074.305753158651
 20
4964.920199604078
 30
0.0
 10
6074.238926548499
 20
4964.88902061031
 30
0.0
 10
6074.130867070488
 20
4964.836576983397
 30
0.0
 10
6074.089670846752
 20
4964.815330946827
 30
0.0
 10
6074.033504311075
 20
4964.783727169624
 30
0.0
 10
6074.0187553361
 20
4964.773416339354
 30
0.0
 10
6074.0187553361
 20
4964.770165270837
 30
0.0
  0
SPLINE
  5
85
330
1F
100
AcDbEntity
  8
0
  6
Continuous
 62
     7
370
    25
100
AcDbSpline
210
0.0
220
0.0
230
1.0
 70
     8
 71
     3
 72
    16
 73
    12
 74
     0
 42
0.000000001
 43
0.00000001
 40
0.0
 40
0.0
 40
0.0
 40
0.0
 40
0.2499999999999868
 40
0.2499999999999868
 40
0.3749999999999803
 40
0.3749999999999803
 40
0.4999999999999738
 40
0.4999999999999738
 40
0.7499999999999869
 40
0.7499999999999869
 40
1.0
 40
1.0
 40
1.0
 40
1.0
 10
6472.948044657982
 20
5462.69945459272
 30
0.0
 10
6472.903952044396
 20
5462.69945459272
 30
0.0
 10
6472.857264483884
 20
5462.665655799708
 30
0.0
 10
6472.775760138531
 20
5462.573425330534
 30
0.0
 10
6472.746963038743
 20
5462.536195419686
 30
0.0
 10
6472.681434454504
 20
5462.4508499423
 30
0.0
 10
6472.644782779581
 20
5462.403160926827
 30
0.0
 10
6472.513309817658
 20
5462.260676398106
 30
0.0
 10
6472.415357911069
 20
5462.154670216691
 30
0.0
 10
6472.221016926782
 20
5461.933285644711
 30
0.0
 10
6472.120407738626
 20
5461.81626165702
 30
0.0
 10
6472.0187553361
 20
5461.69945459272
 30
0.0
  0
SPLINE
  5
86
330
1F
100
AcDbEntity
  8
0
  6
Continuous
 62
     7
370
    25
100
AcDbSpline
210
0.0
220
0.0
230
1.0
 70
     8
 71
     3
 72
    22
 73
    18
 74
     0
 42
0.000000001
 43
0.00000001
 40
0.0
 40
0.0
 40
0.0
 40
0.0
 40
0.125
 40
0.125
 40
0.25
 40
0.25
 40
0.375
 40
0.375
 40
0.5
 40
0.5
 40
0.625
 40
0.625
 40
0.75
 40
0.75
 40
0.875
 40
0.875
 40
1.0
 40
1.0
 40
1.0
 40
1.0
 10
6472.948044657982
 20
5463.69945459272
 30
0.0
 10
6472.927846962451
 20
5463.69945459272
 30
0.0
 10
6472.907165315977
 20
5463.685520904271
 30
0.0
 10
6472.863519945269
 20
5463.631110192238
 30
0.0
 10
6472.840236576964
 20
5463.58992005808
 30
0.0
 10
6472.790673947819
 20
5463.483203281816
 30
0.0
 10
6472.764521571746
 20
5463.418058537321
 30
0.0
 10
6472.705430835906
 20
5463.265142421547
 30
0.0
 10
6472.672862488845
 20
5463.176745577866
 30
0.0
 10
6472.592317076264
 20
5462.988440427319
 30
0.0
 10
6472.543475844634
 20
5462.888011088873
 30
0.0
 10
6472.444030766197
 20
5462.67125211603
 30
0.0
 10
6472.392861399209
 20
5462.55795059196
 30
0.0
 10
6472.289214647848
 20
5462.322929867056
 30
0.0
 10
6472.235938861181
 20
5462.200131111519
 30
0.0
 10
6472.128213353194
 20
5461.951642411528
 30
0.0
 10
6472.073872983103
 20
5461.826124113113
 30
0.0
 10
6472.0187553361
 20
5461.69945459272
 30
0.0
  0
LINE
  5
87
330
1F
100
AcDbEntity
  8
0
  6
Continuous
 62
     7
370
    25
100
AcDbLine
 10
6472.948044658
 20
5463.6994545927
 30
0.0
 11
6472.948044658
 21
5462.6994545927
 31
0.0
  0
LINE
  5
88
330
1F
100
AcDbEntity
  8
0
  6
Continuous
 62
     7
370
    25
100
AcDbLine
 10
6074.0187553361
 20
5462.6287439146
 30
0.0
 11
6074.0187553361
 21
4964.7701652708
 31
0.0
  0
SPLINE
  5
89
330
1F
100
AcDbEntity
  8
0
  6
Continuous
 62
     7
370
    25
100
AcDbSpline
210
0.0
220
0.0
230
1.0
 70
     8
 71
     3
 72
    20
 73
    16
 74
     0
 42
0.000000001
 43
0.00000001
 40
0.0
 40
0.0
 40
0.0
 40
0.0
 40
0.125
 40
0.125
 40
0.25
 40
0.25
 40
0.375
 40
0.375
 40
0.4375
 40
0.4375
 40
0.5
 40
0.5
 40
0.75
 40
0.75
 40
1.0
 40
1.0
 40
1.0
 40
1.0
 10
6074.0187553361
 20
5462.6287439146
 30
0.0
 10
6074.018755336101
 20
5462.59854752195
 30
0.0
 10
6074.050069136906
 20
5462.56888805466
 30
0.0
 10
6074.146440590245
 20
5462.510437339704
 30
0.0
 10
6074.211365789486
 20
5462.481680363889
 30
0.0
 10
6074.350632897251
 20
5462.425103175579
 30
0.0
 10
6074.424960241235
 20
5462.397282963087
 30
0.0
 10
6074.530620254523
 20
5462.356255216841
 30
0.0
 10
6074.564923804631
 20
5462.342696396841
 30
0.0
 10
6074.630170281916
 20
5462.315812947672
 30
0.0
 10
6074.660584633531
 20
5462.3027325026
 30
0.0
 10
6074.806635869603
 20
5462.235473913351
 30
0.0
 10
6074.968519551403
 20
5462.159418294982
 30
0.0
 10
6075.409378590291
 20
5461.962809564306
 30
0.0
 10
6075.689386457792
 20
5461.842772713067
 30
0.0
 10
6076.018755336101
 20
5461.69945459272
 30
0.0
  0
LINE
  5
8A
330
1F
100
AcDbEntity
  8
0
  6
Continuous
 62
     7
370
    25
100
AcDbLine
 10
6076.0187553361
 20
5461.6994545927
 30
0.0
 11
6076.0187553361
 21
4965.6994545927
 31
0.0
  0
SPLINE
  5
8B
330
1F
100
AcDbEntity
  8
0
  6
Continuous
 62
     7
370
    25
100
AcDbSpline
210
0.0
220
0.0
230
1.0
 70
     8
 71
     3
 72
    22
 73
    18
 74
     0
 42
0.000000001
 43
0.00000001
 40
0.0
 40
0.0
 40
0.0
 40
0.0
 40
0.0686242696587492
 40
0.1332561347575431
 40
0.1938976720497301
 40
0.2505514585879586
 40
0.3032207190606961
 40
0.3519095330674663
 40
0.3966231340282583
 40
0.4373683527343373
 40
0.4741542978399141
 40
0.506993441754162
 40
0.5748762091433164
 40
0.6577244467975539
 40
0.7560272268046947
 40
0.8700637390166461
 40
1.0
 40
1.0
 40
1.0
 40
1.0
 10
6472.018755336101
 20
5461.699454592718
 30
0.0
 10
6472.050640211894
 20
5461.727233649219
 30
0.0
 10
6472.11255497363
 20
5461.781175639639
 30
0.0
 10
6472.202376330618
 20
5461.859041946414
 30
0.0
 10
6472.285688608549
 20
5461.931589752373
 30
0.0
 10
6472.362213220493
 20
5461.998782805011
 30
0.0
 10
6472.431827846807
 20
5462.06062941752
 30
0.0
 10
6472.494577141747
 20
5462.117133657414
 30
0.0
 10
6472.550641385598
 20
5462.168280488219
 30
0.0
 10
6472.600261237082
 20
5462.214127610906
 30
0.0
 10
6472.643861282646
 20
5462.254498699779
 30
0.0
 10
6472.696439609716
 20
5462.303996999736
 30
0.0
 10
6472.766140189947
 20
5462.361695818515
 30
0.0
 10
6472.85293257895
 20
5462.426715580743
 30
0.0
 10
6472.936192721515
 20
5462.493694400307
 30
0.0
 10
6473.004031083709
 20
5462.56256533155
 30
0.0
 10
6473.013638545312
 20
5462.605746348741
 30
0.0
 10
6473.0187553361
 20
5462.6287439146
 30
0.0
  0
LINE
  5
8C
330
1F
100
AcDbEntity
  8
0
  6
Continuous
 62
     7
370
    25
100
AcDbLine
 10
6474.0187553361
 20
5462.6287439146
 30
0.0
 11
6473.0187553361
 21
5462.6287439146
 31
0.0
  0
SPLINE
  5
8D
330
1F
100
AcDbEntity
  8
0
  6
Continuous
 62
     7
370
    25
100
AcDbSpline
210
0.0
220
0.0
230
1.0
 70
     8
 71
     3
 72
    22
 73
    18
 74
     0
 42
0.000000001
 43
0.00000001
 40
0.0
 40
0.0
 40
0.0
 40
0.0
 40
0.25
 40
0.25
 40
0.375
 40
0.375
 40
0.4375
 40
0.4375
 40
0.5
 40
0.5
 40
0.625
 40
0.625
 40
0.75
 40
0.75
 40
0.875
 40
0.875
 40
1.0
 40
1.0
 40
1.0
 40
1.0
 10
6472.018755336102
 20
5461.699454592718
 30
0.0
 10
6472.347662488837
 20
5461.843134407241
 30
0.0
 10
6472.627425963586
 20
5461.963488872065
 30
0.0
 10
6472.95799639452
 20
5462.111348638849
 30
0.0
 10
6473.053791210861
 20
5462.155061234141
 30
0.0
 10
6473.177798454983
 20
5462.212269136623
 30
0.0
 10
6473.215872596696
 20
5462.229944939042
 30
0.0
 10
6473.285973787712
 20
5462.262509547061
 30
0.0
 10
6473.318490714636
 20
5462.277623592111
 30
0.0
 10
6473.404821666032
 20
5462.317433795341
 30
0.0
 10
6473.471560067196
 20
5462.34437744393
 30
0.0
 10
6473.61262934635
 20
5462.399071767313
 30
0.0
 10
6473.687001760345
 20
5462.426822442107
 30
0.0
 10
6473.8262856337
 20
5462.483130817897
 30
0.0
 10
6473.891182241038
 20
5462.511688518895
 30
0.0
 10
6473.987483153043
 20
5462.569610947094
 30
0.0
 10
6474.018755336099
 20
5462.598941936719
 30
0.0
 10
6474.0187553361
 20
5462.6287439146
 30
0.0
  0
SPLINE
  5
8E
330
1F
100
AcDbEntity
  8
0
  6
Continuous
 62
     7
370
    25
100
AcDbSpline
210
0.0
220
0.0
230
1.0
 70
     8
 71
     3
 72
    18
 73
    14
 74
     0
 42
0.000000001
 43
0.00000001
 40
0.0
 40
0.0
 40
0.0
 40
0.0
 40
0.2499999999999913
 40
0.2499999999999913
 40
0.4999999999999827
 40
0.4999999999999827
 40
0.624999999999987
 40
0.624999999999987
 40
0.7499999999999913
 40
0.7499999999999913
 40
0.8749999999999957
 40
0.8749999999999957
 40
1.0
 40
1.0
 40
1.0
 40
1.0
 10
6076.018755336099
 20
5461.699454592722
 30
0.0
 10
6075.895461955124
 20
5461.948015472578
 30
0.0
 10
6075.782276490007
 20
5462.193438665809
 30
0.0
 10
6075.568603122058
 20
5462.669866858557
 30
0.0
 10
6075.473601939902
 20
5462.887871547101
 30
0.0
 10
6075.346976272948
 20
5463.174579912509
 30
0.0
 10
6075.308683249199
 20
5463.26042791416
 30
0.0
 10
6075.239500347458
 20
5463.412456770169
 30
0.0
 10
6075.20832135369
 20
5463.479283380322
 30
0.0
 10
6075.155877726778
 20
5463.587342858332
 30
0.0
 10
6075.134631690207
 20
5463.628539082069
 30
0.0
 10
6075.103027913005
 20
5463.684705617745
 30
0.0
 10
6075.092717082736
 20
5463.69945459272
 30
0.0
 10
6075.089466014218
 20
5463.69945459272
 30
0.0
  0
LINE
  5
8F
330
1F
100
AcDbEntity
  8
0
  6
Continuous
 62
     7
370
    25
100
AcDbLine
 10
6472.948044658
 20
5463.6994545927
 30
0.0
 11
6075.0894660142
 21
5463.6994545927
 31
0.0
  0
LINE
  5
90
330
1F
100
AcDbEntity
  8
0
  6
Continuous
 62
     7
370
    25
100
AcDbLine
 10
6472.0187553361
 20
5461.6994545927
 30
0.0
 11
6076.0187553361
 21
5461.6994545927
 31
0.0
  0
LINE
  5
91
330
1F
100
AcDbEntity
  8
0
  6
Continuous
 62
     7
370
    25
100
AcDbLine
 10
6076.0187553361
 20
4965.6994545927
 30
0.0
 11
6472.0187553361
 21
4965.6994545927
 31
0.0
  0
LINE
  5
92
330
1F
100
AcDbEntity
  8
0
  6
Continuous
 62
     7
370
    25
100
AcDbLine
 10
6472.0187553361
 20
4965.6994545927
 30
0.0
 11
6472.0187553361
 21
5461.6994545927
 31
0.0
  0
CIRCLE
  5
93
330
1F
100
AcDbEntity
  8
0
  6
Continuous
 62
     7
370
    25
100
AcDbCircle
 10
6099.0187553361
 20
5438.6994545927
 30
0.0
 40
2.75
  0
CIRCLE
  5
94
330
1F
100
AcDbEntity
  8
0
  6
Continuous
 62
     7
370
    25
100
AcDbCircle
 10
6449.0187553361
 20
5438.6994545927
 30
0.0
 40
2.750000000000909
  0
CIRCLE
  5
95
330
1F
100
AcDbEntity
  8
0
  6
Continuous
 62
     7
370
    25
100
AcDbCircle
 10
6099.0187553361
 20
4988.6994545927
 30
0.0
 40
2.75
  0
CIRCLE
  5
96
330
1F
100
AcDbEntity
  8
0
  6
Continuous
 62
     7
370
    25
100
AcDbCircle
 10
6449.0187553361
 20
4988.6994545927
 30
0.0
 40
2.750000000000909
  0
SPLINE
  5
97
330
1F
100
AcDbEntity
  8
0
  6
Continuous
 62
     7
370
    25
100
AcDbSpline
210
0.0
220
0.0
230
1.0
 70
     8
 71
     3
 72
    23
 73
    19
 74
     0
 42
0.000000001
 43
0.00000001
 40
0.0
 40
0.0
 40
0.0
 40
0.0
 40
0.0562798431302052
 40
0.1097589746249829
 40
0.1604463355067265
 40
0.2083525144557855
 40
0.2534901419604817
 40
0.2958744080939745
 40
0.3355237519132416
 40
0.3724607927089402
 40
0.4067136074112301
 40
0.4383175112670658
 40
0.4673175812808815
 40
0.4937722900580304
 40
0.5830939448153463
 40
0.6971892440243472
 40
0.8361456433637091
 40
1.0
 40
1.0
 40
1.0
 40
1.0
 10
6075.0187553361
 20
5462.6287439146
 30
0.0
 10
6075.019710967224
 20
5462.618829227797
 30
0.0
 10
6075.021574673418
 20
5462.599493248933
 30
0.0
 10
6075.035928226504
 20
5462.569771485093
 30
0.0
 10
6075.056854891306
 20
5462.540436964375
 30
0.0
 10
6075.08362477606
 20
5462.511399967506
 30
0.0
 10
6075.114582799546
 20
5462.482683188178
 30
0.0
 10
6075.148439293097
 20
5462.454281220915
 30
0.0
 10
6075.183969485688
 20
5462.4261969339
 30
0.0
 10
6075.220092261803
 20
5462.398426478508
 30
0.0
 10
6075.25586230266
 20
5462.370982971328
 30
0.0
 10
6075.290434379471
 20
5462.343823411566
 30
0.0
 10
6075.323175600874
 20
5462.317087666059
 30
0.0
 10
6075.378008576454
 20
5462.268292674419
 30
0.0
 10
6075.467995456629
 20
5462.183197991698
 30
0.0
 10
6075.612959840409
 20
5462.05222455202
 30
0.0
 10
6075.80098048051
 20
5461.887705182125
 30
0.0
 10
6075.942290741062
 20
5461.765552696862
 30
0.0
 10
6076.018755336101
 20
5461.69945459272
 30
0.0
  0
LINE
  5
98
330
1F
100
AcDbEntity
  8
0
  6
Continuous
 62
     7
370
    25
100
AcDbLine
 10
6074.0187553361
 20
5462.6287439146
 30
0.0
 11
6075.0187553361
 21
5462.6287439146
 31
0.0
  0
LINE
  5
99
330
1F
100
AcDbEntity
  8
0
  6
Continuous
 62
     7
370
    25
100
AcDbLine
 10
6474.0187553361
 20
5462.6287439146
 30
0.0
 11
6474.0187553361
 21
4964.7701652708
 31
0.0
  0
SPLINE
  5
9A
330
1F
100
AcDbEntity
  8
0
  6
Continuous
 62
     7
370
    25
100
AcDbSpline
210
0.0
220
0.0
230
1.0
 70
     8
 71
     3
 72
    14
 73
    10
 74
     0
 42
0.000000001
 43
0.00000001
 40
0.0
 40
0.0
 40
0.0
 40
0.0
 40
0.25
 40
0.25
 40
0.5
 40
0.5
 40
0.75
 40
0.75
 40
1.0
 40
1.0
 40
1.0
 40
1.0
 10
6474.0187553361
 20
4964.770165270837
 30
0.0
 10
6474.018755336099
 20
4964.775343155778
 30
0.0
 10
6473.981461824575
 20
4964.798595008381
 30
0.0
 10
6473.81667867589
 20
4964.881218381398
 30
0.0
 10
6473.688904713463
 20
4964.940594613064
 30
0.0
 10
6473.341529109374
 20
4965.09547616671
 30
0.0
 10
6473.12169171619
 20
4965.190981488692
 30
0.0
 10
6472.611226686005
 20
4965.418121222968
 30
0.0
 10
6472.320891825666
 20
4965.549586160747
 30
0.0
 10
6472.018755336106
 20
4965.699454592718
 30
0.0
  0
SPLINE
  5
9B
330
1F
100
AcDbEntity
  8
0
  6
Continuous
 62
     7
370
    25
100
AcDbSpline
210
0.0
220
0.0
230
1.0
 70
     8
 71
     3
 72
    14
 73
    10
 74
     0
 42
0.000000001
 43
0.00000001
 40
0.0
 40
0.0
 40
0.0
 40
0.0
 40
0.25
 40
0.25
 40
0.5
 40
0.5
 40
0.75
 40
0.75
 40
1.0
 40
1.0
 40
1.0
 40
1.0
 10
6076.018755336099
 20
5461.699454592721
 30
0.0
 10
6075.908930157616
 20
5461.810159006771
 30
0.0
 10
6075.804421055171
 20
5461.922449111788
 30
0.0
 10
6075.60291747111
 20
5462.145883637872
 30
0.0
 10
6075.508588231829
 20
5462.253695859778
 30
0.0
 10
6075.335830497105
 20
5462.449868656242
 30
0.0
 10
6075.258620658201
 20
5462.536308003397
 30
0.0
 10
6075.138812706476
 20
5462.661908632697
 30
0.0
 10
6075.096805111431
 20
5462.69945459272
 30
0.0
 10
6075.089466014218
 20
5462.69945459272
 30
0.0
  0
LINE
  5
9C
330
1F
100
AcDbEntity
  8
0
  6
Continuous
 62
     7
370
    25
100
AcDbLine
 10
6075.0894660142
 20
5463.6994545927
 30
0.0
 11
6075.0894660142
 21
5462.6994545927
 31
0.0
  0
SPLINE
  5
9D
330
1F
100
AcDbEntity
  8
0
  6
Continuous
 62
     7
370
    25
100
AcDbSpline
210
0.0
220
0.0
230
1.0
 70
     8
 71
     3
 72
    14
 73
    10
 74
     0
 42
0.000000001
 43
0.00000001
 40
0.0
 40
0.0
 40
0.0
 40
0.0
 40
0.25
 40
0.25
 40
0.5
 40
0.5
 40
0.75
 40
0.75
 40
1.0
 40
1.0
 40
1.0
 40
1.0
 10
6472.018755336103
 20
4965.699454592718
 30
0.0
 10
6472.128580514585
 20
4965.588750178668
 30
0.0
 10
6472.233089617032
 20
4965.476460073651
 30
0.0
 10
6472.434593201091
 20
4965.253025547568
 30
0.0
 10
6472.528922440372
 20
4965.145213325661
 30
0.0
 10
6472.701680175097
 20
4964.949040529196
 30
0.0
 10
6472.778890014001
 20
4964.862601182042
 30
0.0
 10
6472.898697965726
 20
4964.737000552741
 30
0.0
 10
6472.940705560771
 20
4964.699454592718
 30
0.0
 10
6472.948044657982
 20
4964.699454592718
 30
0.0
  0
LINE
  5
9E
330
1F
100
AcDbEntity
  8
0
  6
Continuous
 62
     7
370
    25
100
AcDbLine
 10
6472.948044658
 20
4963.6994545927
 30
0.0
 11
6472.948044658
 21
4964.6994545927
 31
0.0
  0
SPLINE
  5
9F
330
1F
100
AcDbEntity
  8
0
  6
Continuous
 62
     7
370
    25
100
AcDbSpline
210
0.0
220
0.0
230
1.0
 70
     8
 71
     3
 72
    18
 73
    14
 74
     0
 42
0.000000001
 43
0.00000001
 40
0.0
 40
0.0
 40
0.0
 40
0.0
 40
0.2500000000000124
 40
0.2500000000000124
 40
0.5000000000000249
 40
0.5000000000000249
 40
0.6250000000000187
 40
0.6250000000000187
 40
0.7500000000000124
 40
0.7500000000000124
 40
0.8750000000000062
 40
0.8750000000000062
 40
1.0
 40
1.0
 40
1.0
 40
1.0
 10
6472.018755336103
 20
4965.699454592718
 30
0.0
 10
6472.142048717077
 20
4965.45089371286
 30
0.0
 10
6472.255234182195
 20
4965.205470519631
 30
0.0
 10
6472.468907550145
 20
4964.729042326883
 30
0.0
 10
6472.5639087323
 20
4964.511037638337
 30
0.0
 10
6472.690534399254
 20
4964.22432927293
 30
0.0
 10
6472.728827423002
 20
4964.138481271279
 30
0.0
 10
6472.798010324743
 20
4963.986452415269
 30
0.0
 10
6472.829189318512
 20
4963.919625805117
 30
0.0
 10
6472.881632945423
 20
4963.811566327106
 30
0.0
 10
6472.902878981994
 20
4963.770370103371
 30
0.0
 10
6472.934482759196
 20
4963.714203567693
 30
0.0
 10
6472.944793589465
 20
4963.699454592718
 30
0.0
 10
6472.948044657982
 20
4963.699454592718
 30
0.0
  0
SPLINE
  5
A0
330
1F
100
AcDbEntity
  8
0
  6
Continuous
 62
     7
370
    25
100
AcDbSpline
210
0.0
220
0.0
230
1.0
 70
     8
 71
     3
 72
    23
 73
    19
 74
     0
 42
0.000000001
 43
0.00000001
 40
0.0
 40
0.0
 40
0.0
 40
0.0
 40
0.0453307574902171
 40
0.0921112965226921
 40
0.1405927780668613
 40
0.1910009411582636
 40
0.2435366914207003
 40
0.2983775535277233
 40
0.3556796290394039
 40
0.4155797776295347
 40
0.4781978231167531
 40
0.5436386585630687
 40
0.6119941805873674
 40
0.683345022038357
 40
0.7577620772318558
 40
0.8353078287207348
 40
0.9160374922812788
 40
1.0
 40
1.0
 40
1.0
 40
1.0
 10
6473.0187553361
 20
4964.770165270837
 30
0.0
 10
6473.01806716811
 20
4964.772141999375
 30
0.0
 10
6473.016668822939
 20
4964.77615867676
 30
0.0
 10
6473.00526409904
 20
4964.790758730332
 30
0.0
 10
6472.986603456085
 20
4964.811627735386
 30
0.0
 10
6472.95966217203
 20
4964.839426543767
 30
0.0
 10
6472.924379357544
 20
4964.873958903324
 30
0.0
 10
6472.880525460075
 20
4964.915273751729
 30
0.0
 10
6472.828039368164
 20
4964.963352403225
 30
0.0
 10
6472.766948565486
 20
4965.018197242623
 30
0.0
 10
6472.697407589419
 20
4965.079805921681
 30
0.0
 10
6472.619702170346
 20
4965.148178653437
 30
0.0
 10
6472.534260296416
 20
4965.223314653216
 30
0.0
 10
6472.441665114948
 20
4965.305217552796
 30
0.0
 10
6472.342641705899
 20
4965.39387524625
 30
0.0
 10
6472.238139929679
 20
4965.489338784519
 30
0.0
 10
6472.129022096574
 20
4965.591409026551
 30
0.0
 10
6472.055988794827
 20
4965.662971158262
 30
0.0
 10
6472.018755336103
 20
4965.699454592718
 30
0.0
  0
LINE
  5
A1
330
1F
100
AcDbEntity
  8
0
  6
Continuous
 62
     7
370
    25
100
AcDbLine
 10
6474.0187553361
 20
4964.7701652708
 30
0.0
 11
6473.0187553361
 21
4964.7701652708
 31
0.0
  0
LINE
  5
A2
330
1F
100
AcDbEntity
  8
0
  6
Continuous
 62
     7
370
    25
100
AcDbLine
 10
6075.0894660142
 20
4963.6994545927
 30
0.0
 11
6472.948044658
 21
4963.6994545927
 31
0.0
  0
LINE
  5
A3
330
1F
100
AcDbEntity
  8
0
  6
Continuous
 62
     7
370
    25
100
AcDbLine
 10
6699.3389791163
 20
4964.7701652708
 30
0.0
 11
6699.3389791163
 21
5462.6287439146
 31
0.0
  0
LINE
  5
A4
330
1F
100
AcDbEntity
  8
0
  6
Continuous
 62
     7
370
    25
100
AcDbLine
 10
6704.3389791163
 20
5462.6287439146
 30
0.0
 11
6704.3389791163
 21
4964.7701652708
 31
0.0
  0
LINE
  5
A5
330
1F
100
AcDbEntity
  8
0
  6
Continuous
 62
     7
370
    25
100
AcDbLine
 10
6704.3389791163
 20
4964.7701652708
 30
0.0
 11
6699.3389791163
 21
4964.7701652708
 31
0.0
  0
LINE
  5
A6
330
1F
100
AcDbEntity
  8
0
  6
Continuous
 62
     7
370
    25
100
AcDbLine
 10
6704.3389791163
 20
5462.6287439146
 30
0.0
 11
6699.3389791163
 21
5462.6287439146
 31
0.0
  0
SPLINE
  5
A7
330
1F
100
AcDbEntity
  8
0
  6
Continuous
 62
     7
370
    25
100
AcDbSpline
210
0.0
220
0.0
230
1.0
 70
     8
 71
     3
 72
    20
 73
    16
 74
     0
 42
0.000000001
 43
0.00000001
 40
0.0
 40
0.0
 40
0.0
 40
0.0
 40
0.125
 40
0.125
 40
0.25
 40
0.25
 40
0.375
 40
0.375
 40
0.4375
 40
0.4375
 40
0.5
 40
0.5
 40
0.75
 40
0.75
 40
1.0
 40
1.0
 40
1.0
 40
1.0
 10
6704.338979116264
 20
5462.6287439146
 30
0.0
 10
6704.5437885847
 20
5462.59854752195
 30
0.0
 10
6704.731500324697
 20
5462.56888805466
 30
0.0
 10
6705.063020373665
 20
5462.510437339704
 30
0.0
 10
6705.206809777133
 20
5462.481680363889
 30
0.0
 10
6705.451253613931
 20
5462.425103175579
 30
0.0
 10
6705.55208887592
 20
5462.397282963087
 30
0.0
 10
6705.676293029418
 20
5462.356255216841
 30
0.0
 10
6705.713214812457
 20
5462.342696396841
 30
0.0
 10
6705.779111546941
 20
5462.315812947672
 30
0.0
 10
6705.807617999039
 20
5462.3027325026
 30
0.0
 10
6705.937482042196
 20
5462.235473913351
 30
0.0
 10
6706.058193362167
 20
5462.159418294982
 30
0.0
 10
6706.25922722743
 20
5461.962809564306
 30
0.0
 10
6706.33897911626
 20
5461.842772713067
 30
0.0
 10
6706.33897911626
 20
5461.69945459272
 30
0.0
  0
LINE
  5
A8
330
1F
100
AcDbEntity
  8
0
  6
Continuous
 62
     7
370
    25
100
AcDbLine
 10
6706.3389791163
 20
5461.6994545927
 30
0.0
 11
6706.3389791163
 21
4965.6994545927
 31
0.0
  0
SPLINE
  5
A9
330
1F
100
AcDbEntity
  8
0
  6
Continuous
 62
     7
370
    25
100
AcDbSpline
210
0.0
220
0.0
230
1.0
 70
     8
 71
     3
 72
    18
 73
    14
 74
     0
 42
0.000000001
 43
0.00000001
 40
0.0
 40
0.0
 40
0.0
 40
0.0
 40
0.2499999999999962
 40
0.2499999999999962
 40
0.4999999999999925
 40
0.4999999999999925
 40
0.6249999999999943
 40
0.6249999999999943
 40
0.7499999999999962
 40
0.7499999999999962
 40
0.8749999999999981
 40
0.8749999999999981
 40
1.0
 40
1.0
 40
1.0
 40
1.0
 10
6706.338979116259
 20
4965.699454592719
 30
0.0
 10
6706.338979116259
 20
4965.576161211744
 30
0.0
 10
6706.29384698976
 20
4965.462975746627
 30
0.0
 10
6706.106414744966
 20
4965.249302378677
 30
0.0
 10
6705.969119975958
 20
4965.154301196522
 30
0.0
 10
6705.695971677365
 20
4965.027675529568
 30
0.0
 10
6705.596304997179
 20
4964.989382505819
 30
0.0
 10
6705.379714251214
 20
4964.920199604078
 30
0.0
 10
6705.261227217551
 20
4964.88902061031
 30
0.0
 10
6705.012930130858
 20
4964.836576983397
 30
0.0
 10
6704.884181217288
 20
4964.815330946827
 30
0.0
 10
6704.617170894802
 20
4964.783727169624
 30
0.0
 10
6704.478117842767
 20
4964.773416339354
 30
0.0
 10
6704.338979116259
 20
4964.770165270837
 30
0.0
  0
SPLINE
  5
AA
330
1F
100
AcDbEntity
  8
0
  6
Continuous
 62
     7
370
    25
100
AcDbSpline
210
0.0
220
0.0
230
1.0
 70
     8
 71
     3
 72
    10
 73
     6
 74
     0
 42
0.000000001
 43
0.00000001
 40
0.0
 40
0.0
 40
0.0
 40
0.0
 40
0.1072882072286115
 40
0.6292263681701538
 40
1.0
 40
1.0
 40
1.0
 40
1.0
 10
6704.855391519877
 20
5462.547217804793
 30
0.0
 10
6704.841536894426
 20
5462.558449345625
 30
0.0
 10
6704.760281965475
 20
5462.62432034701
 30
0.0
 10
6704.577112539543
 20
5462.682122553476
 30
0.0
 10
6704.408860091927
 20
5462.694368453211
 30
0.0
 10
6704.338979116261
 20
5462.69945459272
 30
0.0
  0
LINE
  5
AB
330
1F
100
AcDbEntity
  8
0
  6
Continuous
 62
     7
370
    25
100
AcDbLine
 10
6704.3389791163
 20
5463.6994545927
 30
0.0
 11
6704.3389791163
 21
5462.6994545927
 31
0.0
  0
SPLINE
  5
AC
330
1F
100
AcDbEntity
  8
0
  6
Continuous
 62
     7
370
    25
100
AcDbSpline
210
0.0
220
0.0
230
1.0
 70
     8
 71
     3
 72
    18
 73
    14
 74
     0
 42
0.000000001
 43
0.00000001
 40
0.0
 40
0.0
 40
0.0
 40
0.0
 40
0.2499999999999913
 40
0.2499999999999913
 40
0.4999999999999827
 40
0.4999999999999827
 40
0.624999999999987
 40
0.624999999999987
 40
0.7499999999999913
 40
0.7499999999999913
 40
0.8749999999999957
 40
0.8749999999999957
 40
1.0
 40
1.0
 40
1.0
 40
1.0
 10
6706.338979116261
 20
5461.699454592722
 30
0.0
 10
6706.338979116261
 20
5461.948015472578
 30
0.0
 10
6706.293846989761
 20
5462.193438665809
 30
0.0
 10
6706.106414744967
 20
5462.669866858557
 30
0.0
 10
6705.969119975959
 20
5462.887871547101
 30
0.0
 10
6705.695971677366
 20
5463.174579912509
 30
0.0
 10
6705.59630499718
 20
5463.26042791416
 30
0.0
 10
6705.379714251215
 20
5463.412456770169
 30
0.0
 10
6705.261227217552
 20
5463.479283380322
 30
0.0
 10
6705.012930130859
 20
5463.587342858332
 30
0.0
 10
6704.884181217289
 20
5463.628539082069
 30
0.0
 10
6704.617170894803
 20
5463.684705617745
 30
0.0
 10
6704.478117842767
 20
5463.69945459272
 30
0.0
 10
6704.338979116261
 20
5463.69945459272
 30
0.0
  0
LINE
  5
AD
330
1F
100
AcDbEntity
  8
0
  6
Continuous
 62
     7
370
    25
100
AcDbLine
 10
6699.3389791163
 20
5463.6994545927
 30
0.0
 11
6699.3389791163
 21
5462.6994545927
 31
0.0
  0
LINE
  5
AE
330
1F
100
AcDbEntity
  8
0
  6
Continuous
 62
     7
370
    25
100
AcDbLine
 10
6704.3389791163
 20
5463.6994545927
 30
0.0
 11
6699.3389791163
 21
5463.6994545927
 31
0.0
  0
LINE
  5
AF
330
1F
100
AcDbEntity
  8
0
  6
Continuous
 62
     7
370
    25
100
AcDbLine
 10
6704.3389791163
 20
5462.6994545927
 30
0.0
 11
6699.3389791163
 21
5462.6994545927
 31
0.0
  0
LINE
  5
B0
330
1F
100
AcDbEntity
  8
0
  6
Continuous
 62
     7
370
    25
100
AcDbLine
 10
6704.3389791163
 20
4963.6994545927
 30
0.0
 11
6704.3389791163
 21
4964.6994545927
 31
0.0
  0
LINE
  5
B1
330
1F
100
AcDbEntity
  8
0
  6
Continuous
 62
     7
370
    25
100
AcDbLine
 10
6704.3389791163
 20
4963.6994545927
 30
0.0
 11
6699.3389791163
 21
4963.6994545927
 31
0.0
  0
LINE
  5
B2
330
1F
100
AcDbEntity
  8
0
  6
Continuous
 62
     7
370
    25
100
AcDbLine
 10
6699.3389791163
 20
4963.6994545927
 30
0.0
 11
6699.3389791163
 21
4964.6994545927
 31
0.0
  0
LINE
  5
B3
330
1F
100
AcDbEntity
  8
0
  6
Continuous
 62
     7
370
    25
100
AcDbLine
 10
6704.3389791163
 20
4964.6994545927
 30
0.0
 11
6699.3389791163
 21
4964.6994545927
 31
0.0
  0
SPLINE
  5
B4
330
1F
100
AcDbEntity
  8
0
  6
Continuous
 62
     7
370
    25
100
AcDbSpline
210
0.0
220
0.0
230
1.0
 70
     8
 71
     3
 72
     9
 73
     5
 74
     0
 42
0.000000001
 43
0.00000001
 40
0.0
 40
0.0
 40
0.0
 40
0.0
 40
0.5794167751996028
 40
1.0
 40
1.0
 40
1.0
 40
1.0
 10
6704.33897911626
 20
4964.699454592718
 30
0.0
 10
6704.4343038602
 20
4964.706098071875
 30
0.0
 10
6704.598822300156
 20
4964.717563875839
 30
0.0
 10
6704.742985866837
 20
4964.78806429782
 30
0.0
 10
6704.803618644612
 20
4964.817715592647
 30
0.0
  0
SPLINE
  5
B5
330
1F
100
AcDbEntity
  8
0
  6
Continuous
 62
     7
370
    25
100
AcDbSpline
210
0.0
220
0.0
230
1.0
 70
     8
 71
     3
 72
    20
 73
    16
 74
     0
 42
0.000000001
 43
0.00000001
 40
0.0
 40
0.0
 40
0.0
 40
0.0
 40
0.125
 40
0.125
 40
0.25
 40
0.25
 40
0.375
 40
0.375
 40
0.4375
 40
0.4375
 40
0.5
 40
0.5
 40
0.75
 40
0.75
 40
1.0
 40
1.0
 40
1.0
 40
1.0
 10
6704.33897911626
 20
4963.699454592718
 30
0.0
 10
6704.543788584669
 20
4963.699454592718
 30
0.0
 10
6704.731500324645
 20
4963.730768393515
 30
0.0
 10
6705.063020373591
 20
4963.827139846836
 30
0.0
 10
6705.206809777055
 20
4963.892065046067
 30
0.0
 10
6705.451253613859
 20
4964.031332153821
 30
0.0
 10
6705.552088875856
 20
4964.105659497804
 30
0.0
 10
6705.676293029374
 20
4964.211319511101
 30
0.0
 10
6705.713214812422
 20
4964.245623061214
 30
0.0
 10
6705.779111546921
 20
4964.310869538514
 30
0.0
 10
6705.807617999058
 20
4964.34128389017
 30
0.0
 10
6705.937482042114
 20
4964.487335126129
 30
0.0
 10
6706.05819336207
 20
4964.649218807863
 30
0.0
 10
6706.259227227375
 20
4965.090077846734
 30
0.0
 10
6706.33897911626
 20
4965.370085714287
 30
0.0
 10
6706.33897911626
 20
4965.699454592717
 30
0.0
  0
LINE
  5
B6
330
1F
100
AcDbEntity
  8
0
  6
Continuous
 62
     7
370
    25
100
AcDbLine
 10
6075.0894660142
 20
4741.3740828789
 30
0.0
 11
6472.948044658
 21
4741.3740828789
 31
0.0
  0
LINE
  5
B7
330
1F
100
AcDbEntity
  8
0
  6
Continuous
 62
     7
370
    25
100
AcDbLine
 10
6472.948044658
 20
4736.3740828789
 30
0.0
 11
6075.0894660142
 21
4736.3740828789
 31
0.0
  0
LINE
  5
B8
330
1F
100
AcDbEntity
  8
0
  6
Continuous
 62
     7
370
    25
100
AcDbLine
 10
6075.0894660142
 20
4736.3740828789
 30
0.0
 11
6075.0894660142
 21
4741.3740828789
 31
0.0
  0
LINE
  5
B9
330
1F
100
AcDbEntity
  8
0
  6
Continuous
 62
     7
370
    25
100
AcDbLine
 10
6472.948044658
 20
4736.3740828789
 30
0.0
 11
6472.948044658
 21
4741.3740828789
 31
0.0
  0
LINE
  5
BA
330
1F
100
AcDbEntity
  8
0
  6
Continuous
 62
     7
370
    25
100
AcDbLine
 10
6472.0187553361
 20
4734.3740828789
 30
0.0
 11
6076.0187553361
 21
4734.3740828789
 31
0.0
  0
SPLINE
  5
BB
330
1F
100
AcDbEntity
  8
0
  6
Continuous
 62
     7
370
    25
100
AcDbSpline
210
0.0
220
0.0
230
1.0
 70
     8
 71
     3
 72
    18
 73
    14
 74
     0
 42
0.000000001
 43
0.00000001
 40
0.0
 40
0.0
 40
0.0
 40
0.0
 40
0.2499999999999913
 40
0.2499999999999913
 40
0.4999999999999827
 40
0.4999999999999827
 40
0.624999999999987
 40
0.624999999999987
 40
0.7499999999999913
 40
0.7499999999999913
 40
0.8749999999999957
 40
0.8749999999999957
 40
1.0
 40
1.0
 40
1.0
 40
1.0
 10
6076.018755336099
 20
4734.37408287894
 30
0.0
 10
6075.895461955124
 20
4734.37408287894
 30
0.0
 10
6075.782276490007
 20
4734.41921500544
 30
0.0
 10
6075.568603122058
 20
4734.606647250233
 30
0.0
 10
6075.473601939902
 20
4734.743942019241
 30
0.0
 10
6075.346976272948
 20
4735.017090317834
 30
0.0
 10
6075.308683249199
 20
4735.116756998022
 30
0.0
 10
6075.239500347458
 20
4735.333347743986
 30
0.0
 10
6075.20832135369
 20
4735.451834777649
 30
0.0
 10
6075.155877726778
 20
4735.700131864342
 30
0.0
 10
6075.134631690207
 20
4735.828880777912
 30
0.0
 10
6075.103027913005
 20
4736.095891100397
 30
0.0
 10
6075.092717082736
 20
4736.234944152433
 30
0.0
 10
6075.089466014218
 20
4736.37408287894
 30
0.0
  0
SPLINE
  5
BC
330
1F
100
AcDbEntity
  8
0
  6
Continuous
 62
     7
370
    25
100
AcDbSpline
210
0.0
220
0.0
230
1.0
 70
     8
 71
     3
 72
    22
 73
    18
 74
     0
 42
0.000000001
 43
0.00000001
 40
0.0
 40
0.0
 40
0.0
 40
0.0
 40
0.125
 40
0.125
 40
0.25
 40
0.25
 40
0.375
 40
0.375
 40
0.5
 40
0.5
 40
0.625
 40
0.625
 40
0.75
 40
0.75
 40
0.875
 40
0.875
 40
1.0
 40
1.0
 40
1.0
 40
1.0
 10
6472.948044657982
 20
4736.37408287894
 30
0.0
 10
6472.927846962451
 20
4736.237090380091
 30
0.0
 10
6472.907165315977
 20
4736.102571306921
 30
0.0
 10
6472.863519945269
 20
4735.838466810786
 30
0.0
 10
6472.840236576964
 20
4735.707478962764
 30
0.0
 10
6472.790673947819
 20
4735.459500421788
 30
0.0
 10
6472.764521571746
 20
4735.342413679155
 30
0.0
 10
6472.705430835906
 20
4735.122458942269
 30
0.0
 10
6472.672862488845
 20
4735.019607974955
 30
0.0
 10
6472.592317076264
 20
4734.839316955901
 30
0.0
 10
6472.543475844634
 20
4734.760417213274
 30
0.0
 10
6472.444030766197
 20
4734.621315638607
 30
0.0
 10
6472.392861399209
 20
4734.563284622125
 30
0.0
 10
6472.289214647848
 20
4734.469539813036
 30
0.0
 10
6472.235938861181
 20
4734.433637926376
 30
0.0
 10
6472.128213353194
 20
4734.386017262706
 30
0.0
 10
6472.073872983103
 20
4734.37408287894
 30
0.0
 10
6472.0187553361
 20
4734.37408287894
 30
0.0
  0
LINE
  5
BD
330
1F
100
AcDbEntity
  8
0
  6
Continuous
 62
     7
370
    25
100
AcDbLine
 10
6074.0187553361
 20
4736.3740828789
 30
0.0
 11
6075.0187553361
 21
4736.3740828789
 31
0.0
  0
LINE
  5
BE
330
1F
100
AcDbEntity
  8
0
  6
Continuous
 62
     7
370
    25
100
AcDbLine
 10
6074.0187553361
 20
4736.3740828789
 30
0.0
 11
6074.0187553361
 21
4741.3740828789
 31
0.0
  0
LINE
  5
BF
330
1F
100
AcDbEntity
  8
0
  6
Continuous
 62
     7
370
    25
100
AcDbLine
 10
6074.0187553361
 20
4741.3740828789
 30
0.0
 11
6075.0187553361
 21
4741.3740828789
 31
0.0
  0
LINE
  5
C0
330
1F
100
AcDbEntity
  8
0
  6
Continuous
 62
     7
370
    25
100
AcDbLine
 10
6075.0187553361
 20
4736.3740828789
 30
0.0
 11
6075.0187553361
 21
4741.3740828789
 31
0.0
  0
LINE
  5
C1
330
1F
100
AcDbEntity
  8
0
  6
Continuous
 62
     7
370
    25
100
AcDbLine
 10
6474.0187553361
 20
4741.3740828789
 30
0.0
 11
6473.0187553361
 21
4741.3740828789
 31
0.0
  0
LINE
  5
C2
330
1F
100
AcDbEntity
  8
0
  6
Continuous
 62
     7
370
    25
100
AcDbLine
 10
6474.0187553361
 20
4736.3740828789
 30
0.0
 11
6473.0187553361
 21
4736.3740828789
 31
0.0
  0
LINE
  5
C3
330
1F
100
AcDbEntity
  8
0
  6
Continuous
 62
     7
370
    25
100
AcDbLine
 10
6473.0187553361
 20
4736.3740828789
 30
0.0
 11
6473.0187553361
 21
4741.3740828789
 31
0.0
  0
LINE
  5
C4
330
1F
100
AcDbEntity
  8
0
  6
Continuous
 62
     7
370
    25
100
AcDbLine
 10
6474.0187553361
 20
4736.3740828789
 30
0.0
 11
6474.0187553361
 21
4741.3740828789
 31
0.0
  0
SPLINE
  5
C5
330
1F
100
AcDbEntity
  8
0
  6
Continuous
 62
     7
370
    25
100
AcDbSpline
210
0.0
220
0.0
230
1.0
 70
     8
 71
     3
 72
     9
 73
     5
 74
     0
 42
0.000000001
 43
0.00000001
 40
0.0
 40
0.0
 40
0.0
 40
0.0
 40
0.5796481847466661
 40
1.0
 40
1.0
 40
1.0
 40
1.0
 10
6075.0187553361
 20
4736.374082878939
 30
0.0
 10
6075.025396176756
 20
4736.278757225244
 30
0.0
 10
6075.036852851389
 20
4736.114302895525
 30
0.0
 10
6075.107320576008
 20
4735.97019531293
 30
0.0
 10
6075.136941811967
 20
4735.909619428994
 30
0.0
  0
SPLINE
  5
C6
330
1F
100
AcDbEntity
  8
0
  6
Continuous
 62
     7
370
    25
100
AcDbSpline
210
0.0
220
0.0
230
1.0
 70
     8
 71
     3
 72
    20
 73
    16
 74
     0
 42
0.000000001
 43
0.00000001
 40
0.0
 40
0.0
 40
0.0
 40
0.0
 40
0.125
 40
0.125
 40
0.25
 40
0.25
 40
0.375
 40
0.375
 40
0.4375
 40
0.4375
 40
0.5
 40
0.5
 40
0.75
 40
0.75
 40
1.0
 40
1.0
 40
1.0
 40
1.0
 10
6074.0187553361
 20
4736.374082878936
 30
0.0
 10
6074.018755336101
 20
4736.1692734105
 30
0.0
 10
6074.050069136906
 20
4735.981561670504
 30
0.0
 10
6074.146440590245
 20
4735.650041621535
 30
0.0
 10
6074.211365789486
 20
4735.506252218067
 30
0.0
 10
6074.350632897251
 20
4735.261808381269
 30
0.0
 10
6074.424960241235
 20
4735.160973119281
 30
0.0
 10
6074.530620254523
 20
4735.036768965782
 30
0.0
 10
6074.564923804631
 20
4734.999847182743
 30
0.0
 10
6074.630170281916
 20
4734.93395044826
 30
0.0
 10
6074.660584633531
 20
4734.905443996161
 30
0.0
 10
6074.806635869603
 20
4734.775579953005
 30
0.0
 10
6074.968519551403
 20
4734.654868633034
 30
0.0
 10
6075.409378590291
 20
4734.453834767771
 30
0.0
 10
6075.689386457792
 20
4734.37408287894
 30
0.0
 10
6076.018755336101
 20
4734.37408287894
 30
0.0
  0
SPLINE
  5
C7
330
1F
100
AcDbEntity
  8
0
  6
Continuous
 62
     7
370
    25
100
AcDbSpline
210
0.0
220
0.0
230
1.0
 70
     8
 71
     3
 72
    22
 73
    18
 74
     0
 42
0.000000001
 43
0.00000001
 40
0.0
 40
0.0
 40
0.0
 40
0.0
 40
0.25
 40
0.25
 40
0.375
 40
0.375
 40
0.4375
 40
0.4375
 40
0.5
 40
0.5
 40
0.625
 40
0.625
 40
0.75
 40
0.75
 40
0.875
 40
0.875
 40
1.0
 40
1.0
 40
1.0
 40
1.0
 10
6472.018755336102
 20
4734.37408287894
 30
0.0
 10
6472.347662488837
 20
4734.374082878941
 30
0.0
 10
6472.627425963586
 20
4734.453623431661
 30
0.0
 10
6472.95799639452
 20
4734.604199453534
 30
0.0
 10
6473.053791210861
 20
4734.659836892883
 30
0.0
 10
6473.177798454983
 20
4734.74340704075
 30
0.0
 10
6473.215872596696
 20
4734.771307043018
 30
0.0
 10
6473.285973787712
 20
4734.826136655156
 30
0.0
 10
6473.318490714636
 20
4734.853500755535
 30
0.0
 10
6473.404821666032
 20
4734.930217122719
 30
0.0
 10
6473.471560067196
 20
4734.995239906157
 30
0.0
 10
6473.61262934635
 20
4735.16106384787
 30
0.0
 10
6473.687001760345
 20
4735.261988028982
 30
0.0
 10
6473.8262856337
 20
4735.506537312086
 30
0.0
 10
6473.891182241038
 20
4735.650342352452
 30
0.0
 10
6473.987483153043
 20
4735.981790071442
 30
0.0
 10
6474.018755336099
 20
4736.169413267641
 30
0.0
 10
6474.0187553361
 20
4736.374082878937
 30
0.0
  0
SPLINE
  5
C8
330
1F
100
AcDbEntity
  8
0
  6
Continuous
 62
     7
370
    25
100
AcDbSpline
210
0.0
220
0.0
230
1.0
 70
     8
 71
     3
 72
    10
 73
     6
 74
     0
 42
0.000000001
 43
0.00000001
 40
0.0
 40
0.0
 40
0.0
 40
0.0
 40
0.0768811413974722
 40
0.4997497093611413
 40
1.0
 40
1.0
 40
1.0
 40
1.0
 10
6472.86219428296
 20
4735.847698082235
 30
0.0
 10
6472.87088034548
 20
4735.857992401185
 30
0.0
 10
6472.927342270231
 20
4735.924908459002
 30
0.0
 10
6472.993570494245
 20
4736.108838770323
 30
0.0
 10
6473.009903995979
 20
4736.280861494664
 30
0.0
 10
6473.0187553361
 20
4736.374082878939
 30
0.0
  0
ENDSEC
  0
SECTION
  2
OBJECTS
  0
DICTIONARY
  5
C
330
0
100
AcDbDictionary
281
     1
  3
ACAD_GROUP
350
D
  3
ACAD_LAYOUT
350
1A
  3
ACAD_MLINESTYLE
350
17
  3
ACAD_PLOTSETTINGS
350
19
  3
ACAD_PLOTSTYLENAME
350
E
  3
ACAD_SCALELIST
350
47
  0
DICTIONARY
  5
D
102
{ACAD_REACTORS
330
C
102
}
330
C
100
AcDbDictionary
281
     1
  0
DICTIONARY
  5
1A
102
{ACAD_REACTORS
330
C
102
}
330
C
100
AcDbDictionary
281
     1
  3
Layout1
350
1E
  3
Layout2
350
26
  3
Model
350
22
  0
DICTIONARY
  5
17
102
{ACAD_REACTORS
330
C
102
}
330
C
100
AcDbDictionary
281
     1
  3
Standard
350
18
  0
DICTIONARY
  5
19
102
{ACAD_REACTORS
330
C
102
}
330
C
100
AcDbDictionary
281
     1
  0
ACDBDICTIONARYWDFLT
  5
E
102
{ACAD_REACTORS
330
C
102
}
330
C
100
AcDbDictionary
281
     1
  3
Normal
350
F
100
AcDbDictionaryWithDefault
340
F
  0
DICTIONARY
  5
47
102
{ACAD_REACTORS
330
C
102
}
330
C
100
AcDbDictionary
281
     1
  3
A0
350
48
  3
A1
350
49
  3
A2
350
4A
  3
A3
350
4B
  3
A4
350
4C
  3
A5
350
4D
  3
A6
350
4E
  3
A7
350
4F
  3
A8
350
50
  3
A9
350
51
  3
B0
350
52
  3
B1
350
53
  3
B2
350
54
  3
B3
350
55
  3
B4
350
56
  3
B5
350
57
  3
B6
350
58
  3
B7
350
59
  3
B8
350
5A
  3
B9
350
5B
  3
C0
350
5C
  3
C1
350
5D
  3
C2
350
5E
  3
C3
350
5F
  3
C4
350
60
  3
C5
350
61
  3
C6
350
62
  3
C7
350
63
  3
C8
350
64
  3
C9
350
65
  3
D0
350
66
  3
D1
350
67
  3
D2
350
68
  0
LAYOUT
  5
1E
102
{ACAD_REACTORS
330
1A
102
}
330
1A
100
AcDbPlotSettings
  1

  2
none_device
  4

  6

 40
0.0
 41
0.0
 42
0.0
 43
0.0
 44
0.0
 45
0.0
 46
0.0
 47
0.0
 48
0.0
 49
0.0
140
0.0
141
0.0
142
1.0
143
1.0
 70
   688
 72
     1
 73
     0
 74
     5
  7

 75
    16
147
1.0
148
0.0
149
0.0
100
AcDbLayout
  1
Layout1
 70
     1
 71
     1
 10
0.0
 20
0.0
 11
420.0
 21
297.0
 12
0.0
 22
0.0
 32
0.0
 14
1.0000000000E+20
 24
1.0000000000E+20
 34
1.0000000000E+20
 15
-1.0000000000E+20
 25
-1.0000000000E+20
 35
-1.0000000000E+20
146
0.0
 13
0.0
 23
0.0
 33
0.0
 16
1.0
 26
0.0
 36
0.0
 17
0.0
 27
1.0
 37
0.0
 76
     0
330
1B
  0
LAYOUT
  5
26
102
{ACAD_REACTORS
330
1A
102
}
330
1A
100
AcDbPlotSettings
  1

  2
none_device
  4

  6

 40
0.0
 41
0.0
 42
0.0
 43
0.0
 44
0.0
 45
0.0
 46
0.0
 47
0.0
 48
0.0
 49
0.0
140
0.0
141
0.0
142
1.0
143
1.0
 70
   688
 72
     1
 73
     0
 74
     5
  7

 75
    16
147
1.0
148
0.0
149
0.0
100
AcDbLayout
  1
Layout2
 70
     1
 71
     2
 10
0.0
 20
0.0
 11
0.0
 21
0.0
 12
0.0
 22
0.0
 32
0.0
 14
0.0
 24
0.0
 34
0.0
 15
0.0
 25
0.0
 35
0.0
146
0.0
 13
0.0
 23
0.0
 33
0.0
 16
1.0
 26
0.0
 36
0.0
 17
0.0
 27
1.0
 37
0.0
 76
     0
330
23
  0
LAYOUT
  5
22
102
{ACAD_REACTORS
330
1A
102
}
330
1A
100
AcDbPlotSettings
  1

  2
none_device
  4
Letter_(8.50_x_11.00_Inches)
  6

 40
6.35
 41
6.35
 42
6.35000508
 43
6.35000508
 44
215.9
 45
279.4
 46
0.0
 47
0.0
 48
0.0
 49
0.0
140
0.0
141
0.0
142
1.0
143
1.0
 70
  1712
 72
     1
 73
     0
 74
     0
  7

 75
     0
147
1.0
148
0.0
149
0.0
100
AcDbLayout
  1
Model
 70
     1
 71
     0
 10
0.0
 20
0.0
 11
20000.0
 21
10000.0
 12
0.0
 22
0.0
 32
0.0
 14
0.0
 24
0.0
 34
0.0
 15
20000.0
 25
10000.0
 35
0.0
146
0.0
 13
0.0
 23
0.0
 33
0.0
 16
1.0
 26
0.0
 36
0.0
 17
0.0
 27
1.0
 37
0.0
 76
     0
330
1F
331
29
  0
MLINESTYLE
  5
18
102
{ACAD_REACTORS
330
17
102
}
330
17
100
AcDbMlineStyle
  2
Standard
 70
     0
  3

 62
   256
 51
90.0
 52
90.0
 71
     2
 49
0.5
 62
   256
  6
BYLAYER
 49
-0.5
 62
   256
  6
BYLAYER
  0
ACDBPLACEHOLDER
  5
F
102
{ACAD_REACTORS
330
E
102
}
330
E
  0
SCALE
  5
48
102
{ACAD_REACTORS
330
47
102
}
330
47
100
AcDbScale
 70
     0
300
1:1
140
1.0
141
1.0
290
     1
  0
SCALE
  5
49
102
{ACAD_REACTORS
330
47
102
}
330
47
100
AcDbScale
 70
     0
300
1:2
140
1.0
141
2.0
290
     0
  0
SCALE
  5
4A
102
{ACAD_REACTORS
330
47
102
}
330
47
100
AcDbScale
 70
     0
300
1:4
140
1.0
141
4.0
290
     0
  0
SCALE
  5
4B
102
{ACAD_REACTORS
330
47
102
}
330
47
100
AcDbScale
 70
     0
300
1:5
140
1.0
141
5.0
290
     0
  0
SCALE
  5
4C
102
{ACAD_REACTORS
330
47
102
}
330
47
100
AcDbScale
 70
     0
300
1:8
140
1.0
141
8.0
290
     0
  0
SCALE
  5
4D
102
{ACAD_REACTORS
330
47
102
}
330
47
100
AcDbScale
 70
     0
300
1:10
140
1.0
141
10.0
290
     0
  0
SCALE
  5
4E
102
{ACAD_REACTORS
330
47
102
}
330
47
100
AcDbScale
 70
     0
300
1:16
140
1.0
141
16.0
290
     0
  0
SCALE
  5
4F
102
{ACAD_REACTORS
330
47
102
}
330
47
100
AcDbScale
 70
     0
300
1:20
140
1.0
141
20.0
290
     0
  0
SCALE
  5
50
102
{ACAD_REACTORS
330
47
102
}
330
47
100
AcDbScale
 70
     0
300
1:30
140
1.0
141
30.0
290
     0
  0
SCALE
  5
51
102
{ACAD_REACTORS
330
47
102
}
330
47
100
AcDbScale
 70
     0
300
1:40
140
1.0
141
40.0
290
     0
  0
SCALE
  5
52
102
{ACAD_REACTORS
330
47
102
}
330
47
100
AcDbScale
 70
     0
300
1:50
140
1.0
141
50.0
290
     0
  0
SCALE
  5
53
102
{ACAD_REACTORS
330
47
102
}
330
47
100
AcDbScale
 70
     0
300
1:100
140
1.0
141
100.0
290
     0
  0
SCALE
  5
54
102
{ACAD_REACTORS
330
47
102
}
330
47
100
AcDbScale
 70
     0
300
2:1
140
2.0
141
1.0
290
     0
  0
SCALE
  5
55
102
{ACAD_REACTORS
330
47
102
}
330
47
100
AcDbScale
 70
     0
300
4:1
140
4.0
141
1.0
290
     0
  0
SCALE
  5
56
102
{ACAD_REACTORS
330
47
102
}
330
47
100
AcDbScale
 70
     0
300
8:1
140
8.0
141
1.0
290
     0
  0
SCALE
  5
57
102
{ACAD_REACTORS
330
47
102
}
330
47
100
AcDbScale
 70
     0
300
10:1
140
10.0
141
1.0
290
     0
  0
SCALE
  5
58
102
{ACAD_REACTORS
330
47
102
}
330
47
100
AcDbScale
 70
     0
300
100:1
140
100.0
141
1.0
290
     0
  0
SCALE
  5
59
102
{ACAD_REACTORS
330
47
102
}
330
47
100
AcDbScale
 70
     0
300
1/128" = 1'-0"
140
0.0078125
141
12.0
290
     0
  0
SCALE
  5
5A
102
{ACAD_REACTORS
330
47
102
}
330
47
100
AcDbScale
 70
     0
300
1/64" = 1'-0"
140
0.015625
141
12.0
290
     0
  0
SCALE
  5
5B
102
{ACAD_REACTORS
330
47
102
}
330
47
100
AcDbScale
 70
     0
300
1/32" = 1'-0"
140
0.03125
141
12.0
290
     0
  0
SCALE
  5
5C
102
{ACAD_REACTORS
330
47
102
}
330
47
100
AcDbScale
 70
     0
300
1/16" = 1'-0"
140
0.0625
141
12.0
290
     0
  0
SCALE
  5
5D
102
{ACAD_REACTORS
330
47
102
}
330
47
100
AcDbScale
 70
     0
300
3/32" = 1'-0"
140
0.09375
141
12.0
290
     0
  0
SCALE
  5
5E
102
{ACAD_REACTORS
330
47
102
}
330
47
100
AcDbScale
 70
     0
300
1/8" = 1'-0"
140
0.125
141
12.0
290
     0
  0
SCALE
  5
5F
102
{ACAD_REACTORS
330
47
102
}
330
47
100
AcDbScale
 70
     0
300
3/16" = 1'-0"
140
0.1875
141
12.0
290
     0
  0
SCALE
  5
60
102
{ACAD_REACTORS
330
47
102
}
330
47
100
AcDbScale
 70
     0
300
1/4" = 1'-0"
140
0.25
141
12.0
290
     0
  0
SCALE
  5
61
102
{ACAD_REACTORS
330
47
102
}
330
47
100
AcDbScale
 70
     0
300
3/8" = 1'-0"
140
0.375
141
12.0
290
     0
  0
SCALE
  5
62
102
{ACAD_REACTORS
330
47
102
}
330
47
100
AcDbScale
 70
     0
300
1/2" = 1'-0"
140
0.5
141
12.0
290
     0
  0
SCALE
  5
63
102
{ACAD_REACTORS
330
47
102
}
330
47
100
AcDbScale
 70
     0
300
3/4" = 1'-0"
140
0.75
141
12.0
290
     0
  0
SCALE
  5
64
102
{ACAD_REACTORS
330
47
102
}
330
47
100
AcDbScale
 70
     0
300
1" = 1'-0"
140
1.0
141
12.0
290
     0
  0
SCALE
  5
65
102
{ACAD_REACTORS
330
47
102
}
330
47
100
AcDbScale
 70
     0
300
1-1/2" = 1'-0"
140
1.5
141
12.0
290
     0
  0
SCALE
  5
66
102
{ACAD_REACTORS
330
47
102
}
330
47
100
AcDbScale
 70
     0
300
3" = 1'-0"
140
3.0
141
12.0
290
     0
  0
SCALE
  5
67
102
{ACAD_REACTORS
330
47
102
}
330
47
100
AcDbScale
 70
     0
300
6" = 1'-0"
140
6.0
141
12.0
290
     0
  0
SCALE
  5
68
102
{ACAD_REACTORS
330
47
102
}
330
47
100
AcDbScale
 70
     0
300
1'-0" = 1'-0"
140
12.0
141
12.0
290
     0
  0
ENDSEC
  0
EOF
