  0
SECTION
  2
HEADER
  9
$ACADVER
  1
AC1015
  9
$ACADMAINTVER
 70
     6
  9
$DWGCODEPAGE
  3
ANSI_1250
  9
$INSBASE
 10
0.0
 20
0.0
 30
0.0
  9
$EXTMIN
 10
2359.6112918695
 20
2727.0412558025
 30
0.0
  9
$EXTMAX
 10
2774.3007836328
 20
3061.8450041272
 30
0.0
  9
$LIMMIN
 10
0.0
 20
0.0
  9
$LIMMAX
 10
420.0
 20
297.0
  9
$ORTHOMODE
 70
     0
  9
$REGENMODE
 70
     1
  9
$FILLMODE
 70
     1
  9
$QTEXTMODE
 70
     0
  9
$MIRRTEXT
 70
     1
  9
$LTSCALE
 40
1.0
  9
$ATTMODE
 70
     1
  9
$TEXTSIZE
 40
3.5
  9
$TRACEWID
 40
1.0
  9
$TEXTSTYLE
  7
Standard
  9
$CLAYER
  8
0
  9
$CELTYPE
  6
ByLayer
  9
$CECOLOR
 62
   256
  9
$CELTSCALE
 40
1.0
  9
$DISPSILH
 70
     0
  9
$DIMSCALE
 40
1.0
  9
$DIMASZ
 40
3.302
  9
$DIMEXO
 40
0.0
  9
$DIMDLI
 40
3.75
  9
$DIMRND
 40
0.0
  9
$DIMDLE
 40
0.0
  9
$DIMEXE
 40
1.0
  9
$DIMTP
 40
0.0
  9
$DIMTM
 40
0.0
  9
$DIMTXT
 40
3.5
  9
$DIMCEN
 40
2.5
  9
$DIMTSZ
 40
0.0
  9
$DIMTOL
 70
     0
  9
$DIMLIM
 70
     0
  9
$DIMTIH
 70
     1
  9
$DIMTOH
 70
     1
  9
$DIMSE1
 70
     0
  9
$DIMSE2
 70
     0
  9
$DIMTAD
 70
     1
  9
$DIMZIN
 70
     0
  9
$DIMBLK
  1

  9
$DIMASO
 70
     1
  9
$DIMSHO
 70
     1
  9
$DIMPOST
  1

  9
$DIMAPOST
  1

  9
$DIMALT
 70
     0
  9
$DIMALTD
 70
     3
  9
$DIMALTF
 40
0.0393700787
  9
$DIMLFAC
 40
1.0
  9
$DIMTOFL
 70
     1
  9
$DIMTVP
 40
0.0
  9
$DIMTIX
 70
     0
  9
$DIMSOXD
 70
     0
  9
$DIMSAH
 70
     0
  9
$DIMBLK1
  1

  9
$DIMBLK2
  1

  9
$DIMSTYLE
  2
ISO-25
  9
$DIMCLRD
 70
     0
  9
$DIMCLRE
 70
     0
  9
$DIMCLRT
 70
     0
  9
$DIMTFAC
 40
1.0
  9
$DIMGAP
 40
1.524
  9
$DIMJUST
 70
     0
  9
$DIMSD1
 70
     0
  9
$DIMSD2
 70
     0
  9
$DIMTOLJ
 70
     0
  9
$DIMTZIN
 70
     0
  9
$DIMALTZ
 70
     0
  9
$DIMALTTZ
 70
     0
  9
$DIMUPT
 70
     0
  9
$DIMDEC
 70
     2
  9
$DIMTDEC
 70
     2
  9
$DIMALTU
 70
     2
  9
$DIMALTTD
 70
     3
  9
$DIMTXSTY
  7
Standard
  9
$DIMAUNIT
 70
     0
  9
$DIMADEC
 70
     2
  9
$DIMALTRND
 40
0.0
  9
$DIMAZIN
 70
     0
  9
$DIMDSEP
 70
    44
  9
$DIMATFIT
 70
     3
  9
$DIMFRAC
 70
     0
  9
$DIMLDRBLK
  1

  9
$DIMLUNIT
 70
     2
  9
$DIMLWD
 70
    -2
  9
$DIMLWE
 70
    -2
  9
$DIMTMOVE
 70
     0
  9
$LUNITS
 70
     2
  9
$LUPREC
 70
     2
  9
$SKETCHINC
 40
1.0
  9
$FILLETRAD
 40
10.0
  9
$AUNITS
 70
     0
  9
$AUPREC
 70
     2
  9
$MENU
  1
.
  9
$ELEVATION
 40
0.0
  9
$PELEVATION
 40
0.0
  9
$THICKNESS
 40
0.0
  9
$LIMCHECK
 70
     0
  9
$CHAMFERA
 40
0.0
  9
$CHAMFERB
 40
0.0
  9
$CHAMFERC
 40
0.0
  9
$CHAMFERD
 40
0.0
  9
$SKPOLY
 70
     0
  9
$TDCREATE
 40
2459097.465302176
  9
$TDUCREATE
 40
2459097.381968843
  9
$TDUPDATE
 40
2459097.465399618
  9
$TDUUPDATE
 40
2459097.382066285
  9
$TDINDWG
 40
0.0000000116
  9
$TDUSRTIMER
 40
0.0000000116
  9
$USRTIMER
 70
     1
  9
$ANGBASE
 50
0.0
  9
$ANGDIR
 70
     0
  9
$PDMODE
 70
     0
  9
$PDSIZE
 40
-1.0
  9
$PLINEWID
 40
0.0
  9
$SPLFRAME
 70
     0
  9
$SPLINETYPE
 70
     6
  9
$SPLINESEGS
 70
     8
  9
$HANDSEED
  5
261
  9
$SURFTAB1
 70
     6
  9
$SURFTAB2
 70
     6
  9
$SURFTYPE
 70
     6
  9
$SURFU
 70
     6
  9
$SURFV
 70
     6
  9
$UCSBASE
  2

  9
$UCSNAME
  2

  9
$UCSORG
 10
0.0
 20
0.0
 30
0.0
  9
$UCSXDIR
 10
1.0
 20
0.0
 30
0.0
  9
$UCSYDIR
 10
0.0
 20
1.0
 30
0.0
  9
$UCSORTHOREF
  2

  9
$UCSORTHOVIEW
 70
     0
  9
$UCSORGTOP
 10
0.0
 20
0.0
 30
0.0
  9
$UCSORGBOTTOM
 10
0.0
 20
0.0
 30
0.0
  9
$UCSORGLEFT
 10
0.0
 20
0.0
 30
0.0
  9
$UCSORGRIGHT
 10
0.0
 20
0.0
 30
0.0
  9
$UCSORGFRONT
 10
0.0
 20
0.0
 30
0.0
  9
$UCSORGBACK
 10
0.0
 20
0.0
 30
0.0
  9
$PUCSBASE
  2

  9
$PUCSNAME
  2

  9
$PUCSORG
 10
0.0
 20
0.0
 30
0.0
  9
$PUCSXDIR
 10
1.0
 20
0.0
 30
0.0
  9
$PUCSYDIR
 10
0.0
 20
1.0
 30
0.0
  9
$PUCSORTHOREF
  2

  9
$PUCSORTHOVIEW
 70
     0
  9
$PUCSORGTOP
 10
0.0
 20
0.0
 30
0.0
  9
$PUCSORGBOTTOM
 10
0.0
 20
0.0
 30
0.0
  9
$PUCSORGLEFT
 10
0.0
 20
0.0
 30
0.0
  9
$PUCSORGRIGHT
 10
0.0
 20
0.0
 30
0.0
  9
$PUCSORGFRONT
 10
0.0
 20
0.0
 30
0.0
  9
$PUCSORGBACK
 10
0.0
 20
0.0
 30
0.0
  9
$USERI1
 70
     0
  9
$USERI2
 70
     0
  9
$USERI3
 70
     0
  9
$USERI4
 70
     0
  9
$USERI5
 70
     0
  9
$USERR1
 40
0.0
  9
$USERR2
 40
0.0
  9
$USERR3
 40
0.0
  9
$USERR4
 40
0.0
  9
$USERR5
 40
0.0
  9
$WORLDVIEW
 70
     1
  9
$SHADEDGE
 70
     3
  9
$SHADEDIF
 70
    70
  9
$TILEMODE
 70
     1
  9
$MAXACTVP
 70
    64
  9
$PINSBASE
 10
0.0
 20
0.0
 30
0.0
  9
$PLIMCHECK
 70
     0
  9
$PEXTMIN
 10
1.0000000000E+20
 20
1.0000000000E+20
 30
1.0000000000E+20
  9
$PEXTMAX
 10
-1.0000000000E+20
 20
-1.0000000000E+20
 30
-1.0000000000E+20
  9
$PLIMMIN
 10
0.0
 20
0.0
  9
$PLIMMAX
 10
420.0
 20
297.0
  9
$UNITMODE
 70
     0
  9
$VISRETAIN
 70
     1
  9
$PLINEGEN
 70
     0
  9
$PSLTSCALE
 70
     1
  9
$TREEDEPTH
 70
  3020
  9
$CMLSTYLE
  2
Standard
  9
$CMLJUST
 70
     0
  9
$CMLSCALE
 40
20.0
  9
$PROXYGRAPHICS
 70
     1
  9
$MEASUREMENT
 70
     1
  9
$CELWEIGHT
370
    -1
  9
$ENDCAPS
280
     0
  9
$JOINSTYLE
280
     0
  9
$LWDISPLAY
290
     1
  9
$INSUNITS
 70
     4
  9
$HYPERLINKBASE
  1

  9
$STYLESHEET
  1

  9
$XEDIT
290
     1
  9
$CEPSNTYPE
380
     0
  9
$PSTYLEMODE
290
     1
  9
$FINGERPRINTGUID
  2
{313eea4a-aaaf-4cd6-b20b-bd2a0dd8619b}
  9
$VERSIONGUID
  2
{FAEB1C32-E019-11D5-929B-00C0DF256EC4}
  9
$EXTNAMES
290
     1
  9
$PSVPSCALE
 40
0.0
  9
$OLESTARTUP
290
     0
  0
ENDSEC
  0
SECTION
  2
CLASSES
  0
CLASS
  1
ACDBDICTIONARYWDFLT
  2
AcDbDictionaryWithDefault
  3
ObjectDBX Classes
 90
        0
280
     0
281
     0
  0
CLASS
  1
VISUALSTYLE
  2
AcDbVisualStyle
  3
ObjectDBX Classes
 90
     4095
280
     0
281
     0
  0
CLASS
  1
MATERIAL
  2
AcDbMaterial
  3
ObjectDBX Classes
 90
     1153
280
     0
281
     0
  0
CLASS
  1
SCALE
  2
AcDbScale
  3
ObjectDBX Classes
 90
     1153
280
     0
281
     0
  0
CLASS
  1
TABLESTYLE
  2
AcDbTableStyle
  3
ObjectDBX Classes
 90
     4095
280
     0
281
     0
  0
CLASS
  1
MLEADERSTYLE
  2
AcDbMLeaderStyle
  3
ACDB_MLEADERSTYLE_CLASS
 90
     4095
280
     0
281
     0
  0
CLASS
  1
SUN
  2
AcDbSun
  3
SCENEOE
 90
     1153
280
     0
281
     0
  0
CLASS
  1
ACDBPLACEHOLDER
  2
AcDbPlaceHolder
  3
ObjectDBX Classes
 90
        0
280
     0
281
     0
  0
CLASS
  1
LAYOUT
  2
AcDbLayout
  3
ObjectDBX Classes
 90
        0
280
     0
281
     0
  0
ENDSEC
  0
SECTION
  2
TABLES
  0
TABLE
  2
VPORT
  5
8
330
0
100
AcDbSymbolTable
 70
     1
  0
VPORT
  5
29
330
8
100
AcDbSymbolTableRecord
100
AcDbViewportTableRecord
  2
*Active
 70
     0
 10
0.0
 20
0.0
 11
1.0
 21
1.0
 12
2566.9560377511
 22
2894.4431299648
 13
0.0
 23
0.0
 14
10.0
 24
10.0
 15
10.0
 25
10.0
 16
0.0
 26
0.0
 36
1.0
 17
0.0
 27
0.0
 37
0.0
 40
341.4998232913
 41
1.2386046866
 42
50.0
 43
0.0
 44
0.0
 50
0.0
 51
0.0
 71
     0
 72
   100
 73
     1
 74
     3
 75
     0
 76
     0
 77
     0
 78
     0
281
     0
 65
     1
110
0.0
120
0.0
130
0.0
111
1.0
121
0.0
131
0.0
112
0.0
122
1.0
132
0.0
 79
     0
146
0.0
  0
ENDTAB
  0
TABLE
  2
LTYPE
  5
5
330
0
100
AcDbSymbolTable
 70
     6
  0
LTYPE
  5
14
330
5
100
AcDbSymbolTableRecord
100
AcDbLinetypeTableRecord
  2
ByBlock
 70
     0
  3

 72
    65
 73
     0
 40
0.0
  0
LTYPE
  5
15
330
5
100
AcDbSymbolTableRecord
100
AcDbLinetypeTableRecord
  2
ByLayer
 70
     0
  3

 72
    65
 73
     0
 40
0.0
  0
LTYPE
  5
16
330
5
100
AcDbSymbolTableRecord
100
AcDbLinetypeTableRecord
  2
Continuous
 70
     0
  3
Solid line
 72
    65
 73
     0
 40
0.0
  0
LTYPE
  5
6E
330
5
100
AcDbSymbolTableRecord
100
AcDbLinetypeTableRecord
  2
HIDDEN
 70
     0
  3
Hidden __ __ __ __ __ __ __ __ __ __ __ __ __ __
 72
    65
 73
     2
 40
1.905
 49
1.27
 74
     0
 49
-0.635
 74
     0
  0
LTYPE
  5
6F
330
5
100
AcDbSymbolTableRecord
100
AcDbLinetypeTableRecord
  2
PHANTOM
 70
     0
  3
Phantom ______  __  __  ______  __  __  ______
 72
    65
 73
     6
 40
12.7
 49
6.35
 74
     0
 49
-1.27
 74
     0
 49
1.27
 74
     0
 49
-1.27
 74
     0
 49
1.27
 74
     0
 49
-1.27
 74
     0
  0
LTYPE
  5
70
330
5
100
AcDbSymbolTableRecord
100
AcDbLinetypeTableRecord
  2
CENTER
 70
     0
  3
Center ____ _ ____ _ ____ _ ____ _ ____ _ ____
 72
    65
 73
     4
 40
10.16
 49
6.35
 74
     0
 49
-1.27
 74
     0
 49
1.27
 74
     0
 49
-1.27
 74
     0
  0
LTYPE
  5
71
330
5
100
AcDbSymbolTableRecord
100
AcDbLinetypeTableRecord
  2
CENTERX2
 70
     0
  3
Center (2x) ________  __  ________  __  _____
 72
    65
 73
     4
 40
20.32
 49
12.7
 74
     0
 49
-2.54
 74
     0
 49
2.54
 74
     0
 49
-2.54
 74
     0
  0
LTYPE
  5
72
330
5
100
AcDbSymbolTableRecord
100
AcDbLinetypeTableRecord
  2
DOT2
 70
     0
  3
Dot (.5x) ........................................
 72
    65
 73
     2
 40
0.635
 49
0.0
 74
     0
 49
-0.635
 74
     0
  0
ENDTAB
  0
TABLE
  2
LAYER
  5
2
330
0
100
AcDbSymbolTable
 70
     1
  0
LAYER
  5
10
330
2
100
AcDbSymbolTableRecord
100
AcDbLayerTableRecord
  2
0
 70
     0
 62
     7
  6
Continuous
370
    -3
390
F
  0
ENDTAB
  0
TABLE
  2
STYLE
  5
3
330
0
100
AcDbSymbolTable
 70
     1
  0
STYLE
  5
11
330
3
100
AcDbSymbolTableRecord
100
AcDbTextStyleTableRecord
  2
Standard
 70
     0
 40
0.0
 41
1.0
 50
0.0
 71
     0
 42
3.5
  3
txt
  4

  0
ENDTAB
  0
TABLE
  2
VIEW
  5
6
330
0
100
AcDbSymbolTable
 70
     0
  0
ENDTAB
  0
TABLE
  2
UCS
  5
7
330
0
100
AcDbSymbolTable
 70
     0
  0
ENDTAB
  0
TABLE
  2
APPID
  5
9
330
0
100
AcDbSymbolTable
 70
     1
  0
APPID
  5
12
330
9
100
AcDbSymbolTableRecord
100
AcDbRegAppTableRecord
  2
ACAD
 70
     0
  0
ENDTAB
  0
TABLE
  2
DIMSTYLE
  5
A
330
0
100
AcDbSymbolTable
 70
     1
100
AcDbDimStyleTable
  0
DIMSTYLE
105
27
330
A
100
AcDbSymbolTableRecord
100
AcDbDimStyleTableRecord
  2
ISO-25
 70
     0
 41
2.5
 42
0.625
 43
3.75
 44
1.25
 73
     0
 74
     0
 77
     1
 78
     8
140
2.5
141
2.5
143
0.0393700787
147
0.625
171
     3
172
     1
178
     0
271
     2
272
     2
274
     3
278
    44
283
     0
284
     8
340
11
  0
ENDTAB
  0
TABLE
  2
BLOCK_RECORD
  5
1
330
0
100
AcDbSymbolTable
 70
     1
  0
BLOCK_RECORD
  5
1F
330
1
100
AcDbSymbolTableRecord
100
AcDbBlockTableRecord
  2
*Model_Space
340
22
  0
BLOCK_RECORD
  5
1B
330
1
100
AcDbSymbolTableRecord
100
AcDbBlockTableRecord
  2
*Paper_Space
340
1E
  0
BLOCK_RECORD
  5
23
330
1
100
AcDbSymbolTableRecord
100
AcDbBlockTableRecord
  2
*Paper_Space0
340
26
  0
ENDTAB
  0
ENDSEC
  0
SECTION
  2
BLOCKS
  0
BLOCK
  5
20
330
1F
100
AcDbEntity
  8
0
100
AcDbBlockBegin
  2
*Model_Space
 70
     0
 10
0.0
 20
0.0
 30
0.0
  3
*Model_Space
  1

  0
ENDBLK
  5
21
330
1F
100
AcDbEntity
  8
0
100
AcDbBlockEnd
  0
BLOCK
  5
1C
330
1B
100
AcDbEntity
 67
     1
  8
0
100
AcDbBlockBegin
  2
*Paper_Space
 70
     0
 10
0.0
 20
0.0
 30
0.0
  3
*Paper_Space
  1

  0
ENDBLK
  5
1D
330
1B
100
AcDbEntity
 67
     1
  8
0
100
AcDbBlockEnd
  0
BLOCK
  5
24
330
23
100
AcDbEntity
  8
0
100
AcDbBlockBegin
  2
*Paper_Space0
 70
     0
 10
0.0
 20
0.0
 30
0.0
  3
*Paper_Space0
  1

  0
ENDBLK
  5
25
330
23
100
AcDbEntity
  8
0
100
AcDbBlockEnd
  0
ENDSEC
  0
SECTION
  2
ENTITIES
  0
ARC
  5
73
330
1F
100
AcDbEntity
  8
0
  6
Continuous
 62
     7
100
AcDbCircle
 10
2390.5459335033
 20
2939.0573681756
 30
0.0
 40
0.8228146367592315
100
AcDbArc
 50
207.3119950196
 51
242.6881442685
  0
ARC
  5
74
330
1F
100
AcDbEntity
  8
0
  6
Continuous
 62
     7
100
AcDbCircle
 10
2390.1467933505
 20
2768.7908302048
 30
0.0
 40
169.8893256389793
100
AcDbArc
 50
89.9927135357
 51
90.1119507458
  0
ARC
  5
75
330
1F
100
AcDbEntity
  8
0
  6
Continuous
 62
     7
100
AcDbCircle
 10
2489.5240675022
 20
2938.768026499
 30
0.0
 40
0.4461856341744875
100
AcDbArc
 50
261.911994142
 51
348.4974506392
  0
ARC
  5
76
330
1F
100
AcDbEntity
  8
0
  6
Continuous
 62
     7
100
AcDbCircle
 10
2489.5862912224
 20
2881.9916898094
 30
0.0
 40
56.68860247362932
100
AcDbArc
 50
89.6209800531
 51
90.1263382912
  0
ARC
  5
77
330
1F
100
AcDbEntity
  8
0
  6
Continuous
 62
     7
100
AcDbCircle
 10
2390.1467932228
 20
2790.1765644546
 30
0.0
 40
169.8893258342265
100
AcDbArc
 50
89.9927134926
 51
90.1119507026
  0
ARC
  5
78
330
1F
100
AcDbEntity
  8
0
  6
Continuous
 62
     7
100
AcDbCircle
 10
2489.5862912789
 20
2903.3774241675
 30
0.0
 40
56.68860256070595
100
AcDbArc
 50
89.6209801108
 51
90.1263383481
  0
ARC
  5
79
330
1F
100
AcDbEntity
  8
0
  6
Continuous
 62
     7
100
AcDbCircle
 10
2390.5433943528
 20
2959.6905685178
 30
0.0
 40
0.8193942185173134
100
AcDbArc
 50
117.2355650921
 51
152.7642956572
  0
ARC
  5
7A
330
1F
100
AcDbEntity
  8
0
  6
Continuous
 62
     7
100
AcDbCircle
 10
2489.5235162368
 20
2959.9769812407
 30
0.0
 40
0.44649439795004
100
AcDbArc
 50
11.3413922497
 51
98.0109315782
  0
ARC
  5
7B
330
1F
100
AcDbEntity
  8
0
  6
Continuous
 62
     7
100
AcDbCircle
 10
2387.8388267221
 20
2936.3442986256
 30
0.0
 40
0.8228146367679238
100
AcDbArc
 50
207.3119949996
 51
242.68814428
  0
ARC
  5
7C
330
1F
100
AcDbEntity
  8
0
  6
Continuous
 62
     7
100
AcDbCircle
 10
2387.8362875712
 20
2962.391699367
 30
0.0
 40
0.819394218520151
100
AcDbArc
 50
117.2355650483
 51
152.7642956186
  0
ARC
  5
7D
330
1F
100
AcDbEntity
  8
0
  6
Continuous
 62
     7
100
AcDbCircle
 10
2489.5240675021
 20
2936.054956949
 30
0.0
 40
0.4461856341749469
100
AcDbArc
 50
261.9119941548
 51
348.4974507028
  0
ARC
  5
7E
330
1F
100
AcDbEntity
  8
0
  6
Continuous
 62
     7
100
AcDbCircle
 10
2489.5235162369
 20
2962.6781120902
 30
0.0
 40
0.4464943979513171
100
AcDbArc
 50
11.3413923134
 51
98.0109315906
  0
ARC
  5
7F
330
1F
100
AcDbEntity
  8
0
  6
Continuous
 62
     7
100
AcDbCircle
 10
2387.4612912615
 20
2935.9659829947
 30
0.0
 40
0.499999392210071
100
AcDbArc
 50
180.0000696194
 51
270.0000696679
  0
ARC
  5
80
330
1F
100
AcDbEntity
  8
0
  6
Continuous
 62
     7
100
AcDbCircle
 10
2387.086677076
 20
2926.1679515245
 30
0.0
 40
9.798833105826303
100
AcDbArc
 50
89.8768495797
 51
90.733172934
  0
ARC
  5
81
330
1F
100
AcDbEntity
  8
0
  6
Continuous
 62
     7
100
AcDbCircle
 10
2489.4612924773
 20
2935.9659829947
 30
0.0
 40
0.4999993922096165
100
AcDbArc
 50
269.9999303523
 51
359.9999303614
  0
ARC
  5
82
330
1F
100
AcDbEntity
  8
0
  6
Continuous
 62
     7
100
AcDbCircle
 10
2387.0866770767
 20
2952.9678863645
 30
0.0
 40
9.798833110460457
100
AcDbArc
 50
89.8768495838
 51
90.7331729376
  0
ARC
  5
83
330
1F
100
AcDbEntity
  8
0
  6
Continuous
 62
     7
100
AcDbCircle
 10
2387.4612912615
 20
2962.7659166243
 30
0.0
 40
0.4999993922114357
100
AcDbArc
 50
89.9999303322
 51
179.9999303853
  0
ARC
  5
84
330
1F
100
AcDbEntity
  8
0
  6
Continuous
 62
     7
100
AcDbCircle
 10
2489.4612924773
 20
2962.7659166243
 30
0.0
 40
0.499999392212345
100
AcDbArc
 50
0.0000696387
 51
90.0000696475
  0
ARC
  5
85
330
1F
100
AcDbEntity
  8
0
  6
Continuous
 62
     7
100
AcDbCircle
 10
2387.4612912615
 20
2935.9481376287
 30
0.0
 40
0.4999993922123452
100
AcDbArc
 50
180.0000696388
 51
270.0000696676
  0
ARC
  5
86
330
1F
100
AcDbEntity
  8
0
  6
Continuous
 62
     7
100
AcDbCircle
 10
2495.0612905325
 20
2955.8474919356
 30
0.0
 40
1.09999866286252
100
AcDbArc
 50
89.9999303595
 51
179.9999303595
  0
ARC
  5
87
330
1F
100
AcDbEntity
  8
0
  6
Continuous
 62
     7
100
AcDbCircle
 10
2495.0612903045
 20
2942.94752588
 30
0.0
 40
1.099998434923034
100
AcDbArc
 50
180.0000648586
 51
264.2614970955
  0
ARC
  5
88
330
1F
100
AcDbEntity
  8
0
  6
Continuous
 62
     7
100
AcDbCircle
 10
2526.4612934345
 20
2942.94752588
 30
0.0
 40
1.099998434921667
100
AcDbArc
 50
275.7385029044
 51
359.9999351414
  0
ARC
  5
89
330
1F
100
AcDbEntity
  8
0
  6
Continuous
 62
     7
100
AcDbCircle
 10
2526.4612932065
 20
2955.8474919356
 30
0.0
 40
1.09999866286343
100
AcDbArc
 50
0.0000696406
 51
90.0000696405
  0
ARC
  5
8A
330
1F
100
AcDbEntity
  8
0
  6
Continuous
 62
     7
100
AcDbCircle
 10
2495.0612905325
 20
2955.8463894026
 30
0.0
 40
1.09999866286343
100
AcDbArc
 50
89.9999303595
 51
179.9999303593
  0
ARC
  5
8B
330
1F
100
AcDbEntity
  8
0
  6
Continuous
 62
     7
100
AcDbCircle
 10
2526.4612932065
 20
2955.8463894026
 30
0.0
 40
1.099998662864794
100
AcDbArc
 50
0.0000696408
 51
90.0000696405
  0
ARC
  5
8C
330
1F
100
AcDbEntity
  8
0
  6
Continuous
 62
     7
100
AcDbCircle
 10
2495.0612906539
 20
2942.9541410494
 30
0.0
 40
0.9999987844215067
100
AcDbArc
 50
180.0000696385
 51
270.0000696476
  0
ARC
  5
8D
330
1F
100
AcDbEntity
  8
0
  6
Continuous
 62
     7
100
AcDbCircle
 10
2495.0612906539
 20
2942.9464233174
 30
0.0
 40
0.999998784421962
100
AcDbArc
 50
180.0000696672
 51
270.0000696476
  0
ARC
  5
8E
330
1F
100
AcDbEntity
  8
0
  6
Continuous
 62
     7
100
AcDbCircle
 10
2495.0612906539
 20
2955.8541072561
 30
0.0
 40
0.9999987844224167
100
AcDbArc
 50
89.9999303524
 51
179.9999303327
  0
ARC
  5
8F
330
1F
100
AcDbEntity
  8
0
  6
Continuous
 62
     7
100
AcDbCircle
 10
2526.4612930851
 20
2955.8541072561
 30
0.0
 40
0.9999987844224167
100
AcDbArc
 50
0.0000696673
 51
90.0000696476
  0
ARC
  5
90
330
1F
100
AcDbEntity
  8
0
  6
Continuous
 62
     7
100
AcDbCircle
 10
2526.4612930851
 20
2942.9541410494
 30
0.0
 40
0.9999987844215068
100
AcDbArc
 50
269.9999303524
 51
359.9999303614
  0
ARC
  5
91
330
1F
100
AcDbEntity
  8
0
  6
Continuous
 62
     7
100
AcDbCircle
 10
2526.4612930851
 20
2942.9464233174
 30
0.0
 40
0.9999987844219616
100
AcDbArc
 50
269.9999303524
 51
359.9999303328
  0
ARC
  5
92
330
1F
100
AcDbEntity
  8
0
  6
Continuous
 62
     7
100
AcDbCircle
 10
2490.598516237
 20
2938.798026426
 30
0.0
 40
0.4461856341756956
100
AcDbArc
 50
191.5025493215
 51
278.088005838
  0
ARC
  5
93
330
1F
100
AcDbEntity
  8
0
  6
Continuous
 62
     7
100
AcDbCircle
 10
2490.5362924803
 20
2882.0216896495
 30
0.0
 40
56.68860256060056
100
AcDbArc
 50
89.8736616723
 51
90.3790199095
  0
ARC
  5
94
330
1F
100
AcDbEntity
  8
0
  6
Continuous
 62
     7
100
AcDbCircle
 10
2548.9757903549
 20
2768.8208304499
 30
0.0
 40
169.8893253209334
100
AcDbArc
 50
89.8880492428
 51
90.007286453
  0
ARC
  5
95
330
1F
100
AcDbEntity
  8
0
  6
Continuous
 62
     7
100
AcDbCircle
 10
2548.5766502355
 20
2939.0873681024
 30
0.0
 40
0.8228146367704384
100
AcDbArc
 50
297.3118557532
 51
332.6880049857
  0
ARC
  5
96
330
1F
100
AcDbEntity
  8
0
  6
Continuous
 62
     7
100
AcDbCircle
 10
2526.7112929027
 20
2956.1030042977
 30
0.0
 40
0.8499989667581671
100
AcDbArc
 50
0.0000696486
 51
90.0000696477
  0
ARC
  5
97
330
1F
100
AcDbEntity
  8
0
  6
Continuous
 62
     7
100
AcDbCircle
 10
2494.8112908363
 20
2956.1030042977
 30
0.0
 40
0.8499989667586219
100
AcDbArc
 50
89.9999303524
 51
179.9999303513
  0
ARC
  5
98
330
1F
100
AcDbEntity
  8
0
  6
Continuous
 62
     7
100
AcDbCircle
 10
2494.8112908363
 20
2942.7030389418
 30
0.0
 40
0.8499989667590767
100
AcDbArc
 50
180.0000696487
 51
270.0000696476
  0
ARC
  5
99
330
1F
100
AcDbEntity
  8
0
  6
Continuous
 62
     7
100
AcDbCircle
 10
2526.7112929027
 20
2942.7030389418
 30
0.0
 40
0.8499989667563482
100
AcDbArc
 50
269.9999303522
 51
359.9999303515
  0
ARC
  5
9A
330
1F
100
AcDbEntity
  8
0
  6
Continuous
 62
     7
100
AcDbCircle
 10
2490.536292517
 20
2903.407424046
 30
0.0
 40
56.68860260957792
100
AcDbArc
 50
89.8736617095
 51
90.3790199463
  0
ARC
  5
9B
330
1F
100
AcDbEntity
  8
0
  6
Continuous
 62
     7
100
AcDbCircle
 10
2548.9757903872
 20
2790.2065635936
 30
0.0
 40
169.889326622732
100
AcDbArc
 50
89.8880492545
 51
90.0072864638
  0
ARC
  5
9C
330
1F
100
AcDbEntity
  8
0
  6
Continuous
 62
     7
100
AcDbCircle
 10
2494.811290836
 20
2956.0974916317
 30
0.0
 40
0.8499989667581674
100
AcDbArc
 50
89.999930335
 51
179.9999303349
  0
ARC
  5
9D
330
1F
100
AcDbEntity
  8
0
  6
Continuous
 62
     7
100
AcDbCircle
 10
2526.7112929025
 20
2956.0974916317
 30
0.0
 40
0.8499989667577127
100
AcDbArc
 50
0.0000696651
 51
90.0000696313
  0
ARC
  5
9E
330
1F
100
AcDbEntity
  8
0
  6
Continuous
 62
     7
100
AcDbCircle
 10
2490.5990675023
 20
2960.0069811677
 30
0.0
 40
0.44649439795014
100
AcDbArc
 50
81.9890684335
 51
168.6586077487
  0
ARC
  5
9F
330
1F
100
AcDbEntity
  8
0
  6
Continuous
 62
     7
100
AcDbCircle
 10
2548.579189386
 20
2959.7205684449
 30
0.0
 40
0.8193942185202684
100
AcDbArc
 50
27.2357043546
 51
62.7644348952
  0
ARC
  5
A0
330
1F
100
AcDbEntity
  8
0
  6
Continuous
 62
     7
100
AcDbCircle
 10
2551.2837570167
 20
2936.3742985526
 30
0.0
 40
0.8228146367647327
100
AcDbArc
 50
297.3118557317
 51
332.6880049804
  0
ARC
  5
A1
330
1F
100
AcDbEntity
  8
0
  6
Continuous
 62
     7
100
AcDbCircle
 10
2551.2862961674
 20
2962.4216992942
 30
0.0
 40
0.8193942185149008
100
AcDbArc
 50
27.2357043675
 51
62.7644349205
  0
ARC
  5
A2
330
1F
100
AcDbEntity
  8
0
  6
Continuous
 62
     7
100
AcDbCircle
 10
2490.598516237
 20
2936.0849568761
 30
0.0
 40
0.4461856341744989
100
AcDbArc
 50
191.5025492987
 51
278.0880058336
  0
ARC
  5
A3
330
1F
100
AcDbEntity
  8
0
  6
Continuous
 62
     7
100
AcDbCircle
 10
2490.5990675022
 20
2962.7081120172
 30
0.0
 40
0.4464943979491429
100
AcDbArc
 50
81.989068426
 51
168.6586077117
  0
ARC
  5
A4
330
1F
100
AcDbEntity
  8
0
  6
Continuous
 62
     7
100
AcDbCircle
 10
2552.0359066739
 20
2926.1979514281
 30
0.0
 40
9.798833128955788
100
AcDbArc
 50
89.2668271325
 51
90.1231504854
  0
ARC
  5
A5
330
1F
100
AcDbEntity
  8
0
  6
Continuous
 62
     7
100
AcDbCircle
 10
2551.6612924773
 20
2935.9959829217
 30
0.0
 40
0.4999993922109808
100
AcDbArc
 50
269.9999303524
 51
359.9999303614
  0
ARC
  5
A6
330
1F
100
AcDbEntity
  8
0
  6
Continuous
 62
     7
100
AcDbCircle
 10
2490.6612912618
 20
2935.9959829217
 30
0.0
 40
0.4999993922105259
100
AcDbArc
 50
180.0000696385
 51
270.0000696371
  0
ARC
  5
A7
330
1F
100
AcDbEntity
  8
0
  6
Continuous
 62
     7
100
AcDbCircle
 10
2552.0359066741
 20
2952.9978863146
 30
0.0
 40
9.798833087384487
100
AcDbArc
 50
89.2668271308
 51
90.1231504874
  0
ARC
  5
A8
330
1F
100
AcDbEntity
  8
0
  6
Continuous
 62
     7
100
AcDbCircle
 10
2551.6612924773
 20
2962.7959165513
 30
0.0
 40
0.4999993922118903
100
AcDbArc
 50
0.0000696387
 51
90.0000696475
  0
ARC
  5
A9
330
1F
100
AcDbEntity
  8
0
  6
Continuous
 62
     7
100
AcDbCircle
 10
2490.6612912618
 20
2962.7959165513
 30
0.0
 40
0.4999993922118899
100
AcDbArc
 50
89.9999303631
 51
179.9999303852
  0
ARC
  5
AA
330
1F
100
AcDbEntity
  8
0
  6
Continuous
 62
     7
100
AcDbCircle
 10
2551.6612924773
 20
2935.9838707282
 30
0.0
 40
0.4999993922109808
100
AcDbArc
 50
269.9999303524
 51
359.9999303614
  0
ARC
  5
AB
330
1F
100
AcDbEntity
  8
0
  6
Continuous
 62
     7
100
AcDbCircle
 10
2550.6112918695
 20
2937.4483587435
 30
0.0
 40
3.0
100
AcDbArc
 50
270.0
 51
360.0
  0
ARC
  5
AC
330
1F
100
AcDbEntity
  8
0
  6
Continuous
 62
     7
100
AcDbCircle
 10
2550.6112918695
 20
2937.4483587435
 30
0.0
 40
4.0
100
AcDbArc
 50
270.0
 51
360.0
  0
ARC
  5
AD
330
1F
100
AcDbEntity
  8
0
  6
Continuous
 62
     7
100
AcDbCircle
 10
2360.6112918695
 20
2911.4483587435
 30
0.0
 40
1.000000000000455
100
AcDbArc
 50
180.0
 51
270.0
  0
ARC
  5
AE
330
1F
100
AcDbEntity
  8
0
  6
Continuous
 62
     7
100
AcDbCircle
 10
2578.6112918695
 20
2911.4483587435
 30
0.0
 40
1.000000000000455
100
AcDbArc
 50
270.0
 51
0.0
  0
ARC
  5
AF
330
1F
100
AcDbEntity
  8
0
  6
Continuous
 62
     7
100
AcDbCircle
 10
2388.6112918695
 20
2961.4483587435
 30
0.0
 40
3.999999999999545
100
AcDbArc
 50
90.0
 51
180.0
  0
ARC
  5
B0
330
1F
100
AcDbEntity
  8
0
  6
Continuous
 62
     7
100
AcDbCircle
 10
2388.6112918695
 20
2961.4483587435
 30
0.0
 40
3.0
100
AcDbArc
 50
90.0
 51
180.0
  0
ARC
  5
B1
330
1F
100
AcDbEntity
  8
0
  6
Continuous
 62
     7
100
AcDbCircle
 10
2388.6112918695
 20
2937.4483587435
 30
0.0
 40
4.0
100
AcDbArc
 50
180.0
 51
270.0
  0
ARC
  5
B2
330
1F
100
AcDbEntity
  8
0
  6
Continuous
 62
     7
100
AcDbCircle
 10
2550.6112918695
 20
2961.4483587435
 30
0.0
 40
4.0
100
AcDbArc
 50
0.0
 51
90.0
  0
ARC
  5
B3
330
1F
100
AcDbEntity
  8
0
  6
Continuous
 62
     7
100
AcDbCircle
 10
2360.6112918695
 20
3059.4483587435
 30
0.0
 40
0.9999999999995453
100
AcDbArc
 50
90.0
 51
180.0
  0
ARC
  5
B4
330
1F
100
AcDbEntity
  8
0
  6
Continuous
 62
     7
100
AcDbCircle
 10
2578.6112918695
 20
3059.4483587435
 30
0.0
 40
1.0
100
AcDbArc
 50
0.0
 51
90.0
  0
ARC
  5
B5
330
1F
100
AcDbEntity
  8
0
  6
Continuous
 62
     7
100
AcDbCircle
 10
2388.6112918695
 20
2937.4483587435
 30
0.0
 40
3.000000000000455
100
AcDbArc
 50
180.0
 51
270.0
  0
ARC
  5
B6
330
1F
100
AcDbEntity
  8
0
  6
Continuous
 62
     7
100
AcDbCircle
 10
2550.6112918695
 20
2961.4483587435
 30
0.0
 40
2.999999999999545
100
AcDbArc
 50
0.0
 51
90.0
  0
ARC
  5
B7
330
1F
100
AcDbEntity
  8
0
  6
Continuous
 62
     7
100
AcDbCircle
 10
2544.6112918695
 20
2942.8983587435
 30
0.0
 40
9.00000000000004
100
AcDbArc
 50
290.1342107453
 51
304.529754567
  0
ARC
  5
B8
330
1F
100
AcDbEntity
  8
0
  6
Continuous
 62
     7
100
AcDbCircle
 10
2544.6112918695
 20
2942.8983587435
 30
0.0
 40
8.999999999999913
100
AcDbArc
 50
327.0229743576
 51
17.7822834065
  0
ARC
  5
B9
330
1F
100
AcDbEntity
  8
0
  6
Continuous
 62
     7
100
AcDbCircle
 10
2544.6112918695
 20
2942.8983587435
 30
0.0
 40
9.000000000000302
100
AcDbArc
 50
235.470245433
 51
249.8657892547
  0
ARC
  5
BA
330
1F
100
AcDbEntity
  8
0
  6
Continuous
 62
     7
100
AcDbCircle
 10
2411.6112918695
 20
2942.8983587435
 30
0.0
 40
9.000000000000572
100
AcDbArc
 50
290.1342107453
 51
304.1263636713
  0
ARC
  5
BB
330
1F
100
AcDbEntity
  8
0
  6
Continuous
 62
     7
100
AcDbCircle
 10
2411.6112918695
 20
2942.8983587435
 30
0.0
 40
9.000000000000664
100
AcDbArc
 50
235.8736363287
 51
249.8657892547
  0
ARC
  5
BC
330
1F
100
AcDbEntity
  8
0
  6
Continuous
 62
     7
100
AcDbCircle
 10
2770.7070053413
 20
2937.1860714464
 30
0.0
 40
0.3093047045907951
100
AcDbArc
 50
325.2694049904
 51
34.9832772158
  0
ARC
  5
BD
330
1F
100
AcDbEntity
  8
0
  6
Continuous
 62
     7
100
AcDbCircle
 10
2770.6068721607
 20
2937.3626277706
 30
0.0
 40
0.4999999999999648
100
AcDbArc
 50
270.1263410867
 51
315.1263411081
  0
ARC
  5
BE
330
1F
100
AcDbEntity
  8
0
  6
Continuous
 62
     7
100
AcDbCircle
 10
2770.6471299557
 20
2964.3395588225
 30
0.0
 40
0.3093047045909247
100
AcDbArc
 50
325.2694049418
 51
34.9832771941
  0
ARC
  5
BF
330
1F
100
AcDbEntity
  8
0
  6
Continuous
 62
     7
100
AcDbCircle
 10
2770.5477763836
 20
2964.1625626158
 30
0.0
 40
0.5000000000003977
100
AcDbArc
 50
45.126341047
 51
90.1263410574
  0
ARC
  5
C0
330
1F
100
AcDbEntity
  8
0
  6
Continuous
 62
     7
100
AcDbCircle
 10
2773.3601995057
 20
2961.6384279724
 30
0.0
 40
0.3093047045920038
100
AcDbArc
 50
325.2694049664
 51
34.9832773313
  0
ARC
  5
C1
330
1F
100
AcDbEntity
  8
0
  6
Continuous
 62
     7
100
AcDbCircle
 10
2773.4081361912
 20
2939.8991409965
 30
0.0
 40
0.3093047045905522
100
AcDbArc
 50
325.2694049417
 51
34.9832771941
  0
ARC
  5
C2
330
1F
100
AcDbEntity
  8
0
  6
Continuous
 62
     7
100
AcDbCircle
 10
2773.3080030109
 20
2940.0756973209
 30
0.0
 40
0.5000000000004169
100
AcDbArc
 50
315.1263410471
 51
0.1263410575
  0
ARC
  5
C3
330
1F
100
AcDbEntity
  8
0
  6
Continuous
 62
     7
100
AcDbCircle
 10
2773.2608459334
 20
2961.461431766
 30
0.0
 40
0.5000000000005478
100
AcDbArc
 50
0.1263410406
 51
45.1263410886
  0
ARC
  5
C4
330
1F
100
AcDbEntity
  8
0
  6
Continuous
 62
     7
100
AcDbCircle
 10
2770.5477102316
 20
2964.1925625428
 30
0.0
 40
0.5000000000010423
100
AcDbArc
 50
45.1263410471
 51
90.1263410574
  0
ARC
  5
C5
330
1F
100
AcDbEntity
  8
0
  6
Continuous
 62
     7
100
AcDbCircle
 10
2773.2607797819
 20
2961.4914316925
 30
0.0
 40
0.4999999999998684
100
AcDbArc
 50
0.1263411552
 51
45.1263411699
  0
ARC
  5
C6
330
1F
100
AcDbEntity
  8
0
  6
Continuous
 62
     7
100
AcDbCircle
 10
2747.7151011503
 20
3040.3450041272
 30
0.0
 40
1.500000000000455
100
AcDbArc
 50
90.0
 51
180.0
  0
ARC
  5
C7
330
1F
100
AcDbEntity
  8
0
  6
Continuous
 62
     7
100
AcDbCircle
 10
2747.7151011503
 20
2928.3450041272
 30
0.0
 40
1.499999999999545
100
AcDbArc
 50
180.0
 51
270.0
  0
ARC
  5
C8
330
1F
100
AcDbEntity
  8
0
  6
Continuous
 62
     7
100
AcDbCircle
 10
2769.0151011503
 20
2912.8450041272
 30
0.0
 40
1.000000000000455
100
AcDbArc
 50
270.0
 51
0.0
  0
ARC
  5
C9
330
1F
100
AcDbEntity
  8
0
  6
Continuous
 62
     7
100
AcDbCircle
 10
2769.0151011503
 20
3060.8450041272
 30
0.0
 40
1.000000000000455
100
AcDbArc
 50
0.0
 51
90.0
  0
ARC
  5
CA
330
1F
100
AcDbEntity
  8
0
  6
Continuous
 62
     7
100
AcDbCircle
 10
2388.9205469814
 20
2730.6957988939
 30
0.0
 40
0.3098088129416339
100
AcDbArc
 50
235.3342158611
 51
304.9184656932
  0
ARC
  5
CB
330
1F
100
AcDbEntity
  8
0
  6
Continuous
 62
     7
100
AcDbCircle
 10
2389.0978828746
 20
2730.7945387828
 30
0.0
 40
0.4999981784970923
100
AcDbArc
 50
180.0000120326
 51
225.0000864592
  0
ARC
  5
CC
330
1F
100
AcDbEntity
  8
0
  6
Continuous
 62
     7
100
AcDbCircle
 10
2388.9728852867
 20
2674.1071765069
 30
0.0
 40
56.68860251706268
100
AcDbArc
 50
89.8736616518
 51
90.3790198895
  0
ARC
  5
CD
330
1F
100
AcDbEntity
  8
0
  6
Continuous
 62
     7
100
AcDbCircle
 10
2491.1606603287
 20
2730.8835132398
 30
0.0
 40
0.4461856341757194
100
AcDbArc
 50
261.911994155
 51
348.4974507027
  0
ARC
  5
CE
330
1F
100
AcDbEntity
  8
0
  6
Continuous
 62
     7
100
AcDbCircle
 10
2491.2228841055
 20
2674.1071765068
 30
0.0
 40
56.68860251716875
100
AcDbArc
 50
89.6209801106
 51
90.1263383483
  0
ARC
  5
CF
330
1F
100
AcDbEntity
  8
0
  6
Continuous
 62
     7
100
AcDbCircle
 10
2391.6276537621
 20
2727.9827293442
 30
0.0
 40
0.3098088129447708
100
AcDbArc
 50
235.3342159259
 51
304.9184657574
  0
ARC
  5
D0
330
1F
100
AcDbEntity
  8
0
  6
Continuous
 62
     7
100
AcDbCircle
 10
2491.1606603287
 20
2728.1704436903
 30
0.0
 40
0.4461856341746284
100
AcDbArc
 50
261.9119941549
 51
348.497450703
  0
ARC
  5
D1
330
1F
100
AcDbEntity
  8
0
  6
Continuous
 62
     7
100
AcDbCircle
 10
2389.0978828746
 20
2730.7354430059
 30
0.0
 40
0.4999981784970923
100
AcDbArc
 50
180.0000120442
 51
225.0000864592
  0
ARC
  5
D2
330
1F
100
AcDbEntity
  8
0
  6
Continuous
 62
     7
100
AcDbCircle
 10
2491.0978853039
 20
2728.081469736
 30
0.0
 40
0.4999993922109807
100
AcDbArc
 50
269.9999303524
 51
359.9999303615
  0
ARC
  5
D3
330
1F
100
AcDbEntity
  8
0
  6
Continuous
 62
     7
100
AcDbCircle
 10
2391.8049913717
 20
2728.0814709497
 30
0.0
 40
0.5000006059262998
100
AcDbArc
 50
225.0000865187
 51
270.0000120804
  0
ARC
  5
D4
330
1F
100
AcDbEntity
  8
0
  6
Continuous
 62
     7
100
AcDbCircle
 10
2391.8049913717
 20
2728.0343138727
 30
0.0
 40
0.5000006059310577
100
AcDbArc
 50
225.0000865189
 51
270.0000120801
  0
ARC
  5
D5
330
1F
100
AcDbEntity
  8
0
  6
Continuous
 62
     7
100
AcDbCircle
 10
2491.0978853039
 20
2728.034312659
 30
0.0
 40
0.4999993922109813
100
AcDbArc
 50
269.9999303524
 51
359.9999303042
  0
ARC
  5
D6
330
1F
100
AcDbEntity
  8
0
  6
Continuous
 62
     7
100
AcDbCircle
 10
2496.4478858771
 20
2840.4184608802
 30
0.0
 40
113.3772050777816
100
AcDbArc
 50
269.6209801107
 51
270.1263383482
  0
ARC
  5
D7
330
1F
100
AcDbEntity
  8
0
  6
Continuous
 62
     7
100
AcDbCircle
 10
2496.4478859338
 20
2613.6974574843
 30
0.0
 40
113.3772050587203
100
AcDbArc
 50
89.8736616804
 51
90.379019918
  0
ARC
  5
D8
330
1F
100
AcDbEntity
  8
0
  6
Continuous
 62
     7
100
AcDbCircle
 10
2528.3478834582
 20
2613.6974574839
 30
0.0
 40
113.3772050590855
100
AcDbArc
 50
89.620980082
 51
90.1263383196
  0
ARC
  5
D9
330
1F
100
AcDbEntity
  8
0
  6
Continuous
 62
     7
100
AcDbCircle
 10
2528.3478835149
 20
2840.4184608562
 30
0.0
 40
113.3772050537138
100
AcDbArc
 50
269.8736616517
 51
270.3790198894
  0
ARC
  5
DA
330
1F
100
AcDbEntity
  8
0
  6
Continuous
 62
     7
100
AcDbCircle
 10
2553.2978865175
 20
2730.794604935
 30
0.0
 40
0.4999981784961278
100
AcDbArc
 50
314.9999135262
 51
359.9999879456
  0
ARC
  5
DB
330
1F
100
AcDbEntity
  8
0
  6
Continuous
 62
     7
100
AcDbCircle
 10
2553.4752224106
 20
2730.695865046
 30
0.0
 40
0.3098088129425697
100
AcDbArc
 50
235.0815343334
 51
304.665784145
  0
ARC
  5
DC
330
1F
100
AcDbEntity
  8
0
  6
Continuous
 62
     7
100
AcDbCircle
 10
2553.4228841054
 20
2674.1072426468
 30
0.0
 40
56.68860252912989
100
AcDbArc
 50
89.6209801106
 51
90.1263383482
  0
ARC
  5
DD
330
1F
100
AcDbEntity
  8
0
  6
Continuous
 62
     7
100
AcDbCircle
 10
2492.2351090634
 20
2730.8835793918
 30
0.0
 40
0.4461856341742735
100
AcDbArc
 50
191.502549297
 51
278.0880058452
  0
ARC
  5
DE
330
1F
100
AcDbEntity
  8
0
  6
Continuous
 62
     7
100
AcDbCircle
 10
2492.1728852865
 20
2674.1072426471
 30
0.0
 40
56.68860252888933
100
AcDbArc
 50
89.8736616518
 51
90.3790198894
  0
ARC
  5
DF
330
1F
100
AcDbEntity
  8
0
  6
Continuous
 62
     7
100
AcDbCircle
 10
2550.7681156299
 20
2727.9827954962
 30
0.0
 40
0.3098088129435671
100
AcDbArc
 50
235.0815342524
 51
304.665784064
  0
ARC
  5
E0
330
1F
100
AcDbEntity
  8
0
  6
Continuous
 62
     7
100
AcDbCircle
 10
2492.2351090633
 20
2728.1705098423
 30
0.0
 40
0.4461856341734415
100
AcDbArc
 50
191.5025493607
 51
278.0880058581
  0
ARC
  5
E1
330
1F
100
AcDbEntity
  8
0
  6
Continuous
 62
     7
100
AcDbCircle
 10
2553.2978865175
 20
2730.735509158
 30
0.0
 40
0.4999981784977356
100
AcDbArc
 50
314.9999135263
 51
359.9999879456
  0
ARC
  5
E2
330
1F
100
AcDbEntity
  8
0
  6
Continuous
 62
     7
100
AcDbCircle
 10
2492.2978840882
 20
2728.081535888
 30
0.0
 40
0.4999993922100713
100
AcDbArc
 50
180.0000696958
 51
270.0000696477
  0
ARC
  5
E3
330
1F
100
AcDbEntity
  8
0
  6
Continuous
 62
     7
100
AcDbCircle
 10
2550.5907780203
 20
2728.0815371017
 30
0.0
 40
0.5000006059272093
100
AcDbArc
 50
269.9999879299
 51
314.9999134813
  0
ARC
  5
E4
330
1F
100
AcDbEntity
  8
0
  6
Continuous
 62
     7
100
AcDbCircle
 10
2492.2978840882
 20
2728.034378811
 30
0.0
 40
0.4999993922100718
100
AcDbArc
 50
180.0000696958
 51
270.0000696477
  0
ARC
  5
E5
330
1F
100
AcDbEntity
  8
0
  6
Continuous
 62
     7
100
AcDbCircle
 10
2550.5907780203
 20
2728.0343800247
 30
0.0
 40
0.5000006059268775
100
AcDbArc
 50
269.99998793
 51
314.9999134814
  0
ARC
  5
E6
330
1F
100
AcDbEntity
  8
0
  6
Continuous
 62
     7
100
AcDbCircle
 10
2528.5603836466
 20
2631.2042161636
 30
0.0
 40
96.37062432650005
100
AcDbArc
 50
89.6209800837
 51
90.1263383212
  0
ARC
  5
E7
330
1F
100
AcDbEntity
  8
0
  6
Continuous
 62
     7
100
AcDbCircle
 10
2496.2353857454
 20
2631.2042161635
 30
0.0
 40
96.37062432654506
100
AcDbArc
 50
89.8736616788
 51
90.3790199163
  0
ARC
  5
E8
330
1F
100
AcDbEntity
  8
0
  6
Continuous
 62
     7
100
AcDbCircle
 10
2495.6958440866
 20
2732.9801511298
 30
0.0
 40
5.437849526568243
100
AcDbArc
 50
268.9677972456
 51
270.0215008374
  0
ARC
  5
E9
330
1F
100
AcDbEntity
  8
0
  6
Continuous
 62
     7
100
AcDbCircle
 10
2529.0999253123
 20
2732.9801511298
 30
0.0
 40
5.437849526439886
100
AcDbArc
 50
269.9784990893
 51
271.0322026811
  0
ARC
  5
EA
330
1F
100
AcDbEntity
  8
0
  6
Continuous
 62
     7
100
AcDbCircle
 10
2562.247884696
 20
2753.6272139113
 30
0.0
 40
1.500000000000455
100
AcDbArc
 50
0.0
 51
90.0
  0
ARC
  5
EB
330
1F
100
AcDbEntity
  8
0
  6
Continuous
 62
     7
100
AcDbCircle
 10
2380.247884696
 20
2753.6272139113
 30
0.0
 40
1.5
100
AcDbArc
 50
90.0
 51
180.0
  0
ARC
  5
EC
330
1F
100
AcDbEntity
  8
0
  6
Continuous
 62
     7
100
AcDbCircle
 10
2580.247884696
 20
2732.3272139113
 30
0.0
 40
1.000000000000455
100
AcDbArc
 50
270.0
 51
0.0
  0
ARC
  5
ED
330
1F
100
AcDbEntity
  8
0
  6
Continuous
 62
     7
100
AcDbCircle
 10
2362.247884696
 20
2732.3272139113
 30
0.0
 40
0.9999999999995453
100
AcDbArc
 50
180.0
 51
270.0
  0
ELLIPSE
  5
EE
330
1F
100
AcDbEntity
  8
0
  6
Continuous
 62
     7
100
AcDbEllipse
 10
2489.4612918695
 20
2935.9295446635
 30
0.0
 11
0.0
 21
0.5001494903899584
 31
0.0
210
0.0
220
0.0
230
1.0
 40
0.9997011086
 41
3.141592653589793
 42
4.712388980384704
  0
ELLIPSE
  5
EF
330
1F
100
AcDbEntity
  8
0
  6
Continuous
 62
     7
100
AcDbEllipse
 10
2490.6612918696
 20
2935.9662073805
 30
0.0
 11
0.0
 21
0.5001970817488655
 31
0.0
210
0.0
220
0.0
230
1.0
 40
0.9996059918
 41
1.570796326794897
 42
3.141592653410623
  0
LINE
  5
F0
330
1F
100
AcDbEntity
  8
0
  6
Continuous
 62
     7
100
AcDbLine
 10
2552.1612918695
 20
2945.1107827795
 30
0.0
 11
2553.6112918695
 21
2945.887139257
 31
0.0
  0
LINE
  5
F1
330
1F
100
AcDbEntity
  8
0
  6
Continuous
 62
     7
100
AcDbLine
 10
2538.5612918695
 20
2963.2959159435
 30
0.0
 11
2538.5612918695
 21
2964.4483587435
 31
0.0
  0
LINE
  5
F2
330
1F
100
AcDbEntity
  8
0
  6
Continuous
 62
     7
100
AcDbLine
 10
2495.1612918695
 20
2963.2959159435
 30
0.0
 11
2495.1612918695
 21
2964.4483587435
 31
0.0
  0
LINE
  5
F3
330
1F
100
AcDbEntity
  8
0
  6
Continuous
 62
     7
100
AcDbLine
 10
2536.5612918695
 20
2963.2959159435
 30
0.0
 11
2536.5612918695
 21
2964.4483587435
 31
0.0
  0
LINE
  5
F4
330
1F
100
AcDbEntity
  8
0
  6
Continuous
 62
     7
100
AcDbLine
 10
2493.1612918695
 20
2964.4483587435
 30
0.0
 11
2493.1612918695
 21
2963.2959159435
 31
0.0
  0
LINE
  5
F5
330
1F
100
AcDbEntity
  8
0
  6
Continuous
 62
     7
100
AcDbLine
 10
2520.1612918695
 20
2963.2959159435
 30
0.0
 11
2520.1612918695
 21
2964.4483587435
 31
0.0
  0
LINE
  5
F6
330
1F
100
AcDbEntity
  8
0
  6
Continuous
 62
     7
100
AcDbLine
 10
2520.1612918695
 20
2935.481445763
 30
0.0
 11
2493.1612918695
 21
2935.481445763
 31
0.0
  0
LINE
  5
F7
330
1F
100
AcDbEntity
  8
0
  6
Continuous
 62
     7
100
AcDbLine
 10
2493.1612918695
 20
2935.481445763
 30
0.0
 11
2493.1612918695
 21
2935.483871336
 31
0.0
  0
LINE
  5
F8
330
1F
100
AcDbEntity
  8
0
  6
Continuous
 62
     7
100
AcDbLine
 10
2539.4209555135
 20
2935.483871336
 30
0.0
 11
2539.1612918695
 21
2935.481445763
 31
0.0
  0
LINE
  5
F9
330
1F
100
AcDbEntity
  8
0
  6
Continuous
 62
     7
100
AcDbLine
 10
2539.1612918695
 20
2935.481445763
 30
0.0
 11
2526.1612918695
 21
2935.481445763
 31
0.0
  0
LINE
  5
FA
330
1F
100
AcDbEntity
  8
0
  6
Continuous
 62
     7
100
AcDbLine
 10
2539.5132442725
 20
2935.481492107
 30
0.0
 11
2539.1612918695
 21
2935.4770356305
 31
0.0
  0
LINE
  5
FB
330
1F
100
AcDbEntity
  8
0
  6
Continuous
 62
     7
100
AcDbLine
 10
2539.1612918695
 20
2935.481445763
 30
0.0
 11
2539.1612918695
 21
2935.4770356305
 31
0.0
  0
LINE
  5
FC
330
1F
100
AcDbEntity
  8
0
  6
Continuous
 62
     7
100
AcDbLine
 10
2533.3612918695
 20
2935.4770356305
 30
0.0
 11
2539.1612918695
 21
2935.4770356305
 31
0.0
  0
LINE
  5
FD
330
1F
100
AcDbEntity
  8
0
  6
Continuous
 62
     7
100
AcDbLine
 10
2528.3612918695
 20
2935.4770356305
 30
0.0
 11
2533.3612918695
 21
2935.4770356305
 31
0.0
  0
LINE
  5
FE
330
1F
100
AcDbEntity
  8
0
  6
Continuous
 62
     7
100
AcDbLine
 10
2526.1612918695
 20
2935.4770356305
 30
0.0
 11
2528.3612918695
 21
2935.4770356305
 31
0.0
  0
LINE
  5
FF
330
1F
100
AcDbEntity
  8
0
  6
Continuous
 62
     7
100
AcDbLine
 10
2526.1612918695
 20
2935.481445763
 30
0.0
 11
2526.1612918695
 21
2935.4770356305
 31
0.0
  0
LINE
  5
100
330
1F
100
AcDbEntity
  8
0
  6
Continuous
 62
     7
100
AcDbLine
 10
2498.3612918695
 20
2935.4770356305
 30
0.0
 11
2520.1612918695
 21
2935.4770356305
 31
0.0
  0
LINE
  5
101
330
1F
100
AcDbEntity
  8
0
  6
Continuous
 62
     7
100
AcDbLine
 10
2493.3612918695
 20
2935.4770356305
 30
0.0
 11
2498.3612918695
 21
2935.4770356305
 31
0.0
  0
LINE
  5
102
330
1F
100
AcDbEntity
  8
0
  6
Continuous
 62
     7
100
AcDbLine
 10
2493.1612918695
 20
2935.4770356305
 30
0.0
 11
2493.3612918695
 21
2935.4770356305
 31
0.0
  0
LINE
  5
103
330
1F
100
AcDbEntity
  8
0
  6
Continuous
 62
     7
100
AcDbLine
 10
2520.1612918695
 20
2935.481445763
 30
0.0
 11
2520.1612918695
 21
2935.4770356305
 31
0.0
  0
LINE
  5
104
330
1F
100
AcDbEntity
  8
0
  6
Continuous
 62
     7
100
AcDbLine
 10
2493.1612918695
 20
2935.481445763
 30
0.0
 11
2493.1612918695
 21
2935.4770356305
 31
0.0
  0
LINE
  5
105
330
1F
100
AcDbEntity
  8
0
  6
Continuous
 62
     7
100
AcDbLine
 10
2493.3612918695
 20
2934.4483587435
 30
0.0
 11
2493.3612918695
 21
2935.4770356305
 31
0.0
  0
LINE
  5
106
330
1F
100
AcDbEntity
  8
0
  6
Continuous
 62
     7
100
AcDbLine
 10
2498.3612918695
 20
2935.4770356305
 30
0.0
 11
2498.3612918695
 21
2934.4483587435
 31
0.0
  0
LINE
  5
107
330
1F
100
AcDbEntity
  8
0
  6
Continuous
 62
     7
100
AcDbLine
 10
2528.3612918695
 20
2934.4483587435
 30
0.0
 11
2528.3612918695
 21
2935.4770356305
 31
0.0
  0
LINE
  5
108
330
1F
100
AcDbEntity
  8
0
  6
Continuous
 62
     7
100
AcDbLine
 10
2533.3612918695
 20
2935.4770356305
 30
0.0
 11
2533.3612918695
 21
2934.4483587435
 31
0.0
  0
LINE
  5
109
330
1F
100
AcDbEntity
  8
0
  6
Continuous
 62
     7
100
AcDbLine
 10
2390.1683986505
 20
2938.68015447
 30
0.0
 11
2390.1683986505
 21
2938.3262790145
 31
0.0
  0
LINE
  5
10A
330
1F
100
AcDbEntity
  8
0
  6
Continuous
 62
     7
100
AcDbLine
 10
2390.1683986505
 20
2938.68015447
 30
0.0
 11
2489.4612918695
 21
2938.68015447
 31
0.0
  0
LINE
  5
10B
330
1F
100
AcDbEntity
  8
0
  6
Continuous
 62
     7
100
AcDbLine
 10
2489.4612918695
 20
2938.68015447
 30
0.0
 11
2489.4612918695
 21
2938.3262790145
 31
0.0
  0
LINE
  5
10C
330
1F
100
AcDbEntity
  8
0
  6
Continuous
 62
     7
100
AcDbLine
 10
2489.4612918695
 20
2938.3262790145
 30
0.0
 11
2390.1683986505
 21
2938.3262790145
 31
0.0
  0
LINE
  5
10D
330
1F
100
AcDbEntity
  8
0
  6
Continuous
 62
     7
100
AcDbLine
 10
2390.1683986505
 20
2960.065888915
 30
0.0
 11
2390.1683986505
 21
2938.68015447
 31
0.0
  0
LINE
  5
10E
330
1F
100
AcDbEntity
  8
0
  6
Continuous
 62
     7
100
AcDbLine
 10
2389.81484526
 20
2938.6798315455
 30
0.0
 11
2389.81484526
 21
2960.0655659908
 31
0.0
  0
LINE
  5
10F
330
1F
100
AcDbEntity
  8
0
  6
Continuous
 62
     7
100
AcDbLine
 10
2489.4612918695
 20
2960.065888915
 30
0.0
 11
2390.1683986505
 21
2960.065888915
 31
0.0
  0
LINE
  5
110
330
1F
100
AcDbEntity
  8
0
  6
Continuous
 62
     7
100
AcDbLine
 10
2489.4612918695
 20
2938.68015447
 30
0.0
 11
2489.4612918695
 21
2960.065888915
 31
0.0
  0
LINE
  5
111
330
1F
100
AcDbEntity
  8
0
  6
Continuous
 62
     7
100
AcDbLine
 10
2489.9612918695
 20
2960.064786382
 30
0.0
 11
2489.9612918695
 21
2938.6790519365
 31
0.0
  0
LINE
  5
112
330
1F
100
AcDbEntity
  8
0
  6
Continuous
 62
     7
100
AcDbLine
 10
2390.1683986505
 20
2960.419118522
 30
0.0
 11
2390.1683986505
 21
2960.065888915
 31
0.0
  0
LINE
  5
113
330
1F
100
AcDbEntity
  8
0
  6
Continuous
 62
     7
100
AcDbLine
 10
2390.1683986505
 20
2960.419118522
 30
0.0
 11
2489.4612918695
 21
2960.419118522
 31
0.0
  0
LINE
  5
114
330
1F
100
AcDbEntity
  8
0
  6
Continuous
 62
     7
100
AcDbLine
 10
2489.4612918695
 20
2960.419118522
 30
0.0
 11
2489.4612918695
 21
2960.065888915
 31
0.0
  0
LINE
  5
115
330
1F
100
AcDbEntity
  8
0
  6
Continuous
 62
     7
100
AcDbLine
 10
2390.1683986505
 20
2938.3262790145
 30
0.0
 11
2387.4612918695
 21
2935.6132094645
 31
0.0
  0
LINE
  5
116
330
1F
100
AcDbEntity
  8
0
  6
Continuous
 62
     7
100
AcDbLine
 10
2387.1077384787
 20
2935.9667619958
 30
0.0
 11
2389.81484526
 21
2938.6798315455
 31
0.0
  0
LINE
  5
117
330
1F
100
AcDbEntity
  8
0
  6
Continuous
 62
     7
100
AcDbLine
 10
2389.81484526
 20
2960.0655659908
 30
0.0
 11
2387.1077384787
 21
2962.7666968405
 31
0.0
  0
LINE
  5
118
330
1F
100
AcDbEntity
  8
0
  6
Continuous
 62
     7
100
AcDbLine
 10
2387.4612918695
 20
2963.1202493715
 30
0.0
 11
2390.1683986505
 21
2960.419118522
 31
0.0
  0
LINE
  5
119
330
1F
100
AcDbEntity
  8
0
  6
Continuous
 62
     7
100
AcDbLine
 10
2489.9612918695
 20
2938.6790519365
 30
0.0
 11
2489.9612918695
 21
2935.965982387
 31
0.0
  0
LINE
  5
11A
330
1F
100
AcDbEntity
  8
0
  6
Continuous
 62
     7
100
AcDbLine
 10
2489.4612918695
 20
2935.6132094645
 30
0.0
 11
2489.4612918695
 21
2938.3262790145
 31
0.0
  0
LINE
  5
11B
330
1F
100
AcDbEntity
  8
0
  6
Continuous
 62
     7
100
AcDbLine
 10
2387.4612918695
 20
2935.6132094645
 30
0.0
 11
2489.4612918695
 21
2935.6132094645
 31
0.0
  0
LINE
  5
11C
330
1F
100
AcDbEntity
  8
0
  6
Continuous
 62
     7
100
AcDbLine
 10
2387.1077384787
 20
2962.7666968405
 30
0.0
 11
2387.1077384787
 21
2935.9667619958
 31
0.0
  0
LINE
  5
11D
330
1F
100
AcDbEntity
  8
0
  6
Continuous
 62
     7
100
AcDbLine
 10
2489.9612918695
 20
2962.765917232
 30
0.0
 11
2489.9612918695
 21
2960.064786382
 31
0.0
  0
LINE
  5
11E
330
1F
100
AcDbEntity
  8
0
  6
Continuous
 62
     7
100
AcDbLine
 10
2489.4612918695
 20
2960.419118522
 30
0.0
 11
2489.4612918695
 21
2963.1202493715
 31
0.0
  0
LINE
  5
11F
330
1F
100
AcDbEntity
  8
0
  6
Continuous
 62
     7
100
AcDbLine
 10
2489.4612918695
 20
2963.1202493715
 30
0.0
 11
2387.4612918695
 21
2963.1202493715
 31
0.0
  0
LINE
  5
120
330
1F
100
AcDbEntity
  8
0
  6
Continuous
 62
     7
100
AcDbLine
 10
2387.4612918695
 20
2935.6132094645
 30
0.0
 11
2387.4612918695
 21
2935.4659836025
 31
0.0
  0
LINE
  5
121
330
1F
100
AcDbEntity
  8
0
  6
Continuous
 62
     7
100
AcDbLine
 10
2489.4612918695
 20
2935.6132094645
 30
0.0
 11
2489.4612918695
 21
2935.4659836025
 31
0.0
  0
LINE
  5
122
330
1F
100
AcDbEntity
  8
0
  6
Continuous
 62
     7
100
AcDbLine
 10
2489.4612918695
 20
2935.4659836025
 30
0.0
 11
2387.4612918695
 21
2935.4659836025
 31
0.0
  0
LINE
  5
123
330
1F
100
AcDbEntity
  8
0
  6
Continuous
 62
     7
100
AcDbLine
 10
2386.9612918693
 20
2935.9659823872
 30
0.0
 11
2386.9612918693
 21
2962.7659172318
 31
0.0
  0
LINE
  5
124
330
1F
100
AcDbEntity
  8
0
  6
Continuous
 62
     7
100
AcDbLine
 10
2387.4612918695
 20
2963.1202493715
 30
0.0
 11
2387.4612918695
 21
2963.2659160165
 31
0.0
  0
LINE
  5
125
330
1F
100
AcDbEntity
  8
0
  6
Continuous
 62
     7
100
AcDbLine
 10
2489.4612918695
 20
2963.2659160165
 30
0.0
 11
2489.4612918695
 21
2963.1202493715
 31
0.0
  0
LINE
  5
126
330
1F
100
AcDbEntity
  8
0
  6
Continuous
 62
     7
100
AcDbLine
 10
2387.4612918695
 20
2963.2659160165
 30
0.0
 11
2489.4612918695
 21
2963.2659160165
 31
0.0
  0
LINE
  5
127
330
1F
100
AcDbEntity
  8
0
  6
Continuous
 62
     7
100
AcDbLine
 10
2386.9612918693
 20
2935.948137021
 30
0.0
 11
2386.9612918693
 21
2935.9659823872
 31
0.0
  0
LINE
  5
128
330
1F
100
AcDbEntity
  8
0
  6
Continuous
 62
     7
100
AcDbLine
 10
2387.4612918695
 20
2935.4659836025
 30
0.0
 11
2387.4612918695
 21
2935.4481382365
 31
0.0
  0
LINE
  5
129
330
1F
100
AcDbEntity
  8
0
  6
Continuous
 62
     7
100
AcDbLine
 10
2488.0612918695
 20
2935.4293951731
 30
0.0
 11
2488.0612918695
 21
2935.4481382365
 31
0.0
  0
LINE
  5
12A
330
1F
100
AcDbEntity
  8
0
  6
Continuous
 62
     7
100
AcDbLine
 10
2482.4112918695
 20
2935.4481382365
 30
0.0
 11
2488.0612918695
 21
2935.4481382365
 31
0.0
  0
LINE
  5
12B
330
1F
100
AcDbEntity
  8
0
  6
Continuous
 62
     7
100
AcDbLine
 10
2477.4112918695
 20
2935.4481382365
 30
0.0
 11
2482.4112918695
 21
2935.4481382365
 31
0.0
  0
LINE
  5
12C
330
1F
100
AcDbEntity
  8
0
  6
Continuous
 62
     7
100
AcDbLine
 10
2414.5112918695
 20
2935.4481382365
 30
0.0
 11
2477.4112918695
 21
2935.4481382365
 31
0.0
  0
LINE
  5
12D
330
1F
100
AcDbEntity
  8
0
  6
Continuous
 62
     7
100
AcDbLine
 10
2409.5112918695
 20
2935.4481382365
 30
0.0
 11
2414.5112918695
 21
2935.4481382365
 31
0.0
  0
LINE
  5
12E
330
1F
100
AcDbEntity
  8
0
  6
Continuous
 62
     7
100
AcDbLine
 10
2387.4612918695
 20
2935.4481382365
 30
0.0
 11
2409.5112918695
 21
2935.4481382365
 31
0.0
  0
LINE
  5
12F
330
1F
100
AcDbEntity
  8
0
  6
Continuous
 62
     7
100
AcDbLine
 10
2489.4612918695
 20
2935.4293951731
 30
0.0
 11
2489.4612918695
 21
2935.4659836025
 31
0.0
  0
LINE
  5
130
330
1F
100
AcDbEntity
  8
0
  6
Continuous
 62
     7
100
AcDbLine
 10
2489.4612918695
 20
2935.4293951731
 30
0.0
 11
2488.0612918695
 21
2935.4293951731
 31
0.0
  0
LINE
  5
131
330
1F
100
AcDbEntity
  8
0
  6
Continuous
 62
     7
100
AcDbLine
 10
2489.9612918695
 20
2935.965982387
 30
0.0
 11
2489.9612918695
 21
2935.9295446635
 31
0.0
  0
LINE
  5
132
330
1F
100
AcDbEntity
  8
0
  6
Continuous
 62
     7
100
AcDbLine
 10
2409.5112918695
 20
2934.4483587435
 30
0.0
 11
2409.5112918695
 21
2935.4481382365
 31
0.0
  0
LINE
  5
133
330
1F
100
AcDbEntity
  8
0
  6
Continuous
 62
     7
100
AcDbLine
 10
2414.5112918695
 20
2935.4481382365
 30
0.0
 11
2414.5112918695
 21
2934.4483587435
 31
0.0
  0
LINE
  5
134
330
1F
100
AcDbEntity
  8
0
  6
Continuous
 62
     7
100
AcDbLine
 10
2482.4112918695
 20
2935.4481382365
 30
0.0
 11
2482.4112918695
 21
2934.4483587435
 31
0.0
  0
LINE
  5
135
330
1F
100
AcDbEntity
  8
0
  6
Continuous
 62
     7
100
AcDbLine
 10
2477.4112918695
 20
2934.4483587435
 30
0.0
 11
2477.4112918695
 21
2935.4481382365
 31
0.0
  0
LINE
  5
136
330
1F
100
AcDbEntity
  8
0
  6
Continuous
 62
     7
100
AcDbLine
 10
2475.9612918695
 20
2964.4483587435
 30
0.0
 11
2475.9612918695
 21
2963.2659160165
 31
0.0
  0
LINE
  5
137
330
1F
100
AcDbEntity
  8
0
  6
Continuous
 62
     7
100
AcDbLine
 10
2469.0112918695
 20
2963.2659160165
 30
0.0
 11
2469.0112918695
 21
2964.4483587435
 31
0.0
  0
LINE
  5
138
330
1F
100
AcDbEntity
  8
0
  6
Continuous
 62
     7
100
AcDbLine
 10
2435.3612918695
 20
2964.4483587435
 30
0.0
 11
2435.3612918695
 21
2963.2659160165
 31
0.0
  0
LINE
  5
139
330
1F
100
AcDbEntity
  8
0
  6
Continuous
 62
     7
100
AcDbLine
 10
2426.3612918695
 20
2963.2659160165
 30
0.0
 11
2426.3612918695
 21
2964.4483587435
 31
0.0
  0
LINE
  5
13A
330
1F
100
AcDbEntity
  8
0
  6
Continuous
 62
     7
100
AcDbLine
 10
2414.9612918695
 20
2963.2659160165
 30
0.0
 11
2414.9612918695
 21
2964.4483587435
 31
0.0
  0
LINE
  5
13B
330
1F
100
AcDbEntity
  8
0
  6
Continuous
 62
     7
100
AcDbLine
 10
2422.2612918695
 20
2964.4483587435
 30
0.0
 11
2422.2612918695
 21
2963.2659160165
 31
0.0
  0
LINE
  5
13C
330
1F
100
AcDbEntity
  8
0
  6
Continuous
 62
     7
100
AcDbLine
 10
2487.1612918695
 20
2964.4483587435
 30
0.0
 11
2487.1612918695
 21
2963.2659160165
 31
0.0
  0
LINE
  5
13D
330
1F
100
AcDbEntity
  8
0
  6
Continuous
 62
     7
100
AcDbLine
 10
2408.343897666
 20
2963.2659160165
 30
0.0
 11
2408.343897666
 21
2964.4483587435
 31
0.0
  0
LINE
  5
13E
330
1F
100
AcDbEntity
  8
0
  6
Continuous
 62
     7
100
AcDbLine
 10
2425.6112918695
 20
2934.4483587435
 30
0.0
 11
2425.6112918695
 21
2935.4481382365
 31
0.0
  0
LINE
  5
13F
330
1F
100
AcDbEntity
  8
0
  6
Continuous
 62
     7
100
AcDbLine
 10
2490.1612918695
 20
2950.4800247265
 30
0.0
 11
2489.9612918695
 21
2950.4800247265
 31
0.0
  0
LINE
  5
140
330
1F
100
AcDbEntity
  8
0
  6
Continuous
 62
     7
100
AcDbLine
 10
2490.1612918695
 20
2950.4700247265
 30
0.0
 11
2489.835605802
 21
2950.4700247265
 31
0.0
  0
LINE
  5
141
330
1F
100
AcDbEntity
  8
0
  6
Continuous
 62
     7
100
AcDbLine
 10
2490.1612918695
 20
2944.0800247265
 30
0.0
 11
2489.9612918695
 21
2944.0800247265
 31
0.0
  0
LINE
  5
142
330
1F
100
AcDbEntity
  8
0
  6
Continuous
 62
     7
100
AcDbLine
 10
2490.0350475565
 20
2949.9800247265
 30
0.0
 11
2490.1612918695
 21
2949.9800247265
 31
0.0
  0
LINE
  5
143
330
1F
100
AcDbEntity
  8
0
  6
Continuous
 62
     7
100
AcDbLine
 10
2489.9612918695
 20
2946.4800247265
 30
0.0
 11
2490.1612918695
 21
2946.4800247265
 31
0.0
  0
LINE
  5
144
330
1F
100
AcDbEntity
  8
0
  6
Continuous
 62
     7
100
AcDbLine
 10
2489.9612918695
 20
2946.9800247265
 30
0.0
 11
2490.1612918695
 21
2946.9800247265
 31
0.0
  0
LINE
  5
145
330
1F
100
AcDbEntity
  8
0
  6
Continuous
 62
     7
100
AcDbLine
 10
2469.155861099
 20
2964.4483587435
 30
0.0
 11
2469.155861099
 21
2963.2659160165
 31
0.0
  0
LINE
  5
146
330
1F
100
AcDbEntity
  8
0
  6
Continuous
 62
     7
100
AcDbLine
 10
2490.1612918695
 20
2941.2166247265
 30
0.0
 11
2489.9612918695
 21
2941.2166247265
 31
0.0
  0
LINE
  5
147
330
1F
100
AcDbEntity
  8
0
  6
Continuous
 62
     7
100
AcDbLine
 10
2427.657081763
 20
2935.4481382365
 30
0.0
 11
2427.657081763
 21
2934.4483587435
 31
0.0
  0
LINE
  5
148
330
1F
100
AcDbEntity
  8
0
  6
Continuous
 62
     7
100
AcDbLine
 10
2460.155861099
 20
2935.4481382365
 30
0.0
 11
2460.155861099
 21
2934.4483587435
 31
0.0
  0
LINE
  5
149
330
1F
100
AcDbEntity
  8
0
  6
Continuous
 62
     7
100
AcDbLine
 10
2490.1612918695
 20
2938.7166247265
 30
0.0
 11
2489.9612918695
 21
2938.7166247265
 31
0.0
  0
LINE
  5
14A
330
1F
100
AcDbEntity
  8
0
  6
Continuous
 62
     7
100
AcDbLine
 10
2498.577427271
 20
2935.3106423405
 30
0.0
 11
2498.577427271
 21
2935.4770356305
 31
0.0
  0
LINE
  5
14B
330
1F
100
AcDbEntity
  8
0
  6
Continuous
 62
     7
100
AcDbLine
 10
2498.572372043
 20
2935.3094091195
 30
0.0
 11
2498.577427271
 21
2935.3106423405
 31
0.0
  0
LINE
  5
14C
330
1F
100
AcDbEntity
  8
0
  6
Continuous
 62
     7
100
AcDbLine
 10
2498.564873479
 20
2934.4483587435
 30
0.0
 11
2498.572372043
 21
2935.3094091195
 31
0.0
  0
LINE
  5
14D
330
1F
100
AcDbEntity
  8
0
  6
Continuous
 62
     7
100
AcDbLine
 10
2498.5612918695
 20
2935.4770356305
 30
0.0
 11
2498.5612918695
 21
2934.4483587435
 31
0.0
  0
LINE
  5
14E
330
1F
100
AcDbEntity
  8
0
  6
Continuous
 62
     7
100
AcDbLine
 10
2536.5612918695
 20
2963.7434546375
 30
0.0
 11
2520.1612918695
 21
2963.600649941
 31
0.0
  0
LINE
  5
14F
330
1F
100
AcDbEntity
  8
0
  6
Continuous
 62
     7
100
AcDbLine
 10
2538.5612918695
 20
2935.4770356305
 30
0.0
 11
2538.5612918695
 21
2934.9609398545
 31
0.0
  0
LINE
  5
150
330
1F
100
AcDbEntity
  8
0
  6
Continuous
 62
     7
100
AcDbLine
 10
2498.577427271
 20
2935.3106423405
 30
0.0
 11
2528.3612918695
 21
2935.0496832245
 31
0.0
  0
LINE
  5
151
330
1F
100
AcDbEntity
  8
0
  6
Continuous
 62
     7
100
AcDbLine
 10
2533.3612918695
 20
2935.006088845
 30
0.0
 11
2538.5612918695
 21
2934.9609398545
 31
0.0
  0
LINE
  5
152
330
1F
100
AcDbEntity
  8
0
  6
Continuous
 62
     7
100
AcDbLine
 10
2538.5612918695
 20
2934.9609398545
 30
0.0
 11
2538.5612918695
 21
2934.96075069
 31
0.0
  0
LINE
  5
153
330
1F
100
AcDbEntity
  8
0
  6
Continuous
 62
     7
100
AcDbLine
 10
2538.5612918695
 20
2934.96075069
 30
0.0
 11
2533.3612918695
 21
2935.006088845
 31
0.0
  0
LINE
  5
154
330
1F
100
AcDbEntity
  8
0
  6
Continuous
 62
     7
100
AcDbLine
 10
2528.3612918695
 20
2935.0496832245
 30
0.0
 11
2498.572372043
 21
2935.3094091195
 31
0.0
  0
LINE
  5
155
330
1F
100
AcDbEntity
  8
0
  6
Continuous
 62
     7
100
AcDbLine
 10
2538.5612918695
 20
2934.4483587435
 30
0.0
 11
2538.5612918695
 21
2934.96075069
 31
0.0
  0
LINE
  5
156
330
1F
100
AcDbEntity
  8
0
  6
Continuous
 62
     7
100
AcDbLine
 10
2495.0612918695
 20
2956.9474905985
 30
0.0
 11
2526.4612918695
 21
2956.9474905985
 31
0.0
  0
LINE
  5
157
330
1F
100
AcDbEntity
  8
0
  6
Continuous
 62
     7
100
AcDbLine
 10
2495.0612918695
 20
2956.9463880655
 30
0.0
 11
2495.0612918695
 21
2956.9474905985
 31
0.0
  0
LINE
  5
158
330
1F
100
AcDbEntity
  8
0
  6
Continuous
 62
     7
100
AcDbLine
 10
2526.4612918695
 20
2956.9463880655
 30
0.0
 11
2526.4612918695
 21
2956.9474905985
 31
0.0
  0
LINE
  5
159
330
1F
100
AcDbEntity
  8
0
  6
Continuous
 62
     7
100
AcDbLine
 10
2495.0612918695
 20
2956.9463880655
 30
0.0
 11
2526.4612918695
 21
2956.9463880655
 31
0.0
  0
LINE
  5
15A
330
1F
100
AcDbEntity
  8
0
  6
Continuous
 62
     7
100
AcDbLine
 10
2495.0612918695
 20
2941.954142265
 30
0.0
 11
2526.4612918695
 21
2941.954142265
 31
0.0
  0
LINE
  5
15B
330
1F
100
AcDbEntity
  8
0
  6
Continuous
 62
     7
100
AcDbLine
 10
2526.4612918695
 20
2941.946424533
 30
0.0
 11
2526.4612918695
 21
2941.954142265
 31
0.0
  0
LINE
  5
15C
330
1F
100
AcDbEntity
  8
0
  6
Continuous
 62
     7
100
AcDbLine
 10
2526.4612918695
 20
2941.946424533
 30
0.0
 11
2495.0612918695
 21
2941.946424533
 31
0.0
  0
LINE
  5
15D
330
1F
100
AcDbEntity
  8
0
  6
Continuous
 62
     7
100
AcDbLine
 10
2495.0612918695
 20
2941.954142265
 30
0.0
 11
2495.0612918695
 21
2941.946424533
 31
0.0
  0
LINE
  5
15E
330
1F
100
AcDbEntity
  8
0
  6
Continuous
 62
     7
100
AcDbLine
 10
2494.0612918695
 20
2942.9464221015
 30
0.0
 11
2494.0612918695
 21
2942.954139834
 31
0.0
  0
LINE
  5
15F
330
1F
100
AcDbEntity
  8
0
  6
Continuous
 62
     7
100
AcDbLine
 10
2494.0612918695
 20
2955.854108472
 30
0.0
 11
2494.0612918695
 21
2942.954139834
 31
0.0
  0
LINE
  5
160
330
1F
100
AcDbEntity
  8
0
  6
Continuous
 62
     7
100
AcDbLine
 10
2526.4612918695
 20
2956.8541060405
 30
0.0
 11
2495.0612918695
 21
2956.8541060405
 31
0.0
  0
LINE
  5
161
330
1F
100
AcDbEntity
  8
0
  6
Continuous
 62
     7
100
AcDbLine
 10
2527.4612918695
 20
2942.954139834
 30
0.0
 11
2527.4612918695
 21
2955.854108472
 31
0.0
  0
LINE
  5
162
330
1F
100
AcDbEntity
  8
0
  6
Continuous
 62
     7
100
AcDbLine
 10
2527.4612918695
 20
2942.954139834
 30
0.0
 11
2527.4612918695
 21
2942.9464221015
 31
0.0
  0
LINE
  5
163
330
1F
100
AcDbEntity
  8
0
  6
Continuous
 62
     7
100
AcDbLine
 10
2490.6612918695
 20
2938.3562789415
 30
0.0
 11
2490.6612918695
 21
2938.710154397
 31
0.0
  0
LINE
  5
164
330
1F
100
AcDbEntity
  8
0
  6
Continuous
 62
     7
100
AcDbLine
 10
2548.9541850885
 20
2938.3562789415
 30
0.0
 11
2548.9541850885
 21
2938.710154397
 31
0.0
  0
LINE
  5
165
330
1F
100
AcDbEntity
  8
0
  6
Continuous
 62
     7
100
AcDbLine
 10
2490.6612918695
 20
2938.710154397
 30
0.0
 11
2548.9541850885
 21
2938.710154397
 31
0.0
  0
LINE
  5
166
330
1F
100
AcDbEntity
  8
0
  6
Continuous
 62
     7
100
AcDbLine
 10
2548.9541850885
 20
2938.3562789415
 30
0.0
 11
2490.6612918695
 21
2938.3562789415
 31
0.0
  0
LINE
  5
167
330
1F
100
AcDbEntity
  8
0
  6
Continuous
 62
     7
100
AcDbLine
 10
2548.9541850885
 20
2938.710154397
 30
0.0
 11
2548.9541850885
 21
2960.0958888425
 31
0.0
  0
LINE
  5
168
330
1F
100
AcDbEntity
  8
0
  6
Continuous
 62
     7
100
AcDbLine
 10
2490.6612918695
 20
2960.0958888425
 30
0.0
 11
2490.6612918695
 21
2938.710154397
 31
0.0
  0
LINE
  5
169
330
1F
100
AcDbEntity
  8
0
  6
Continuous
 62
     7
100
AcDbLine
 10
2548.9541850885
 20
2960.0958888425
 30
0.0
 11
2490.6612918695
 21
2960.0958888425
 31
0.0
  0
LINE
  5
16A
330
1F
100
AcDbEntity
  8
0
  6
Continuous
 62
     7
100
AcDbLine
 10
2526.7112918695
 20
2956.9530032645
 30
0.0
 11
2494.8112918695
 21
2956.9530032645
 31
0.0
  0
LINE
  5
16B
330
1F
100
AcDbEntity
  8
0
  6
Continuous
 62
     7
100
AcDbLine
 10
2493.9612918695
 20
2956.103005331
 30
0.0
 11
2493.9612918695
 21
2942.7030379085
 31
0.0
  0
LINE
  5
16C
330
1F
100
AcDbEntity
  8
0
  6
Continuous
 62
     7
100
AcDbLine
 10
2494.8112918695
 20
2941.853039975
 30
0.0
 11
2526.7112918695
 21
2941.853039975
 31
0.0
  0
LINE
  5
16D
330
1F
100
AcDbEntity
  8
0
  6
Continuous
 62
     7
100
AcDbLine
 10
2527.5612918695
 20
2942.7030379085
 30
0.0
 11
2527.5612918695
 21
2956.103005331
 31
0.0
  0
LINE
  5
16E
330
1F
100
AcDbEntity
  8
0
  6
Continuous
 62
     7
100
AcDbLine
 10
2490.1612918696
 20
2938.7090518638
 30
0.0
 11
2490.1612918696
 21
2960.094786309
 31
0.0
  0
LINE
  5
16F
330
1F
100
AcDbEntity
  8
0
  6
Continuous
 62
     7
100
AcDbLine
 10
2549.3077384788
 20
2960.095565918
 30
0.0
 11
2549.3077384788
 21
2938.7098314724
 31
0.0
  0
LINE
  5
170
330
1F
100
AcDbEntity
  8
0
  6
Continuous
 62
     7
100
AcDbLine
 10
2494.8112918695
 20
2956.9530032645
 30
0.0
 11
2494.8112918695
 21
2956.9474905985
 31
0.0
  0
LINE
  5
171
330
1F
100
AcDbEntity
  8
0
  6
Continuous
 62
     7
100
AcDbLine
 10
2526.7112918695
 20
2956.9474905985
 30
0.0
 11
2526.7112918695
 21
2956.9530032645
 31
0.0
  0
LINE
  5
172
330
1F
100
AcDbEntity
  8
0
  6
Continuous
 62
     7
100
AcDbLine
 10
2526.7112918695
 20
2956.9474905985
 30
0.0
 11
2494.8112918695
 21
2956.9474905985
 31
0.0
  0
LINE
  5
173
330
1F
100
AcDbEntity
  8
0
  6
Continuous
 62
     7
100
AcDbLine
 10
2490.6612918695
 20
2960.0958888425
 30
0.0
 11
2490.6612918695
 21
2960.449118449
 31
0.0
  0
LINE
  5
174
330
1F
100
AcDbEntity
  8
0
  6
Continuous
 62
     7
100
AcDbLine
 10
2490.6612918695
 20
2960.449118449
 30
0.0
 11
2548.9541850885
 21
2960.449118449
 31
0.0
  0
LINE
  5
175
330
1F
100
AcDbEntity
  8
0
  6
Continuous
 62
     7
100
AcDbLine
 10
2548.9541850885
 20
2960.0958888425
 30
0.0
 11
2548.9541850885
 21
2960.449118449
 31
0.0
  0
LINE
  5
176
330
1F
100
AcDbEntity
  8
0
  6
Continuous
 62
     7
100
AcDbLine
 10
2551.6612918695
 20
2935.6432093915
 30
0.0
 11
2548.9541850885
 21
2938.3562789415
 31
0.0
  0
LINE
  5
177
330
1F
100
AcDbEntity
  8
0
  6
Continuous
 62
     7
100
AcDbLine
 10
2549.3077384788
 20
2938.7098314724
 30
0.0
 11
2552.01484526
 21
2935.9967619225
 31
0.0
  0
LINE
  5
178
330
1F
100
AcDbEntity
  8
0
  6
Continuous
 62
     7
100
AcDbLine
 10
2552.01484526
 20
2962.7966967675
 30
0.0
 11
2549.3077384788
 21
2960.095565918
 31
0.0
  0
LINE
  5
179
330
1F
100
AcDbEntity
  8
0
  6
Continuous
 62
     7
100
AcDbLine
 10
2548.9541850885
 20
2960.449118449
 30
0.0
 11
2551.6612918695
 21
2963.1502492985
 31
0.0
  0
LINE
  5
17A
330
1F
100
AcDbEntity
  8
0
  6
Continuous
 62
     7
100
AcDbLine
 10
2490.6612918695
 20
2938.3562789415
 30
0.0
 11
2490.6612918695
 21
2935.6432093915
 31
0.0
  0
LINE
  5
17B
330
1F
100
AcDbEntity
  8
0
  6
Continuous
 62
     7
100
AcDbLine
 10
2490.1612918696
 20
2935.995982314
 30
0.0
 11
2490.1612918696
 21
2938.7090518638
 31
0.0
  0
LINE
  5
17C
330
1F
100
AcDbEntity
  8
0
  6
Continuous
 62
     7
100
AcDbLine
 10
2490.6612918695
 20
2935.6432093915
 30
0.0
 11
2551.6612918695
 21
2935.6432093915
 31
0.0
  0
LINE
  5
17D
330
1F
100
AcDbEntity
  8
0
  6
Continuous
 62
     7
100
AcDbLine
 10
2552.01484526
 20
2935.9967619225
 30
0.0
 11
2552.01484526
 21
2962.7966967675
 31
0.0
  0
LINE
  5
17E
330
1F
100
AcDbEntity
  8
0
  6
Continuous
 62
     7
100
AcDbLine
 10
2490.1612918696
 20
2960.094786309
 30
0.0
 11
2490.1612918696
 21
2962.7959171588
 31
0.0
  0
LINE
  5
17F
330
1F
100
AcDbEntity
  8
0
  6
Continuous
 62
     7
100
AcDbLine
 10
2490.6612918695
 20
2963.1502492985
 30
0.0
 11
2490.6612918695
 21
2960.449118449
 31
0.0
  0
LINE
  5
180
330
1F
100
AcDbEntity
  8
0
  6
Continuous
 62
     7
100
AcDbLine
 10
2551.6612918695
 20
2963.1502492985
 30
0.0
 11
2490.6612918695
 21
2963.1502492985
 31
0.0
  0
LINE
  5
181
330
1F
100
AcDbEntity
  8
0
  6
Continuous
 62
     7
100
AcDbLine
 10
2551.6612918695
 20
2935.4959835295
 30
0.0
 11
2551.6612918695
 21
2935.6432093915
 31
0.0
  0
LINE
  5
182
330
1F
100
AcDbEntity
  8
0
  6
Continuous
 62
     7
100
AcDbLine
 10
2551.6612918695
 20
2935.4959835295
 30
0.0
 11
2490.6612918695
 21
2935.4959835295
 31
0.0
  0
LINE
  5
183
330
1F
100
AcDbEntity
  8
0
  6
Continuous
 62
     7
100
AcDbLine
 10
2490.6612918695
 20
2935.6432093915
 30
0.0
 11
2490.6612918695
 21
2935.4959835295
 31
0.0
  0
LINE
  5
184
330
1F
100
AcDbEntity
  8
0
  6
Continuous
 62
     7
100
AcDbLine
 10
2552.1612918695
 20
2962.795917159
 30
0.0
 11
2552.1612918695
 21
2935.995982314
 31
0.0
  0
LINE
  5
185
330
1F
100
AcDbEntity
  8
0
  6
Continuous
 62
     7
100
AcDbLine
 10
2551.6612918695
 20
2963.1502492985
 30
0.0
 11
2551.6612918695
 21
2963.2959159435
 31
0.0
  0
LINE
  5
186
330
1F
100
AcDbEntity
  8
0
  6
Continuous
 62
     7
100
AcDbLine
 10
2490.6612918695
 20
2963.2959159435
 30
0.0
 11
2490.6612918695
 21
2963.1502492985
 31
0.0
  0
LINE
  5
187
330
1F
100
AcDbEntity
  8
0
  6
Continuous
 62
     7
100
AcDbLine
 10
2490.6612918695
 20
2963.2959159435
 30
0.0
 11
2551.6612918695
 21
2963.2959159435
 31
0.0
  0
LINE
  5
188
330
1F
100
AcDbEntity
  8
0
  6
Continuous
 62
     7
100
AcDbLine
 10
2490.6612918695
 20
2935.4660102988
 30
0.0
 11
2492.1612918695
 21
2935.4660102988
 31
0.0
  0
LINE
  5
189
330
1F
100
AcDbEntity
  8
0
  6
Continuous
 62
     7
100
AcDbLine
 10
2490.6612918695
 20
2935.4959835295
 30
0.0
 11
2490.6612918695
 21
2935.4660102988
 31
0.0
  0
LINE
  5
18A
330
1F
100
AcDbEntity
  8
0
  6
Continuous
 62
     7
100
AcDbLine
 10
2551.6612918695
 20
2935.483871336
 30
0.0
 11
2551.6612918695
 21
2935.4959835295
 31
0.0
  0
LINE
  5
18B
330
1F
100
AcDbEntity
  8
0
  6
Continuous
 62
     7
100
AcDbLine
 10
2551.6612918695
 20
2935.483871336
 30
0.0
 11
2526.1612918695
 21
2935.483871336
 31
0.0
  0
LINE
  5
18C
330
1F
100
AcDbEntity
  8
0
  6
Continuous
 62
     7
100
AcDbLine
 10
2526.1612918695
 20
2935.4750510703
 30
0.0
 11
2526.1612918695
 21
2935.483871336
 31
0.0
  0
LINE
  5
18D
330
1F
100
AcDbEntity
  8
0
  6
Continuous
 62
     7
100
AcDbLine
 10
2526.1612918695
 20
2935.4750510703
 30
0.0
 11
2520.1612918695
 21
2935.4750510703
 31
0.0
  0
LINE
  5
18E
330
1F
100
AcDbEntity
  8
0
  6
Continuous
 62
     7
100
AcDbLine
 10
2520.1612918695
 20
2935.4750510703
 30
0.0
 11
2520.1612918695
 21
2935.4838713358
 31
0.0
  0
LINE
  5
18F
330
1F
100
AcDbEntity
  8
0
  6
Continuous
 62
     7
100
AcDbLine
 10
2520.1612918695
 20
2935.4838713358
 30
0.0
 11
2492.1612918695
 21
2935.4838713358
 31
0.0
  0
LINE
  5
190
330
1F
100
AcDbEntity
  8
0
  6
Continuous
 62
     7
100
AcDbLine
 10
2492.1612918695
 20
2935.4838713358
 30
0.0
 11
2492.1612918695
 21
2935.4660102988
 31
0.0
  0
LINE
  5
191
330
1F
100
AcDbEntity
  8
0
  6
Continuous
 62
     7
100
AcDbLine
 10
2552.1612918695
 20
2935.995982314
 30
0.0
 11
2552.1612918695
 21
2935.9838701205
 31
0.0
  0
LINE
  5
192
330
1F
100
AcDbEntity
  8
0
  6
Continuous
 62
     7
100
AcDbLine
 10
2490.1612918696
 20
2935.9662073805
 30
0.0
 11
2490.1612918696
 21
2935.995982314
 31
0.0
  0
LINE
  5
193
330
1F
100
AcDbEntity
  8
0
  6
Continuous
 62
     7
100
AcDbLine
 10
2385.820234722
 20
2962.5483587435
 30
0.0
 11
2386.9612918695
 21
2962.5483587435
 31
0.0
  0
LINE
  5
194
330
1F
100
AcDbEntity
  8
0
  6
Continuous
 62
     7
100
AcDbLine
 10
2386.9612918695
 20
2945.4483587435
 30
0.0
 11
2385.6112918695
 21
2945.4483587435
 31
0.0
  0
LINE
  5
195
330
1F
100
AcDbEntity
  8
0
  6
Continuous
 62
     7
100
AcDbLine
 10
2397.1112918695
 20
2935.4481382365
 30
0.0
 11
2397.1112918695
 21
2934.4483587435
 31
0.0
  0
LINE
  5
196
330
1F
100
AcDbEntity
  8
0
  6
Continuous
 62
     7
100
AcDbLine
 10
2397.1112918695
 20
2964.4483587435
 30
0.0
 11
2397.1112918695
 21
2963.2659160165
 31
0.0
  0
LINE
  5
197
330
1F
100
AcDbEntity
  8
0
  6
Continuous
 62
     7
100
AcDbLine
 10
2453.8112918695
 20
2935.4481382365
 30
0.0
 11
2453.8112918695
 21
2934.4483587435
 31
0.0
  0
LINE
  5
198
330
1F
100
AcDbEntity
  8
0
  6
Continuous
 62
     7
100
AcDbLine
 10
2439.8112918695
 20
2934.4483587435
 30
0.0
 11
2439.8112918695
 21
2935.4481382365
 31
0.0
  0
LINE
  5
199
330
1F
100
AcDbEntity
  8
0
  6
Continuous
 62
     7
100
AcDbLine
 10
2553.6112918695
 20
2937.4483587435
 30
0.0
 11
2554.6112918695
 21
2937.4483587435
 31
0.0
  0
LINE
  5
19A
330
1F
100
AcDbEntity
  8
0
  6
Continuous
 62
     7
100
AcDbLine
 10
2550.6112918695
 20
2934.4483587435
 30
0.0
 11
2550.6112918695
 21
2933.4483587435
 31
0.0
  0
LINE
  5
19B
330
1F
100
AcDbEntity
  8
0
  6
Continuous
 62
     7
100
AcDbLine
 10
2359.6112918695
 20
2911.4483587435
 30
0.0
 11
2360.6112918695
 21
2911.4483587435
 31
0.0
  0
LINE
  5
19C
330
1F
100
AcDbEntity
  8
0
  6
Continuous
 62
     7
100
AcDbLine
 10
2360.6112918695
 20
2911.4483587435
 30
0.0
 11
2360.6112918695
 21
2910.4483587435
 31
0.0
  0
LINE
  5
19D
330
1F
100
AcDbEntity
  8
0
  6
Continuous
 62
     7
100
AcDbLine
 10
2360.6112918695
 20
2911.4483587435
 30
0.0
 11
2578.6112918695
 21
2911.4483587435
 31
0.0
  0
LINE
  5
19E
330
1F
100
AcDbEntity
  8
0
  6
Continuous
 62
     7
100
AcDbLine
 10
2578.6112918695
 20
2910.4483587435
 30
0.0
 11
2578.6112918695
 21
2911.4483587435
 31
0.0
  0
LINE
  5
19F
330
1F
100
AcDbEntity
  8
0
  6
Continuous
 62
     7
100
AcDbLine
 10
2578.6112918695
 20
2910.4483587435
 30
0.0
 11
2360.6112918695
 21
2910.4483587435
 31
0.0
  0
LINE
  5
1A0
330
1F
100
AcDbEntity
  8
0
  6
Continuous
 62
     7
100
AcDbLine
 10
2360.6112918695
 20
3059.4483587435
 30
0.0
 11
2359.6112918695
 21
3059.4483587435
 31
0.0
  0
LINE
  5
1A1
330
1F
100
AcDbEntity
  8
0
  6
Continuous
 62
     7
100
AcDbLine
 10
2360.6112918695
 20
3059.4483587435
 30
0.0
 11
2360.6112918695
 21
2911.4483587435
 31
0.0
  0
LINE
  5
1A2
330
1F
100
AcDbEntity
  8
0
  6
Continuous
 62
     7
100
AcDbLine
 10
2359.6112918695
 20
2911.4483587435
 30
0.0
 11
2359.6112918695
 21
3059.4483587435
 31
0.0
  0
LINE
  5
1A3
330
1F
100
AcDbEntity
  8
0
  6
Continuous
 62
     7
100
AcDbLine
 10
2384.6112918695
 20
2937.4483587435
 30
0.0
 11
2384.6112918695
 21
2961.4483587435
 31
0.0
  0
LINE
  5
1A4
330
1F
100
AcDbEntity
  8
0
  6
Continuous
 62
     7
100
AcDbLine
 10
2384.6112918695
 20
2961.4483587435
 30
0.0
 11
2385.6112918695
 21
2961.4483587435
 31
0.0
  0
LINE
  5
1A5
330
1F
100
AcDbEntity
  8
0
  6
Continuous
 62
     7
100
AcDbLine
 10
2385.6112918695
 20
2961.4483587435
 30
0.0
 11
2385.6112918695
 21
2937.4483587435
 31
0.0
  0
LINE
  5
1A6
330
1F
100
AcDbEntity
  8
0
  6
Continuous
 62
     7
100
AcDbLine
 10
2384.6112918695
 20
2937.4483587435
 30
0.0
 11
2385.6112918695
 21
2937.4483587435
 31
0.0
  0
LINE
  5
1A7
330
1F
100
AcDbEntity
  8
0
  6
Continuous
 62
     7
100
AcDbLine
 10
2578.6112918695
 20
2911.4483587435
 30
0.0
 11
2579.6112918695
 21
2911.4483587435
 31
0.0
  0
LINE
  5
1A8
330
1F
100
AcDbEntity
  8
0
  6
Continuous
 62
     7
100
AcDbLine
 10
2578.6112918695
 20
2911.4483587435
 30
0.0
 11
2578.6112918695
 21
3059.4483587435
 31
0.0
  0
LINE
  5
1A9
330
1F
100
AcDbEntity
  8
0
  6
Continuous
 62
     7
100
AcDbLine
 10
2579.6112918695
 20
3059.4483587435
 30
0.0
 11
2578.6112918695
 21
3059.4483587435
 31
0.0
  0
LINE
  5
1AA
330
1F
100
AcDbEntity
  8
0
  6
Continuous
 62
     7
100
AcDbLine
 10
2579.6112918695
 20
3059.4483587435
 30
0.0
 11
2579.6112918695
 21
2911.4483587435
 31
0.0
  0
LINE
  5
1AB
330
1F
100
AcDbEntity
  8
0
  6
Continuous
 62
     7
100
AcDbLine
 10
2388.6112918695
 20
2965.4483587435
 30
0.0
 11
2388.6112918695
 21
2964.4483587435
 31
0.0
  0
LINE
  5
1AC
330
1F
100
AcDbEntity
  8
0
  6
Continuous
 62
     7
100
AcDbLine
 10
2578.6112918695
 20
3059.4483587435
 30
0.0
 11
2360.6112918695
 21
3059.4483587435
 31
0.0
  0
LINE
  5
1AD
330
1F
100
AcDbEntity
  8
0
  6
Continuous
 62
     7
100
AcDbLine
 10
2550.6112918695
 20
2933.4483587435
 30
0.0
 11
2388.6112918695
 21
2933.4483587435
 31
0.0
  0
LINE
  5
1AE
330
1F
100
AcDbEntity
  8
0
  6
Continuous
 62
     7
100
AcDbLine
 10
2554.6112918695
 20
2961.4483587435
 30
0.0
 11
2554.6112918695
 21
2937.4483587435
 31
0.0
  0
LINE
  5
1AF
330
1F
100
AcDbEntity
  8
0
  6
Continuous
 62
     7
100
AcDbLine
 10
2388.6112918695
 20
2965.4483587435
 30
0.0
 11
2550.6112918695
 21
2965.4483587435
 31
0.0
  0
LINE
  5
1B0
330
1F
100
AcDbEntity
  8
0
  6
Continuous
 62
     7
100
AcDbLine
 10
2550.6112918695
 20
2965.4483587435
 30
0.0
 11
2550.6112918695
 21
2964.4483587435
 31
0.0
  0
LINE
  5
1B1
330
1F
100
AcDbEntity
  8
0
  6
Continuous
 62
     7
100
AcDbLine
 10
2550.6112918695
 20
2964.4483587435
 30
0.0
 11
2388.6112918695
 21
2964.4483587435
 31
0.0
  0
LINE
  5
1B2
330
1F
100
AcDbEntity
  8
0
  6
Continuous
 62
     7
100
AcDbLine
 10
2360.6112918695
 20
3060.4483587435
 30
0.0
 11
2360.6112918695
 21
3059.4483587435
 31
0.0
  0
LINE
  5
1B3
330
1F
100
AcDbEntity
  8
0
  6
Continuous
 62
     7
100
AcDbLine
 10
2360.6112918695
 20
3060.4483587435
 30
0.0
 11
2578.6112918695
 21
3060.4483587435
 31
0.0
  0
LINE
  5
1B4
330
1F
100
AcDbEntity
  8
0
  6
Continuous
 62
     7
100
AcDbLine
 10
2578.6112918695
 20
3059.4483587435
 30
0.0
 11
2578.6112918695
 21
3060.4483587435
 31
0.0
  0
LINE
  5
1B5
330
1F
100
AcDbEntity
  8
0
  6
Continuous
 62
     7
100
AcDbLine
 10
2388.6112918695
 20
2934.4483587435
 30
0.0
 11
2388.6112918695
 21
2933.4483587435
 31
0.0
  0
LINE
  5
1B6
330
1F
100
AcDbEntity
  8
0
  6
Continuous
 62
     7
100
AcDbLine
 10
2388.6112918695
 20
2934.4483587435
 30
0.0
 11
2550.6112918695
 21
2934.4483587435
 31
0.0
  0
LINE
  5
1B7
330
1F
100
AcDbEntity
  8
0
  6
Continuous
 62
     7
100
AcDbLine
 10
2553.6112918695
 20
2961.4483587435
 30
0.0
 11
2554.6112918695
 21
2961.4483587435
 31
0.0
  0
LINE
  5
1B8
330
1F
100
AcDbEntity
  8
0
  6
Continuous
 62
     7
100
AcDbLine
 10
2553.6112918695
 20
2937.4483587435
 30
0.0
 11
2553.6112918695
 21
2961.4483587435
 31
0.0
  0
LINE
  5
1B9
330
1F
100
AcDbEntity
  8
0
  6
Continuous
 62
     7
100
AcDbLine
 10
2430.4654178485
 20
2964.4483587435
 30
0.0
 11
2430.5140785985
 21
2963.2659160165
 31
0.0
  0
LINE
  5
1BA
330
1F
100
AcDbEntity
  8
0
  6
Continuous
 62
     7
100
AcDbLine
 10
2541.970948193
 20
2935.483871336
 30
0.0
 11
2542.3201099645
 21
2934.9679842615
 31
0.0
  0
LINE
  5
1BB
330
1F
100
AcDbEntity
  8
0
  6
Continuous
 62
     7
100
AcDbLine
 10
2542.3201099645
 20
2934.9679842615
 30
0.0
 11
2542.88522617
 21
2934.4483587435
 31
0.0
  0
LINE
  5
1BC
330
1F
100
AcDbEntity
  8
0
  6
Continuous
 62
     7
100
AcDbLine
 10
2546.3478775835
 20
2934.4483587435
 30
0.0
 11
2546.916374857
 21
2934.9720136605
 31
0.0
  0
LINE
  5
1BD
330
1F
100
AcDbEntity
  8
0
  6
Continuous
 62
     7
100
AcDbLine
 10
2546.916374857
 20
2934.9720136605
 30
0.0
 11
2547.2621555605
 21
2935.483871336
 31
0.0
  0
LINE
  5
1BE
330
1F
100
AcDbEntity
  8
0
  6
Continuous
 62
     7
100
AcDbLine
 10
2408.990365708
 20
2935.4481382365
 30
0.0
 11
2409.3201099645
 21
2934.9679842615
 31
0.0
  0
LINE
  5
1BF
330
1F
100
AcDbEntity
  8
0
  6
Continuous
 62
     7
100
AcDbLine
 10
2409.3201099645
 20
2934.9679842615
 30
0.0
 11
2409.5112918695
 21
2934.7611010505
 31
0.0
  0
LINE
  5
1C0
330
1F
100
AcDbEntity
  8
0
  6
Continuous
 62
     7
100
AcDbLine
 10
2489.9612918695
 20
2944.5800247265
 30
0.0
 11
2490.1612918695
 21
2944.5800247265
 31
0.0
  0
LINE
  5
1C1
330
1F
100
AcDbEntity
  8
0
  6
Continuous
 62
     7
100
AcDbLine
 10
2490.1612918695
 20
2938.9800247265
 30
0.0
 11
2489.9612918695
 21
2938.9800247265
 31
0.0
  0
LINE
  5
1C2
330
1F
100
AcDbEntity
  8
0
  6
Continuous
 62
     7
100
AcDbLine
 10
2490.1612918695
 20
2941.9532247265
 30
0.0
 11
2489.9612918695
 21
2941.9532247265
 31
0.0
  0
LINE
  5
1C3
330
1F
100
AcDbEntity
  8
0
  6
Continuous
 62
     7
100
AcDbLine
 10
2436.860751769
 20
2935.4481382365
 30
0.0
 11
2436.860751769
 21
2934.4483587435
 31
0.0
  0
LINE
  5
1C4
330
1F
100
AcDbEntity
  8
0
  6
Continuous
 62
     7
100
AcDbLine
 10
2435.875944016
 20
2934.4483587435
 30
0.0
 11
2435.875944016
 21
2935.4481382365
 31
0.0
  0
LINE
  5
1C5
330
1F
100
AcDbEntity
  8
0
  6
Continuous
 62
     7
100
AcDbLine
 10
2429.5541432785
 20
2935.4481382365
 30
0.0
 11
2429.5541432785
 21
2934.4483587435
 31
0.0
  0
LINE
  5
1C6
330
1F
100
AcDbEntity
  8
0
  6
Continuous
 62
     7
100
AcDbLine
 10
2428.5693355255
 20
2934.4483587435
 30
0.0
 11
2428.5693355255
 21
2935.4481382365
 31
0.0
  0
LINE
  5
1C7
330
1F
100
AcDbEntity
  8
0
  6
Continuous
 62
     7
100
AcDbLine
 10
2437.0101529775
 20
2934.4483587435
 30
0.0
 11
2437.0101529775
 21
2935.4481382365
 31
0.0
  0
LINE
  5
1C8
330
1F
100
AcDbEntity
  8
0
  6
Continuous
 62
     7
100
AcDbLine
 10
2437.9949607305
 20
2935.4481382365
 30
0.0
 11
2437.9949607305
 21
2934.4483587435
 31
0.0
  0
LINE
  5
1C9
330
1F
100
AcDbEntity
  8
0
  6
Continuous
 62
     7
100
AcDbLine
 10
2458.155861099
 20
2934.4483587435
 30
0.0
 11
2458.155861099
 21
2935.4481382365
 31
0.0
  0
LINE
  5
1CA
330
1F
100
AcDbEntity
  8
0
  6
Continuous
 62
     7
100
AcDbLine
 10
2427.3641885445
 20
2934.4483587435
 30
0.0
 11
2427.3641885445
 21
2935.4481382365
 31
0.0
  0
LINE
  5
1CB
330
1F
100
AcDbEntity
  8
0
  6
Continuous
 62
     7
100
AcDbLine
 10
2386.9612918695
 20
2961.0483587435
 30
0.0
 11
2385.6112918695
 21
2961.0483587435
 31
0.0
  0
LINE
  5
1CC
330
1F
100
AcDbEntity
  8
0
  6
Continuous
 62
     7
100
AcDbLine
 10
2385.6112918695
 20
2946.9483587435
 30
0.0
 11
2386.9612918695
 21
2946.9483587435
 31
0.0
  0
LINE
  5
1CD
330
1F
100
AcDbEntity
  8
0
  6
Continuous
 62
     7
100
AcDbLine
 10
2770.6068721607
 20
2937.3626277706
 30
0.0
 11
2770.6079746938
 21
2936.8626289862
 31
0.0
  0
LINE
  5
1CE
330
1F
100
AcDbEntity
  8
0
  6
Continuous
 62
     7
100
AcDbLine
 10
2770.6079746938
 20
2936.8626289862
 30
0.0
 11
2770.0151011503
 21
2936.8613216577
 31
0.0
  0
LINE
  5
1CF
330
1F
100
AcDbEntity
  8
0
  6
Continuous
 62
     7
100
AcDbLine
 10
2770.0151011503
 20
2964.6613892442
 30
0.0
 11
2770.5466738508
 21
2964.6625614002
 31
0.0
  0
LINE
  5
1D0
330
1F
100
AcDbEntity
  8
0
  6
Continuous
 62
     7
100
AcDbLine
 10
2770.5466738508
 20
2964.6625614002
 30
0.0
 11
2770.5477763836
 21
2964.1625626158
 31
0.0
  0
LINE
  5
1D1
330
1F
100
AcDbEntity
  8
0
  6
Continuous
 62
     7
100
AcDbLine
 10
2770.9013289148
 20
2964.1633422242
 30
0.0
 11
2770.9604246918
 21
2937.3634073792
 31
0.0
  0
LINE
  5
1D2
330
1F
100
AcDbEntity
  8
0
  6
Continuous
 62
     7
100
AcDbLine
 10
2770.9604246918
 20
2937.3634073792
 30
0.0
 11
2770.6068721607
 21
2937.3626277706
 31
0.0
  0
LINE
  5
1D3
330
1F
100
AcDbEntity
  8
0
  6
Continuous
 62
     7
100
AcDbLine
 10
2770.6068721607
 20
2937.3626277706
 30
0.0
 11
2770.5477763836
 21
2964.1625626158
 31
0.0
  0
LINE
  5
1D4
330
1F
100
AcDbEntity
  8
0
  6
Continuous
 62
     7
100
AcDbLine
 10
2770.9013289148
 20
2964.1633422242
 30
0.0
 11
2770.5477763836
 21
2964.1625626158
 31
0.0
  0
LINE
  5
1D5
330
1F
100
AcDbEntity
  8
0
  6
Continuous
 62
     7
100
AcDbLine
 10
2773.6143984648
 20
2961.4622113742
 30
0.0
 11
2770.9013289148
 21
2964.1633422242
 31
0.0
  0
LINE
  5
1D6
330
1F
100
AcDbEntity
  8
0
  6
Continuous
 62
     7
100
AcDbLine
 10
2770.9005493063
 20
2964.5168947552
 30
0.0
 11
2773.6136188558
 21
2961.8157639057
 31
0.0
  0
LINE
  5
1D7
330
1F
100
AcDbEntity
  8
0
  6
Continuous
 62
     7
100
AcDbLine
 10
2773.6623351503
 20
2939.7229243982
 30
0.0
 11
2770.9612043005
 21
2937.0098548483
 31
0.0
  0
LINE
  5
1D8
330
1F
100
AcDbEntity
  8
0
  6
Continuous
 62
     7
100
AcDbLine
 10
2770.9604246918
 20
2937.3634073792
 30
0.0
 11
2773.6615555418
 21
2940.0764769292
 31
0.0
  0
LINE
  5
1D9
330
1F
100
AcDbEntity
  8
0
  6
Continuous
 62
     7
100
AcDbLine
 10
2773.6615555418
 20
2940.0764769292
 30
0.0
 11
2773.6143984648
 21
2961.4622113742
 31
0.0
  0
LINE
  5
1DA
330
1F
100
AcDbEntity
  8
0
  6
Continuous
 62
     7
100
AcDbLine
 10
2773.7608447178
 20
2961.4625342987
 30
0.0
 11
2773.8080017953
 21
2940.0767998537
 31
0.0
  0
LINE
  5
1DB
330
1F
100
AcDbEntity
  8
0
  6
Continuous
 62
     7
100
AcDbLine
 10
2773.8080017953
 20
2940.0767998537
 30
0.0
 11
2773.6615555418
 21
2940.0764769292
 31
0.0
  0
LINE
  5
1DC
330
1F
100
AcDbEntity
  8
0
  6
Continuous
 62
     7
100
AcDbLine
 10
2773.7608447178
 20
2961.4625342987
 30
0.0
 11
2773.6143984648
 21
2961.4622113742
 31
0.0
  0
LINE
  5
1DD
330
1F
100
AcDbEntity
  8
0
  6
Continuous
 62
     7
100
AcDbLine
 10
2774.2985785668
 20
2944.3507852177
 30
0.0
 11
2774.3007836328
 21
2943.3507876487
 31
0.0
  0
LINE
  5
1DE
330
1F
100
AcDbEntity
  8
0
  6
Continuous
 62
     7
100
AcDbLine
 10
2774.3007836328
 20
2943.3507876487
 30
0.0
 11
2773.8007848483
 21
2943.3496851157
 31
0.0
  0
LINE
  5
1DF
330
1F
100
AcDbEntity
  8
0
  6
Continuous
 62
     7
100
AcDbLine
 10
2774.2701332113
 20
2957.2507538557
 30
0.0
 11
2774.2985785668
 21
2944.3507852177
 31
0.0
  0
LINE
  5
1E0
330
1F
100
AcDbEntity
  8
0
  6
Continuous
 62
     7
100
AcDbLine
 10
2773.7679293608
 20
2958.2496488912
 30
0.0
 11
2774.2679281448
 21
2958.2507514242
 31
0.0
  0
LINE
  5
1E1
330
1F
100
AcDbEntity
  8
0
  6
Continuous
 62
     7
100
AcDbLine
 10
2774.2679281448
 20
2958.2507514242
 30
0.0
 11
2774.2701332113
 21
2957.2507538557
 31
0.0
  0
LINE
  5
1E2
330
1F
100
AcDbEntity
  8
0
  6
Continuous
 62
     7
100
AcDbLine
 10
2770.0151011503
 20
2964.6913893172
 30
0.0
 11
2770.5466076988
 21
2964.6925613272
 31
0.0
  0
LINE
  5
1E3
330
1F
100
AcDbEntity
  8
0
  6
Continuous
 62
     7
100
AcDbLine
 10
2770.9004831543
 20
2964.5468946822
 30
0.0
 11
2773.6135527038
 21
2961.8457638327
 31
0.0
  0
LINE
  5
1E4
330
1F
100
AcDbEntity
  8
0
  6
Continuous
 62
     7
100
AcDbLine
 10
2773.7607785663
 20
2961.4925342262
 30
0.0
 11
2773.7608447178
 21
2961.4625342987
 31
0.0
  0
LINE
  5
1E5
330
1F
100
AcDbEntity
  8
0
  6
Continuous
 62
     7
100
AcDbLine
 10
2746.2151011503
 20
3036.8450041272
 30
0.0
 11
2746.2151011503
 21
3040.3450041272
 31
0.0
  0
LINE
  5
1E6
330
1F
100
AcDbEntity
  8
0
  6
Continuous
 62
     7
100
AcDbLine
 10
2747.7151011503
 20
3041.8450041272
 30
0.0
 11
2747.7151011503
 21
3036.8450041272
 31
0.0
  0
LINE
  5
1E7
330
1F
100
AcDbEntity
  8
0
  6
Continuous
 62
     7
100
AcDbLine
 10
2746.2151011503
 20
3036.8450041272
 30
0.0
 11
2747.7151011503
 21
3036.8450041272
 31
0.0
  0
LINE
  5
1E8
330
1F
100
AcDbEntity
  8
0
  6
Continuous
 62
     7
100
AcDbLine
 10
2747.7151011503
 20
3041.8450041272
 30
0.0
 11
2758.0151011503
 21
3041.8450041272
 31
0.0
  0
LINE
  5
1E9
330
1F
100
AcDbEntity
  8
0
  6
Continuous
 62
     7
100
AcDbLine
 10
2747.7151011503
 20
3036.8450041272
 30
0.0
 11
2747.7151011503
 21
2931.8450041272
 31
0.0
  0
LINE
  5
1EA
330
1F
100
AcDbEntity
  8
0
  6
Continuous
 62
     7
100
AcDbLine
 10
2746.2151011503
 20
2931.8450041272
 30
0.0
 11
2746.2151011503
 21
3036.8450041272
 31
0.0
  0
LINE
  5
1EB
330
1F
100
AcDbEntity
  8
0
  6
Continuous
 62
     7
100
AcDbLine
 10
2746.2151011503
 20
2931.8450041272
 30
0.0
 11
2747.7151011503
 21
2931.8450041272
 31
0.0
  0
LINE
  5
1EC
330
1F
100
AcDbEntity
  8
0
  6
Continuous
 62
     7
100
AcDbLine
 10
2746.2151011503
 20
2928.3450041272
 30
0.0
 11
2746.2151011503
 21
2931.8450041272
 31
0.0
  0
LINE
  5
1ED
330
1F
100
AcDbEntity
  8
0
  6
Continuous
 62
     7
100
AcDbLine
 10
2747.7151011503
 20
2931.8450041272
 30
0.0
 11
2747.7151011503
 21
2926.8450041272
 31
0.0
  0
LINE
  5
1EE
330
1F
100
AcDbEntity
  8
0
  6
Continuous
 62
     7
100
AcDbLine
 10
2758.0151011503
 20
2926.8450041272
 30
0.0
 11
2747.7151011503
 21
2926.8450041272
 31
0.0
  0
LINE
  5
1EF
330
1F
100
AcDbEntity
  8
0
  6
Continuous
 62
     7
100
AcDbLine
 10
2770.0151011503
 20
3060.8450041272
 30
0.0
 11
2769.0151011503
 21
3060.8450041272
 31
0.0
  0
LINE
  5
1F0
330
1F
100
AcDbEntity
  8
0
  6
Continuous
 62
     7
100
AcDbLine
 10
2770.0151011503
 20
3060.8450041272
 30
0.0
 11
2770.0151011503
 21
2912.8450041272
 31
0.0
  0
LINE
  5
1F1
330
1F
100
AcDbEntity
  8
0
  6
Continuous
 62
     7
100
AcDbLine
 10
2769.0151011503
 20
2912.8450041272
 30
0.0
 11
2770.0151011503
 21
2912.8450041272
 31
0.0
  0
LINE
  5
1F2
330
1F
100
AcDbEntity
  8
0
  6
Continuous
 62
     7
100
AcDbLine
 10
2769.0151011503
 20
2912.8450041272
 30
0.0
 11
2769.0151011503
 21
3060.8450041272
 31
0.0
  0
LINE
  5
1F3
330
1F
100
AcDbEntity
  8
0
  6
Continuous
 62
     7
100
AcDbLine
 10
2758.0151011503
 20
3061.8450041272
 30
0.0
 11
2769.0151011503
 21
3061.8450041272
 31
0.0
  0
LINE
  5
1F4
330
1F
100
AcDbEntity
  8
0
  6
Continuous
 62
     7
100
AcDbLine
 10
2769.0151011503
 20
3061.8450041272
 30
0.0
 11
2769.0151011503
 21
3060.8450041272
 31
0.0
  0
LINE
  5
1F5
330
1F
100
AcDbEntity
  8
0
  6
Continuous
 62
     7
100
AcDbLine
 10
2769.0151011503
 20
3060.8450041272
 30
0.0
 11
2758.0151011503
 21
3060.8450041272
 31
0.0
  0
LINE
  5
1F6
330
1F
100
AcDbEntity
  8
0
  6
Continuous
 62
     7
100
AcDbLine
 10
2758.0151011503
 20
3060.8450041272
 30
0.0
 11
2758.0151011503
 21
3061.8450041272
 31
0.0
  0
LINE
  5
1F7
330
1F
100
AcDbEntity
  8
0
  6
Continuous
 62
     7
100
AcDbLine
 10
2758.0151011503
 20
2912.8450041272
 30
0.0
 11
2769.0151011503
 21
2912.8450041272
 31
0.0
  0
LINE
  5
1F8
330
1F
100
AcDbEntity
  8
0
  6
Continuous
 62
     7
100
AcDbLine
 10
2758.0151011503
 20
3060.8450041272
 30
0.0
 11
2758.0151011503
 21
2912.8450041272
 31
0.0
  0
LINE
  5
1F9
330
1F
100
AcDbEntity
  8
0
  6
Continuous
 62
     7
100
AcDbLine
 10
2769.0151011503
 20
2912.8450041272
 30
0.0
 11
2769.0151011503
 21
2911.8450041272
 31
0.0
  0
LINE
  5
1FA
330
1F
100
AcDbEntity
  8
0
  6
Continuous
 62
     7
100
AcDbLine
 10
2769.0151011503
 20
2911.8450041272
 30
0.0
 11
2758.0151011503
 21
2911.8450041272
 31
0.0
  0
LINE
  5
1FB
330
1F
100
AcDbEntity
  8
0
  6
Continuous
 62
     7
100
AcDbLine
 10
2758.0151011503
 20
2911.8450041272
 30
0.0
 11
2758.0151011503
 21
2912.8450041272
 31
0.0
  0
LINE
  5
1FC
330
1F
100
AcDbEntity
  8
0
  6
Continuous
 62
     7
100
AcDbLine
 10
2770.0151011503
 20
2937.3613228732
 30
0.0
 11
2770.6068721607
 21
2937.3626277706
 31
0.0
  0
LINE
  5
1FD
330
1F
100
AcDbEntity
  8
0
  6
Continuous
 62
     7
100
AcDbLine
 10
2770.5477763836
 20
2964.1625626158
 30
0.0
 11
2770.0151011503
 21
2964.1613880287
 31
0.0
  0
LINE
  5
1FE
330
1F
100
AcDbEntity
  8
0
  6
Continuous
 62
     7
100
AcDbLine
 10
2773.7985797823
 20
2944.3496826842
 30
0.0
 11
2774.2985785668
 21
2944.3507852177
 31
0.0
  0
LINE
  5
1FF
330
1F
100
AcDbEntity
  8
0
  6
Continuous
 62
     7
100
AcDbLine
 10
2774.2701332113
 20
2957.2507538557
 30
0.0
 11
2773.7701344268
 21
2957.2496513222
 31
0.0
  0
LINE
  5
200
330
1F
100
AcDbEntity
  8
0
  6
Continuous
 62
     7
100
AcDbLine
 10
2770.9004831543
 20
2964.5468946822
 30
0.0
 11
2770.8851986283
 21
2964.5315426002
 31
0.0
  0
LINE
  5
201
330
1F
100
AcDbEntity
  8
0
  6
Continuous
 62
     7
100
AcDbLine
 10
2770.5466076988
 20
2964.6925613272
 30
0.0
 11
2770.5466738508
 21
2964.6625614002
 31
0.0
  0
LINE
  5
202
330
1F
100
AcDbEntity
  8
0
  6
Continuous
 62
     7
100
AcDbLine
 10
2773.7607785663
 20
2961.4925342262
 30
0.0
 11
2773.7598777568
 21
2961.4925322397
 31
0.0
  0
LINE
  5
203
330
1F
100
AcDbEntity
  8
0
  6
Continuous
 62
     7
100
AcDbLine
 10
2773.6135527038
 20
2961.8457638327
 30
0.0
 11
2773.5985858163
 21
2961.8307307932
 31
0.0
  0
LINE
  5
204
330
1F
100
AcDbEntity
  8
0
  6
Continuous
 62
     7
100
AcDbLine
 10
2758.0151011503
 20
3036.8450041272
 30
0.0
 11
2747.7151011503
 21
3036.8450041272
 31
0.0
  0
LINE
  5
205
330
1F
100
AcDbEntity
  8
0
  6
Continuous
 62
     7
100
AcDbLine
 10
2747.7151011503
 20
2931.8450041272
 30
0.0
 11
2758.0151011503
 21
2931.8450041272
 31
0.0
  0
LINE
  5
206
330
1F
100
AcDbEntity
  8
0
  6
Continuous
 62
     7
100
AcDbLine
 10
2389.0978846961
 20
2730.4417657553
 30
0.0
 11
2389.0978846961
 21
2730.7956412108
 31
0.0
  0
LINE
  5
207
330
1F
100
AcDbEntity
  8
0
  6
Continuous
 62
     7
100
AcDbLine
 10
2389.0978846961
 20
2730.7956412108
 30
0.0
 11
2491.0978846961
 21
2730.7956412108
 31
0.0
  0
LINE
  5
208
330
1F
100
AcDbEntity
  8
0
  6
Continuous
 62
     7
100
AcDbLine
 10
2491.0978846961
 20
2730.7956412108
 30
0.0
 11
2491.0978846961
 21
2730.4417657553
 31
0.0
  0
LINE
  5
209
330
1F
100
AcDbEntity
  8
0
  6
Continuous
 62
     7
100
AcDbLine
 10
2491.0978846961
 20
2730.4417657553
 30
0.0
 11
2389.0978846961
 21
2730.4417657553
 31
0.0
  0
LINE
  5
20A
330
1F
100
AcDbEntity
  8
0
  6
Continuous
 62
     7
100
AcDbLine
 10
2388.5978846961
 20
2730.7945386778
 30
0.0
 11
2388.5978846961
 21
2731.3272139113
 31
0.0
  0
LINE
  5
20B
330
1F
100
AcDbEntity
  8
0
  6
Continuous
 62
     7
100
AcDbLine
 10
2491.5978846961
 20
2731.3272139113
 30
0.0
 11
2491.5978846961
 21
2730.7945386778
 31
0.0
  0
LINE
  5
20C
330
1F
100
AcDbEntity
  8
0
  6
Continuous
 62
     7
100
AcDbLine
 10
2391.4514380865
 20
2727.7279165968
 30
0.0
 11
2388.7443313055
 21
2730.4409861467
 31
0.0
  0
LINE
  5
20D
330
1F
100
AcDbEntity
  8
0
  6
Continuous
 62
     7
100
AcDbLine
 10
2389.0978846961
 20
2730.4417657553
 30
0.0
 11
2391.8049914771
 21
2727.7286962058
 31
0.0
  0
LINE
  5
20E
330
1F
100
AcDbEntity
  8
0
  6
Continuous
 62
     7
100
AcDbLine
 10
2491.5978846961
 20
2730.7945386778
 30
0.0
 11
2491.5978846961
 21
2728.0814691283
 31
0.0
  0
LINE
  5
20F
330
1F
100
AcDbEntity
  8
0
  6
Continuous
 62
     7
100
AcDbLine
 10
2491.0978846961
 20
2727.7286962058
 30
0.0
 11
2491.0978846961
 21
2730.4417657553
 31
0.0
  0
LINE
  5
210
330
1F
100
AcDbEntity
  8
0
  6
Continuous
 62
     7
100
AcDbLine
 10
2391.8049914771
 20
2727.7286962058
 30
0.0
 11
2491.0978846961
 21
2727.7286962058
 31
0.0
  0
LINE
  5
211
330
1F
100
AcDbEntity
  8
0
  6
Continuous
 62
     7
100
AcDbLine
 10
2391.4514380865
 20
2727.6807595198
 30
0.0
 11
2391.4514380865
 21
2727.7279165968
 31
0.0
  0
LINE
  5
212
330
1F
100
AcDbEntity
  8
0
  6
Continuous
 62
     7
100
AcDbLine
 10
2388.7443313055
 20
2730.3818903698
 30
0.0
 11
2391.4514380865
 21
2727.6807595198
 31
0.0
  0
LINE
  5
213
330
1F
100
AcDbEntity
  8
0
  6
Continuous
 62
     7
100
AcDbLine
 10
2388.7443313055
 20
2730.4409861467
 30
0.0
 11
2388.7443313055
 21
2730.3818903698
 31
0.0
  0
LINE
  5
214
330
1F
100
AcDbEntity
  8
0
  6
Continuous
 62
     7
100
AcDbLine
 10
2388.5978846961
 20
2730.7354429008
 30
0.0
 11
2388.5978846961
 21
2730.7945386778
 31
0.0
  0
LINE
  5
215
330
1F
100
AcDbEntity
  8
0
  6
Continuous
 62
     7
100
AcDbLine
 10
2491.0978846961
 20
2727.7286962058
 30
0.0
 11
2491.0978846961
 21
2727.5814703438
 31
0.0
  0
LINE
  5
216
330
1F
100
AcDbEntity
  8
0
  6
Continuous
 62
     7
100
AcDbLine
 10
2391.8049914771
 20
2727.7286962058
 30
0.0
 11
2391.8049914771
 21
2727.5814703438
 31
0.0
  0
LINE
  5
217
330
1F
100
AcDbEntity
  8
0
  6
Continuous
 62
     7
100
AcDbLine
 10
2491.0978846961
 20
2727.5814703438
 30
0.0
 11
2391.8049914771
 21
2727.5814703438
 31
0.0
  0
LINE
  5
218
330
1F
100
AcDbEntity
  8
0
  6
Continuous
 62
     7
100
AcDbLine
 10
2391.8049914771
 20
2727.5814703438
 30
0.0
 11
2391.8049914771
 21
2727.5343132668
 31
0.0
  0
LINE
  5
219
330
1F
100
AcDbEntity
  8
0
  6
Continuous
 62
     7
100
AcDbLine
 10
2391.8049914771
 20
2727.5343132668
 30
0.0
 11
2491.0978846961
 21
2727.5343132668
 31
0.0
  0
LINE
  5
21A
330
1F
100
AcDbEntity
  8
0
  6
Continuous
 62
     7
100
AcDbLine
 10
2491.0978846961
 20
2727.5343132668
 30
0.0
 11
2491.0978846961
 21
2727.5814703438
 31
0.0
  0
LINE
  5
21B
330
1F
100
AcDbEntity
  8
0
  6
Continuous
 62
     7
100
AcDbLine
 10
2491.5978846961
 20
2728.0814691283
 30
0.0
 11
2491.5978846961
 21
2728.0343120508
 31
0.0
  0
LINE
  5
21C
330
1F
100
AcDbEntity
  8
0
  6
Continuous
 62
     7
100
AcDbLine
 10
2495.697884696
 20
2727.0721818503
 30
0.0
 11
2495.697884696
 21
2727.0437364948
 31
0.0
  0
LINE
  5
21D
330
1F
100
AcDbEntity
  8
0
  6
Continuous
 62
     7
100
AcDbLine
 10
2528.097884696
 20
2727.0743869168
 30
0.0
 11
2496.697884696
 21
2727.0743869168
 31
0.0
  0
LINE
  5
21E
330
1F
100
AcDbEntity
  8
0
  6
Continuous
 62
     7
100
AcDbLine
 10
2529.097884696
 20
2727.0437364948
 30
0.0
 11
2529.097884696
 21
2727.0721818503
 31
0.0
  0
LINE
  5
21F
330
1F
100
AcDbEntity
  8
0
  6
Continuous
 62
     7
100
AcDbLine
 10
2496.697884696
 20
2727.0415314288
 30
0.0
 11
2528.097884696
 21
2727.0415314288
 31
0.0
  0
LINE
  5
220
330
1F
100
AcDbEntity
  8
0
  6
Continuous
 62
     7
100
AcDbLine
 10
2495.697884696
 20
2727.0721818503
 30
0.0
 11
2495.697884696
 21
2727.5736139278
 31
0.0
  0
LINE
  5
221
330
1F
100
AcDbEntity
  8
0
  6
Continuous
 62
     7
100
AcDbLine
 10
2529.097884696
 20
2727.5736139278
 30
0.0
 11
2529.097884696
 21
2727.0721818503
 31
0.0
  0
LINE
  5
222
330
1F
100
AcDbEntity
  8
0
  6
Continuous
 62
     7
100
AcDbLine
 10
2553.297884696
 20
2730.4418319073
 30
0.0
 11
2553.297884696
 21
2730.7957073628
 31
0.0
  0
LINE
  5
223
330
1F
100
AcDbEntity
  8
0
  6
Continuous
 62
     7
100
AcDbLine
 10
2553.297884696
 20
2730.4418319073
 30
0.0
 11
2492.297884696
 21
2730.4418319073
 31
0.0
  0
LINE
  5
224
330
1F
100
AcDbEntity
  8
0
  6
Continuous
 62
     7
100
AcDbLine
 10
2492.297884696
 20
2730.7957073628
 30
0.0
 11
2492.297884696
 21
2730.4418319073
 31
0.0
  0
LINE
  5
225
330
1F
100
AcDbEntity
  8
0
  6
Continuous
 62
     7
100
AcDbLine
 10
2492.297884696
 20
2730.7957073628
 30
0.0
 11
2553.297884696
 21
2730.7957073628
 31
0.0
  0
LINE
  5
226
330
1F
100
AcDbEntity
  8
0
  6
Continuous
 62
     7
100
AcDbLine
 10
2553.797884696
 20
2731.3272139113
 30
0.0
 11
2553.797884696
 21
2730.7946048298
 31
0.0
  0
LINE
  5
227
330
1F
100
AcDbEntity
  8
0
  6
Continuous
 62
     7
100
AcDbLine
 10
2491.797884696
 20
2730.7946048298
 30
0.0
 11
2491.797884696
 21
2731.3272139113
 31
0.0
  0
LINE
  5
228
330
1F
100
AcDbEntity
  8
0
  6
Continuous
 62
     7
100
AcDbLine
 10
2553.6514380865
 20
2730.4410522988
 30
0.0
 11
2550.9443313055
 21
2727.7279827488
 31
0.0
  0
LINE
  5
229
330
1F
100
AcDbEntity
  8
0
  6
Continuous
 62
     7
100
AcDbLine
 10
2550.590777915
 20
2727.7287623578
 30
0.0
 11
2553.297884696
 21
2730.4418319073
 31
0.0
  0
LINE
  5
22A
330
1F
100
AcDbEntity
  8
0
  6
Continuous
 62
     7
100
AcDbLine
 10
2492.297884696
 20
2730.4418319073
 30
0.0
 11
2492.297884696
 21
2727.7287623578
 31
0.0
  0
LINE
  5
22B
330
1F
100
AcDbEntity
  8
0
  6
Continuous
 62
     7
100
AcDbLine
 10
2492.297884696
 20
2727.7287623578
 30
0.0
 11
2550.590777915
 21
2727.7287623578
 31
0.0
  0
LINE
  5
22C
330
1F
100
AcDbEntity
  8
0
  6
Continuous
 62
     7
100
AcDbLine
 10
2491.797884696
 20
2728.0815352798
 30
0.0
 11
2491.797884696
 21
2730.7946048298
 31
0.0
  0
LINE
  5
22D
330
1F
100
AcDbEntity
  8
0
  6
Continuous
 62
     7
100
AcDbLine
 10
2553.6514380865
 20
2730.3819565218
 30
0.0
 11
2553.6514380865
 21
2730.4410522988
 31
0.0
  0
LINE
  5
22E
330
1F
100
AcDbEntity
  8
0
  6
Continuous
 62
     7
100
AcDbLine
 10
2550.9443313055
 20
2727.6808256718
 30
0.0
 11
2553.6514380865
 21
2730.3819565218
 31
0.0
  0
LINE
  5
22F
330
1F
100
AcDbEntity
  8
0
  6
Continuous
 62
     7
100
AcDbLine
 10
2550.9443313055
 20
2727.7279827488
 30
0.0
 11
2550.9443313055
 21
2727.6808256718
 31
0.0
  0
LINE
  5
230
330
1F
100
AcDbEntity
  8
0
  6
Continuous
 62
     7
100
AcDbLine
 10
2553.797884696
 20
2730.7946048298
 30
0.0
 11
2553.797884696
 21
2730.7355090528
 31
0.0
  0
LINE
  5
231
330
1F
100
AcDbEntity
  8
0
  6
Continuous
 62
     7
100
AcDbLine
 10
2492.297884696
 20
2727.5815364958
 30
0.0
 11
2492.297884696
 21
2727.7287623578
 31
0.0
  0
LINE
  5
232
330
1F
100
AcDbEntity
  8
0
  6
Continuous
 62
     7
100
AcDbLine
 10
2550.590777915
 20
2727.5815364958
 30
0.0
 11
2550.590777915
 21
2727.7287623578
 31
0.0
  0
LINE
  5
233
330
1F
100
AcDbEntity
  8
0
  6
Continuous
 62
     7
100
AcDbLine
 10
2550.590777915
 20
2727.5815364958
 30
0.0
 11
2492.297884696
 21
2727.5815364958
 31
0.0
  0
LINE
  5
234
330
1F
100
AcDbEntity
  8
0
  6
Continuous
 62
     7
100
AcDbLine
 10
2492.297884696
 20
2727.5815364958
 30
0.0
 11
2492.297884696
 21
2727.5343794188
 31
0.0
  0
LINE
  5
235
330
1F
100
AcDbEntity
  8
0
  6
Continuous
 62
     7
100
AcDbLine
 10
2491.797884696
 20
2728.0343782028
 30
0.0
 11
2491.797884696
 21
2728.0815352798
 31
0.0
  0
LINE
  5
236
330
1F
100
AcDbEntity
  8
0
  6
Continuous
 62
     7
100
AcDbLine
 10
2550.590777915
 20
2727.5343794188
 30
0.0
 11
2550.590777915
 21
2727.5815364958
 31
0.0
  0
LINE
  5
237
330
1F
100
AcDbEntity
  8
0
  6
Continuous
 62
     7
100
AcDbLine
 10
2492.297884696
 20
2727.5343794188
 30
0.0
 11
2495.697884696
 21
2727.5343794188
 31
0.0
  0
LINE
  5
238
330
1F
100
AcDbEntity
  8
0
  6
Continuous
 62
     7
100
AcDbLine
 10
2529.097884696
 20
2727.5343794188
 30
0.0
 11
2550.590777915
 21
2727.5343794188
 31
0.0
  0
LINE
  5
239
330
1F
100
AcDbEntity
  8
0
  6
Continuous
 62
     7
100
AcDbLine
 10
2528.347884696
 20
2727.5746062078
 30
0.0
 11
2496.447884696
 21
2727.5746062078
 31
0.0
  0
LINE
  5
23A
330
1F
100
AcDbEntity
  8
0
  6
Continuous
 62
     7
100
AcDbLine
 10
2495.597884696
 20
2727.5727319013
 30
0.0
 11
2495.597884696
 21
2727.5431840128
 31
0.0
  0
LINE
  5
23B
330
1F
100
AcDbEntity
  8
0
  6
Continuous
 62
     7
100
AcDbLine
 10
2529.197884696
 20
2727.5431840128
 30
0.0
 11
2529.197884696
 21
2727.5727319013
 31
0.0
  0
LINE
  5
23C
330
1F
100
AcDbEntity
  8
0
  6
Continuous
 62
     7
100
AcDbLine
 10
2558.747884696
 20
2753.6272139113
 30
0.0
 11
2383.747884696
 21
2753.6272139113
 31
0.0
  0
LINE
  5
23D
330
1F
100
AcDbEntity
  8
0
  6
Continuous
 62
     7
100
AcDbLine
 10
2383.747884696
 20
2753.6272139113
 30
0.0
 11
2383.747884696
 21
2755.1272139113
 31
0.0
  0
LINE
  5
23E
330
1F
100
AcDbEntity
  8
0
  6
Continuous
 62
     7
100
AcDbLine
 10
2383.747884696
 20
2755.1272139113
 30
0.0
 11
2558.747884696
 21
2755.1272139113
 31
0.0
  0
LINE
  5
23F
330
1F
100
AcDbEntity
  8
0
  6
Continuous
 62
     7
100
AcDbLine
 10
2558.747884696
 20
2753.6272139113
 30
0.0
 11
2558.747884696
 21
2755.1272139113
 31
0.0
  0
LINE
  5
240
330
1F
100
AcDbEntity
  8
0
  6
Continuous
 62
     7
100
AcDbLine
 10
2563.747884696
 20
2753.6272139113
 30
0.0
 11
2558.747884696
 21
2753.6272139113
 31
0.0
  0
LINE
  5
241
330
1F
100
AcDbEntity
  8
0
  6
Continuous
 62
     7
100
AcDbLine
 10
2558.747884696
 20
2755.1272139113
 30
0.0
 11
2562.247884696
 21
2755.1272139113
 31
0.0
  0
LINE
  5
242
330
1F
100
AcDbEntity
  8
0
  6
Continuous
 62
     7
100
AcDbLine
 10
2563.747884696
 20
2753.6272139113
 30
0.0
 11
2563.747884696
 21
2743.3272139113
 31
0.0
  0
LINE
  5
243
330
1F
100
AcDbEntity
  8
0
  6
Continuous
 62
     7
100
AcDbLine
 10
2378.747884696
 20
2743.3272139113
 30
0.0
 11
2378.747884696
 21
2753.6272139113
 31
0.0
  0
LINE
  5
244
330
1F
100
AcDbEntity
  8
0
  6
Continuous
 62
     7
100
AcDbLine
 10
2383.747884696
 20
2753.6272139113
 30
0.0
 11
2378.747884696
 21
2753.6272139113
 31
0.0
  0
LINE
  5
245
330
1F
100
AcDbEntity
  8
0
  6
Continuous
 62
     7
100
AcDbLine
 10
2380.247884696
 20
2755.1272139113
 30
0.0
 11
2383.747884696
 21
2755.1272139113
 31
0.0
  0
LINE
  5
246
330
1F
100
AcDbEntity
  8
0
  6
Continuous
 62
     7
100
AcDbLine
 10
2581.247884696
 20
2743.3272139113
 30
0.0
 11
2581.247884696
 21
2732.3272139113
 31
0.0
  0
LINE
  5
247
330
1F
100
AcDbEntity
  8
0
  6
Continuous
 62
     7
100
AcDbLine
 10
2581.247884696
 20
2732.3272139113
 30
0.0
 11
2580.247884696
 21
2732.3272139113
 31
0.0
  0
LINE
  5
248
330
1F
100
AcDbEntity
  8
0
  6
Continuous
 62
     7
100
AcDbLine
 10
2580.247884696
 20
2732.3272139113
 30
0.0
 11
2580.247884696
 21
2743.3272139113
 31
0.0
  0
LINE
  5
249
330
1F
100
AcDbEntity
  8
0
  6
Continuous
 62
     7
100
AcDbLine
 10
2580.247884696
 20
2743.3272139113
 30
0.0
 11
2581.247884696
 21
2743.3272139113
 31
0.0
  0
LINE
  5
24A
330
1F
100
AcDbEntity
  8
0
  6
Continuous
 62
     7
100
AcDbLine
 10
2580.247884696
 20
2731.3272139113
 30
0.0
 11
2580.247884696
 21
2732.3272139113
 31
0.0
  0
LINE
  5
24B
330
1F
100
AcDbEntity
  8
0
  6
Continuous
 62
     7
100
AcDbLine
 10
2362.247884696
 20
2743.3272139113
 30
0.0
 11
2362.247884696
 21
2732.3272139113
 31
0.0
  0
LINE
  5
24C
330
1F
100
AcDbEntity
  8
0
  6
Continuous
 62
     7
100
AcDbLine
 10
2362.247884696
 20
2732.3272139113
 30
0.0
 11
2361.247884696
 21
2732.3272139113
 31
0.0
  0
LINE
  5
24D
330
1F
100
AcDbEntity
  8
0
  6
Continuous
 62
     7
100
AcDbLine
 10
2361.247884696
 20
2732.3272139113
 30
0.0
 11
2361.247884696
 21
2743.3272139113
 31
0.0
  0
LINE
  5
24E
330
1F
100
AcDbEntity
  8
0
  6
Continuous
 62
     7
100
AcDbLine
 10
2361.247884696
 20
2743.3272139113
 30
0.0
 11
2362.247884696
 21
2743.3272139113
 31
0.0
  0
LINE
  5
24F
330
1F
100
AcDbEntity
  8
0
  6
Continuous
 62
     7
100
AcDbLine
 10
2362.247884696
 20
2732.3272139113
 30
0.0
 11
2362.247884696
 21
2731.3272139113
 31
0.0
  0
LINE
  5
250
330
1F
100
AcDbEntity
  8
0
  6
Continuous
 62
     7
100
AcDbLine
 10
2362.247884696
 20
2732.3272139113
 30
0.0
 11
2580.247884696
 21
2732.3272139113
 31
0.0
  0
LINE
  5
251
330
1F
100
AcDbEntity
  8
0
  6
Continuous
 62
     7
100
AcDbLine
 10
2580.247884696
 20
2731.3272139113
 30
0.0
 11
2362.247884696
 21
2731.3272139113
 31
0.0
  0
LINE
  5
252
330
1F
100
AcDbEntity
  8
0
  6
Continuous
 62
     7
100
AcDbLine
 10
2580.247884696
 20
2743.3272139113
 30
0.0
 11
2362.247884696
 21
2743.3272139113
 31
0.0
  0
LINE
  5
253
330
1F
100
AcDbEntity
  8
0
  6
Continuous
 62
     7
100
AcDbLine
 10
2389.0978846961
 20
2731.3272139113
 30
0.0
 11
2389.0978846961
 21
2730.7956412108
 31
0.0
  0
LINE
  5
254
330
1F
100
AcDbEntity
  8
0
  6
Continuous
 62
     7
100
AcDbLine
 10
2491.0978846961
 20
2730.7956412108
 30
0.0
 11
2491.0978846961
 21
2731.3272139113
 31
0.0
  0
LINE
  5
255
330
1F
100
AcDbEntity
  8
0
  6
Continuous
 62
     7
100
AcDbLine
 10
2496.697884696
 20
2727.5746062078
 30
0.0
 11
2496.697884696
 21
2727.0743869168
 31
0.0
  0
LINE
  5
256
330
1F
100
AcDbEntity
  8
0
  6
Continuous
 62
     7
100
AcDbLine
 10
2528.097884696
 20
2727.0743869168
 30
0.0
 11
2528.097884696
 21
2727.5746062078
 31
0.0
  0
LINE
  5
257
330
1F
100
AcDbEntity
  8
0
  6
Continuous
 62
     7
100
AcDbLine
 10
2553.297884696
 20
2730.7957073628
 30
0.0
 11
2553.297884696
 21
2731.3272139113
 31
0.0
  0
LINE
  5
258
330
1F
100
AcDbEntity
  8
0
  6
Continuous
 62
     7
100
AcDbLine
 10
2492.297884696
 20
2731.3272139113
 30
0.0
 11
2492.297884696
 21
2730.7957073628
 31
0.0
  0
LINE
  5
259
330
1F
100
AcDbEntity
  8
0
  6
Continuous
 62
     7
100
AcDbLine
 10
2383.747884696
 20
2753.6272139113
 30
0.0
 11
2383.747884696
 21
2743.3272139113
 31
0.0
  0
LINE
  5
25A
330
1F
100
AcDbEntity
  8
0
  6
Continuous
 62
     7
100
AcDbLine
 10
2558.747884696
 20
2743.3272139113
 30
0.0
 11
2558.747884696
 21
2753.6272139113
 31
0.0
  0
LWPOLYLINE
  5
25B
330
1F
100
AcDbEntity
  8
0
  6
Continuous
 62
     7
100
AcDbPolyline
 90
        3
 70
   128
 43
0.0
 10
2552.1602630615
 20
2954.5532827091
 10
2553.0706605679
 20
2955.8932457999
 10
2553.6112918695
 20
2957.0294283448
  0
LWPOLYLINE
  5
25C
330
1F
100
AcDbEntity
  8
0
  6
Continuous
 62
     7
100
AcDbPolyline
 90
        3
 70
   128
 43
0.0
 10
2551.6204833984
 20
2964.2597877162
 10
2551.5156990402
 20
2963.7184780731
 10
2551.4178168883
 20
2963.2959159434
  0
LWPOLYLINE
  5
25D
330
1F
100
AcDbEntity
  8
0
  6
Continuous
 62
     7
100
AcDbPolyline
 90
        3
 70
   128
 43
0.0
 10
2553.6098480225
 20
2951.5259467331
 10
2552.9431836854
 20
2950.448310883
 10
2552.1612918695
 20
2949.7974136839
  0
LWPOLYLINE
  5
25E
330
1F
100
AcDbEntity
  8
0
  6
Continuous
 62
     7
100
AcDbPolyline
 90
       11
 70
   128
 43
0.0
 10
2563.7474060059
 20
2745.6550798326
 10
2563.9360398596
 20
2745.6475170302
 10
2563.9473804892
 20
2745.6471036713
 10
2563.9474791442
 20
2745.647103945
 10
2563.9474846997
 20
2745.6471045272
 10
2563.9474859627
 20
2745.6471048804
 10
2563.9474862193
 20
2745.647105275
 10
2563.9474772346
 20
2745.6471072637
 10
2563.9470954506
 20
2745.6471326463
 10
2563.9368902632
 20
2745.6476031218
 10
2563.8981705244
 20
2745.6492836228
  0
LWPOLYLINE
  5
25F
330
1F
100
AcDbEntity
  8
0
  6
Continuous
 62
     7
100
AcDbPolyline
 90
        5
 70
   128
 43
0.0
 10
2563.7474060059
 20
2745.7123041579
 10
2565.3269900402
 20
2746.5688188755
 10
2565.6712185072
 20
2747.5148382229
 10
2565.5473167818
 20
2748.0629699589
 10
2563.747884696
 20
2749.4882615603
  0
ENDSEC
  0
SECTION
  2
OBJECTS
  0
DICTIONARY
  5
C
330
0
100
AcDbDictionary
281
     1
  3
ACAD_GROUP
350
D
  3
ACAD_LAYOUT
350
1A
  3
ACAD_MLINESTYLE
350
17
  3
ACAD_PLOTSETTINGS
350
19
  3
ACAD_PLOTSTYLENAME
350
E
  3
ACAD_SCALELIST
350
47
  3
DWGPROPS
350
260
  0
DICTIONARY
  5
D
102
{ACAD_REACTORS
330
C
102
}
330
C
100
AcDbDictionary
281
     1
  0
DICTIONARY
  5
1A
102
{ACAD_REACTORS
330
C
102
}
330
C
100
AcDbDictionary
281
     1
  3
Layout1
350
1E
  3
Layout2
350
26
  3
Model
350
22
  0
DICTIONARY
  5
17
102
{ACAD_REACTORS
330
C
102
}
330
C
100
AcDbDictionary
281
     1
  3
Standard
350
18
  0
DICTIONARY
  5
19
102
{ACAD_REACTORS
330
C
102
}
330
C
100
AcDbDictionary
281
     1
  0
ACDBDICTIONARYWDFLT
  5
E
102
{ACAD_REACTORS
330
C
102
}
330
C
100
AcDbDictionary
281
     1
  3
Normal
350
F
100
AcDbDictionaryWithDefault
340
F
  0
DICTIONARY
  5
47
102
{ACAD_REACTORS
330
C
102
}
330
C
100
AcDbDictionary
281
     1
  3
A0
350
48
  3
A1
350
49
  3
A2
350
4A
  3
A3
350
4B
  3
A4
350
4C
  3
A5
350
4D
  3
A6
350
4E
  3
A7
350
4F
  3
A8
350
50
  3
A9
350
51
  3
B0
350
52
  3
B1
350
53
  3
B2
350
54
  3
B3
350
55
  3
B4
350
56
  3
B5
350
57
  3
B6
350
58
  3
B7
350
59
  3
B8
350
5A
  3
B9
350
5B
  3
C0
350
5C
  3
C1
350
5D
  3
C2
350
5E
  3
C3
350
5F
  3
C4
350
60
  3
C5
350
61
  3
C6
350
62
  3
C7
350
63
  3
C8
350
64
  3
C9
350
65
  3
D0
350
66
  3
D1
350
67
  3
D2
350
68
  0
XRECORD
  5
260
102
{ACAD_REACTORS
330
C
102
}
330
C
100
AcDbXrecord
280
     1
  1
DWGPROPS COOKIE
  2

  3

  4

  6

  7

  8
radek.stransky
  9

300
=
301
=
302
=
303
=
304
=
305
=
306
=
307
=
308
=
309
=
 40
0.0
 41
2459097.381968843
 42
2459097.382066285
  1

 90
        0
  0
LAYOUT
  5
1E
102
{ACAD_REACTORS
330
1A
102
}
330
1A
100
AcDbPlotSettings
  1

  2
none_device
  4

  6

 40
0.0
 41
0.0
 42
0.0
 43
0.0
 44
0.0
 45
0.0
 46
0.0
 47
0.0
 48
0.0
 49
0.0
140
0.0
141
0.0
142
1.0
143
1.0
 70
   688
 72
     1
 73
     0
 74
     5
  7

 75
    16
147
1.0
148
0.0
149
0.0
100
AcDbLayout
  1
Layout1
 70
     1
 71
     1
 10
0.0
 20
0.0
 11
420.0
 21
297.0
 12
0.0
 22
0.0
 32
0.0
 14
1.0000000000E+20
 24
1.0000000000E+20
 34
1.0000000000E+20
 15
-1.0000000000E+20
 25
-1.0000000000E+20
 35
-1.0000000000E+20
146
0.0
 13
0.0
 23
0.0
 33
0.0
 16
1.0
 26
0.0
 36
0.0
 17
0.0
 27
1.0
 37
0.0
 76
     0
330
1B
  0
LAYOUT
  5
26
102
{ACAD_REACTORS
330
1A
102
}
330
1A
100
AcDbPlotSettings
  1

  2
none_device
  4

  6

 40
0.0
 41
0.0
 42
0.0
 43
0.0
 44
0.0
 45
0.0
 46
0.0
 47
0.0
 48
0.0
 49
0.0
140
0.0
141
0.0
142
1.0
143
1.0
 70
   688
 72
     1
 73
     0
 74
     5
  7

 75
    16
147
1.0
148
0.0
149
0.0
100
AcDbLayout
  1
Layout2
 70
     1
 71
     2
 10
0.0
 20
0.0
 11
0.0
 21
0.0
 12
0.0
 22
0.0
 32
0.0
 14
0.0
 24
0.0
 34
0.0
 15
0.0
 25
0.0
 35
0.0
146
0.0
 13
0.0
 23
0.0
 33
0.0
 16
1.0
 26
0.0
 36
0.0
 17
0.0
 27
1.0
 37
0.0
 76
     0
330
23
  0
LAYOUT
  5
22
102
{ACAD_REACTORS
330
1A
102
}
330
1A
100
AcDbPlotSettings
  1

  2
none_device
  4
ANSI_A_(11.00_x_8.50_Inches)
  6

 40
6.35
 41
19.05
 42
6.35000508
 43
19.05000254
 44
279.4
 45
215.9
 46
-1505.4122721092
 47
-1758.9322675973
 48
0.0
 49
0.0
140
0.0
141
0.0
142
0.0251341272
143
1.0
 70
  1696
 72
     0
 73
     0
 74
     0
  7

 75
     0
147
0.0179189148
148
-1300.4909072572
149
0.0
100
AcDbLayout
  1
Model
 70
     1
 71
     0
 10
0.0
 20
0.0
 11
420.0
 21
297.0
 12
0.0
 22
0.0
 32
0.0
 14
2359.6112918695
 24
2727.0412558025
 34
0.0
 15
2774.3007836328
 25
3061.8450041272
 35
0.0
146
0.0
 13
0.0
 23
0.0
 33
0.0
 16
1.0
 26
0.0
 36
0.0
 17
0.0
 27
1.0
 37
0.0
 76
     0
330
1F
331
29
  0
MLINESTYLE
  5
18
102
{ACAD_REACTORS
330
17
102
}
330
17
100
AcDbMlineStyle
  2
Standard
 70
     0
  3

 62
   256
 51
90.0
 52
90.0
 71
     2
 49
0.5
 62
   256
  6
BYLAYER
 49
-0.5
 62
   256
  6
BYLAYER
  0
ACDBPLACEHOLDER
  5
F
102
{ACAD_REACTORS
330
E
102
}
330
E
  0
SCALE
  5
48
102
{ACAD_REACTORS
330
47
102
}
330
47
100
AcDbScale
 70
     0
300
1:1
140
1.0
141
1.0
290
     1
  0
SCALE
  5
49
102
{ACAD_REACTORS
330
47
102
}
330
47
100
AcDbScale
 70
     0
300
1:2
140
1.0
141
2.0
290
     0
  0
SCALE
  5
4A
102
{ACAD_REACTORS
330
47
102
}
330
47
100
AcDbScale
 70
     0
300
1:4
140
1.0
141
4.0
290
     0
  0
SCALE
  5
4B
102
{ACAD_REACTORS
330
47
102
}
330
47
100
AcDbScale
 70
     0
300
1:5
140
1.0
141
5.0
290
     0
  0
SCALE
  5
4C
102
{ACAD_REACTORS
330
47
102
}
330
47
100
AcDbScale
 70
     0
300
1:8
140
1.0
141
8.0
290
     0
  0
SCALE
  5
4D
102
{ACAD_REACTORS
330
47
102
}
330
47
100
AcDbScale
 70
     0
300
1:10
140
1.0
141
10.0
290
     0
  0
SCALE
  5
4E
102
{ACAD_REACTORS
330
47
102
}
330
47
100
AcDbScale
 70
     0
300
1:16
140
1.0
141
16.0
290
     0
  0
SCALE
  5
4F
102
{ACAD_REACTORS
330
47
102
}
330
47
100
AcDbScale
 70
     0
300
1:20
140
1.0
141
20.0
290
     0
  0
SCALE
  5
50
102
{ACAD_REACTORS
330
47
102
}
330
47
100
AcDbScale
 70
     0
300
1:30
140
1.0
141
30.0
290
     0
  0
SCALE
  5
51
102
{ACAD_REACTORS
330
47
102
}
330
47
100
AcDbScale
 70
     0
300
1:40
140
1.0
141
40.0
290
     0
  0
SCALE
  5
52
102
{ACAD_REACTORS
330
47
102
}
330
47
100
AcDbScale
 70
     0
300
1:50
140
1.0
141
50.0
290
     0
  0
SCALE
  5
53
102
{ACAD_REACTORS
330
47
102
}
330
47
100
AcDbScale
 70
     0
300
1:100
140
1.0
141
100.0
290
     0
  0
SCALE
  5
54
102
{ACAD_REACTORS
330
47
102
}
330
47
100
AcDbScale
 70
     0
300
2:1
140
2.0
141
1.0
290
     0
  0
SCALE
  5
55
102
{ACAD_REACTORS
330
47
102
}
330
47
100
AcDbScale
 70
     0
300
4:1
140
4.0
141
1.0
290
     0
  0
SCALE
  5
56
102
{ACAD_REACTORS
330
47
102
}
330
47
100
AcDbScale
 70
     0
300
8:1
140
8.0
141
1.0
290
     0
  0
SCALE
  5
57
102
{ACAD_REACTORS
330
47
102
}
330
47
100
AcDbScale
 70
     0
300
10:1
140
10.0
141
1.0
290
     0
  0
SCALE
  5
58
102
{ACAD_REACTORS
330
47
102
}
330
47
100
AcDbScale
 70
     0
300
100:1
140
100.0
141
1.0
290
     0
  0
SCALE
  5
59
102
{ACAD_REACTORS
330
47
102
}
330
47
100
AcDbScale
 70
     0
300
1/128" = 1'-0"
140
0.0078125
141
12.0
290
     0
  0
SCALE
  5
5A
102
{ACAD_REACTORS
330
47
102
}
330
47
100
AcDbScale
 70
     0
300
1/64" = 1'-0"
140
0.015625
141
12.0
290
     0
  0
SCALE
  5
5B
102
{ACAD_REACTORS
330
47
102
}
330
47
100
AcDbScale
 70
     0
300
1/32" = 1'-0"
140
0.03125
141
12.0
290
     0
  0
SCALE
  5
5C
102
{ACAD_REACTORS
330
47
102
}
330
47
100
AcDbScale
 70
     0
300
1/16" = 1'-0"
140
0.0625
141
12.0
290
     0
  0
SCALE
  5
5D
102
{ACAD_REACTORS
330
47
102
}
330
47
100
AcDbScale
 70
     0
300
3/32" = 1'-0"
140
0.09375
141
12.0
290
     0
  0
SCALE
  5
5E
102
{ACAD_REACTORS
330
47
102
}
330
47
100
AcDbScale
 70
     0
300
1/8" = 1'-0"
140
0.125
141
12.0
290
     0
  0
SCALE
  5
5F
102
{ACAD_REACTORS
330
47
102
}
330
47
100
AcDbScale
 70
     0
300
3/16" = 1'-0"
140
0.1875
141
12.0
290
     0
  0
SCALE
  5
60
102
{ACAD_REACTORS
330
47
102
}
330
47
100
AcDbScale
 70
     0
300
1/4" = 1'-0"
140
0.25
141
12.0
290
     0
  0
SCALE
  5
61
102
{ACAD_REACTORS
330
47
102
}
330
47
100
AcDbScale
 70
     0
300
3/8" = 1'-0"
140
0.375
141
12.0
290
     0
  0
SCALE
  5
62
102
{ACAD_REACTORS
330
47
102
}
330
47
100
AcDbScale
 70
     0
300
1/2" = 1'-0"
140
0.5
141
12.0
290
     0
  0
SCALE
  5
63
102
{ACAD_REACTORS
330
47
102
}
330
47
100
AcDbScale
 70
     0
300
3/4" = 1'-0"
140
0.75
141
12.0
290
     0
  0
SCALE
  5
64
102
{ACAD_REACTORS
330
47
102
}
330
47
100
AcDbScale
 70
     0
300
1" = 1'-0"
140
1.0
141
12.0
290
     0
  0
SCALE
  5
65
102
{ACAD_REACTORS
330
47
102
}
330
47
100
AcDbScale
 70
     0
300
1-1/2" = 1'-0"
140
1.5
141
12.0
290
     0
  0
SCALE
  5
66
102
{ACAD_REACTORS
330
47
102
}
330
47
100
AcDbScale
 70
     0
300
3" = 1'-0"
140
3.0
141
12.0
290
     0
  0
SCALE
  5
67
102
{ACAD_REACTORS
330
47
102
}
330
47
100
AcDbScale
 70
     0
300
6" = 1'-0"
140
6.0
141
12.0
290
     0
  0
SCALE
  5
68
102
{ACAD_REACTORS
330
47
102
}
330
47
100
AcDbScale
 70
     0
300
1'-0" = 1'-0"
140
12.0
141
12.0
290
     0
  0
ENDSEC
  0
EOF
