  0
SECTION
  2
HEADER
  9
$ACADVER
  1
AC1015
  9
$ACADMAINTVER
 70
     6
  9
$DWGCODEPAGE
  3
ANSI_1250
  9
$INSBASE
 10
0.0
 20
0.0
 30
0.0
  9
$EXTMIN
 10
0.0
 20
0.0
 30
0.0
  9
$EXTMAX
 10
20000.0
 20
10000.0
 30
0.0
  9
$LIMMIN
 10
0.0
 20
0.0
  9
$LIMMAX
 10
20000.0
 20
10000.0
  9
$ORTHOMODE
 70
     0
  9
$REGENMODE
 70
     1
  9
$FILLMODE
 70
     1
  9
$QTEXTMODE
 70
     0
  9
$MIRRTEXT
 70
     1
  9
$LTSCALE
 40
1.0
  9
$ATTMODE
 70
     1
  9
$TEXTSIZE
 40
2.0
  9
$TRACEWID
 40
1.0
  9
$TEXTSTYLE
  7
Standard
  9
$CLAYER
  8
0
  9
$CELTYPE
  6
ByLayer
  9
$CECOLOR
 62
   256
  9
$CELTSCALE
 40
1.0
  9
$DISPSILH
 70
     0
  9
$DIMSCALE
 40
1.0
  9
$DIMASZ
 40
2.0
  9
$DIMEXO
 40
1.0
  9
$DIMDLI
 40
3.75
  9
$DIMRND
 40
0.0
  9
$DIMDLE
 40
0.0
  9
$DIMEXE
 40
1.0
  9
$DIMTP
 40
0.0
  9
$DIMTM
 40
0.0
  9
$DIMTXT
 40
2.0
  9
$DIMCEN
 40
2.5
  9
$DIMTSZ
 40
0.0
  9
$DIMTOL
 70
     0
  9
$DIMLIM
 70
     0
  9
$DIMTIH
 70
     1
  9
$DIMTOH
 70
     1
  9
$DIMSE1
 70
     0
  9
$DIMSE2
 70
     0
  9
$DIMTAD
 70
     1
  9
$DIMZIN
 70
     0
  9
$DIMBLK
  1

  9
$DIMASO
 70
     1
  9
$DIMSHO
 70
     1
  9
$DIMPOST
  1

  9
$DIMAPOST
  1

  9
$DIMALT
 70
     0
  9
$DIMALTD
 70
     3
  9
$DIMALTF
 40
0.0393700787
  9
$DIMLFAC
 40
1.0
  9
$DIMTOFL
 70
     1
  9
$DIMTVP
 40
0.0
  9
$DIMTIX
 70
     0
  9
$DIMSOXD
 70
     0
  9
$DIMSAH
 70
     0
  9
$DIMBLK1
  1

  9
$DIMBLK2
  1

  9
$DIMSTYLE
  2
ISO-25
  9
$DIMCLRD
 70
     0
  9
$DIMCLRE
 70
     0
  9
$DIMCLRT
 70
     0
  9
$DIMTFAC
 40
1.0
  9
$DIMGAP
 40
1.524
  9
$DIMJUST
 70
     0
  9
$DIMSD1
 70
     0
  9
$DIMSD2
 70
     0
  9
$DIMTOLJ
 70
     0
  9
$DIMTZIN
 70
     0
  9
$DIMALTZ
 70
     0
  9
$DIMALTTZ
 70
     0
  9
$DIMUPT
 70
     0
  9
$DIMDEC
 70
     2
  9
$DIMTDEC
 70
     0
  9
$DIMALTU
 70
     2
  9
$DIMALTTD
 70
     3
  9
$DIMTXSTY
  7
Standard
  9
$DIMAUNIT
 70
     0
  9
$DIMADEC
 70
     2
  9
$DIMALTRND
 40
0.0
  9
$DIMAZIN
 70
     0
  9
$DIMDSEP
 70
    44
  9
$DIMATFIT
 70
     3
  9
$DIMFRAC
 70
     0
  9
$DIMLDRBLK
  1

  9
$DIMLUNIT
 70
     2
  9
$DIMLWD
 70
    -2
  9
$DIMLWE
 70
    -2
  9
$DIMTMOVE
 70
     0
  9
$LUNITS
 70
     2
  9
$LUPREC
 70
     3
  9
$SKETCHINC
 40
1.0
  9
$FILLETRAD
 40
10.0
  9
$AUNITS
 70
     0
  9
$AUPREC
 70
     2
  9
$MENU
  1
.
  9
$ELEVATION
 40
0.0
  9
$PELEVATION
 40
0.0
  9
$THICKNESS
 40
0.0
  9
$LIMCHECK
 70
     0
  9
$CHAMFERA
 40
0.0
  9
$CHAMFERB
 40
0.0
  9
$CHAMFERC
 40
0.0
  9
$CHAMFERD
 40
0.0
  9
$SKPOLY
 70
     0
  9
$TDCREATE
 40
2458677.452671713
  9
$TDUCREATE
 40
2458677.36933838
  9
$TDUPDATE
 40
2458677.452672361
  9
$TDUUPDATE
 40
2458677.369339028
  9
$TDINDWG
 40
0.0000000116
  9
$TDUSRTIMER
 40
0.0000000116
  9
$USRTIMER
 70
     1
  9
$ANGBASE
 50
0.0
  9
$ANGDIR
 70
     0
  9
$PDMODE
 70
     0
  9
$PDSIZE
 40
-1.0
  9
$PLINEWID
 40
0.0
  9
$SPLFRAME
 70
     0
  9
$SPLINETYPE
 70
     6
  9
$SPLINESEGS
 70
     8
  9
$HANDSEED
  5
1AF
  9
$SURFTAB1
 70
     6
  9
$SURFTAB2
 70
     6
  9
$SURFTYPE
 70
     6
  9
$SURFU
 70
     6
  9
$SURFV
 70
     6
  9
$UCSBASE
  2

  9
$UCSNAME
  2

  9
$UCSORG
 10
0.0
 20
0.0
 30
0.0
  9
$UCSXDIR
 10
1.0
 20
0.0
 30
0.0
  9
$UCSYDIR
 10
0.0
 20
1.0
 30
0.0
  9
$UCSORTHOREF
  2

  9
$UCSORTHOVIEW
 70
     0
  9
$UCSORGTOP
 10
0.0
 20
0.0
 30
0.0
  9
$UCSORGBOTTOM
 10
0.0
 20
0.0
 30
0.0
  9
$UCSORGLEFT
 10
0.0
 20
0.0
 30
0.0
  9
$UCSORGRIGHT
 10
0.0
 20
0.0
 30
0.0
  9
$UCSORGFRONT
 10
0.0
 20
0.0
 30
0.0
  9
$UCSORGBACK
 10
0.0
 20
0.0
 30
0.0
  9
$PUCSBASE
  2

  9
$PUCSNAME
  2

  9
$PUCSORG
 10
0.0
 20
0.0
 30
0.0
  9
$PUCSXDIR
 10
1.0
 20
0.0
 30
0.0
  9
$PUCSYDIR
 10
0.0
 20
1.0
 30
0.0
  9
$PUCSORTHOREF
  2

  9
$PUCSORTHOVIEW
 70
     0
  9
$PUCSORGTOP
 10
0.0
 20
0.0
 30
0.0
  9
$PUCSORGBOTTOM
 10
0.0
 20
0.0
 30
0.0
  9
$PUCSORGLEFT
 10
0.0
 20
0.0
 30
0.0
  9
$PUCSORGRIGHT
 10
0.0
 20
0.0
 30
0.0
  9
$PUCSORGFRONT
 10
0.0
 20
0.0
 30
0.0
  9
$PUCSORGBACK
 10
0.0
 20
0.0
 30
0.0
  9
$USERI1
 70
     0
  9
$USERI2
 70
     0
  9
$USERI3
 70
     0
  9
$USERI4
 70
     0
  9
$USERI5
 70
     0
  9
$USERR1
 40
0.0
  9
$USERR2
 40
0.0
  9
$USERR3
 40
0.0
  9
$USERR4
 40
0.0
  9
$USERR5
 40
0.0
  9
$WORLDVIEW
 70
     1
  9
$SHADEDGE
 70
     3
  9
$SHADEDIF
 70
    70
  9
$TILEMODE
 70
     1
  9
$MAXACTVP
 70
    64
  9
$PINSBASE
 10
0.0
 20
0.0
 30
0.0
  9
$PLIMCHECK
 70
     0
  9
$PEXTMIN
 10
1.0000000000E+20
 20
1.0000000000E+20
 30
1.0000000000E+20
  9
$PEXTMAX
 10
-1.0000000000E+20
 20
-1.0000000000E+20
 30
-1.0000000000E+20
  9
$PLIMMIN
 10
0.0
 20
0.0
  9
$PLIMMAX
 10
420.0
 20
297.0
  9
$UNITMODE
 70
     0
  9
$VISRETAIN
 70
     1
  9
$PLINEGEN
 70
     0
  9
$PSLTSCALE
 70
     1
  9
$TREEDEPTH
 70
  3020
  9
$CMLSTYLE
  2
Standard
  9
$CMLJUST
 70
     0
  9
$CMLSCALE
 40
20.0
  9
$PROXYGRAPHICS
 70
     1
  9
$MEASUREMENT
 70
     1
  9
$CELWEIGHT
370
    -1
  9
$ENDCAPS
280
     0
  9
$JOINSTYLE
280
     0
  9
$LWDISPLAY
290
     1
  9
$INSUNITS
 70
     4
  9
$HYPERLINKBASE
  1

  9
$STYLESHEET
  1

  9
$XEDIT
290
     1
  9
$CEPSNTYPE
380
     0
  9
$PSTYLEMODE
290
     1
  9
$FINGERPRINTGUID
  2
{48D68266-BC2A-4A24-A2CC-D1EB1BB3ABA2}
  9
$VERSIONGUID
  2
{FAEB1C32-E019-11D5-929B-00C0DF256EC4}
  9
$EXTNAMES
290
     1
  9
$PSVPSCALE
 40
0.0
  9
$OLESTARTUP
290
     0
  0
ENDSEC
  0
SECTION
  2
CLASSES
  0
CLASS
  1
ACDBDICTIONARYWDFLT
  2
AcDbDictionaryWithDefault
  3
ObjectDBX Classes
 90
        0
280
     0
281
     0
  0
CLASS
  1
VISUALSTYLE
  2
AcDbVisualStyle
  3
ObjectDBX Classes
 90
     4095
280
     0
281
     0
  0
CLASS
  1
MATERIAL
  2
AcDbMaterial
  3
ObjectDBX Classes
 90
     1153
280
     0
281
     0
  0
CLASS
  1
SCALE
  2
AcDbScale
  3
ObjectDBX Classes
 90
     1153
280
     0
281
     0
  0
CLASS
  1
TABLESTYLE
  2
AcDbTableStyle
  3
ObjectDBX Classes
 90
     4095
280
     0
281
     0
  0
CLASS
  1
MLEADERSTYLE
  2
AcDbMLeaderStyle
  3
ACDB_MLEADERSTYLE_CLASS
 90
     4095
280
     0
281
     0
  0
CLASS
  1
SUN
  2
AcDbSun
  3
SCENEOE
 90
     1153
280
     0
281
     0
  0
CLASS
  1
ACDBPLACEHOLDER
  2
AcDbPlaceHolder
  3
ObjectDBX Classes
 90
        0
280
     0
281
     0
  0
CLASS
  1
LAYOUT
  2
AcDbLayout
  3
ObjectDBX Classes
 90
        0
280
     0
281
     0
  0
ENDSEC
  0
SECTION
  2
TABLES
  0
TABLE
  2
VPORT
  5
8
330
0
100
AcDbSymbolTable
 70
     1
  0
VPORT
  5
29
330
8
100
AcDbSymbolTableRecord
100
AcDbViewportTableRecord
  2
*Active
 70
     0
 10
0.0
 20
0.0
 11
1.0
 21
1.0
 12
10000.0
 22
5000.0
 13
0.0
 23
0.0
 14
10.0
 24
10.0
 15
10.0
 25
10.0
 16
0.0
 26
0.0
 36
1.0
 17
0.0
 27
0.0
 37
0.0
 40
10000.0
 41
2.0
 42
50.0
 43
0.0
 44
0.0
 50
0.0
 51
0.0
 71
     0
 72
  2000
 73
     1
 74
     3
 75
     0
 76
     0
 77
     0
 78
     0
281
     0
 65
     1
110
0.0
120
0.0
130
0.0
111
1.0
121
0.0
131
0.0
112
0.0
122
1.0
132
0.0
 79
     0
146
0.0
  0
ENDTAB
  0
TABLE
  2
LTYPE
  5
5
330
0
100
AcDbSymbolTable
 70
     6
  0
LTYPE
  5
14
330
5
100
AcDbSymbolTableRecord
100
AcDbLinetypeTableRecord
  2
ByBlock
 70
     0
  3

 72
    65
 73
     0
 40
0.0
  0
LTYPE
  5
15
330
5
100
AcDbSymbolTableRecord
100
AcDbLinetypeTableRecord
  2
ByLayer
 70
     0
  3

 72
    65
 73
     0
 40
0.0
  0
LTYPE
  5
16
330
5
100
AcDbSymbolTableRecord
100
AcDbLinetypeTableRecord
  2
Continuous
 70
     0
  3
Solid line
 72
    65
 73
     0
 40
0.0
  0
LTYPE
  5
6E
330
5
100
AcDbSymbolTableRecord
100
AcDbLinetypeTableRecord
  2
HIDDEN
 70
     0
  3
Hidden __ __ __ __ __ __ __ __ __ __ __ __ __ __
 72
    65
 73
     2
 40
1.905
 49
1.27
 74
     0
 49
-0.635
 74
     0
  0
LTYPE
  5
6F
330
5
100
AcDbSymbolTableRecord
100
AcDbLinetypeTableRecord
  2
PHANTOM
 70
     0
  3
Phantom ______  __  __  ______  __  __  ______
 72
    65
 73
     6
 40
12.7
 49
6.35
 74
     0
 49
-1.27
 74
     0
 49
1.27
 74
     0
 49
-1.27
 74
     0
 49
1.27
 74
     0
 49
-1.27
 74
     0
  0
LTYPE
  5
70
330
5
100
AcDbSymbolTableRecord
100
AcDbLinetypeTableRecord
  2
CENTER
 70
     0
  3
Center ____ _ ____ _ ____ _ ____ _ ____ _ ____
 72
    65
 73
     4
 40
10.16
 49
6.35
 74
     0
 49
-1.27
 74
     0
 49
1.27
 74
     0
 49
-1.27
 74
     0
  0
LTYPE
  5
71
330
5
100
AcDbSymbolTableRecord
100
AcDbLinetypeTableRecord
  2
CENTERX2
 70
     0
  3
Center (2x) ________  __  ________  __  _____
 72
    65
 73
     4
 40
20.32
 49
12.7
 74
     0
 49
-2.54
 74
     0
 49
2.54
 74
     0
 49
-2.54
 74
     0
  0
LTYPE
  5
72
330
5
100
AcDbSymbolTableRecord
100
AcDbLinetypeTableRecord
  2
DOT2
 70
     0
  3
Dot (.5x) ........................................
 72
    65
 73
     2
 40
0.635
 49
0.0
 74
     0
 49
-0.635
 74
     0
  0
ENDTAB
  0
TABLE
  2
LAYER
  5
2
330
0
100
AcDbSymbolTable
 70
    13
  0
LAYER
  5
10
330
2
100
AcDbSymbolTableRecord
100
AcDbLayerTableRecord
  2
0
 70
     0
 62
     7
  6
Continuous
370
    -3
390
F
  0
LAYER
  5
73
330
2
100
AcDbSymbolTableRecord
100
AcDbLayerTableRecord
  2
FORMAT
 70
     0
 62
     7
  6
Continuous
370
    -3
390
F
  0
LAYER
  5
74
330
2
100
AcDbSymbolTableRecord
100
AcDbLayerTableRecord
  2
OSA
 70
     0
 62
     7
  6
CENTER
370
    -3
390
F
  0
LAYER
  5
75
330
2
100
AcDbSymbolTableRecord
100
AcDbLayerTableRecord
  2
0_35
 70
     0
 62
     7
  6
Continuous
370
    35
390
F
  0
LAYER
  5
76
330
2
100
AcDbSymbolTableRecord
100
AcDbLayerTableRecord
  2
0_5
 70
     0
 62
     7
  6
Continuous
370
    50
390
F
  0
LAYER
  5
77
330
2
100
AcDbSymbolTableRecord
100
AcDbLayerTableRecord
  2
0_25
 70
     0
 62
     7
  6
Continuous
370
    25
390
F
  0
LAYER
  5
78
330
2
100
AcDbSymbolTableRecord
100
AcDbLayerTableRecord
  2
0_18
 70
     0
 62
     7
  6
Continuous
370
    -3
390
F
  0
LAYER
  5
79
330
2
100
AcDbSymbolTableRecord
100
AcDbLayerTableRecord
  2
SLD-0
 70
     0
 62
   179
  6
Continuous
370
    -3
390
F
  0
LAYER
  5
7A
330
2
100
AcDbSymbolTableRecord
100
AcDbLayerTableRecord
  2
KOTY
 70
     0
 62
     7
  6
Continuous
370
    -3
390
F
  0
LAYER
  5
7B
330
2
100
AcDbSymbolTableRecord
100
AcDbLayerTableRecord
  2
SILNA
 70
     0
 62
   179
  6
Continuous
370
    -3
390
F
  0
LAYER
  5
7C
330
2
100
AcDbSymbolTableRecord
100
AcDbLayerTableRecord
  2
0_18_1
 70
     0
 62
   179
  6
Continuous
370
    -3
390
F
  0
LAYER
  5
7D
330
2
100
AcDbSymbolTableRecord
100
AcDbLayerTableRecord
  2
0_35_1
 70
     0
 62
   179
  6
Continuous
370
    35
390
F
  0
LAYER
  5
7E
330
2
100
AcDbSymbolTableRecord
100
AcDbLayerTableRecord
  2
0_5_1
 70
     0
 62
   179
  6
Continuous
370
    50
390
F
  0
ENDTAB
  0
TABLE
  2
STYLE
  5
3
330
0
100
AcDbSymbolTable
 70
     1
  0
STYLE
  5
11
330
3
100
AcDbSymbolTableRecord
100
AcDbTextStyleTableRecord
  2
Standard
 70
     0
 40
0.0
 41
1.0
 50
0.0
 71
     0
 42
2.0
  3
txt
  4

  0
ENDTAB
  0
TABLE
  2
VIEW
  5
6
330
0
100
AcDbSymbolTable
 70
     0
  0
ENDTAB
  0
TABLE
  2
UCS
  5
7
330
0
100
AcDbSymbolTable
 70
     0
  0
ENDTAB
  0
TABLE
  2
APPID
  5
9
330
0
100
AcDbSymbolTable
 70
     1
  0
APPID
  5
12
330
9
100
AcDbSymbolTableRecord
100
AcDbRegAppTableRecord
  2
ACAD
 70
     0
  0
ENDTAB
  0
TABLE
  2
DIMSTYLE
  5
A
330
0
100
AcDbSymbolTable
 70
     1
100
AcDbDimStyleTable
  0
DIMSTYLE
105
27
330
A
100
AcDbSymbolTableRecord
100
AcDbDimStyleTableRecord
  2
ISO-25
 70
     0
 41
2.5
 42
0.625
 43
3.75
 44
1.25
 73
     0
 74
     0
 77
     1
 78
     8
140
2.5
141
2.5
143
0.0393700787
147
0.625
171
     3
172
     1
178
     0
271
     2
272
     2
274
     3
278
    44
283
     0
284
     8
340
11
  0
ENDTAB
  0
TABLE
  2
BLOCK_RECORD
  5
1
330
0
100
AcDbSymbolTable
 70
     1
  0
BLOCK_RECORD
  5
1F
330
1
100
AcDbSymbolTableRecord
100
AcDbBlockTableRecord
  2
*Model_Space
340
22
  0
BLOCK_RECORD
  5
1B
330
1
100
AcDbSymbolTableRecord
100
AcDbBlockTableRecord
  2
*Paper_Space
340
1E
  0
BLOCK_RECORD
  5
23
330
1
100
AcDbSymbolTableRecord
100
AcDbBlockTableRecord
  2
*Paper_Space0
340
26
  0
ENDTAB
  0
ENDSEC
  0
SECTION
  2
BLOCKS
  0
BLOCK
  5
20
330
1F
100
AcDbEntity
  8
0
100
AcDbBlockBegin
  2
*Model_Space
 70
     0
 10
0.0
 20
0.0
 30
0.0
  3
*Model_Space
  1

  0
ENDBLK
  5
21
330
1F
100
AcDbEntity
  8
0
100
AcDbBlockEnd
  0
BLOCK
  5
1C
330
1B
100
AcDbEntity
 67
     1
  8
0
100
AcDbBlockBegin
  2
*Paper_Space
 70
     0
 10
0.0
 20
0.0
 30
0.0
  3
*Paper_Space
  1

  0
ENDBLK
  5
1D
330
1B
100
AcDbEntity
 67
     1
  8
0
100
AcDbBlockEnd
  0
BLOCK
  5
24
330
23
100
AcDbEntity
  8
0
100
AcDbBlockBegin
  2
*Paper_Space0
 70
     0
 10
0.0
 20
0.0
 30
0.0
  3
*Paper_Space0
  1

  0
ENDBLK
  5
25
330
23
100
AcDbEntity
  8
0
100
AcDbBlockEnd
  0
ENDSEC
  0
SECTION
  2
ENTITIES
  0
LINE
  5
7F
330
1F
100
AcDbEntity
  8
0
  6
Continuous
 62
     7
370
    25
100
AcDbLine
 10
6244.0187553361
 20
5112.487981367
 30
0.0
 11
6246.0187553361
 21
5108.487981367
 31
0.0
  0
LINE
  5
80
330
1F
100
AcDbEntity
  8
0
  6
Continuous
 62
     7
370
    25
100
AcDbLine
 10
6302.0187553361
 20
5108.487981367
 30
0.0
 11
6304.0187553361
 21
5112.487981367
 31
0.0
  0
LINE
  5
81
330
1F
100
AcDbEntity
  8
0
  6
Continuous
 62
     7
370
    25
100
AcDbLine
 10
6246.0187553361
 20
5108.487981367
 30
0.0
 11
6246.0187553361
 21
5101.487981367
 31
0.0
  0
LINE
  5
82
330
1F
100
AcDbEntity
  8
0
  6
Continuous
 62
     7
370
    25
100
AcDbLine
 10
6302.0187553361
 20
5101.487981367
 30
0.0
 11
6302.0187553361
 21
5108.487981367
 31
0.0
  0
ARC
  5
83
330
1F
100
AcDbEntity
  8
0
  6
Continuous
 62
     7
370
    25
100
AcDbCircle
 10
6249.0187553361
 20
5101.487981367
 30
0.0
 40
3.0
100
AcDbArc
 50
180.0
 51
270.0
  0
ARC
  5
84
330
1F
100
AcDbEntity
  8
0
  6
Continuous
 62
     7
370
    25
100
AcDbCircle
 10
6299.0187553361
 20
5101.487981367
 30
0.0
 40
3.0
100
AcDbArc
 50
270.0
 51
0.0
  0
LINE
  5
85
330
1F
100
AcDbEntity
  8
0
  6
Continuous
 62
     7
370
    25
100
AcDbLine
 10
6258.0187553361
 20
5098.487981367
 30
0.0
 11
6258.0187553361
 21
5092.687981367
 31
0.0
  0
LINE
  5
86
330
1F
100
AcDbEntity
  8
0
  6
Continuous
 62
     7
370
    25
100
AcDbLine
 10
6258.0187553361
 20
5078.687981367
 30
0.0
 11
6258.0187553361
 21
5076.187981367
 31
0.0
  0
LINE
  5
87
330
1F
100
AcDbEntity
  8
0
  6
Continuous
 62
     7
370
    25
100
AcDbLine
 10
6290.0187553361
 20
5076.187981367
 30
0.0
 11
6290.0187553361
 21
5078.687981367
 31
0.0
  0
LINE
  5
88
330
1F
100
AcDbEntity
  8
0
  6
Continuous
 62
     7
370
    25
100
AcDbLine
 10
6290.0187553361
 20
5092.687981367
 30
0.0
 11
6290.0187553361
 21
5098.487981367
 31
0.0
  0
LINE
  5
89
330
1F
100
AcDbEntity
  8
0
  6
Continuous
 62
     7
370
    25
100
AcDbLine
 10
6239.0187553361
 20
5152.487981367
 30
0.0
 11
6242.0187553361
 21
5145.487981367
 31
0.0
  0
LINE
  5
8A
330
1F
100
AcDbEntity
  8
0
  6
Continuous
 62
     7
370
    25
100
AcDbLine
 10
6306.0187553361
 20
5145.487981367
 30
0.0
 11
6309.0187553361
 21
5152.487981367
 31
0.0
  0
LINE
  5
8B
330
1F
100
AcDbEntity
  8
0
  6
Continuous
 62
     7
370
    25
100
AcDbLine
 10
6242.0187553361
 20
5145.487981367
 30
0.0
 11
6247.5187553361
 21
5139.987981367
 31
0.0
  0
LINE
  5
8C
330
1F
100
AcDbEntity
  8
0
  6
Continuous
 62
     7
370
    25
100
AcDbLine
 10
6300.5187553361
 20
5139.987981367
 30
0.0
 11
6306.0187553361
 21
5145.487981367
 31
0.0
  0
LINE
  5
8D
330
1F
100
AcDbEntity
  8
0
  6
Continuous
 62
     7
370
    25
100
AcDbLine
 10
6244.5187553361
 20
5115.487981367
 30
0.0
 11
6244.5187553361
 21
5112.487981367
 31
0.0
  0
LINE
  5
8E
330
1F
100
AcDbEntity
  8
0
  6
Continuous
 62
     7
370
    25
100
AcDbLine
 10
6303.5187553361
 20
5112.487981367
 30
0.0
 11
6303.5187553361
 21
5115.487981367
 31
0.0
  0
LINE
  5
8F
330
1F
100
AcDbEntity
  8
0
  6
Continuous
 62
     7
370
    25
100
AcDbLine
 10
6247.5187553361
 20
5139.987981367
 30
0.0
 11
6247.5187553361
 21
5115.487981367
 31
0.0
  0
LINE
  5
90
330
1F
100
AcDbEntity
  8
0
  6
Continuous
 62
     7
370
    25
100
AcDbLine
 10
6300.5187553361
 20
5115.487981367
 30
0.0
 11
6300.5187553361
 21
5139.987981367
 31
0.0
  0
LINE
  5
91
330
1F
100
AcDbEntity
  8
0
  6
Continuous
 62
     7
370
    25
100
AcDbLine
 10
6240.0187553361
 20
5016.187981367
 30
0.0
 11
6246.912541056
 21
4948.8823055056
 31
0.0
  0
LINE
  5
92
330
1F
100
AcDbEntity
  8
0
  6
Continuous
 62
     7
370
    25
100
AcDbLine
 10
6301.1249696162
 20
4948.8823055056
 30
0.0
 11
6308.0187553361
 21
5016.187981367
 31
0.0
  0
LINE
  5
93
330
1F
100
AcDbEntity
  8
0
  6
Continuous
 62
     7
370
    25
100
AcDbLine
 10
6308.0187553361
 20
5016.187981367
 30
0.0
 11
6301.3281970913
 21
5073.5356234657
 31
0.0
  0
LINE
  5
94
330
1F
100
AcDbEntity
  8
0
  6
Continuous
 62
     7
370
    25
100
AcDbLine
 10
6246.7093135809
 20
5073.5356234657
 30
0.0
 11
6240.0187553361
 21
5016.187981367
 31
0.0
  0
ARC
  5
95
330
1F
100
AcDbEntity
  8
0
  6
Continuous
 62
     7
370
    25
100
AcDbCircle
 10
6249.6891029982
 20
5073.187981367
 30
0.0
 40
3.0
100
AcDbArc
 50
90.0
 51
173.345574954
  0
ARC
  5
96
330
1F
100
AcDbEntity
  8
0
  6
Continuous
 62
     7
370
    25
100
AcDbCircle
 10
6298.348407674
 20
5073.187981367
 30
0.0
 40
3.0
100
AcDbArc
 50
6.654425046
 51
90.0
  0
ARC
  5
97
330
1F
100
AcDbEntity
  8
0
  6
Continuous
 62
     7
370
    25
100
AcDbCircle
 10
6249.8969274699
 20
4949.187981367
 30
0.0
 40
3.000000000000517
100
AcDbArc
 50
185.8481280262
 51
270.0
  0
ARC
  5
98
330
1F
100
AcDbEntity
  8
0
  6
Continuous
 62
     7
370
    25
100
AcDbCircle
 10
6298.1405832023
 20
4949.187981367
 30
0.0
 40
3.000000000000517
100
AcDbArc
 50
270.0
 51
354.1518719738
  0
LINE
  5
99
330
1F
100
AcDbEntity
  8
0
  6
Continuous
 62
     7
370
    25
100
AcDbLine
 10
6299.0187553361
 20
5078.687981367
 30
0.0
 11
6297.0187553361
 21
5082.687981367
 31
0.0
  0
LINE
  5
9A
330
1F
100
AcDbEntity
  8
0
  6
Continuous
 62
     7
370
    25
100
AcDbLine
 10
6251.0187553361
 20
5082.687981367
 30
0.0
 11
6249.0187553361
 21
5078.687981367
 31
0.0
  0
ARC
  5
9B
330
1F
100
AcDbEntity
  8
0
  6
Continuous
 62
     7
370
    25
100
AcDbCircle
 10
6254.0187553361
 20
5089.687981367
 30
0.0
 40
3.0
100
AcDbArc
 50
90.0
 51
180.0
  0
ARC
  5
9C
330
1F
100
AcDbEntity
  8
0
  6
Continuous
 62
     7
370
    25
100
AcDbCircle
 10
6294.0187553361
 20
5089.687981367
 30
0.0
 40
3.0
100
AcDbArc
 50
0.0
 51
90.0
  0
LINE
  5
9D
330
1F
100
AcDbEntity
  8
0
  6
Continuous
 62
     7
370
    25
100
AcDbLine
 10
6251.0187553361
 20
5089.687981367
 30
0.0
 11
6251.0187553361
 21
5082.687981367
 31
0.0
  0
LINE
  5
9E
330
1F
100
AcDbEntity
  8
0
  6
Continuous
 62
     7
370
    25
100
AcDbLine
 10
6297.0187553361
 20
5082.687981367
 30
0.0
 11
6297.0187553361
 21
5089.687981367
 31
0.0
  0
LINE
  5
9F
330
1F
100
AcDbEntity
  8
0
  6
Continuous
 62
     7
370
    25
100
AcDbLine
 10
6258.0187553361
 20
5078.687981367
 30
0.0
 11
6258.0187553361
 21
5076.187981367
 31
0.0
  0
LINE
  5
A0
330
1F
100
AcDbEntity
  8
0
  6
Continuous
 62
     7
370
    25
100
AcDbLine
 10
6290.0187553361
 20
5076.187981367
 30
0.0
 11
6290.0187553361
 21
5078.687981367
 31
0.0
  0
LINE
  5
A1
330
1F
100
AcDbEntity
  8
0
  6
Continuous
 62
     7
370
    25
100
AcDbLine
 10
6008.5187633634
 20
5307.2178582673
 30
0.0
 11
6008.5159386065
 21
5307.2178600739
 31
0.0
  0
ARC
  5
A2
330
1F
100
AcDbEntity
  8
0
  6
Continuous
 62
     7
370
    25
100
AcDbCircle
 10
6539.5187406807
 20
5309.4178582301
 30
0.0
 40
0.9999999630235876
100
AcDbArc
 50
180.0463903892
 51
269.6002687288
  0
ARC
  5
A3
330
1F
100
AcDbEntity
  8
0
  6
Continuous
 62
     7
370
    25
100
AcDbCircle
 10
6008.5187585274
 20
5309.4178582591
 30
0.0
 40
0.9999999918040199
100
AcDbArc
 50
270.0003671018
 51
359.9716102311
  0
LINE
  5
A4
330
1F
100
AcDbEntity
  8
0
  6
Continuous
 62
     7
370
    25
100
AcDbLine
 10
6009.5187553361
 20
5311.4178582673
 30
0.0
 11
6009.5187553361
 21
5309.4178582673
 31
0.0
  0
LINE
  5
A5
330
1F
100
AcDbEntity
  8
0
  6
Continuous
 62
     7
370
    25
100
AcDbLine
 10
6538.5187553361
 20
5309.4178582673
 30
0.0
 11
6538.5187553361
 21
5311.4178582673
 31
0.0
  0
ARC
  5
A6
330
1F
100
AcDbEntity
  8
0
  6
Continuous
 62
     7
370
    25
100
AcDbCircle
 10
6534.518735751
 20
5311.4178584706
 30
0.0
 40
3.999999796666424
100
AcDbArc
 50
359.9882832365
 51
90.000552351
  0
ARC
  5
A7
330
1F
100
AcDbEntity
  8
0
  6
Continuous
 62
     7
370
    25
100
AcDbCircle
 10
6013.5187585291
 20
5311.4178583003
 30
0.0
 40
3.999999966986377
100
AcDbArc
 50
90.0517139602
 51
180.025264879
  0
LINE
  5
A8
330
1F
100
AcDbEntity
  8
0
  6
Continuous
 62
     7
370
    25
100
AcDbLine
 10
6007.5187553361
 20
5308.5678582673
 30
0.0
 11
6007.5187553361
 21
5307.0678582673
 31
0.0
  0
LINE
  5
A9
330
1F
100
AcDbEntity
  8
0
  6
Continuous
 62
     7
370
    25
100
AcDbLine
 10
6540.5187553361
 20
5307.0678582673
 30
0.0
 11
6540.5187553361
 21
5308.5678582673
 31
0.0
  0
SPLINE
  5
AA
330
1F
100
AcDbEntity
  8
0
  6
Continuous
 62
     7
370
    25
100
AcDbSpline
210
0.0
220
0.0
230
1.0
 70
     8
 71
     3
 72
    77
 73
    73
 74
     0
 42
0.000000001
 43
0.00000001
 40
0.0
 40
0.0
 40
0.0
 40
0.0
 40
0.0067955828804575
 40
0.0231288558005355
 40
0.0358541585267377
 40
0.045179085482895
 40
0.0529365100229881
 40
0.0602418083456453
 40
0.0759411614760322
 40
0.0908237194028872
 40
0.1014315741913736
 40
0.1129483768118232
 40
0.1264653390260775
 40
0.1407994118243741
 40
0.1523112974897057
 40
0.1703634333018494
 40
0.1926041545647725
 40
0.2178796886222979
 40
0.2439880743369865
 40
0.2697448018821794
 40
0.2854117528172991
 40
0.2995021874149542
 40
0.3121176488096613
 40
0.3235370437766131
 40
0.3368135264192264
 40
0.3525904275786212
 40
0.3708947584424485
 40
0.3915184095097123
 40
0.4138454512157896
 40
0.4287966421129049
 40
0.4412963687014912
 40
0.4514718589228899
 40
0.4594255530024345
 40
0.4652400232299083
 40
0.4713272160725806
 40
0.4816691895878746
 40
0.4951667659875785
 40
0.5110823515574381
 40
0.5276039017996317
 40
0.544543196140579
 40
0.5662024312274301
 40
0.5882829073993392
 40
0.6103428044961126
 40
0.6293665647830025
 40
0.6450074852257629
 40
0.6575842457345625
 40
0.6690920115600629
 40
0.6843962347614669
 40
0.7006275980206585
 40
0.7084421613013567
 40
0.7174186710584124
 40
0.7301803110301621
 40
0.7384754334526091
 40
0.7447812168400896
 40
0.7525573140901111
 40
0.7618686233963124
 40
0.7814572114987787
 40
0.802110892518191
 40
0.8186881215800303
 40
0.8361728987444514
 40
0.8540801168968393
 40
0.8703459701999628
 40
0.8846428159494985
 40
0.8969753832558912
 40
0.9041820382284361
 40
0.9106564331642363
 40
0.917288491045737
 40
0.9298314711348081
 40
0.9457398646428005
 40
0.96520471155114
 40
0.9876833826970833
 40
0.9999999999999999
 40
0.9999999999999999
 40
0.9999999999999999
 40
0.9999999999999999
 10
6047.814008177248
 20
5296.730935703963
 30
0.0
 10
6048.05143807619
 20
5296.143982684473
 30
0.0
 10
6048.859533863109
 20
5294.146280355139
 30
0.0
 10
6050.057497150114
 20
5291.073359331471
 30
0.0
 10
6051.306834898939
 20
5287.80527313434
 30
0.0
 10
6052.229242510919
 20
5285.332444844952
 30
0.0
 10
6052.957151780982
 20
5283.344150597883
 30
0.0
 10
6053.857637024814
 20
5280.840553235303
 30
0.0
 10
6054.950586885135
 20
5277.707474452674
 30
0.0
 10
6055.962061188769
 20
5274.677494983865
 30
0.0
 10
6056.906131851311
 20
5271.744027529676
 30
0.0
 10
6057.876812476345
 20
5268.619035513752
 30
0.0
 10
6059.031481835305
 20
5265.144633732479
 30
0.0
 10
6060.264523054421
 20
5261.633703408264
 30
0.0
 10
6061.708447086873
 20
5257.740996312988
 30
0.0
 10
6063.530407053962
 20
5253.118004437669
 30
0.0
 10
6066.026768730301
 20
5247.295430570329
 30
0.0
 10
6069.136402540932
 20
5240.758712732806
 30
0.0
 10
6072.721019082263
 20
5234.047990963048
 30
0.0
 10
6076.170173344666
 20
5228.324171945797
 30
0.0
 10
6079.212847619188
 20
5223.737245060021
 30
0.0
 10
6081.651691028833
 20
5220.304640684195
 30
0.0
 10
6083.941501365189
 20
5217.274939522501
 30
0.0
 10
6086.267838904492
 20
5214.364276336391
 30
0.0
 10
6088.883194869111
 20
5211.275829563421
 30
0.0
 10
6092.065604037087
 20
5207.766808649946
 30
0.0
 10
6095.904840988784
 20
5203.865642285245
 30
0.0
 10
6100.406596330853
 20
5199.705723363935
 30
0.0
 10
6104.862423530491
 20
5196.001556135499
 30
0.0
 10
6108.831630095186
 20
5192.99446645374
 30
0.0
 10
6111.904931673602
 20
5190.821741539575
 30
0.0
 10
6114.453102442793
 20
5189.121326957989
 30
0.0
 10
6116.472670224683
 20
5187.834959386827
 30
0.0
 10
6118.163673630215
 20
5186.795531863127
 30
0.0
 10
6120.072587015621
 20
5185.657917825054
 30
0.0
 10
6122.668886447048
 20
5184.175800923757
 30
0.0
 10
6126.16898554136
 20
5182.300620013748
 30
0.0
 10
6130.281817130082
 20
5180.267325888572
 30
0.0
 10
6134.780468780826
 20
5178.237269590751
 30
0.0
 10
6139.880848384651
 20
5176.148354071104
 30
0.0
 10
6145.583018757137
 20
5174.06736279237
 30
0.0
 10
6151.852124115641
 20
5172.058815742784
 30
0.0
 10
6157.937167090067
 20
5170.354448248023
 30
0.0
 10
6163.444855802532
 20
5168.991446431158
 30
0.0
 10
6168.043886686749
 20
5167.955585734078
 30
0.0
 10
6171.908972377165
 20
5167.134521511973
 30
0.0
 10
6175.665637685869
 20
5166.365738101222
 30
0.0
 10
6179.642108675732
 20
5165.575010454802
 30
0.0
 10
6183.1848056973
 20
5164.874851703675
 30
0.0
 10
6185.9883959532
 20
5164.30823083523
 30
0.0
 10
6188.155990581681
 20
5163.858898011963
 30
0.0
 10
6190.117388975232
 20
5163.43787721269
 30
0.0
 10
6192.039364949032
 20
5163.003214191084
 30
0.0
 10
6193.475468362965
 20
5162.666444724098
 30
0.0
 10
6194.769987287475
 20
5162.352521609558
 30
0.0
 10
6196.683196726509
 20
5161.867096816502
 30
0.0
 10
6199.083688216203
 20
5161.203154472893
 30
0.0
 10
6201.582333074583
 20
5160.422399170708
 30
0.0
 10
6203.831025712267
 20
5159.668662459994
 30
0.0
 10
6205.896508087513
 20
5158.96476333982
 30
0.0
 10
6207.909169228564
 20
5158.306800777312
 30
0.0
 10
6210.362513670448
 20
5157.579145520655
 30
0.0
 10
6212.939158868042
 20
5156.882366395148
 30
0.0
 10
6215.314591709756
 20
5156.289066411071
 30
0.0
 10
6217.367089377352
 20
5155.81581975844
 30
0.0
 10
6219.117551236627
 20
5155.433235175496
 30
0.0
 10
6221.492892271824
 20
5154.946587229943
 30
0.0
 10
6224.866462825636
 20
5154.334113129277
 30
0.0
 10
6229.563102563667
 20
5153.647382893841
 30
0.0
 10
6235.293630099301
 20
5153.040903861523
 30
0.0
 10
6240.70307639151
 20
5152.644608958129
 30
0.0
 10
6244.181982893977
 20
5152.528929022746
 30
0.0
 10
6245.413424331415
 20
5152.487981366979
 30
0.0
  0
SPLINE
  5
AB
330
1F
100
AcDbEntity
  8
0
  6
Continuous
 62
     7
370
    25
100
AcDbSpline
210
0.0
220
0.0
230
1.0
 70
     8
 71
     3
 72
    75
 73
    71
 74
     0
 42
0.000000001
 43
0.00000001
 40
0.0
 40
0.0
 40
0.0
 40
0.0
 40
0.0131592916255036
 40
0.0323588686617035
 40
0.0491757472050392
 40
0.0637497297262037
 40
0.0777606368233135
 40
0.0935092394421792
 40
0.1052385283084827
 40
0.1180400217558932
 40
0.1316378043861952
 40
0.1582262605432952
 40
0.1834951082913015
 40
0.2073780791886756
 40
0.2288189578447996
 40
0.2465038781442974
 40
0.2609459399017955
 40
0.2667772685689748
 40
0.2722278409448006
 40
0.2794781707209882
 40
0.2887577066394438
 40
0.2979597170942035
 40
0.3061442990146673
 40
0.3232892379191059
 40
0.34178548560128
 40
0.3614568525235058
 40
0.3778933505096674
 40
0.3963301101109474
 40
0.4170028692373253
 40
0.4401851576570894
 40
0.4602738980406439
 40
0.4786548651356349
 40
0.4945286063089472
 40
0.5076686242054662
 40
0.5178818348029999
 40
0.5286588444606584
 40
0.5422058135875772
 40
0.5588354226678166
 40
0.5773274557454204
 40
0.5920347102274488
 40
0.607562260490744
 40
0.6239641650480354
 40
0.641302884989447
 40
0.658008933027642
 40
0.6721654712217142
 40
0.685352265538518
 40
0.6945557784600789
 40
0.7020056609780174
 40
0.7113133151972447
 40
0.7263875130276234
 40
0.7449977015848563
 40
0.7666580942214162
 40
0.7915295747866876
 40
0.8180919596583677
 40
0.839727550553175
 40
0.8593659516708453
 40
0.8714352756518826
 40
0.8847707510959766
 40
0.896716034128853
 40
0.9063789778346059
 40
0.9158082918944864
 40
0.9260899136669521
 40
0.9356082950956792
 40
0.9420715260576278
 40
0.9476058406558008
 40
0.9544057177738903
 40
0.9642336715830201
 40
0.9772314428908391
 40
0.9935763770893243
 40
1.0
 40
1.0
 40
1.0
 40
1.0
 10
6302.821131661866
 20
5152.487981366979
 30
0.0
 10
6304.130923741253
 20
5152.536133212018
 30
0.0
 10
6307.351719440381
 20
5152.654539223056
 30
0.0
 10
6312.235256990806
 20
5153.00559020384
 30
0.0
 10
6317.224771358909
 20
5153.5047381247
 30
0.0
 10
6321.666653837046
 20
5154.099927868797
 30
0.0
 10
6325.836877477836
 20
5154.803170134065
 30
0.0
 10
6329.308051667644
 20
5155.502359760103
 30
0.0
 10
6332.322710047532
 20
5156.189554973555
 30
0.0
 10
6334.885458190873
 20
5156.828193323869
 30
0.0
 10
6338.061458342984
 20
5157.696958434652
 30
0.0
 10
6341.780033505173
 20
5158.83629179087
 30
0.0
 10
6345.649964367631
 20
5160.125284003969
 30
0.0
 10
6348.817476254983
 20
5161.146450015141
 30
0.0
 10
6351.378387960263
 20
5161.877462904572
 30
0.0
 10
6353.835459914641
 20
5162.500368230047
 30
0.0
 10
6356.000585043063
 20
5163.006172982465
 30
0.0
 10
6357.461610315936
 20
5163.331957654624
 30
0.0
 10
6358.594210512922
 20
5163.580333034577
 30
0.0
 10
6360.24097300049
 20
5163.933832143094
 30
0.0
 10
6362.246672012378
 20
5164.349118923364
 30
0.0
 10
6364.424648071441
 20
5164.787784081258
 30
0.0
 10
6367.448115082213
 20
5165.388700584796
 30
0.0
 10
6371.500250180354
 20
5166.189101441072
 30
0.0
 10
6376.767036009262
 20
5167.261351015525
 30
0.0
 10
6382.058292958194
 20
5168.406032207701
 30
0.0
 10
6387.337245828162
 20
5169.655543996551
 30
0.0
 10
6392.68902660505
 20
5171.057251253518
 30
0.0
 10
6398.64072879234
 20
5172.81407214056
 30
0.0
 10
6404.676661643981
 20
5174.845631398586
 30
0.0
 10
6410.407540666215
 20
5177.039255042685
 30
0.0
 10
6415.379623441448
 20
5179.169281328436
 30
0.0
 10
6419.64481783683
 20
5181.183838349322
 30
0.0
 10
6423.119782516639
 20
5182.962499773215
 30
0.0
 10
6426.101132692417
 20
5184.587801326989
 30
0.0
 10
6429.078083248775
 20
5186.302949244588
 30
0.0
 10
6432.553261544368
 20
5188.435543120741
 30
0.0
 10
6436.592541773535
 20
5191.113775319856
 30
0.0
 10
6440.611955176797
 20
5194.026650333755
 30
0.0
 10
6444.425330156504
 20
5197.029626488734
 30
0.0
 10
6447.967605517005
 20
5200.035748744158
 30
0.0
 10
6451.583717215372
 20
5203.354232837376
 30
0.0
 10
6455.143940176706
 20
5206.900770836423
 30
0.0
 10
6458.404475840899
 20
5210.42482503423
 30
0.0
 10
6461.265572863276
 20
5213.75011786773
 30
0.0
 10
6463.550758135952
 20
5216.581184960748
 30
0.0
 10
6465.356930581032
 20
5218.938227180302
 30
0.0
 10
6466.884467949112
 20
5221.00983995644
 30
0.0
 10
6468.705696828938
 20
5223.576901471793
 30
0.0
 10
6471.068548244021
 20
5227.099810941961
 30
0.0
 10
6473.946206490435
 20
5231.735180139362
 30
0.0
 10
6477.09262523899
 20
5237.300631814313
 30
0.0
 10
6480.330458098822
 20
5243.667462231329
 30
0.0
 10
6483.283848601222
 20
5250.179604023098
 30
0.0
 10
6485.73219347442
 20
5256.164841188666
 30
0.0
 10
6487.518539437306
 20
5260.915830456944
 30
0.0
 10
6488.921672144494
 20
5264.904091150327
 30
0.0
 10
6490.030207575039
 20
5268.213509953226
 30
0.0
 10
6490.98573899582
 20
5271.274508218991
 30
0.0
 10
6491.786187880588
 20
5273.785363129945
 30
0.0
 10
6492.532785121248
 20
5276.049529281691
 30
0.0
 10
6493.301294192651
 20
5278.316192085317
 30
0.0
 10
6494.015949037279
 20
5280.367012171886
 30
0.0
 10
6494.621445557625
 20
5282.069345505429
 30
0.0
 10
6495.159620938274
 20
5283.560656035738
 30
0.0
 10
6495.828568702989
 20
5285.387131714416
 30
0.0
 10
6496.756364309634
 20
5287.874277056319
 30
0.0
 10
6498.025733840271
 20
5291.192360747992
 30
0.0
 10
6499.21361508539
 20
5294.237135741539
 30
0.0
 10
6500.001540126641
 20
5296.184262444065
 30
0.0
 10
6500.223834992435
 20
5296.733599305263
 30
0.0
  0
LINE
  5
AC
330
1F
100
AcDbEntity
  8
0
  6
Continuous
 62
     7
370
    25
100
AcDbLine
 10
6047.8187553361
 20
5307.2178582673
 30
0.0
 11
6047.8187553361
 21
5296.8189553793
 31
0.0
  0
LINE
  5
AD
330
1F
100
AcDbEntity
  8
0
  6
Continuous
 62
     7
370
    25
100
AcDbLine
 10
6500.2187553361
 20
5296.8189553793
 30
0.0
 11
6500.2187553361
 21
5307.2178582673
 31
0.0
  0
LINE
  5
AE
330
1F
100
AcDbEntity
  8
0
  6
Continuous
 62
     7
370
    25
100
AcDbLine
 10
6274.0187553361
 20
5112.487981367
 30
0.0
 11
6304.0187553361
 21
5112.487981367
 31
0.0
  0
LINE
  5
AF
330
1F
100
AcDbEntity
  8
0
  6
Continuous
 62
     7
370
    25
100
AcDbLine
 10
6244.0187553361
 20
5112.487981367
 30
0.0
 11
6274.0187553361
 21
5112.487981367
 31
0.0
  0
LINE
  5
B0
330
1F
100
AcDbEntity
  8
0
  6
Continuous
 62
     7
370
    25
100
AcDbLine
 10
6274.0187553361
 20
5108.487981367
 30
0.0
 11
6302.0187553361
 21
5108.487981367
 31
0.0
  0
LINE
  5
B1
330
1F
100
AcDbEntity
  8
0
  6
Continuous
 62
     7
370
    25
100
AcDbLine
 10
6246.0187553361
 20
5108.487981367
 30
0.0
 11
6274.0187553361
 21
5108.487981367
 31
0.0
  0
LINE
  5
B2
330
1F
100
AcDbEntity
  8
0
  6
Continuous
 62
     7
370
    25
100
AcDbLine
 10
6274.0187553361
 20
5098.487981367
 30
0.0
 11
6299.0187553361
 21
5098.487981367
 31
0.0
  0
LINE
  5
B3
330
1F
100
AcDbEntity
  8
0
  6
Continuous
 62
     7
370
    25
100
AcDbLine
 10
6249.0187553361
 20
5098.487981367
 30
0.0
 11
6274.0187553361
 21
5098.487981367
 31
0.0
  0
LINE
  5
B4
330
1F
100
AcDbEntity
  8
0
  6
Continuous
 62
     7
370
    25
100
AcDbLine
 10
6239.0187556676
 20
5152.487981367
 30
0.0
 11
6309.0187553361
 21
5152.487981367
 31
0.0
  0
LINE
  5
B5
330
1F
100
AcDbEntity
  8
0
  6
Continuous
 62
     7
370
    25
100
AcDbLine
 10
6242.0187556392
 20
5145.487981367
 30
0.0
 11
6306.0187553361
 21
5145.487981367
 31
0.0
  0
LINE
  5
B6
330
1F
100
AcDbEntity
  8
0
  6
Continuous
 62
     7
370
    25
100
AcDbLine
 10
6247.5187553361
 20
5139.987981367
 30
0.0
 11
6300.5187553361
 21
5139.987981367
 31
0.0
  0
LINE
  5
B7
330
1F
100
AcDbEntity
  8
0
  6
Continuous
 62
     7
370
    25
100
AcDbLine
 10
6244.5187556155
 20
5115.487981367
 30
0.0
 11
6303.5187553361
 21
5115.487981367
 31
0.0
  0
LINE
  5
B8
330
1F
100
AcDbEntity
  8
0
  6
Continuous
 62
     7
370
    25
100
AcDbLine
 10
6240.0187553361
 20
5016.187981367
 30
0.0
 11
6308.0187553361
 21
5016.187981367
 31
0.0
  0
LINE
  5
B9
330
1F
100
AcDbEntity
  8
0
  6
Continuous
 62
     7
370
    25
100
AcDbLine
 10
6249.6891029982
 20
5076.187981367
 30
0.0
 11
6298.348407674
 21
5076.187981367
 31
0.0
  0
LINE
  5
BA
330
1F
100
AcDbEntity
  8
0
  6
Continuous
 62
     7
370
    25
100
AcDbLine
 10
6249.8969274699
 20
4946.187981367
 30
0.0
 11
6298.1405832023
 21
4946.187981367
 31
0.0
  0
LINE
  5
BB
330
1F
100
AcDbEntity
  8
0
  6
Continuous
 62
     7
370
    25
100
AcDbLine
 10
6251.0187553361
 20
5082.687981367
 30
0.0
 11
6297.0187553361
 21
5082.687981367
 31
0.0
  0
LINE
  5
BC
330
1F
100
AcDbEntity
  8
0
  6
Continuous
 62
     7
370
    25
100
AcDbLine
 10
6249.0187553361
 20
5078.687981367
 30
0.0
 11
6299.0187553361
 21
5078.687981367
 31
0.0
  0
LINE
  5
BD
330
1F
100
AcDbEntity
  8
0
  6
Continuous
 62
     7
370
    25
100
AcDbLine
 10
6254.0187553361
 20
5092.687981367
 30
0.0
 11
6294.0187553361
 21
5092.687981367
 31
0.0
  0
LINE
  5
BE
330
1F
100
AcDbEntity
  8
0
  6
Continuous
 62
     7
370
    25
100
AcDbLine
 10
6290.4978648433
 20
5076.187981367
 30
0.0
 11
6290.0187553361
 21
5076.5392916093
 31
0.0
  0
LINE
  5
BF
330
1F
100
AcDbEntity
  8
0
  6
Continuous
 62
     7
370
    25
100
AcDbLine
 10
6258.0187553361
 20
5076.5691775457
 30
0.0
 11
6257.497868562
 21
5076.187981367
 31
0.0
  0
ARC
  5
C0
330
1F
100
AcDbEntity
  8
0
  6
Continuous
 62
     7
370
    25
100
AcDbCircle
 10
6273.9323452764
 20
5054.1879812304
 30
0.0
 40
40.00000269394701
100
AcDbArc
 50
324.0743688248
 51
54.7489460048
  0
ARC
  5
C1
330
1F
100
AcDbEntity
  8
0
  6
Continuous
 62
     7
370
    25
100
AcDbCircle
 10
6273.9323593193
 20
5054.1879812428
 30
0.0
 40
40.00000261361725
100
AcDbArc
 50
124.948510329
 51
216.2877516423
  0
ARC
  5
C2
330
1F
100
AcDbEntity
  8
0
  6
Continuous
 62
     7
370
    25
100
AcDbCircle
 10
6273.9252381936
 20
5054.1879812427
 30
0.0
 40
40.0000026130014
100
AcDbArc
 50
124.9360668805
 51
216.3026213409
  0
SPLINE
  5
C3
330
1F
100
AcDbEntity
  8
0
  6
Continuous
 62
     7
370
    25
100
AcDbSpline
210
0.0
220
0.0
230
1.0
 70
    24
 71
     3
 72
    62
 73
    58
 74
     0
 42
0.000000001
 43
0.00000001
 40
0.0
 40
0.0
 40
0.0
 40
0.0
 40
0.0123341462304672
 40
0.024668311706785
 40
0.037122808039069
 40
0.0495773625844985
 40
0.0705143751858298
 40
0.091452185908461
 40
0.1129453478219607
 40
0.1344396749242495
 40
0.1564095550920627
 40
0.1783807768267247
 40
0.2008645839075453
 40
0.2233497466168909
 40
0.2397178261824702
 40
0.2560967174979278
 40
0.2724659073867494
 40
0.2891986817335581
 40
0.3059415097717492
 40
0.3226752108020438
 40
0.3414021087673172
 40
0.3601414628912532
 40
0.3788693659223835
 40
0.3980281260129752
 40
0.417198898948803
 40
0.4363583018585524
 40
0.4573733254001356
 40
0.4784031829424394
 40
0.4994185183208333
 40
0.5209840527852979
 40
0.5425652794906941
 40
0.5641304705456643
 40
0.5861915794763298
 40
0.6082700767666944
 40
0.6303299897087433
 40
0.6531019207502122
 40
0.6758948348185864
 40
0.6986642977893238
 40
0.7142348945527294
 40
0.7298052781308262
 40
0.7455088484847273
 40
0.7612121580917812
 40
0.7773757389520779
 40
0.7935389831859181
 40
0.8098816862348099
 40
0.8262239989382856
 40
0.8413548738732707
 40
0.85649597297049
 40
0.8716257896640368
 40
0.8871801122837234
 40
0.9027470420322166
 40
0.9183002806816079
 40
0.9384343154904825
 40
0.958567736032304
 40
0.9792273235527343
 40
0.9998866604781838
 40
1.0
 40
1.0
 40
1.0
 40
1.0
 10
6013.5187553361
 20
5315.417858267302
 30
0.0
 10
6013.563264641507
 20
5315.417858267302
 30
0.0
 10
6013.652283321773
 20
5315.417858267302
 30
0.0
 10
6014.371387058968
 20
5315.417858267302
 30
0.0
 10
6015.523288025767
 20
5315.417858267302
 30
0.0
 10
6017.516372132674
 20
5315.417858267302
 30
0.0
 10
6020.76563331809
 20
5315.417858267302
 30
0.0
 10
6025.801600436429
 20
5315.417858267302
 30
0.0
 10
6032.110038550362
 20
5315.417858267302
 30
0.0
 10
6039.700509922358
 20
5315.417858267302
 30
0.0
 10
6048.481274829132
 20
5315.417858267302
 30
0.0
 10
6058.460136145746
 20
5315.417858267302
 30
0.0
 10
6069.520337445862
 20
5315.417858267302
 30
0.0
 10
6080.492220240931
 20
5315.417858267302
 30
0.0
 10
6090.961039174747
 20
5315.417858267302
 30
0.0
 10
6100.676472448667
 20
5315.417858267302
 30
0.0
 10
6110.839081256605
 20
5315.417858267302
 30
0.0
 10
6121.427613456058
 20
5315.417858267302
 30
0.0
 10
6132.416296865979
 20
5315.417858267302
 30
0.0
 10
6144.144316257929
 20
5315.417858267302
 30
0.0
 10
6156.621661963357
 20
5315.417858267302
 30
0.0
 10
6169.844855502971
 20
5315.417858267302
 30
0.0
 10
6183.420260536432
 20
5315.417858267302
 30
0.0
 10
6197.317823476285
 20
5315.417858267302
 30
0.0
 10
6211.504423081339
 20
5315.417858267302
 30
0.0
 10
6226.301444138658
 20
5315.417858267302
 30
0.0
 10
6241.688519032297
 20
5315.417858267302
 30
0.0
 10
6257.631719860039
 20
5315.417858267302
 30
0.0
 10
6273.7598247427
 20
5315.417858267302
 30
0.0
 10
6290.029019494717
 20
5315.417858267302
 30
0.0
 10
6306.390965030005
 20
5315.417858267302
 30
0.0
 10
6322.782939759507
 20
5315.417858267302
 30
0.0
 10
6339.151677383603
 20
5315.417858267302
 30
0.0
 10
6355.439141405776
 20
5315.417858267302
 30
0.0
 10
6371.638495900981
 20
5315.417858267302
 30
0.0
 10
6387.677854761923
 20
5315.417858267302
 30
0.0
 10
6403.477673996023
 20
5315.417858267302
 30
0.0
 10
6417.1845449481
 20
5315.417858267302
 30
0.0
 10
6428.899163779923
 20
5315.417858267302
 30
0.0
 10
6438.792595104241
 20
5315.417858267302
 30
0.0
 10
6448.397891769498
 20
5315.417858267302
 30
0.0
 10
6457.775246625994
 20
5315.417858267302
 30
0.0
 10
6466.853840798539
 20
5315.417858267302
 30
0.0
 10
6475.6209418829
 20
5315.417858267302
 30
0.0
 10
6483.947502254816
 20
5315.417858267302
 30
0.0
 10
6491.599845041928
 20
5315.417858267302
 30
0.0
 10
6498.55519552544
 20
5315.417858267302
 30
0.0
 10
6504.83101022651
 20
5315.417858267302
 30
0.0
 10
6510.633731948455
 20
5315.417858267302
 30
0.0
 10
6515.911861311743
 20
5315.417858267302
 30
0.0
 10
6520.622799623527
 20
5315.417858267302
 30
0.0
 10
6525.092314985909
 20
5315.417858267302
 30
0.0
 10
6529.029679387987
 20
5315.417858267302
 30
0.0
 10
6532.186393560266
 20
5315.417858267302
 30
0.0
 10
6534.014956319264
 20
5315.417858267302
 30
0.0
 10
6534.669307210709
 20
5315.417858267302
 30
0.0
 10
6534.517108788761
 20
5315.417858267302
 30
0.0
 10
6534.516278366335
 20
5315.417858267302
 30
0.0
  0
LINE
  5
C4
330
1F
100
AcDbEntity
  8
0
  6
Continuous
 62
     7
370
    25
100
AcDbLine
 10
6540.5187553361
 20
5308.4178582673
 30
0.0
 11
6007.5187553361
 21
5308.4178582673
 31
0.0
  0
LINE
  5
C5
330
1F
100
AcDbEntity
  8
0
  6
Continuous
 62
     7
370
    25
100
AcDbLine
 10
6540.5187553361
 20
5307.2178582673
 30
0.0
 11
6007.5187553361
 21
5307.2178582673
 31
0.0
  0
SPLINE
  5
C6
330
1F
100
AcDbEntity
  8
0
  6
Continuous
 62
     7
370
    25
100
AcDbSpline
210
0.0
220
0.0
230
1.0
 70
     8
 71
     3
 72
    14
 73
    10
 74
     0
 42
0.000000001
 43
0.00000001
 40
0.0
 40
0.0
 40
0.0
 40
0.0
 40
0.1628493520597892
 40
0.3391060103392969
 40
0.5150194616495096
 40
0.6563997146059106
 40
0.7978469661527188
 40
0.9451455688647181
 40
1.0
 40
1.0
 40
1.0
 40
1.0
 10
6054.320323551097
 20
5307.217858267302
 30
0.0
 10
6053.722094825271
 20
5306.170329187921
 30
0.0
 10
6052.476385499937
 20
5303.989028480672
 30
0.0
 10
6050.941239721719
 20
5300.717961944675
 30
0.0
 10
6049.665353832314
 20
5298.477061022497
 30
0.0
 10
6048.749664742862
 20
5297.233716934385
 30
0.0
 10
6048.161045802102
 20
5296.657329849139
 30
0.0
 10
6047.860998467855
 20
5296.557806049479
 30
0.0
 10
6047.861872883021
 20
5296.709016405031
 30
0.0
 10
6047.862110156463
 20
5296.750047488652
 30
0.0
  0
SPLINE
  5
C7
330
1F
100
AcDbEntity
  8
0
  6
Continuous
 62
     7
370
    25
100
AcDbSpline
210
0.0
220
0.0
230
1.0
 70
     8
 71
     3
 72
    16
 73
    12
 74
     0
 42
0.000000001
 43
0.00000001
 40
0.0
 40
0.0
 40
0.0
 40
0.0
 40
0.0033158355158995
 40
0.1362056710652178
 40
0.2652684775240912
 40
0.3980977731178169
 40
0.526782062240009
 40
0.6592142628108961
 40
0.7878597782431931
 40
0.9201713030915829
 40
1.0
 40
1.0
 40
1.0
 40
1.0
 10
6248.221617833941
 20
5152.739470570361
 30
0.0
 10
6248.229208002642
 20
5152.740057499761
 30
0.0
 10
6248.540991870222
 20
5152.764166992676
 30
0.0
 10
6249.826704182183
 20
5152.791754734032
 30
0.0
 10
6252.105435380159
 20
5152.814350550776
 30
0.0
 10
6255.069825887839
 20
5152.805462371461
 30
0.0
 10
6258.575090506446
 20
5152.773375294725
 30
0.0
 10
6262.490245986668
 20
5152.724464601193
 30
0.0
 10
6266.76470542557
 20
5152.660133383711
 30
0.0
 10
6270.648055509821
 20
5152.592228351361
 30
0.0
 10
6273.097155269794
 20
5152.5425363696
 30
0.0
 10
6274.0187553361
 20
5152.523837199223
 30
0.0
  0
SPLINE
  5
C8
330
1F
100
AcDbEntity
  8
0
  6
Continuous
 62
     7
370
    25
100
AcDbSpline
210
0.0
220
0.0
230
1.0
 70
     8
 71
     3
 72
    16
 73
    12
 74
     0
 42
0.000000001
 43
0.00000001
 40
0.0
 40
0.0
 40
0.0
 40
0.0
 40
0.079764831080872
 40
0.2087125782262604
 40
0.3413370023661966
 40
0.4695194908936902
 40
0.6014204458016256
 40
0.7303733511322688
 40
0.8631031516464466
 40
0.9921598144051957
 40
1.0
 40
1.0
 40
1.0
 40
1.0
 10
6274.0187553361
 20
5152.523837199223
 30
0.0
 10
6274.940373104701
 20
5152.542537209019
 30
0.0
 10
6277.351877247787
 20
5152.591467636183
 30
0.0
 10
6281.244889213469
 20
5152.659696032427
 30
0.0
 10
6285.487477997993
 20
5152.723635259911
 30
0.0
 10
6289.43728078381
 20
5152.773086292515
 30
0.0
 10
6292.909163664768
 20
5152.805068917194
 30
0.0
 10
6295.905283684539
 20
5152.81439219397
 30
0.0
 10
6298.172922103837
 20
5152.792400695213
 30
0.0
 10
6299.479822589573
 20
5152.764429484476
 30
0.0
 10
6299.793315490619
 20
5152.740166059411
 30
0.0
 10
6299.811269465136
 20
5152.738776474786
 30
0.0
  0
SPLINE
  5
C9
330
1F
100
AcDbEntity
  8
0
  6
Continuous
 62
     7
370
    25
100
AcDbSpline
210
0.0
220
0.0
230
1.0
 70
     8
 71
     3
 72
    14
 73
    10
 74
     0
 42
0.000000001
 43
0.00000001
 40
0.0
 40
0.0
 40
0.0
 40
0.0
 40
0.1626278025994125
 40
0.3386446706471334
 40
0.5143187986478028
 40
0.6555067095341784
 40
0.7967615278621107
 40
0.9438597368305346
 40
1.0
 40
1.0
 40
1.0
 40
1.0
 10
6493.717187121949
 20
5307.217858267302
 30
0.0
 10
6494.315416194669
 20
5306.170328776008
 30
0.0
 10
6495.561126239719
 20
5303.989027215621
 30
0.0
 10
6497.096266282604
 20
5300.717967462496
 30
0.0
 10
6498.372172822891
 20
5298.477042124007
 30
0.0
 10
6499.287799135226
 20
5297.23377226424
 30
0.0
 10
6499.876643953548
 20
5296.657118098907
 30
0.0
 10
6500.177185805948
 20
5296.558021617024
 30
0.0
 10
6500.17602726644
 20
5296.710579965808
 30
0.0
 10
6500.175707244782
 20
5296.75272093331
 30
0.0
  0
LINE
  5
CA
330
1F
100
AcDbEntity
  8
0
  6
Continuous
 62
     8
370
    25
100
AcDbLine
 10
6274.0187553361
 20
5101.487981367
 30
0.0
 11
6302.0187553361
 21
5101.487981367
 31
0.0
  0
LINE
  5
CB
330
1F
100
AcDbEntity
  8
0
  6
Continuous
 62
     8
370
    25
100
AcDbLine
 10
6246.0187553361
 20
5101.487981367
 30
0.0
 11
6274.0187553361
 21
5101.487981367
 31
0.0
  0
LINE
  5
CC
330
1F
100
AcDbEntity
  8
0
  6
Continuous
 62
     8
370
    25
100
AcDbLine
 10
6246.912541056
 20
4948.8823055056
 30
0.0
 11
6301.1249696162
 21
4948.8823055056
 31
0.0
  0
LINE
  5
CD
330
1F
100
AcDbEntity
  8
0
  6
Continuous
 62
     8
370
    25
100
AcDbLine
 10
6301.3281970913
 20
5073.5356234657
 30
0.0
 11
6246.7093135809
 21
5073.5356234657
 31
0.0
  0
LINE
  5
CE
330
1F
100
AcDbEntity
  8
0
  6
Continuous
 62
     8
370
    25
100
AcDbLine
 10
6251.0187553361
 20
5089.687981367
 30
0.0
 11
6297.0187553361
 21
5089.687981367
 31
0.0
  0
SPLINE
  5
CF
330
1F
100
AcDbEntity
  8
0
  6
Continuous
 62
     8
370
    25
100
AcDbSpline
210
0.0
220
0.0
230
1.0
 70
    24
 71
     3
 72
    58
 73
    54
 74
     0
 42
0.000000001
 43
0.00000001
 40
0.0
 40
0.0
 40
0.0
 40
0.0
 40
0.0166115448985045
 40
0.0332412374840347
 40
0.0498532048706304
 40
0.0668669224626707
 40
0.0839328515794249
 40
0.1010197161230657
 40
0.1180917911828
 40
0.1351106794005895
 40
0.1529298608581721
 40
0.1707969867026767
 40
0.1886848168257559
 40
0.2065604310481127
 40
0.2243867512112583
 40
0.2442584404769034
 40
0.2641810990570488
 40
0.2841258715985597
 40
0.3040577695506489
 40
0.3239372281256079
 40
0.3466353726899376
 40
0.3693943463716748
 40
0.3921778082728616
 40
0.4149442036023195
 40
0.4376485896153499
 40
0.4631056858481462
 40
0.488641760158734
 40
0.514204518221064
 40
0.539740456815824
 40
0.5651974388693553
 40
0.5874813249729509
 40
0.6098468915046751
 40
0.6322486735985464
 40
0.6546439579808551
 40
0.6769945026467366
 40
0.6992683385743239
 40
0.7200272683039506
 40
0.7408047278428127
 40
0.7615611077654127
 40
0.7831316583973899
 40
0.8047268878182053
 40
0.8262935594816749
 40
0.8444279266748427
 40
0.8626450591642402
 40
0.8808984113914996
 40
0.899144371777468
 40
0.9173444076945693
 40
0.9354673269129231
 40
0.9515604741201965
 40
0.9676859160060526
 40
0.9838106159479263
 40
0.9999027493744987
 40
1.0
 40
1.0
 40
1.0
 40
1.0
 10
6009.5187553361
 20
5309.417858267301
 30
0.0
 10
6009.601154973739
 20
5309.417858267301
 30
0.0
 10
6009.766044268508
 20
5309.417858267301
 30
0.0
 10
6011.083720556373
 20
5309.417858267301
 30
0.0
 10
6013.18546110646
 20
5309.417858267301
 30
0.0
 10
6016.18137232882
 20
5309.417858267301
 30
0.0
 10
6020.041099668319
 20
5309.417858267301
 30
0.0
 10
6024.706963043126
 20
5309.417858267301
 30
0.0
 10
6030.135920329089
 20
5309.417858267301
 30
0.0
 10
6036.39546699792
 20
5309.417858267301
 30
0.0
 10
6043.507856498313
 20
5309.417858267301
 30
0.0
 10
6051.457846905413
 20
5309.417858267301
 30
0.0
 10
6060.08513519073
 20
5309.417858267301
 30
0.0
 10
6069.326387905186
 20
5309.417858267301
 30
0.0
 10
6079.510806512238
 20
5309.417858267301
 30
0.0
 10
6090.686346264248
 20
5309.417858267301
 30
0.0
 10
6102.869988936552
 20
5309.417858267301
 30
0.0
 10
6115.601595291376
 20
5309.417858267301
 30
0.0
 10
6128.802401238554
 20
5309.417858267301
 30
0.0
 10
6143.058745236381
 20
5309.417858267301
 30
0.0
 10
6158.406562670105
 20
5309.417858267301
 30
0.0
 10
6174.85180641212
 20
5309.417858267301
 30
0.0
 10
6191.659292938229
 20
5309.417858267301
 30
0.0
 10
6208.733893557886
 20
5309.417858267301
 30
0.0
 10
6226.705499488318
 20
5309.417858267301
 30
0.0
 10
6245.564443123295
 20
5309.417858267301
 30
0.0
 10
6265.270482966038
 20
5309.417858267301
 30
0.0
 10
6285.032201791288
 20
5309.417858267301
 30
0.0
 10
6304.72890617349
 20
5309.417858267301
 30
0.0
 10
6323.46253719905
 20
5309.417858267301
 30
0.0
 10
6341.201480595924
 20
5309.417858267301
 30
0.0
 10
6357.947819454795
 20
5309.417858267301
 30
0.0
 10
6374.444757216102
 20
5309.417858267301
 30
0.0
 10
6390.60007437587
 20
5309.417858267301
 30
0.0
 10
6406.32179520852
 20
5309.417858267301
 30
0.0
 10
6421.195052722599
 20
5309.417858267301
 30
0.0
 10
6435.199866452926
 20
5309.417858267301
 30
0.0
 10
6448.337364571423
 20
5309.417858267301
 30
0.0
 10
6461.037716287741
 20
5309.417858267301
 30
0.0
 10
6473.195866998057
 20
5309.417858267301
 30
0.0
 10
6484.704065294127
 20
5309.417858267301
 30
0.0
 10
6494.768276367049
 20
5309.417858267301
 30
0.0
 10
6503.454716176728
 20
5309.417858267301
 30
0.0
 10
6510.891996434293
 20
5309.417858267301
 30
0.0
 10
6517.560886017909
 20
5309.417858267301
 30
0.0
 10
6523.401827553318
 20
5309.417858267301
 30
0.0
 10
6528.356686223836
 20
5309.417858267301
 30
0.0
 10
6532.224086014041
 20
5309.417858267301
 30
0.0
 10
6535.072167920518
 20
5309.417858267301
 30
0.0
 10
6537.069989615597
 20
5309.417858267301
 30
0.0
 10
6538.180626842152
 20
5309.417858267301
 30
0.0
 10
6538.666001819647
 20
5309.417858267301
 30
0.0
 10
6538.516979111264
 20
5309.417858267301
 30
0.0
 10
6538.516083922691
 20
5309.417858267301
 30
0.0
  0
LINE
  5
D0
330
1F
100
AcDbEntity
  8
0
  6
Continuous
 62
     8
370
    25
100
AcDbLine
 10
6538.5187553361
 20
5311.4178582673
 30
0.0
 11
6009.5187553361
 21
5311.4178582673
 31
0.0
  0
SPLINE
  5
D1
330
1F
100
AcDbEntity
  8
0
  6
Continuous
 62
     8
370
    25
100
AcDbSpline
210
0.0
220
0.0
230
1.0
 70
     8
 71
     3
 72
    10
 73
     6
 74
     0
 42
0.000000001
 43
0.00000001
 40
0.0
 40
0.0
 40
0.0
 40
0.0
 40
0.1764525919950697
 40
0.599122029985423
 40
1.0
 40
1.0
 40
1.0
 40
1.0
 10
6247.45849548991
 20
5152.556280800868
 30
0.0
 10
6247.358916461111
 20
5152.568128857544
 30
0.0
 10
6247.020808705349
 20
5152.608357406682
 30
0.0
 10
6247.205640851009
 20
5152.674122475259
 30
0.0
 10
6247.888986055958
 20
5152.71807554525
 30
0.0
 10
6248.221617833941
 20
5152.739470570361
 30
0.0
  0
SPLINE
  5
D2
330
1F
100
AcDbEntity
  8
0
  6
Continuous
 62
     8
370
    25
100
AcDbSpline
210
0.0
220
0.0
230
1.0
 70
     8
 71
     3
 72
    10
 73
     6
 74
     0
 42
0.000000001
 43
0.00000001
 40
0.0
 40
0.0
 40
0.0
 40
0.0
 40
0.3992086366547639
 40
0.8108769755457407
 40
0.9999999999999999
 40
0.9999999999999999
 40
0.9999999999999999
 40
0.9999999999999999
 10
6299.811269465136
 20
5152.738776474786
 30
0.0
 10
6300.146119136932
 20
5152.717636142481
 30
0.0
 10
6300.826269474869
 20
5152.674695666879
 30
0.0
 10
6301.014397203611
 20
5152.609077755546
 30
0.0
 10
6300.678246656434
 20
5152.568847265693
 30
0.0
 10
6300.572429875379
 20
5152.556183115739
 30
0.0
  0
LINE
  5
D3
330
1F
100
AcDbEntity
  8
0
  6
Continuous
 62
     7
370
    25
100
AcDbLine
 10
7130.9666337527
 20
5112.487981367
 30
0.0
 11
7132.9666337527
 21
5108.487981367
 31
0.0
  0
LINE
  5
D4
330
1F
100
AcDbEntity
  8
0
  6
Continuous
 62
     7
370
    25
100
AcDbLine
 10
7188.9666337527
 20
5108.487981367
 30
0.0
 11
7190.9666337527
 21
5112.487981367
 31
0.0
  0
LINE
  5
D5
330
1F
100
AcDbEntity
  8
0
  6
Continuous
 62
     7
370
    25
100
AcDbLine
 10
7132.9666337527
 20
5108.487981367
 30
0.0
 11
7132.9666337527
 21
5101.487981367
 31
0.0
  0
LINE
  5
D6
330
1F
100
AcDbEntity
  8
0
  6
Continuous
 62
     7
370
    25
100
AcDbLine
 10
7188.9666337527
 20
5101.487981367
 30
0.0
 11
7188.9666337527
 21
5108.487981367
 31
0.0
  0
ARC
  5
D7
330
1F
100
AcDbEntity
  8
0
  6
Continuous
 62
     7
370
    25
100
AcDbCircle
 10
7135.9666337527
 20
5101.487981367
 30
0.0
 40
3.0
100
AcDbArc
 50
180.0
 51
270.0
  0
ARC
  5
D8
330
1F
100
AcDbEntity
  8
0
  6
Continuous
 62
     7
370
    25
100
AcDbCircle
 10
7185.9666337527
 20
5101.487981367
 30
0.0
 40
3.0
100
AcDbArc
 50
270.0
 51
0.0
  0
LINE
  5
D9
330
1F
100
AcDbEntity
  8
0
  6
Continuous
 62
     7
370
    25
100
AcDbLine
 10
7144.9666337527
 20
5098.487981367
 30
0.0
 11
7144.9666337527
 21
5092.687981367
 31
0.0
  0
LINE
  5
DA
330
1F
100
AcDbEntity
  8
0
  6
Continuous
 62
     7
370
    25
100
AcDbLine
 10
7144.9666337527
 20
5078.687981367
 30
0.0
 11
7144.9666337527
 21
5076.187981367
 31
0.0
  0
LINE
  5
DB
330
1F
100
AcDbEntity
  8
0
  6
Continuous
 62
     7
370
    25
100
AcDbLine
 10
7176.9666337527
 20
5076.187981367
 30
0.0
 11
7176.9666337527
 21
5078.687981367
 31
0.0
  0
LINE
  5
DC
330
1F
100
AcDbEntity
  8
0
  6
Continuous
 62
     7
370
    25
100
AcDbLine
 10
7176.9666337527
 20
5092.687981367
 30
0.0
 11
7176.9666337527
 21
5098.487981367
 31
0.0
  0
LINE
  5
DD
330
1F
100
AcDbEntity
  8
0
  6
Continuous
 62
     7
370
    25
100
AcDbLine
 10
7125.9666337527
 20
5152.487981367
 30
0.0
 11
7128.9666337527
 21
5145.487981367
 31
0.0
  0
LINE
  5
DE
330
1F
100
AcDbEntity
  8
0
  6
Continuous
 62
     7
370
    25
100
AcDbLine
 10
7192.9666337527
 20
5145.487981367
 30
0.0
 11
7195.9666337527
 21
5152.487981367
 31
0.0
  0
LINE
  5
DF
330
1F
100
AcDbEntity
  8
0
  6
Continuous
 62
     7
370
    25
100
AcDbLine
 10
7128.9666337527
 20
5145.487981367
 30
0.0
 11
7133.4771653719
 21
5140.9774497477
 31
0.0
  0
LINE
  5
E0
330
1F
100
AcDbEntity
  8
0
  6
Continuous
 62
     7
370
    25
100
AcDbLine
 10
7187.4666337527
 20
5139.987981367
 30
0.0
 11
7192.9666337527
 21
5145.487981367
 31
0.0
  0
LINE
  5
E1
330
1F
100
AcDbEntity
  8
0
  6
Continuous
 62
     7
370
    25
100
AcDbLine
 10
7131.4666337527
 20
5115.487981367
 30
0.0
 11
7131.4666337527
 21
5112.487981367
 31
0.0
  0
LINE
  5
E2
330
1F
100
AcDbEntity
  8
0
  6
Continuous
 62
     7
370
    25
100
AcDbLine
 10
7190.4666337527
 20
5112.487981367
 30
0.0
 11
7190.4666337527
 21
5115.487981367
 31
0.0
  0
LINE
  5
E3
330
1F
100
AcDbEntity
  8
0
  6
Continuous
 62
     7
370
    25
100
AcDbLine
 10
7134.4666337527
 20
5116.0259358702
 30
0.0
 11
7134.4666337527
 21
5115.487981367
 31
0.0
  0
LINE
  5
E4
330
1F
100
AcDbEntity
  8
0
  6
Continuous
 62
     7
370
    25
100
AcDbLine
 10
7187.4666337527
 20
5115.487981367
 30
0.0
 11
7187.4666337527
 21
5139.987981367
 31
0.0
  0
LINE
  5
E5
330
1F
100
AcDbEntity
  8
0
  6
Continuous
 62
     7
370
    25
100
AcDbLine
 10
7059.7143330945
 20
5295.3738688767
 30
0.0
 11
7058.5087761727
 21
5292.2439117759
 31
0.0
  0
LINE
  5
E6
330
1F
100
AcDbEntity
  8
0
  6
Continuous
 62
     7
370
    25
100
AcDbLine
 10
7061.9592231663
 20
5256.409649983
 30
0.0
 11
7063.739854587
 21
5253.5672301183
 31
0.0
  0
LINE
  5
E7
330
1F
100
AcDbEntity
  8
0
  6
Continuous
 62
     7
370
    25
100
AcDbLine
 10
7063.7398554473
 20
5253.5672294091
 30
0.0
 11
7066.4736646366
 21
5253.8304652964
 31
0.0
  0
LINE
  5
E8
330
1F
100
AcDbEntity
  8
0
  6
Continuous
 62
     7
370
    25
100
AcDbLine
 10
7062.0885402398
 20
5295.602479817
 30
0.0
 11
7061.9405074964
 21
5295.5882258849
 31
0.0
  0
LINE
  5
E9
330
1F
100
AcDbEntity
  8
0
  6
Continuous
 62
     7
370
    25
100
AcDbLine
 10
7061.9398595511
 20
5295.5881634949
 30
0.0
 11
7059.7143338037
 21
5295.3738697369
 31
0.0
  0
LINE
  5
EA
330
1F
100
AcDbEntity
  8
0
  6
Continuous
 62
     7
370
    25
100
AcDbLine
 10
7059.4706970912
 20
5256.1700314947
 30
0.0
 11
7061.9592239036
 21
5256.4096493752
 31
0.0
  0
LINE
  5
EB
330
1F
100
AcDbEntity
  8
0
  6
Continuous
 62
     7
370
    25
100
AcDbLine
 10
7058.5087767805
 20
5292.2439125133
 30
0.0
 11
7056.0202863073
 21
5292.0042981319
 31
0.0
  0
LINE
  5
EC
330
1F
100
AcDbEntity
  8
0
  6
Continuous
 62
     7
370
    25
100
AcDbLine
 10
7038.5674618109
 20
5233.2899094717
 30
0.0
 11
7046.1622962905
 21
5154.4145368961
 31
0.0
  0
LINE
  5
ED
330
1F
100
AcDbEntity
  8
0
  6
Continuous
 62
     7
370
    25
100
AcDbLine
 10
7071.0472012519
 20
5156.8106806866
 30
0.0
 11
7063.4523667723
 21
5235.6860532622
 31
0.0
  0
SPLINE
  5
EE
330
1F
100
AcDbEntity
  8
0
  6
Continuous
 62
     7
370
    25
100
AcDbSpline
210
0.0
220
0.0
230
1.0
 70
     8
 71
     3
 72
    19
 73
    15
 74
     0
 42
0.000000001
 43
0.00000001
 40
0.0
 40
0.0
 40
0.0
 40
0.0
 40
0.0365871038402058
 40
0.127690802681389
 40
0.2188519378844981
 40
0.3100131595289516
 40
0.4011743811731266
 40
0.4923356026469183
 40
0.5834968239224503
 40
0.6746580449863155
 40
0.7658192658403085
 40
0.8569804865013086
 40
0.9481417070000715
 40
1.0
 40
1.0
 40
1.0
 40
1.0
 10
7088.466634439378
 20
5140.987981366979
 30
0.0
 10
7088.152089270005
 20
5140.993182960864
 30
0.0
 10
7087.054311065637
 20
5141.011336780894
 30
0.0
 10
7085.180408205978
 20
5141.247778981186
 30
0.0
 10
7082.899428842481
 20
5141.840860869713
 30
0.0
 10
7080.718208803039
 20
5142.738125537068
 30
0.0
 10
7078.676908073036
 20
5143.918716418196
 30
0.0
 10
7076.812317008406
 20
5145.36254068546
 30
0.0
 10
7075.158005037699
 20
5147.043205508807
 30
0.0
 10
7073.744234069481
 20
5148.930484969295
 30
0.0
 10
7072.595002799508
 20
5150.990205145988
 30
0.0
 10
7071.736732752513
 20
5153.185512112261
 30
0.0
 10
7071.246072296983
 20
5155.146480542282
 30
0.0
 10
7071.100122172494
 20
5156.36782585238
 30
0.0
 10
7071.047201251888
 20
5156.810680686631
 30
0.0
  0
SPLINE
  5
EF
330
1F
100
AcDbEntity
  8
0
  6
Continuous
 62
     7
370
    25
100
AcDbSpline
210
0.0
220
0.0
230
1.0
 70
     8
 71
     3
 72
    25
 73
    21
 74
     0
 42
0.000000001
 43
0.00000001
 40
0.0
 40
0.0
 40
0.0
 40
0.0
 40
0.0365722020032549
 40
0.0950344976513816
 40
0.1535078134564027
 40
0.2119811360868503
 40
0.2704544587145976
 40
0.3289277813331691
 40
0.387401103940587
 40
0.4458744265352063
 40
0.5043477491157721
 40
0.5628210716814314
 40
0.6212943942317813
 40
0.6797677167668746
 40
0.7382410392872134
 40
0.7967143617937393
 40
0.8551876842878048
 40
0.9136610067711293
 40
0.972134329245752
 40
1.0
 40
1.0
 40
1.0
 40
1.0
 10
7046.162296290542
 20
5154.414536896114
 30
0.0
 10
7046.247751637917
 20
5153.655291137246
 30
0.0
 10
7046.469811168503
 20
5151.682357178242
 30
0.0
 10
7047.097868729734
 20
5148.532627951558
 30
0.0
 10
7048.105273368516
 20
5145.006173138289
 30
0.0
 10
7049.417458725045
 20
5141.580054299193
 30
0.0
 10
7051.018601970534
 20
5138.279505585299
 30
0.0
 10
7052.898412350436
 20
5135.129178971776
 30
0.0
 10
7055.042487171757
 20
5132.152456342897
 30
0.0
 10
7057.435006469952
 20
5129.371470573959
 30
0.0
 10
7060.058157250241
 20
5126.806888099834
 30
0.0
 10
7062.892451560975
 20
5124.47777231237
 30
0.0
 10
7065.916821949609
 20
5122.401426816177
 30
0.0
 10
7069.108789904007
 20
5120.593310057878
 30
0.0
 10
7072.444634863856
 20
5119.06676254887
 30
0.0
 10
7075.899550887016
 20
5117.83349601664
 30
0.0
 10
7079.447907605773
 20
5116.901311032891
 30
0.0
 10
7083.063153995095
 20
5116.282232038997
 30
0.0
 10
7086.081191170148
 20
5116.017743757627
 30
0.0
 10
7087.884591864014
 20
5115.995243320648
 30
0.0
 10
7088.466634439378
 20
5115.987981366979
 30
0.0
  0
LINE
  5
F0
330
1F
100
AcDbEntity
  8
0
  6
Continuous
 62
     7
370
    25
100
AcDbLine
 10
7133.4795276627
 20
5140.987981367
 30
0.0
 11
7088.4666344394
 21
5140.987981367
 31
0.0
  0
LINE
  5
F1
330
1F
100
AcDbEntity
  8
0
  6
Continuous
 62
     7
370
    25
100
AcDbLine
 10
7088.4666344394
 20
5115.987981367
 30
0.0
 11
7134.4845209363
 21
5115.987981367
 31
0.0
  0
LINE
  5
F2
330
1F
100
AcDbEntity
  8
0
  6
Continuous
 62
     7
370
    25
100
AcDbLine
 10
7061.4615743754
 20
5235.494361759
 30
0.0
 11
7059.4707215185
 21
5256.1701594014
 31
0.0
  0
LINE
  5
F3
330
1F
100
AcDbEntity
  8
0
  6
Continuous
 62
     7
370
    25
100
AcDbLine
 10
7038.5674137918
 20
5254.1572694149
 30
0.0
 11
7040.5582542079
 21
5233.481600975
 31
0.0
  0
LINE
  5
F4
330
1F
100
AcDbEntity
  8
0
  6
Continuous
 62
     7
370
    25
100
AcDbLine
 10
7194.9666337527
 20
5016.187981367
 30
0.0
 11
7188.2760755078
 21
5073.5356234657
 31
0.0
  0
LINE
  5
F5
330
1F
100
AcDbEntity
  8
0
  6
Continuous
 62
     7
370
    25
100
AcDbLine
 10
7128.8378249248
 20
5032.2267628425
 30
0.0
 11
7126.9666337527
 21
5016.187981367
 31
0.0
  0
LINE
  5
F6
330
1F
100
AcDbEntity
  8
0
  6
Continuous
 62
     7
370
    25
100
AcDbLine
 10
7126.9666337527
 20
5016.187981367
 30
0.0
 11
7133.8604194725
 21
4948.8823055056
 31
0.0
  0
LINE
  5
F7
330
1F
100
AcDbEntity
  8
0
  6
Continuous
 62
     7
370
    25
100
AcDbLine
 10
7188.0728480328
 20
4948.8823055056
 30
0.0
 11
7194.9666337527
 21
5016.187981367
 31
0.0
  0
LINE
  5
F8
330
1F
100
AcDbEntity
  8
0
  6
Continuous
 62
     7
370
    25
100
AcDbLine
 10
7116.9666363868
 20
5081.6879809312
 30
0.0
 11
7112.9666369643
 21
5080.187980955
 31
0.0
  0
LINE
  5
F9
330
1F
100
AcDbEntity
  8
0
  6
Continuous
 62
     7
370
    25
100
AcDbLine
 10
7112.9666369643
 20
5028.187981779
 30
0.0
 11
7116.9666363868
 21
5026.6879818028
 31
0.0
  0
ARC
  5
FA
330
1F
100
AcDbEntity
  8
0
  6
Continuous
 62
     7
370
    25
100
AcDbCircle
 10
7185.2962860905
 20
5073.187981367
 30
0.0
 40
3.0
100
AcDbArc
 50
6.654425046
 51
90.0
  0
ARC
  5
FB
330
1F
100
AcDbEntity
  8
0
  6
Continuous
 62
     7
370
    25
100
AcDbCircle
 10
7136.8448058865
 20
4949.187981367
 30
0.0
 40
3.000000000000517
100
AcDbArc
 50
185.8481280262
 51
270.0
  0
ARC
  5
FC
330
1F
100
AcDbEntity
  8
0
  6
Continuous
 62
     7
370
    25
100
AcDbCircle
 10
7185.0884616189
 20
4949.187981367
 30
0.0
 40
3.0
100
AcDbArc
 50
270.0
 51
354.1518719738
  0
SPLINE
  5
FD
330
1F
100
AcDbEntity
  8
0
  6
Continuous
 62
     7
370
    25
100
AcDbSpline
210
0.0
220
0.0
230
1.0
 70
     8
 71
     3
 72
    17
 73
    13
 74
     0
 42
0.000000001
 43
0.00000001
 40
0.0
 40
0.0
 40
0.0
 40
0.0
 40
0.0604993906760286
 40
0.2632107532689623
 40
0.4334019466012088
 40
0.5814119832088671
 40
0.7100706135940487
 40
0.8192905808808778
 40
0.9074756980005779
 40
0.9715625211596665
 40
0.9994051544522224
 40
1.0
 40
1.0
 40
1.0
 40
1.0
 10
7103.972920909567
 20
5080.158096214896
 30
0.0
 10
7103.88154787381
 20
5080.166952923436
 30
0.0
 10
7103.484017166453
 20
5080.205485227653
 30
0.0
 10
7102.835688361937
 20
5079.999428081368
 30
0.0
 10
7102.147548887805
 20
5079.612483517964
 30
0.0
 10
7101.656977513528
 20
5079.136518440776
 30
0.0
 10
7101.328404448155
 20
5078.650046212177
 30
0.0
 10
7101.129444214184
 20
5078.197171317636
 30
0.0
 10
7101.025616276613
 20
5077.812425228906
 30
0.0
 10
7100.986005527613
 20
5077.548848438934
 30
0.0
 10
7100.974511276652
 20
5077.410635144256
 30
0.0
 10
7100.972929360989
 20
5077.382592080057
 30
0.0
 10
7100.972896271012
 20
5077.382005484742
 30
0.0
  0
SPLINE
  5
FE
330
1F
100
AcDbEntity
  8
0
  6
Continuous
 62
     7
370
    25
100
AcDbSpline
210
0.0
220
0.0
230
1.0
 70
     8
 71
     3
 72
    14
 73
    10
 74
     0
 42
0.000000001
 43
0.00000001
 40
0.0
 40
0.0
 40
0.0
 40
0.0
 40
0.0475872202306598
 40
0.157056949045089
 40
0.315274447220996
 40
0.4946411517934297
 40
0.679887951209376
 40
0.8822318661231385
 40
1.0
 40
1.0
 40
1.0
 40
1.0
 10
7100.981158378194
 20
5030.905633602565
 30
0.0
 10
7100.98836482797
 20
5030.838694833999
 30
0.0
 10
7101.012149008047
 20
5030.61776999929
 30
0.0
 10
7101.128170644229
 20
5030.15923368462
 30
0.0
 10
7101.409469343843
 20
5029.560419570779
 30
0.0
 10
7101.906289170983
 20
5028.955458824104
 30
0.0
 10
7102.599006311934
 20
5028.478803584732
 30
0.0
 10
7103.315507507706
 20
5028.205140899058
 30
0.0
 10
7103.7898945485
 20
5028.218458729765
 30
0.0
 10
7103.964419927162
 20
5028.223358314381
 30
0.0
  0
LINE
  5
FF
330
1F
100
AcDbEntity
  8
0
  6
Continuous
 62
     7
370
    25
100
AcDbLine
 10
7112.9666391618
 20
5080.187981367
 30
0.0
 11
7103.966640176
 21
5080.187981367
 31
0.0
  0
LINE
  5
100
330
1F
100
AcDbEntity
  8
0
  6
Continuous
 62
     7
370
    25
100
AcDbLine
 10
7103.966640176
 20
5028.187981367
 30
0.0
 11
7112.9666391618
 21
5028.187981367
 31
0.0
  0
LINE
  5
101
330
1F
100
AcDbEntity
  8
0
  6
Continuous
 62
     7
370
    25
100
AcDbLine
 10
7185.9666337527
 20
5078.687981367
 30
0.0
 11
7183.9666337527
 21
5082.687981367
 31
0.0
  0
LINE
  5
102
330
1F
100
AcDbEntity
  8
0
  6
Continuous
 62
     7
370
    25
100
AcDbLine
 10
7137.9666337527
 20
5082.687981367
 30
0.0
 11
7135.9666337527
 21
5078.687981367
 31
0.0
  0
ARC
  5
103
330
1F
100
AcDbEntity
  8
0
  6
Continuous
 62
     7
370
    25
100
AcDbCircle
 10
7140.9666337527
 20
5089.687981367
 30
0.0
 40
3.0
100
AcDbArc
 50
90.0
 51
180.0
  0
ARC
  5
104
330
1F
100
AcDbEntity
  8
0
  6
Continuous
 62
     7
370
    25
100
AcDbCircle
 10
7180.9666337527
 20
5089.687981367
 30
0.0
 40
3.0
100
AcDbArc
 50
0.0
 51
90.0
  0
LINE
  5
105
330
1F
100
AcDbEntity
  8
0
  6
Continuous
 62
     7
370
    25
100
AcDbLine
 10
7137.9666337527
 20
5089.687981367
 30
0.0
 11
7137.9666337527
 21
5082.687981367
 31
0.0
  0
LINE
  5
106
330
1F
100
AcDbEntity
  8
0
  6
Continuous
 62
     7
370
    25
100
AcDbLine
 10
7183.9666337527
 20
5082.687981367
 30
0.0
 11
7183.9666337527
 21
5089.687981367
 31
0.0
  0
LINE
  5
107
330
1F
100
AcDbEntity
  8
0
  6
Continuous
 62
     7
370
    25
100
AcDbLine
 10
7116.9744719486
 20
5032.187981367
 30
0.0
 11
7128.8614825324
 21
5032.187981367
 31
0.0
  0
LINE
  5
108
330
1F
100
AcDbEntity
  8
0
  6
Continuous
 62
     7
370
    25
100
AcDbLine
 10
7133.9666367953
 20
5076.187981367
 30
0.0
 11
7116.9744719486
 21
5076.187981367
 31
0.0
  0
LINE
  5
109
330
1F
100
AcDbEntity
  8
0
  6
Continuous
 62
     7
370
    25
100
AcDbLine
 10
7144.9666337527
 20
5078.687981367
 30
0.0
 11
7144.9666337527
 21
5076.187981367
 31
0.0
  0
LINE
  5
10A
330
1F
100
AcDbEntity
  8
0
  6
Continuous
 62
     7
370
    25
100
AcDbLine
 10
7176.9666337527
 20
5076.187981367
 30
0.0
 11
7176.9666337527
 21
5078.687981367
 31
0.0
  0
LINE
  5
10B
330
1F
100
AcDbEntity
  8
0
  6
Continuous
 62
     7
370
    25
100
AcDbLine
 10
6978.9666542622
 20
5094.187981367
 30
0.0
 11
6963.9666559526
 21
5094.187981367
 31
0.0
  0
LINE
  5
10C
330
1F
100
AcDbEntity
  8
0
  6
Continuous
 62
     7
370
    25
100
AcDbLine
 10
6963.9666559526
 20
5014.187981367
 30
0.0
 11
6978.9666542622
 21
5014.187981367
 31
0.0
  0
SPLINE
  5
10D
330
1F
100
AcDbEntity
  8
0
  6
Continuous
 62
     7
370
    25
100
AcDbSpline
210
0.0
220
0.0
230
1.0
 70
     8
 71
     3
 72
    25
 73
    21
 74
     0
 42
0.000000001
 43
0.00000001
 40
0.0
 40
0.0
 40
0.0
 40
0.0
 40
0.0054287354265506
 40
0.0135033265540611
 40
0.0330108212440451
 40
0.0734087845317734
 40
0.1135371504379323
 40
0.1711300418095121
 40
0.2428614896063047
 40
0.3135857483659354
 40
0.3785273711610082
 40
0.4483135469895657
 40
0.5204266217007412
 40
0.5940462359889468
 40
0.6686345603641123
 40
0.7438584517068372
 40
0.8195032154560481
 40
0.8954237410100434
 40
0.9791075028054912
 40
1.0
 40
1.0
 40
1.0
 40
1.0
 10
6998.964456012781
 20
5074.488912550441
 30
0.0
 10
6998.964066209245
 20
5074.515095194206
 30
0.0
 10
6998.963096619825
 20
5074.580221372042
 30
0.0
 10
6998.956488736582
 20
5074.867651202877
 30
0.0
 10
6998.926118080795
 20
5075.579518764051
 30
0.0
 10
6998.8323172792
 20
5076.612381905728
 30
0.0
 10
6998.612814988996
 20
5078.037683522082
 30
0.0
 10
6998.210677517171
 20
5079.759075671112
 30
0.0
 10
6997.532535100745
 20
5081.735698924056
 30
0.0
 10
6996.606073076975
 20
5083.693515637979
 30
0.0
 10
6995.488512310808
 20
5085.5242886715
 30
0.0
 10
6994.175376638677
 20
5087.239435339658
 30
0.0
 10
6992.617457624813
 20
5088.864224075556
 30
0.0
 10
6990.846091036952
 20
5090.333333408154
 30
0.0
 10
6988.889323022624
 20
5091.605922933108
 30
0.0
 10
6986.778236604663
 20
5092.648832453456
 30
0.0
 10
6984.54557569022
 20
5093.446732248835
 30
0.0
 10
6982.149149043413
 20
5093.971031940739
 30
0.0
 10
6980.270387335971
 20
5094.212550493522
 30
0.0
 10
6979.18090603041
 20
5094.166428519982
 30
0.0
 10
6978.963246828029
 20
5094.157214160892
 30
0.0
  0
SPLINE
  5
10E
330
1F
100
AcDbEntity
  8
0
  6
Continuous
 62
     7
370
    25
100
AcDbSpline
210
0.0
220
0.0
230
1.0
 70
     8
 71
     3
 72
    27
 73
    23
 74
     0
 42
0.000000001
 43
0.00000001
 40
0.0
 40
0.0
 40
0.0
 40
0.0
 40
0.0496377102515804
 40
0.1283410124930365
 40
0.2047035899436295
 40
0.2788831716257522
 40
0.3509544107987746
 40
0.4209264743119366
 40
0.4887502017112
 40
0.5543183170458462
 40
0.6174599169461236
 40
0.6779292269777303
 40
0.7353878181502997
 40
0.7893790031717134
 40
0.8392932614019607
 40
0.8843244597651738
 40
0.9234100377047186
 40
0.955015936980529
 40
0.9760817460191112
 40
0.9874856107434292
 40
0.9943658497633767
 40
1.0
 40
1.0
 40
1.0
 40
1.0
 10
6978.966442151733
 20
5014.226591322288
 30
0.0
 10
6979.485268988653
 20
5014.223045833692
 30
0.0
 10
6980.826724128733
 20
5014.213878779168
 30
0.0
 10
6982.948661697375
 20
5014.546204401744
 30
0.0
 10
6985.266998919124
 20
5015.15525518181
 30
0.0
 10
6987.431479819256
 20
5016.01981037846
 30
0.0
 10
6989.424069731153
 20
5017.091127580897
 30
0.0
 10
6991.230328830473
 20
5018.339994987798
 30
0.0
 10
6992.83984289434
 20
5019.731349595102
 30
0.0
 10
6994.246354126059
 20
5021.230775888353
 30
0.0
 10
6995.447899476221
 20
5022.802843700958
 30
0.0
 10
6996.446920260418
 20
5024.411457396598
 30
0.0
 10
6997.250384562172
 20
5026.019541134046
 30
0.0
 10
6997.869931694908
 20
5027.588647575426
 30
0.0
 10
6998.322037539016
 20
5029.078362343976
 30
0.0
 10
6998.628087822153
 20
5030.445143620317
 30
0.0
 10
6998.814023517551
 20
5031.639923578908
 30
0.0
 10
6998.908706035962
 20
5032.592676450143
 30
0.0
 10
6998.947284572482
 20
5033.258789001348
 30
0.0
 10
6998.960019631439
 20
5033.65167900723
 30
0.0
 10
6998.963769094525
 20
5033.8346634979
 30
0.0
 10
6998.964592628016
 20
5033.8917087118
 30
0.0
 10
6998.964963394125
 20
5033.917391252018
 30
0.0
  0
LINE
  5
10F
330
1F
100
AcDbEntity
  8
0
  6
Continuous
 62
     7
370
    25
100
AcDbLine
 10
6963.9825509389
 20
5074.187981367
 30
0.0
 11
6953.9666570795
 21
5074.187981367
 31
0.0
  0
LINE
  5
110
330
1F
100
AcDbEntity
  8
0
  6
Continuous
 62
     7
370
    25
100
AcDbLine
 10
6953.9666570795
 20
5034.187981367
 30
0.0
 11
6963.9825509389
 21
5034.187981367
 31
0.0
  0
LINE
  5
111
330
1F
100
AcDbEntity
  8
0
  6
Continuous
 62
     7
370
    25
100
AcDbLine
 10
7100.966640514
 20
5074.187981367
 30
0.0
 11
6998.9666520084
 21
5074.187981367
 31
0.0
  0
LINE
  5
112
330
1F
100
AcDbEntity
  8
0
  6
Continuous
 62
     7
370
    25
100
AcDbLine
 10
6998.9666520084
 20
5034.187981367
 30
0.0
 11
7100.966640514
 21
5034.187981367
 31
0.0
  0
LINE
  5
113
330
1F
100
AcDbEntity
  8
0
  6
Continuous
 62
     7
370
    25
100
AcDbLine
 10
6964.9668330032
 20
5307.2178582713
 30
0.0
 11
6964.9561810261
 21
5307.2178834157
 31
0.0
  0
ARC
  5
114
330
1F
100
AcDbEntity
  8
0
  6
Continuous
 62
     7
370
    25
100
AcDbCircle
 10
6964.9666382177
 20
5309.4178582604
 30
0.0
 40
0.9999999930886739
100
AcDbArc
 50
270.2831230105
 51
0.8078123983
  0
ARC
  5
115
330
1F
100
AcDbEntity
  8
0
  6
Continuous
 62
     7
370
    25
100
AcDbCircle
 10
7420.9665678204
 20
5309.4178581609
 30
0.0
 40
0.9999998936519006
100
AcDbArc
 50
179.7123106147
 51
269.9924263849
  0
ARC
  5
116
330
1F
100
AcDbEntity
  8
0
  6
Continuous
 62
     7
370
    25
100
AcDbCircle
 10
6969.9666372285
 20
5311.4178582899
 30
0.0
 40
3.99999997740316
100
AcDbArc
 50
89.9999014036
 51
180.1322381832
  0
ARC
  5
117
330
1F
100
AcDbEntity
  8
0
  6
Continuous
 62
     7
370
    25
100
AcDbCircle
 10
7415.9665744751
 20
5311.4178586529
 30
0.0
 40
3.999999615457497
100
AcDbArc
 50
359.9893232067
 51
89.8448705271
  0
LINE
  5
118
330
1F
100
AcDbEntity
  8
0
  6
Continuous
 62
     7
370
    25
100
AcDbLine
 10
6965.9666337527
 20
5311.4178582673
 30
0.0
 11
6965.9666337527
 21
5309.4178582673
 31
0.0
  0
LINE
  5
119
330
1F
100
AcDbEntity
  8
0
  6
Continuous
 62
     7
370
    25
100
AcDbLine
 10
7419.9666337527
 20
5309.4178582673
 30
0.0
 11
7419.9666337527
 21
5311.4178582673
 31
0.0
  0
LINE
  5
11A
330
1F
100
AcDbEntity
  8
0
  6
Continuous
 62
     7
370
    25
100
AcDbLine
 10
7421.9666337527
 20
5307.0678582673
 30
0.0
 11
7421.9666337527
 21
5308.5678582673
 31
0.0
  0
LINE
  5
11B
330
1F
100
AcDbEntity
  8
0
  6
Continuous
 62
     7
370
    25
100
AcDbLine
 10
6963.9666337527
 20
5308.5678582673
 30
0.0
 11
6963.9666337527
 21
5307.0678582673
 31
0.0
  0
SPLINE
  5
11C
330
1F
100
AcDbEntity
  8
0
  6
Continuous
 62
     7
370
    25
100
AcDbSpline
210
0.0
220
0.0
230
1.0
 70
     8
 71
     3
 72
    40
 73
    36
 74
     0
 42
0.000000001
 43
0.00000001
 40
0.0
 40
0.0
 40
0.0
 40
0.0
 40
0.0255822534455743
 40
0.0954494031149428
 40
0.1682930027844011
 40
0.2327757144306278
 40
0.2899062014822767
 40
0.3405762323810114
 40
0.3855691632518737
 40
0.4255760525375397
 40
0.4775435498560031
 40
0.5213839535065907
 40
0.5585079060948916
 40
0.590047966330549
 40
0.6249463384127553
 40
0.6531451304476475
 40
0.675866214796987
 40
0.6940003385599569
 40
0.7081838750073167
 40
0.7189063911993431
 40
0.7249103537518958
 40
0.7294010387770642
 40
0.7331601481959783
 40
0.7394093309532197
 40
0.7584022376449886
 40
0.7787997780986781
 40
0.7982207556045462
 40
0.8116097136843308
 40
0.8285315563133882
 40
0.8487204787922821
 40
0.8839718886298163
 40
0.9242768132979767
 40
0.9540550416014407
 40
0.9866826262304159
 40
1.0
 40
1.0
 40
1.0
 40
1.0
 10
7066.272916260151
 20
5255.308686653099
 30
0.0
 10
7066.425054007906
 20
5254.167181789773
 30
0.0
 10
7066.992691931022
 20
5249.908137210721
 30
0.0
 10
7068.201772194295
 20
5242.428645607368
 30
0.0
 10
7069.913097346232
 20
5233.260312319633
 30
0.0
 10
7071.809439824849
 20
5224.71510129244
 30
0.0
 10
7073.73337568514
 20
5217.203716690844
 30
0.0
 10
7075.659582944829
 20
5210.603275367313
 30
0.0
 10
7077.568210188152
 20
5204.805176851218
 30
0.0
 10
7079.696144812083
 20
5199.023345749659
 30
0.0
 10
7082.047101081528
 20
5193.384836766335
 30
0.0
 10
7084.629538155958
 20
5187.995797243336
 30
0.0
 10
7087.038256713762
 20
5183.552835801779
 30
0.0
 10
7089.441292834777
 20
5179.574768307653
 30
0.0
 10
7091.806349754094
 20
5176.053112119243
 30
0.0
 10
7094.093104921513
 20
5172.971526449143
 30
0.0
 10
7096.014742241069
 20
5170.567132779872
 30
0.0
 10
7097.597391613398
 20
5168.709468383981
 30
0.0
 10
7098.867121114404
 20
5167.300340082816
 30
0.0
 10
7099.785375607046
 20
5166.326420411386
 30
0.0
 10
7100.420568065836
 20
5165.674235976875
 30
0.0
 10
7100.813331966373
 20
5165.278315833965
 30
0.0
 10
7101.25425062362
 20
5164.841379155757
 30
0.0
 10
7102.158632208881
 20
5163.964797455988
 30
0.0
 10
7103.624850735992
 20
5162.621439454953
 30
0.0
 10
7105.649198679863
 20
5160.946264790484
 30
0.0
 10
7107.592679774715
 20
5159.523666954813
 30
0.0
 10
7109.452806969497
 20
5158.308720253858
 30
0.0
 10
7111.336355621259
 20
5157.209820826824
 30
0.0
 10
7114.022760823089
 20
5155.838576434651
 30
0.0
 10
7117.520914780077
 20
5154.391393813085
 30
0.0
 10
7121.189653029984
 20
5153.375446788299
 30
0.0
 10
7124.499343956255
 20
5152.830623701697
 30
0.0
 10
7126.783431100099
 20
5152.583746179307
 30
0.0
 10
7128.102879721094
 20
5152.509501542663
 30
0.0
 10
7128.485328439473
 20
5152.487981366979
 30
0.0
  0
SPLINE
  5
11D
330
1F
100
AcDbEntity
  8
0
  6
Continuous
 62
     7
370
    25
100
AcDbSpline
210
0.0
220
0.0
230
1.0
 70
     8
 71
     3
 72
     9
 73
     5
 74
     0
 42
0.000000001
 43
0.00000001
 40
0.0
 40
0.0
 40
0.0
 40
0.0
 40
0.6071922600204436
 40
1.0
 40
1.0
 40
1.0
 40
1.0
 10
7061.299079338918
 20
5307.217858267302
 30
0.0
 10
7061.44546738116
 20
5304.67755350914
 30
0.0
 10
7061.686557480425
 20
5300.493862567368
 30
0.0
 10
7062.02730623598
 20
5296.31736498682
 30
0.0
 10
7062.161154984551
 20
5294.676804411176
 30
0.0
  0
LINE
  5
11E
330
1F
100
AcDbEntity
  8
0
  6
Continuous
 62
     7
370
    25
100
AcDbLine
 10
7132.9666337527
 20
5108.487981367
 30
0.0
 11
7188.9666337527
 21
5108.487981367
 31
0.0
  0
LINE
  5
11F
330
1F
100
AcDbEntity
  8
0
  6
Continuous
 62
     7
370
    25
100
AcDbLine
 10
7130.9666337527
 20
5112.487981367
 30
0.0
 11
7190.9666337527
 21
5112.487981367
 31
0.0
  0
LINE
  5
120
330
1F
100
AcDbEntity
  8
0
  6
Continuous
 62
     7
370
    25
100
AcDbLine
 10
7135.9666338798
 20
5098.487981367
 30
0.0
 11
7185.9666337527
 21
5098.487981367
 31
0.0
  0
LINE
  5
121
330
1F
100
AcDbEntity
  8
0
  6
Continuous
 62
     7
370
    25
100
AcDbLine
 10
7160.9714510604
 20
5152.487981367
 30
0.0
 11
7195.9666337527
 21
5152.487981367
 31
0.0
  0
LINE
  5
122
330
1F
100
AcDbEntity
  8
0
  6
Continuous
 62
     7
370
    25
100
AcDbLine
 10
7125.9666337527
 20
5152.487981367
 30
0.0
 11
7128.3297050841
 21
5152.487981367
 31
0.0
  0
LINE
  5
123
330
1F
100
AcDbEntity
  8
0
  6
Continuous
 62
     7
370
    25
100
AcDbLine
 10
7141.8499846454
 20
5152.487981367
 30
0.0
 11
7160.9714510604
 21
5152.487981367
 31
0.0
  0
LINE
  5
124
330
1F
100
AcDbEntity
  8
0
  6
Continuous
 62
     7
370
    25
100
AcDbLine
 10
7160.9710381483
 20
5145.487981367
 30
0.0
 11
7192.9666337527
 21
5145.487981367
 31
0.0
  0
LINE
  5
125
330
1F
100
AcDbEntity
  8
0
  6
Continuous
 62
     7
370
    25
100
AcDbLine
 10
7128.9666337527
 20
5145.487981367
 30
0.0
 11
7160.9710381483
 21
5145.487981367
 31
0.0
  0
SPLINE
  5
126
330
1F
100
AcDbEntity
  8
0
  6
Continuous
 62
     7
370
    25
100
AcDbSpline
210
0.0
220
0.0
230
1.0
 70
     8
 71
     3
 72
    10
 73
     6
 74
     0
 42
0.000000001
 43
0.00000001
 40
0.0
 40
0.0
 40
0.0
 40
0.0
 40
0.4578963332565583
 40
0.9222571525746759
 40
0.9999999999999999
 40
0.9999999999999999
 40
0.9999999999999999
 40
0.9999999999999999
 10
7133.479117202651
 20
5140.979401578414
 30
0.0
 10
7133.541857299735
 20
5140.936331078514
 30
0.0
 10
7133.668223245665
 20
5140.849582018272
 30
0.0
 10
7134.392148570973
 20
5140.352506671482
 30
0.0
 10
7134.85735932673
 20
5140.03370112902
 30
0.0
 10
7134.924074995751
 20
5139.987981366979
 30
0.0
  0
LINE
  5
127
330
1F
100
AcDbEntity
  8
0
  6
Continuous
 62
     7
370
    25
100
AcDbLine
 10
7134.9240749958
 20
5139.987981367
 30
0.0
 11
7187.4666337527
 21
5139.987981367
 31
0.0
  0
LINE
  5
128
330
1F
100
AcDbEntity
  8
0
  6
Continuous
 62
     7
370
    25
100
AcDbLine
 10
7160.9706940549
 20
5115.487981367
 30
0.0
 11
7190.4666337527
 21
5115.487981367
 31
0.0
  0
LINE
  5
129
330
1F
100
AcDbEntity
  8
0
  6
Continuous
 62
     7
370
    25
100
AcDbLine
 10
7131.4666337527
 20
5115.487981367
 30
0.0
 11
7160.9706940549
 21
5115.487981367
 31
0.0
  0
SPLINE
  5
12A
330
1F
100
AcDbEntity
  8
0
  6
Continuous
 62
     7
370
    25
100
AcDbSpline
210
0.0
220
0.0
230
1.0
 70
     8
 71
     3
 72
    14
 73
    10
 74
     0
 42
0.000000001
 43
0.00000001
 40
0.0
 40
0.0
 40
0.0
 40
0.0
 40
0.1533138382152008
 40
0.3111438175606528
 40
0.4644199952862857
 40
0.6222456714593291
 40
0.7727400846647761
 40
0.9284855368703315
 40
1.0
 40
1.0
 40
1.0
 40
1.0
 10
7136.96818048752
 20
5123.010755791926
 30
0.0
 10
7136.811917035018
 20
5122.387942426066
 30
0.0
 10
7136.494787102571
 20
5121.123969580968
 30
0.0
 10
7135.946900965133
 20
5119.510579405116
 30
0.0
 10
7135.417789331638
 20
5118.132166264371
 30
0.0
 10
7134.962990403108
 20
5117.06762052616
 30
0.0
 10
7134.635652013616
 20
5116.346031041304
 30
0.0
 10
7134.471836163548
 20
5115.998592514214
 30
0.0
 10
7134.481480419411
 20
5116.019390980266
 30
0.0
 10
7134.484515287128
 20
5116.025935870206
 30
0.0
  0
SPLINE
  5
12B
330
1F
100
AcDbEntity
  8
0
  6
Continuous
 62
     7
370
    25
100
AcDbSpline
210
0.0
220
0.0
230
1.0
 70
     8
 71
     3
 72
    11
 73
     7
 74
     0
 42
0.000000001
 43
0.00000001
 40
0.0
 40
0.0
 40
0.0
 40
0.0
 40
0.2351548053178764
 40
0.4774214442705232
 40
0.7343760596156641
 40
1.0
 40
1.0
 40
1.0
 40
1.0
 10
7134.924074995751
 20
5139.987981366979
 30
0.0
 10
7135.058542863215
 20
5139.679554683385
 30
0.0
 10
7135.331545336653
 20
5139.053373506546
 30
0.0
 10
7135.864571704277
 20
5137.691764681244
 30
0.0
 10
7136.446429811169
 20
5136.022779621015
 30
0.0
 10
7136.792350708708
 20
5134.658608149605
 30
0.0
 10
7136.96818048752
 20
5133.965206942031
 30
0.0
  0
LWPOLYLINE
  5
12C
330
1F
100
AcDbEntity
  8
0
  6
Continuous
 62
     7
370
    25
100
AcDbPolyline
 90
       24
 70
   128
 43
0.0
 10
7061.9592238711
 20
5256.4096493736
 10
7061.9427789119
 20
5256.5840176664
 10
7061.8930745215
 20
5257.1037286643
 10
7061.8110781393
 20
5257.9586667839
 10
7061.6983857318
 20
5259.1321916272
 10
7061.5571907283
 20
5260.601461868
 10
7061.3902413291
 20
5262.3378798322
 10
7061.2007870143
 20
5264.3076481194
 10
7060.9925152966
 20
5266.4724274305
 10
7060.7694799481
 20
5268.7900827985
 10
7060.5360220982
 20
5271.215503698
 10
7060.2966857383
 20
5273.7014820701
 10
7060.0561292785
 20
5276.1996311735
 10
7059.8190348766
 20
5278.6613273775
 10
7059.5900173056
 20
5281.0386565657
 10
7059.3735341317
 20
5283.2853467296
 10
7059.173798954
 20
5285.3576686006
 10
7058.9946993902
 20
5287.2152867909
 10
7058.8397214098
 20
5288.8220448753
 10
7058.7118814829
 20
5290.1466691355
 10
7058.6136678682
 20
5291.1633772668
 10
7058.546992182
 20
5291.8523802021
 10
7058.5131521906
 20
5292.2002672829
 10
7058.5087761727
 20
5292.2439117759
  0
LWPOLYLINE
  5
12D
330
1F
100
AcDbEntity
  8
0
  6
Continuous
 62
     7
370
    25
100
AcDbPolyline
 90
       26
 70
   128
 43
0.0
 10
7063.7398554094
 20
5253.5672294073
 10
7063.7230132327
 20
5253.7460602091
 10
7063.6720203354
 20
5254.2794927698
 10
7063.5877492199
 20
5255.1583999104
 10
7063.4716417884
 20
5256.3677432861
 10
7063.3256846713
 20
5257.8868306964
 10
7063.1523752353
 20
5259.6896701345
 10
7062.9546788528
 20
5261.7454145179
 10
7062.735978164
 20
5264.0188894902
 10
7062.500015198
 20
5266.4711952642
 10
7062.2508273468
 20
5269.0603722083
 10
7061.9926782835
 20
5271.742118787
 10
7061.7299850101
 20
5274.470549573
 10
7061.4672422815
 20
5277.198980359
 10
7061.2089456986
 20
5279.8807269378
 10
7060.9595147874
 20
5282.4699038819
 10
7060.7232173801
 20
5284.9222096559
 10
7060.5040965908
 20
5287.1956846281
 10
7060.3059016369
 20
5289.2514290115
 10
7060.1320236891
 20
5291.0542684497
 10
7059.9854378473
 20
5292.57335586
 10
7059.8686522358
 20
5293.7826992357
 10
7059.7836650888
 20
5294.6616063763
 10
7059.7319305601
 20
5295.195038937
 10
7059.7143338416
 20
5295.3738697387
 10
7059.7143330945
 20
5295.3738688767
  0
LWPOLYLINE
  5
12E
330
1F
100
AcDbEntity
  8
0
  6
Continuous
 62
     7
370
    25
100
AcDbPolyline
 90
       13
 70
   128
 43
0.0
 10
7066.2998212264
 20
5258.299765195
 10
7066.1385638021
 20
5259.9772073921
 10
7065.9408674197
 20
5262.0329517755
 10
7065.7221667308
 20
5264.3064267477
 10
7065.4862037648
 20
5266.7587325218
 10
7065.2370159136
 20
5269.3479094658
 10
7064.9788668503
 20
5272.0296560446
 10
7064.716173577
 20
5274.7580868306
 10
7064.4534308484
 20
5277.4865176166
 10
7064.1951342654
 20
5280.1682641954
 10
7063.9457033542
 20
5282.7574411394
 10
7063.7094059469
 20
5285.2097469135
 10
7063.697035521
 20
5285.3381113985
  0
LWPOLYLINE
  5
12F
330
1F
100
AcDbEntity
  8
0
  6
Continuous
 62
     7
370
    25
100
AcDbPolyline
 90
       16
 70
   128
 43
0.0
 10
7059.470695082
 20
5256.1700523584
 10
7058.9538666916
 20
5256.4042903591
 10
7057.5068257984
 20
5257.010935352
 10
7055.1334591305
 20
5257.8260611586
 10
7053.5465052951
 20
5258.2240006465
 10
7051.7399130025
 20
5258.5093210305
 10
7048.8103439963
 20
5258.5384090477
 10
7045.9193849456
 20
5257.9905533357
 10
7043.3719058678
 20
5257.0301765861
 10
7040.9772528647
 20
5255.7540222182
 10
7039.9622631507
 20
5255.1163282459
 10
7039.1810150954
 20
5254.5902845442
 10
7038.7394661748
 20
5254.2803148818
 10
7038.568077191
 20
5254.1577402119
 10
7038.5674134311
 20
5254.1572741894
 10
7038.5674134311
 20
5254.1572741894
  0
ELLIPSE
  5
130
330
1F
100
AcDbEntity
  8
0
  6
Continuous
 62
     7
370
    25
100
AcDbEllipse
 10
7047.2938498859
 20
5273.0807861615
 30
0.0
 11
8.726436579131587
 21
18.92351197413973
 31
0.0
210
0.0
220
0.0
230
1.0
 40
0.000107962
 41
3.141642439646596
 42
7.686596532809105
  0
ELLIPSE
  5
131
330
1F
100
AcDbEntity
  8
0
  6
Continuous
 62
     7
370
    25
100
AcDbEllipse
 10
7047.2938498859
 20
5273.0807861615
 30
0.0
 11
8.726436579131587
 21
18.92351197413973
 31
0.0
210
0.0
220
0.0
230
1.0
 40
0.000107962
 41
1.738307383631233
 42
3.141642439646596
  0
LWPOLYLINE
  5
132
330
1F
100
AcDbEntity
  8
0
  6
Continuous
 62
     7
370
    25
100
AcDbPolyline
 90
       18
 70
   128
 43
0.0
 10
7040.5582543078
 20
5233.4816009655
 10
7040.7364792338
 20
5233.4987365043
 10
7041.2645536692
 20
5233.5495595904
 10
7042.1244946722
 20
5233.6323395046
 10
7043.2870179836
 20
5233.7442572762
 10
7044.7125352661
 20
5233.8815016797
 10
7046.3525022384
 20
5234.0393990215
 10
7048.1510717923
 20
5234.2125722972
 10
7050.0469957986
 20
5234.3951242983
 10
7051.9757108394
 20
5234.5808384356
 10
7053.8715368371
 20
5234.7633904368
 10
7055.6699137111
 20
5234.9365637124
 10
7057.3095998939
 20
5235.0944610543
 10
7058.7347578392
 20
5235.2317054578
 10
7059.8968555024
 20
5235.3436232294
 10
7060.7563190414
 20
5235.4264031436
 10
7061.2838804562
 20
5235.4772262297
 10
7061.4615743754
 20
5235.494361759
  0
LWPOLYLINE
  5
133
330
1F
100
AcDbEntity
  8
0
  6
Continuous
 62
     7
370
    25
100
AcDbPolyline
 90
       23
 70
   128
 43
0.0
 10
7038.5674619299
 20
5233.2899094605
 10
7038.7467260405
 20
5233.3071426342
 10
7039.2787797496
 20
5233.3583463883
 10
7040.1483168406
 20
5233.442047684
 10
7041.3303223146
 20
5233.5558385875
 10
7042.7907920262
 20
5233.6964455415
 10
7044.4877109209
 20
5233.8598235402
 10
7046.3722617316
 20
5234.0412724958
 10
7048.3902293627
 20
5234.2355724523
 10
7050.4835605595
 20
5234.4371337538
 10
7052.5920339949
 20
5234.6401578484
 10
7054.654992727
 20
5234.8388041028
 10
7056.6130891891
 20
5235.0273578258
 10
7058.4099925111
 20
5235.2003946702
 10
7059.9940090559
 20
5235.3529366809
 10
7061.3195695517
 20
5235.480595502
 10
7062.3485400365
 20
5235.5796986217
 10
7063.0513189027
 20
5235.6473950237
 10
7063.407688482
 20
5235.6817372057
 10
7063.4073966704
 20
5235.6817372057
 10
7063.0504518628
 20
5235.6473950237
 10
7062.3471227114
 20
5235.5796986217
 10
7061.4615657999
 20
5235.4944508193
  0
LWPOLYLINE
  5
134
330
1F
100
AcDbEntity
  8
0
  6
Continuous
 62
     7
370
    25
100
AcDbPolyline
 90
        5
 70
   128
 43
0.0
 10
7040.5582456323
 20
5233.4816900353
 10
7040.1466387144
 20
5233.442047684
 10
7039.2776334375
 20
5233.3583463883
 10
7038.7461445198
 20
5233.3071426342
 10
7038.5674619299
 20
5233.2899094605
  0
LWPOLYLINE
  5
135
330
1F
100
AcDbEntity
  8
0
  6
Continuous
 62
     7
370
    25
100
AcDbPolyline
 90
        9
 70
   128
 43
0.0
 10
7136.9681804875
 20
5123.0107557919
 10
7136.9682558561
 20
5124.3172942171
 10
7136.9683103931
 20
5125.677401497
 10
7136.9683433981
 20
5127.0736082347
 10
7136.968354447
 20
5128.487981367
 10
7136.9683433981
 20
5129.9023544993
 10
7136.9683103931
 20
5131.2985612369
 10
7136.9682558561
 20
5132.6586685168
 10
7136.9681804875
 20
5133.965206942
  0
SPLINE
  5
136
330
1F
100
AcDbEntity
  8
0
  6
Continuous
 62
     7
370
    25
100
AcDbSpline
210
0.0
220
0.0
230
1.0
 70
     8
 71
     3
 72
    26
 73
    22
 74
     0
 42
0.000000001
 43
0.00000001
 40
0.0
 40
0.0
 40
0.0
 40
0.0
 40
0.0518021678959321
 40
0.1113531869320091
 40
0.1722390121081964
 40
0.2246330486644265
 40
0.2782901739341299
 40
0.3193388938915831
 40
0.3615317865683869
 40
0.4026070985542341
 40
0.4448388250118172
 40
0.5013813588237958
 40
0.5595024780750798
 40
0.6342587863883307
 40
0.7111713058794561
 40
0.7731993470185845
 40
0.8368555070613418
 40
0.8874951870065072
 40
0.9395148628968888
 40
0.9902064287708209
 40
1.0
 40
1.0
 40
1.0
 40
1.0
 10
7135.749854444422
 20
5073.535623465659
 30
0.0
 10
7136.077381195619
 20
5073.017603548132
 30
0.0
 10
7136.781427937919
 20
5071.904075465161
 30
0.0
 10
7138.042189753406
 20
5069.709980253993
 30
0.0
 10
7139.305113951742
 20
5067.174178365823
 30
0.0
 10
7140.405348273662
 20
5064.401512242392
 30
0.0
 10
7141.148129157899
 20
5061.703678675068
 30
0.0
 10
7141.52451189775
 20
5059.016784295046
 30
0.0
 10
7141.548449969438
 20
5056.486126341981
 30
0.0
 10
7141.228558479002
 20
5053.920936210084
 30
0.0
 10
7140.529061892593
 20
5051.132747826998
 30
0.0
 10
7139.393028940231
 20
5048.163914493474
 30
0.0
 10
7137.731563326011
 20
5044.849892115368
 30
0.0
 10
7135.717314964008
 20
5041.520358540943
 30
0.0
 10
7133.675924744985
 20
5038.538921034557
 30
0.0
 10
7131.902013785274
 20
5036.119929151506
 30
0.0
 10
7130.584352642453
 20
5034.39888910025
 30
0.0
 10
7129.616388244796
 20
5033.166132697012
 30
0.0
 10
7129.050360470686
 20
5032.456502185306
 30
0.0
 10
7128.796878954388
 20
5032.141632639089
 30
0.0
 10
7128.852992683385
 20
5032.21246439933
 30
0.0
 10
7128.862078449381
 20
5032.223933264616
 30
0.0
  0
LINE
  5
137
330
1F
100
AcDbEntity
  8
0
  6
Continuous
 62
     7
370
    25
100
AcDbLine
 10
7126.9666375841
 20
5016.187981367
 30
0.0
 11
7194.9666337527
 21
5016.187981367
 31
0.0
  0
LWPOLYLINE
  5
138
330
1F
100
AcDbEntity
  8
0
  6
Continuous
 62
     7
370
    25
100
AcDbPolyline
 90
       30
 70
   128
 43
0.0
 10
7116.9666363868
 20
5081.6879809312
 10
7116.9670115216
 20
5081.6767666698
 10
7116.9684966876
 20
5081.4080710187
 10
7116.969957632
 20
5080.7845198713
 10
7116.9713753092
 20
5079.8142421703
 10
7116.9727312377
 20
5078.5098869694
 10
7116.9740077407
 20
5076.8884585335
 10
7116.9751881772
 20
5074.9710946617
 10
7116.9762571582
 20
5072.7827911245
 10
7116.9772007482
 20
5070.352075805
 10
7116.9780066458
 20
5067.7106367947
 10
7116.978664345
 20
5064.8929092907
 10
7116.9791652716
 20
5061.9356266801
 10
7116.9795028954
 20
5058.8773416644
 10
7116.9796728149
 20
5055.7579236657
 10
7116.9796728149
 20
5052.6180390683
 10
7116.9795028954
 20
5049.4986210696
 10
7116.9791652716
 20
5046.4403360538
 10
7116.978664345
 20
5043.4830534433
 10
7116.9780066458
 20
5040.6653259392
 10
7116.9772007482
 20
5038.0238869289
 10
7116.9762571582
 20
5035.5931716094
 10
7116.9751881772
 20
5033.4048680722
 10
7116.9740077407
 20
5031.4875042005
 10
7116.9727312377
 20
5029.8660757645
 10
7116.9713753092
 20
5028.5617205637
 10
7116.969957632
 20
5027.5914428627
 10
7116.9684966876
 20
5026.9678917153
 10
7116.9670115216
 20
5026.6991960642
 10
7116.9666363868
 20
5026.6879818028
  0
LWPOLYLINE
  5
139
330
1F
100
AcDbEntity
  8
0
  6
Continuous
 62
     7
370
    25
100
AcDbPolyline
 90
       29
 70
   128
 43
0.0
 10
7112.9666369643
 20
5080.187980955
 10
7112.9673568599
 20
5080.143993482
 10
7112.9687825504
 20
5079.7929829453
 10
7112.9701792553
 20
5079.0957086872
 10
7112.9715280866
 20
5078.0616001459
 10
7112.9728108035
 20
5076.7046418654
 10
7112.9740100595
 20
5075.0431843786
 10
7112.9751096368
 20
5073.0996960479
 10
7112.9760946654
 20
5070.9004592188
 10
7112.9769518246
 20
5068.4752147968
 10
7112.9776695227
 20
5065.8567600522
 10
7112.9782380541
 20
5063.0805050934
 10
7112.9786497304
 20
5060.1839940063
 10
7112.9788989843
 20
5057.2063971342
 10
7112.9789824452
 20
5054.187981367
 10
7112.9788989843
 20
5051.1695655997
 10
7112.9786497304
 20
5048.1919687277
 10
7112.9782380541
 20
5045.2954576405
 10
7112.9776695227
 20
5042.5192026818
 10
7112.9769518246
 20
5039.9007479371
 10
7112.9760946654
 20
5037.4755035151
 10
7112.9751096368
 20
5035.2762666861
 10
7112.9740100595
 20
5033.3327783553
 10
7112.9728108035
 20
5031.6713208686
 10
7112.9715280866
 20
5030.3143625881
 10
7112.9701792553
 20
5029.2802540468
 10
7112.9687825504
 20
5028.5829797887
 10
7112.9673568599
 20
5028.2319692519
 10
7112.9666369643
 20
5028.187981779
  0
ARC
  5
13A
330
1F
100
AcDbEntity
  8
0
  6
Continuous
 62
     7
370
    25
100
AcDbCircle
 10
7138.6025714034
 20
5073.3296298538
 30
0.0
 40
2.860144649496423
100
AcDbArc
 50
92.0289576351
 51
175.8698619895
  0
LINE
  5
13B
330
1F
100
AcDbEntity
  8
0
  6
Continuous
 62
     7
370
    25
100
AcDbLine
 10
7138.5013091535
 20
5076.187981367
 30
0.0
 11
7185.2962860905
 21
5076.187981367
 31
0.0
  0
LINE
  5
13C
330
1F
100
AcDbEntity
  8
0
  6
Continuous
 62
     7
370
    25
100
AcDbLine
 10
7136.8448086047
 20
4946.187981367
 30
0.0
 11
7185.0884616189
 21
4946.187981367
 31
0.0
  0
LWPOLYLINE
  5
13D
330
1F
100
AcDbEntity
  8
0
  6
Continuous
 62
     7
370
    25
100
AcDbPolyline
 90
       35
 70
   128
 43
0.0
 10
7100.9612484852
 20
5074.187981367
 10
7100.9619914051
 20
5074.9990035737
 10
7100.9632663394
 20
5076.0622812418
 10
7100.9645944865
 20
5076.7805881337
 10
7100.9659549007
 20
5077.1425961208
 10
7100.9673261274
 20
5077.1425961208
 10
7100.9686865416
 20
5076.7805881337
 10
7100.9700146887
 20
5076.0622812418
 10
7100.971289623
 20
5074.9990035737
 10
7100.9724912381
 20
5073.6075236535
 10
7100.9736005838
 20
5071.9097859508
 10
7100.9746001651
 20
5069.9325648033
 10
7100.9754742179
 20
5067.7070421697
 10
7100.9762089579
 20
5065.2683158713
 10
7100.9767927978
 20
5062.6548460787
 10
7100.9772165301
 20
5059.9078487718
 10
7100.9774734724
 20
5057.070645739
 10
7100.9775595724
 20
5054.187981367
 10
7100.9774734724
 20
5051.305316995
 10
7100.9772165301
 20
5048.4681139622
 10
7100.9767927978
 20
5045.7211166552
 10
7100.9762089579
 20
5043.1076468626
 10
7100.9754742179
 20
5040.6689205643
 10
7100.9746001651
 20
5038.4433979306
 10
7100.9736005838
 20
5036.4661767831
 10
7100.9724912381
 20
5034.7684390804
 10
7100.971289623
 20
5033.3769591603
 10
7100.9700146887
 20
5032.3136814922
 10
7100.9686865416
 20
5031.5953746002
 10
7100.9673261274
 20
5031.2333666131
 10
7100.9659549007
 20
5031.2333666131
 10
7100.9645944865
 20
5031.5953746002
 10
7100.9632663394
 20
5032.3136814922
 10
7100.9619914051
 20
5033.3769591603
 10
7100.9612484852
 20
5034.187981367
  0
LINE
  5
13E
330
1F
100
AcDbEntity
  8
0
  6
Continuous
 62
     7
370
    25
100
AcDbLine
 10
7137.9666363445
 20
5082.687981367
 30
0.0
 11
7183.9666337527
 21
5082.687981367
 31
0.0
  0
LINE
  5
13F
330
1F
100
AcDbEntity
  8
0
  6
Continuous
 62
     7
370
    25
100
AcDbLine
 10
7135.9666365699
 20
5078.687981367
 30
0.0
 11
7185.9666337527
 21
5078.687981367
 31
0.0
  0
LINE
  5
140
330
1F
100
AcDbEntity
  8
0
  6
Continuous
 62
     7
370
    25
100
AcDbLine
 10
7140.9666360065
 20
5092.687981367
 30
0.0
 11
7180.9666337527
 21
5092.687981367
 31
0.0
  0
SPLINE
  5
141
330
1F
100
AcDbEntity
  8
0
  6
Continuous
 62
     7
370
    25
100
AcDbSpline
210
0.0
220
0.0
230
1.0
 70
     8
 71
     3
 72
    11
 73
     7
 74
     0
 42
0.000000001
 43
0.00000001
 40
0.0
 40
0.0
 40
0.0
 40
0.0
 40
0.1561474091523019
 40
0.4307960512583152
 40
0.7130079383195164
 40
1.0
 40
1.0
 40
1.0
 40
1.0
 10
7133.966636795281
 20
5076.187981366978
 30
0.0
 10
7133.976377653033
 20
5076.174464652525
 30
0.0
 10
7134.00325176563
 20
5076.137173305559
 30
0.0
 10
7134.288308555128
 20
5075.728392032603
 30
0.0
 10
7134.872963659973
 20
5074.879889921106
 30
0.0
 10
7135.455925611497
 20
5073.986213980916
 30
0.0
 10
7135.749854444422
 20
5073.535623465659
 30
0.0
  0
SPLINE
  5
142
330
1F
100
AcDbEntity
  8
0
  6
Continuous
 62
     7
370
    25
100
AcDbSpline
210
0.0
220
0.0
230
1.0
 70
    24
 71
     3
 72
    12
 73
     8
 74
     0
 42
0.000000001
 43
0.00000001
 40
0.0
 40
0.0
 40
0.0
 40
0.0
 40
0.0026572740835323
 40
0.0516700043743791
 40
0.3670805910300636
 40
0.7311420885359119
 40
1.0
 40
1.0
 40
1.0
 40
1.0
 10
7133.966636795281
 20
5076.187981366978
 30
0.0
 10
7133.970036870163
 20
5076.187981366978
 30
0.0
 10
7134.036150443131
 20
5076.187981366978
 30
0.0
 10
7134.517053599009
 20
5076.187981366978
 30
0.0
 10
7135.605517147795
 20
5076.187981366978
 30
0.0
 10
7137.200103430887
 20
5076.187981366978
 30
0.0
 10
7138.113364762988
 20
5076.187981366978
 30
0.0
 10
7138.501309153521
 20
5076.187981366978
 30
0.0
  0
LWPOLYLINE
  5
143
330
1F
100
AcDbEntity
  8
0
  6
Continuous
 62
     7
370
    25
100
AcDbPolyline
 90
       13
 70
   128
 43
0.0
 10
6963.9664209056
 20
5014.1910455954
 10
6963.964643854
 20
5014.4131552124
 10
6963.9628844847
 20
5014.9848074319
 10
6963.9611582592
 20
5015.9009785535
 10
6963.9594803477
 20
5017.1536172325
 10
6963.9578654956
 20
5018.7317152351
 10
6963.9563278944
 20
5020.6214041793
 10
6963.9548810565
 20
5022.8060774108
 10
6963.9535376969
 20
5025.2665359427
 10
6963.9523096209
 20
5027.9811571768
 10
6963.951207621
 20
5030.9260849242
 10
6963.9502413816
 20
5034.075439054
 10
6963.9502104187
 20
5034.187981367
  0
LWPOLYLINE
  5
144
330
1F
100
AcDbEntity
  8
0
  6
Continuous
 62
     7
370
    25
100
AcDbPolyline
 90
       47
 70
   128
 43
0.0
 10
6963.9502104187
 20
5074.187981367
 10
6963.9509669952
 20
5076.7240016434
 10
6963.9520377832
 20
5079.7195816792
 10
6963.9532370362
 20
5082.4907890933
 10
6963.9545542151
 20
5085.0132704155
 10
6963.9559777445
 20
5087.2648579892
 10
6963.9574951144
 20
5089.2257647819
 10
6963.9590929901
 20
5090.878758274
 10
6963.9607573294
 20
5092.2093118994
 10
6963.9624735059
 20
5093.205732705
 10
6963.964226438
 20
5093.859264109
 10
6963.9660007207
 20
5094.1641628537
 10
6963.9677807616
 20
5094.1177494782
 10
6963.9695509177
 20
5093.7204318647
 10
6963.9712956327
 20
5092.9757016549
 10
6963.972999574
 20
5091.8901035645
 10
6963.9746477673
 20
5090.4731778686
 10
6963.9762257283
 20
5088.7373765612
 10
6963.9777195898
 20
5086.6979539265
 10
6963.9791162236
 20
5084.3728324841
 10
6963.9804033561
 20
5081.7824454847
 10
6963.9815696759
 20
5078.9495573424
 10
6963.9826049334
 20
5075.8990635802
 10
6963.9835000307
 20
5072.6577720468
 10
6963.9842471016
 20
5069.2541673288
 10
6963.9848395809
 20
5065.7181604268
 10
6963.9852722618
 20
5062.0808258967
 10
6963.9855413419
 20
5058.3741287651
 10
6963.9856444565
 20
5054.6306436196
 10
6963.9855806994
 20
5050.8832683424
 10
6963.985350631
 20
5047.164935002
 10
6963.9849562731
 20
5043.5083204455
 10
6963.9844010913
 20
5039.9455591333
 10
6963.9836899646
 20
5036.5079607398
 10
6963.9828291424
 20
5033.2257350032
 10
6963.9818261896
 20
5030.1277262414
 10
6963.9806899202
 20
5027.2411598668
 10
6963.9794303199
 20
5024.5914031284
 10
6963.9780584579
 20
5022.2017421837
 10
6963.9765863902
 20
5020.0931774591
 10
6963.9750270536
 20
5018.2842390972
 10
6963.9733941514
 20
5016.7908241133
 10
6963.9717020337
 20
5015.626056692
 10
6963.9699655708
 20
5014.8001728513
 10
6963.9682000229
 20
5014.320430488
 10
6963.9664209056
 20
5014.1910455954
 10
6963.9664209056
 20
5014.1910455954
  0
LWPOLYLINE
  5
145
330
1F
100
AcDbEntity
  8
0
  6
Continuous
 62
     7
370
    25
100
AcDbPolyline
 90
       12
 70
   128
 43
0.0
 10
6963.9664267818
 20
5015.1909689897
 10
6963.9646679988
 20
5015.413436628
 10
6963.962927219
 20
5015.9870525479
 10
6963.9612202072
 20
5016.9066219947
 10
6963.9595624224
 20
5018.1638172052
 10
6963.9579688777
 20
5019.7472528248
 10
6963.9564540044
 20
5021.6425890153
 10
6963.9550315216
 20
5023.8326613188
 10
6963.9537143114
 20
5026.2976361012
 10
6963.9525143028
 20
5029.0151901693
 10
6963.9514423631
 20
5031.9607129326
 10
6963.9507609662
 20
5034.187981367
  0
LWPOLYLINE
  5
146
330
1F
100
AcDbEntity
  8
0
  6
Continuous
 62
     7
370
    25
100
AcDbPolyline
 90
       46
 70
   128
 43
0.0
 10
6963.9507609662
 20
5074.187981367
 10
6963.9517082272
 20
5077.2016858968
 10
6963.9528144526
 20
5080.0904144635
 10
6963.9540460288
 20
5082.744566585
 10
6963.9553918024
 20
5085.1401058486
 10
6963.9568395858
 20
5087.2553378799
 10
6963.9583762678
 20
5089.0711068099
 10
6963.959987932
 20
5090.5709687542
 10
6963.9616599827
 20
5091.7413407307
 10
6963.9633772777
 20
5092.5716236695
 10
6963.9651242649
 20
5093.0542983997
 10
6963.9668851233
 20
5093.1849937443
 10
6963.9686439063
 20
5092.962526106
 10
6963.9703846861
 20
5092.3889101861
 10
6963.9720916979
 20
5091.4693407393
 10
6963.9737494827
 20
5090.2121455288
 10
6963.9753430275
 20
5088.6287099092
 10
6963.9768579007
 20
5086.7333737186
 10
6963.9782803835
 20
5084.5433014152
 10
6963.9795975937
 20
5082.0783266327
 10
6963.9807976023
 20
5079.3607725646
 10
6963.981869542
 20
5076.4152498013
 10
6963.9828037051
 20
5073.2684334531
 10
6963.9835916316
 20
5069.9488215761
 10
6963.984226186
 20
5066.4864770895
 10
6963.9847016216
 20
5062.9127555213
 10
6963.9850136329
 20
5059.2600210472
 10
6963.9851593942
 20
5055.5613533963
 10
6963.9851375854
 20
5051.8502482757
 10
6963.9849484041
 20
5048.1603140279
 10
6963.9845935635
 20
5044.524967269
 10
6963.9840762772
 20
5040.9771302621
 10
6963.9834012297
 20
5037.5489327686
 10
6963.9825745343
 20
5034.2714210758
 10
6963.9816036779
 20
5031.1742768371
 10
6963.9804974525
 20
5028.2855482704
 10
6963.9792658763
 20
5025.631396149
 10
6963.9779201027
 20
5023.2358568854
 10
6963.9764723193
 20
5021.1206248541
 10
6963.9749356373
 20
5019.304855924
 10
6963.9733239731
 20
5017.8049939797
 10
6963.9716519224
 20
5016.6346220033
 10
6963.9699346274
 20
5015.8043390645
 10
6963.9681876402
 20
5015.3216643343
 10
6963.9664267818
 20
5015.1909689897
 10
6963.9664267818
 20
5015.1909689897
  0
LWPOLYLINE
  5
147
330
1F
100
AcDbEntity
  8
0
  6
Continuous
 62
     7
370
    25
100
AcDbPolyline
 90
       25
 70
   128
 43
0.0
 10
6998.9669677511
 20
5074.1769199201
 10
6998.9674034058
 20
5074.1252555658
 10
6998.9686582698
 20
5073.7364050738
 10
6998.969877332
 20
5072.9987124977
 10
6998.9710388382
 20
5071.9253419788
 10
6998.9721220614
 20
5070.5354478397
 10
6998.9731076713
 20
5068.853832774
 10
6998.9739780798
 20
5066.9105052426
 10
6998.9747177543
 20
5064.7401439712
 10
6998.9753134954
 20
5062.3814791082
 10
6998.9757546721
 20
5059.8766010838
 10
6998.9760334116
 20
5057.2702095058
 10
6998.9761447396
 20
5054.6088154937
 10
6998.9760866697
 20
5051.9399116866
 10
6998.975860238
 20
5049.3111247362
 10
6998.9754694852
 20
5046.769365408
 10
6998.9749213844
 20
5044.3599914572
 10
6998.9742257163
 20
5042.1259982193
 10
6998.9733948953
 20
5040.1072513563
 10
6998.9724437472
 20
5038.339775454
 10
6998.9713892455
 20
5036.8551111616
 10
6998.9702502076
 20
5035.6797523487
 10
6998.9690469598
 20
5034.8346733211
 10
6998.967800974
 20
5034.3349545341
 10
6998.9669667985
 20
5034.1989761531
  0
LWPOLYLINE
  5
148
330
1F
100
AcDbEntity
  8
0
  6
Continuous
 62
     7
370
    25
100
AcDbPolyline
 90
       48
 70
   128
 43
0.0
 10
6953.966539556
 20
5034.1895134812
 10
6953.9652751641
 20
5034.4009455615
 10
6953.9640354325
 20
5034.9654777645
 10
6953.9628424843
 20
5035.8730359997
 10
6953.9617176076
 20
5037.1074248689
 10
6953.9606808759
 20
5038.6466166734
 10
6953.9597507898
 20
5040.463144499
 10
6953.9589439465
 20
5042.5245923637
 10
6953.9582747442
 20
5044.7941736815
 10
6953.9577551249
 20
5047.23138772
 10
6953.9573943613
 20
5049.7927423369
 10
6953.957198891
 20
5052.4325300984
 10
6953.9571722023
 20
5055.1036439294
 10
6953.9573147715
 20
5057.7584177403
 10
6953.9576240544
 20
5060.3494770295
 10
6953.9580945319
 20
5062.8305842827
 10
6953.9587178082
 20
5065.1574640821
 10
6953.959482761
 20
5067.2885932025
 10
6953.9603757396
 20
5069.1859415944
 10
6953.961380809
 20
5070.8156510307
 10
6953.9624800335
 20
5072.148639308
 10
6953.9636537975
 20
5073.1611192188
 10
6953.9648811551
 20
5073.8350230351
 10
6953.9661402041
 20
5074.1583249274
 10
6953.9674084768
 20
5074.1252555658
 10
6953.9686633408
 20
5073.7364050738
 10
6953.969882403
 20
5072.9987124977
 10
6953.9710439093
 20
5071.9253419788
 10
6953.9721271324
 20
5070.5354478397
 10
6953.9731127423
 20
5068.853832774
 10
6953.9739831508
 20
5066.9105052426
 10
6953.9747228253
 20
5064.7401439712
 10
6953.9753185665
 20
5062.3814791082
 10
6953.9757597432
 20
5059.8766010838
 10
6953.9760384826
 20
5057.2702095058
 10
6953.9761498107
 20
5054.6088154937
 10
6953.9760917407
 20
5051.9399116866
 10
6953.975865309
 20
5049.3111247362
 10
6953.9754745563
 20
5046.769365408
 10
6953.9749264554
 20
5044.3599914572
 10
6953.9742307874
 20
5042.1259982193
 10
6953.9733999663
 20
5040.1072513563
 10
6953.9724488183
 20
5038.339775454
 10
6953.9713943165
 20
5036.8551111616
 10
6953.9702552787
 20
5035.6797523487
 10
6953.9690520308
 20
5034.8346733211
 10
6953.9678060451
 20
5034.3349545341
 10
6953.966539556
 20
5034.1895134812
  0
LWPOLYLINE
  5
149
330
1F
100
AcDbEntity
  8
0
  6
Continuous
 62
     7
370
    25
100
AcDbPolyline
 90
       47
 70
   128
 43
0.0
 10
6953.9665454322
 20
5035.1894368755
 10
6953.9653183305
 20
5035.3984133136
 10
6953.9641161671
 20
5035.9574038534
 10
6953.9629613362
 20
5036.8559955586
 10
6953.96187535
 20
5038.0774493661
 10
6953.9608784383
 20
5039.5990119025
 10
6953.9599891718
 20
5041.3923393366
 10
6953.9592241158
 20
5043.4240253714
 10
6953.9585975219
 20
5045.6562235403
 10
6953.9581210622
 20
5048.0473522147
 10
6953.9578036124
 20
5050.5528691918
 10
6953.9576510859
 20
5053.1261014308
 10
6953.9576663241
 20
5055.7191144838
 10
6953.957849043
 20
5058.2836054239
 10
6953.958195839
 20
5060.771802637
 10
6953.9587002519
 20
5063.1373557169
 10
6953.9593528854
 20
5065.3361988856
 10
6953.9601415822
 20
5067.3273718551
 10
6953.9610516505
 20
5069.0737828405
 10
6953.9620661372
 20
5070.5428995095
 10
6953.9631661445
 20
5071.7073549982
 10
6953.9643311814
 20
5072.545457704
 10
6953.9655395453
 20
5073.0415953594
 10
6953.9667687267
 20
5073.1865258585
 10
6953.9679958284
 20
5072.9775494203
 10
6953.9691979918
 20
5072.4185588806
 10
6953.9703528227
 20
5071.5199671753
 10
6953.9714388089
 20
5070.2985133678
 10
6953.9724357206
 20
5068.7769508315
 10
6953.9733249871
 20
5066.9836233974
 10
6953.9740900431
 20
5064.9519373625
 10
6953.9747166371
 20
5062.7197391937
 10
6953.9751930967
 20
5060.3286105192
 10
6953.9755105465
 20
5057.8230935422
 10
6953.975663073
 20
5055.2498613032
 10
6953.9756478348
 20
5052.6568482502
 10
6953.9754651159
 20
5050.0923573101
 10
6953.9751183199
 20
5047.6041600969
 10
6953.974613907
 20
5045.238607017
 10
6953.9739612735
 20
5043.0397638484
 10
6953.9731725767
 20
5041.0485908788
 10
6953.9722625084
 20
5039.3021798934
 10
6953.9712480217
 20
5037.8330632245
 10
6953.9701480144
 20
5036.6686077358
 10
6953.9689829775
 20
5035.8305050299
 10
6953.9677746136
 20
5035.3343673746
 10
6953.9665454322
 20
5035.1894368755
  0
SPLINE
  5
14A
330
1F
100
AcDbEntity
  8
0
  6
Continuous
 62
     7
370
    25
100
AcDbSpline
210
0.0
220
0.0
230
1.0
 70
    24
 71
     3
 72
    36
 73
    32
 74
     0
 42
0.000000001
 43
0.00000001
 40
0.0
 40
0.0
 40
0.0
 40
0.0
 40
0.0246592337807984
 40
0.0493782152020121
 40
0.0742175786314291
 40
0.0991171453009743
 40
0.1409770686826153
 40
0.1831156811251664
 40
0.2258109996030749
 40
0.2687778815665153
 40
0.3127002775281726
 40
0.356886565417332
 40
0.4015866686361339
 40
0.446530896493767
 40
0.4710794657017557
 40
0.4956282474564168
 40
0.5203175930611024
 40
0.5450071323358833
 40
0.569969456005652
 40
0.5949319565099691
 40
0.6451075777115578
 40
0.6730935566207811
 40
0.7153680104796438
 40
0.7577793963041852
 40
0.8005993873202178
 40
0.8435520772030137
 40
0.872385716078997
 40
0.9037816655279689
 40
0.9512424630148413
 40
0.9988725600192314
 40
1.0
 40
1.0
 40
1.0
 40
1.0
 10
7192.966633752656
 20
5315.417858267302
 30
0.0
 10
7196.093992750652
 20
5315.417858267302
 30
0.0
 10
7202.356288124049
 20
5315.417858267302
 30
0.0
 10
7211.745988334957
 20
5315.417858267302
 30
0.0
 10
7221.120583096785
 20
5315.417858267302
 30
0.0
 10
7232.568599751732
 20
5315.417858267302
 30
0.0
 10
7246.005704673088
 20
5315.417858267302
 30
0.0
 10
7261.277587741322
 20
5315.417858267302
 30
0.0
 10
7276.224494986943
 20
5315.417858267302
 30
0.0
 10
7290.824910968159
 20
5315.417858267302
 30
0.0
 10
7304.948894726229
 20
5315.417858267302
 30
0.0
 10
7318.531312696248
 20
5315.417858267302
 30
0.0
 10
7331.422958731176
 20
5315.417858267302
 30
0.0
 10
7341.702073015454
 20
5315.417858267302
 30
0.0
 10
7349.685950916529
 20
5315.417858267302
 30
0.0
 10
7355.680959684814
 20
5315.417858267302
 30
0.0
 10
7361.41219388058
 20
5315.417858267302
 30
0.0
 10
7366.895279179611
 20
5315.417858267302
 30
0.0
 10
7372.112687463708
 20
5315.417858267302
 30
0.0
 10
7378.723772424044
 20
5315.417858267302
 30
0.0
 10
7384.930760561244
 20
5315.417858267302
 30
0.0
 10
7391.43479949225
 20
5315.417858267302
 30
0.0
 10
7396.89475769249
 20
5315.417858267302
 30
0.0
 10
7402.216926514974
 20
5315.417858267302
 30
0.0
 10
7406.699490153685
 20
5315.417858267302
 30
0.0
 10
7409.928364324627
 20
5315.417858267302
 30
0.0
 10
7412.241795543897
 20
5315.417858267302
 30
0.0
 10
7414.162151137438
 20
5315.417858267302
 30
0.0
 10
7415.511152874624
 20
5315.417858267302
 30
0.0
 10
7416.143484283089
 20
5315.417858267302
 30
0.0
 10
7415.958242511937
 20
5315.417858267302
 30
0.0
 10
7415.953959092555
 20
5315.417858267302
 30
0.0
  0
SPLINE
  5
14B
330
1F
100
AcDbEntity
  8
0
  6
Continuous
 62
     7
370
    25
100
AcDbSpline
210
0.0
220
0.0
230
1.0
 70
    24
 71
     3
 72
    35
 73
    31
 74
     0
 42
0.000000001
 43
0.00000001
 40
0.0
 40
0.0
 40
0.0
 40
0.0
 40
0.0207752324590045
 40
0.0698949997151371
 40
0.1192026120971908
 40
0.1690998129506283
 40
0.2192014828755634
 40
0.2529032280758193
 40
0.2854496067074493
 40
0.3181217966392712
 40
0.350858322331991
 40
0.3840903548945701
 40
0.4173951836671769
 40
0.4512260385488981
 40
0.4851404921804728
 40
0.5192270473674593
 40
0.5437903751300157
 40
0.5809239352619353
 40
0.6181906211653184
 40
0.6558880219490284
 40
0.693741221939522
 40
0.7192014869768802
 40
0.7437663240444832
 40
0.7809986030253815
 40
0.8184090297244024
 40
0.856393006201314
 40
0.894581890851991
 40
0.9203379795418752
 40
0.9600442987307255
 40
1.0
 40
1.0
 40
1.0
 40
1.0
 10
6970.024422443433
 20
5315.417858267302
 30
0.0
 10
6970.022534222643
 20
5315.417858267302
 30
0.0
 10
6970.016181600992
 20
5315.417858267302
 30
0.0
 10
6970.957027999876
 20
5315.417858267302
 30
0.0
 10
6973.148785375191
 20
5315.417858267302
 30
0.0
 10
6976.566902499847
 20
5315.417858267302
 30
0.0
 10
6980.680133934867
 20
5315.417858267302
 30
0.0
 10
6985.034847576893
 20
5315.417858267302
 30
0.0
 10
6989.256671141088
 20
5315.417858267302
 30
0.0
 10
6993.943525511686
 20
5315.417858267302
 30
0.0
 10
6999.173311017261
 20
5315.417858267302
 30
0.0
 10
7004.952855040468
 20
5315.417858267302
 30
0.0
 10
7011.319945416143
 20
5315.417858267302
 30
0.0
 10
7018.258931865116
 20
5315.417858267302
 30
0.0
 10
7025.783848651829
 20
5315.417858267302
 30
0.0
 10
7033.103769166441
 20
5315.417858267302
 30
0.0
 10
7041.097835519964
 20
5315.417858267302
 30
0.0
 10
7049.808766117275
 20
5315.417858267302
 30
0.0
 10
7060.272541899854
 20
5315.417858267302
 30
0.0
 10
7071.386191327736
 20
5315.417858267302
 30
0.0
 10
7081.837364650124
 20
5315.417858267302
 30
0.0
 10
7091.269737892343
 20
5315.417858267302
 30
0.0
 10
7100.888906460055
 20
5315.417858267302
 30
0.0
 10
7112.162630914837
 20
5315.417858267302
 30
0.0
 10
7125.370651909251
 20
5315.417858267302
 30
0.0
 10
7139.050302223022
 20
5315.417858267302
 30
0.0
 10
7151.593615085153
 20
5315.417858267302
 30
0.0
 10
7164.516374794448
 20
5315.417858267302
 30
0.0
 10
7177.799629509311
 20
5315.417858267302
 30
0.0
 10
7187.900425485641
 20
5315.417858267302
 30
0.0
 10
7192.966633752656
 20
5315.417858267302
 30
0.0
  0
LINE
  5
14C
330
1F
100
AcDbEntity
  8
0
  6
Continuous
 62
     7
370
    25
100
AcDbLine
 10
7419.9536369957
 20
5311.4178582673
 30
0.0
 11
7419.9503190123
 21
5311.4178582673
 31
0.0
  0
SPLINE
  5
14D
330
1F
100
AcDbEntity
  8
0
  6
Continuous
 62
     7
370
    25
100
AcDbSpline
210
0.0
220
0.0
230
1.0
 70
    24
 71
     3
 72
    15
 73
    11
 74
     0
 42
0.000000001
 43
0.00000001
 40
0.0
 40
0.0
 40
0.0
 40
0.0
 40
0.1963495408493621
 40
0.3926990816987241
 40
0.5890486225480862
 40
0.7853981633974483
 40
0.9817477042468103
 40
1.178097245096172
 40
1.374446785945534
 40
1.570796326794897
 40
1.570796326794897
 40
1.570796326794897
 40
1.570796326794897
 10
7192.966633752656
 20
5308.417858267302
 30
0.0
 10
7177.957141354104
 20
5308.417858267302
 30
0.0
 10
7147.938156557
 20
5308.417858267302
 30
0.0
 10
7104.658067799917
 20
5308.417858267302
 30
0.0
 10
7064.798571089893
 20
5308.417858267302
 30
0.0
 10
7029.888880382542
 20
5308.417858267302
 30
0.0
 10
7001.260053151402
 20
5308.417858267302
 30
0.0
 10
6979.999238623483
 20
5308.417858267302
 30
0.0
 10
6966.912052546328
 20
5308.417858267302
 30
0.0
 10
6963.966633752656
 20
5308.417858267302
 30
0.0
 10
6963.966633752656
 20
5308.417858267302
 30
0.0
  0
LINE
  5
14E
330
1F
100
AcDbEntity
  8
0
  6
Continuous
 62
     7
370
    25
100
AcDbLine
 10
7421.9666337527
 20
5308.4178582673
 30
0.0
 11
7192.9666337527
 21
5308.4178582673
 31
0.0
  0
SPLINE
  5
14F
330
1F
100
AcDbEntity
  8
0
  6
Continuous
 62
     7
370
    25
100
AcDbSpline
210
0.0
220
0.0
230
1.0
 70
    24
 71
     3
 72
    15
 73
    11
 74
     0
 42
0.000000001
 43
0.00000001
 40
0.0
 40
0.0
 40
0.0
 40
0.0
 40
0.1963495408493621
 40
0.3926990816987241
 40
0.5890486225480862
 40
0.7853981633974483
 40
0.9817477042468103
 40
1.178097245096172
 40
1.374446785945534
 40
1.570796326794897
 40
1.570796326794897
 40
1.570796326794897
 40
1.570796326794897
 10
7192.966633752656
 20
5307.217858267302
 30
0.0
 10
7177.957141354104
 20
5307.217858267302
 30
0.0
 10
7147.938156557
 20
5307.217858267302
 30
0.0
 10
7104.658067799917
 20
5307.217858267302
 30
0.0
 10
7064.798571089893
 20
5307.217858267302
 30
0.0
 10
7029.888880382542
 20
5307.217858267302
 30
0.0
 10
7001.260053151402
 20
5307.217858267302
 30
0.0
 10
6979.999238623483
 20
5307.217858267302
 30
0.0
 10
6966.912052546328
 20
5307.217858267302
 30
0.0
 10
6963.966633752656
 20
5307.217858267302
 30
0.0
 10
6963.966633752656
 20
5307.217858267302
 30
0.0
  0
LINE
  5
150
330
1F
100
AcDbEntity
  8
0
  6
Continuous
 62
     7
370
    25
100
AcDbLine
 10
7421.9666337527
 20
5307.2178582673
 30
0.0
 11
7192.9666337527
 21
5307.2178582673
 31
0.0
  0
SPLINE
  5
151
330
1F
100
AcDbEntity
  8
0
  6
Continuous
 62
     7
370
    25
100
AcDbSpline
210
0.0
220
0.0
230
1.0
 70
     8
 71
     3
 72
    20
 73
    16
 74
     0
 42
0.000000001
 43
0.00000001
 40
0.0
 40
0.0
 40
0.0
 40
0.0
 40
0.0724962575448643
 40
0.1505689884604018
 40
0.2299849310661287
 40
0.2927994282701652
 40
0.3564211927046269
 40
0.4220551922948176
 40
0.4881566526606151
 40
0.5784223078957842
 40
0.669354102548463
 40
0.7622271842938967
 40
0.8557233585270013
 40
0.9720504289907178
 40
0.9999999999999999
 40
0.9999999999999999
 40
0.9999999999999999
 40
0.9999999999999999
 10
7266.480491657151
 20
5307.217858267302
 30
0.0
 10
7264.625085043028
 20
5306.173777298081
 30
0.0
 10
7260.771552370691
 20
5304.005303769514
 30
0.0
 10
7254.77578234382
 20
5300.6667555941
 30
0.0
 10
7248.507640870646
 20
5298.4974998057
 30
0.0
 10
7242.414214701352
 20
5297.235212310847
 30
0.0
 10
7236.604756784468
 20
5296.646724980897
 30
0.0
 10
7230.647250306006
 20
5296.578815596781
 30
0.0
 10
7223.880291534137
 20
5296.92943595459
 30
0.0
 10
7216.375134215643
 20
5297.677181547731
 30
0.0
 10
7208.165824722804
 20
5298.958318388211
 30
0.0
 10
7200.006331657844
 20
5300.635682568136
 30
0.0
 10
7191.359434476278
 20
5302.945803138261
 30
0.0
 10
7184.736051705539
 20
5305.137973811616
 30
0.0
 10
7181.020142617152
 20
5306.880326149238
 30
0.0
 10
7180.300288981321
 20
5307.217858267302
 30
0.0
  0
SPLINE
  5
152
330
1F
100
AcDbEntity
  8
0
  6
Continuous
 62
     7
370
    25
100
AcDbSpline
210
0.0
220
0.0
230
1.0
 70
     8
 71
     3
 72
    27
 73
    23
 74
     0
 42
0.000000001
 43
0.00000001
 40
0.0
 40
0.0
 40
0.0
 40
0.0
 40
0.0050211864606861
 40
0.0377744835556607
 40
0.0770016549712192
 40
0.1162448167636235
 40
0.1947335354533933
 40
0.2734239133195654
 40
0.4303289232923534
 40
0.5087821358148024
 40
0.5480687671659386
 40
0.5874282558720305
 40
0.6266583574553958
 40
0.6659237514961377
 40
0.7053455459494764
 40
0.7448487827211624
 40
0.8002478712829084
 40
0.8559861995471248
 40
0.8915362754102318
 40
0.9272159521681786
 40
0.9634518966423716
 40
1.0
 40
1.0
 40
1.0
 40
1.0
 10
7387.014311359354
 20
5307.217858267302
 30
0.0
 10
7386.746121900683
 20
5306.878623960632
 30
0.0
 10
7384.728527378811
 20
5304.326557663324
 30
0.0
 10
7380.79132965655
 20
5298.988767116677
 30
0.0
 10
7374.942087136757
 20
5291.40291732486
 30
0.0
 10
7366.480604399707
 20
5280.859098593308
 30
0.0
 10
7355.229067127178
 20
5268.210530772778
 30
0.0
 10
7336.237041360074
 20
5248.944509311599
 30
0.0
 10
7316.914245194427
 20
5230.022330586121
 30
0.0
 10
7300.431590601524
 20
5213.048550833676
 30
0.0
 10
7290.468517781264
 20
5203.887127773408
 30
0.0
 10
7282.691501019565
 20
5197.358783214288
 30
0.0
 10
7274.751086866918
 20
5191.035124436369
 30
0.0
 10
7266.622174991412
 20
5184.944862339127
 30
0.0
 10
7258.236293354566
 20
5179.169522851622
 30
0.0
 10
7248.409007892841
 20
5173.058844429723
 30
0.0
 10
7236.994803554263
 20
5166.866215572622
 30
0.0
 10
7225.428493586189
 20
5161.74779026015
 30
0.0
 10
7215.136325988661
 20
5158.034422415629
 30
0.0
 10
7206.249021598051
 20
5155.441389149319
 30
0.0
 10
7197.114607895565
 20
5153.39297012591
 30
0.0
 10
7190.867121672431
 20
5152.814375340937
 30
0.0
 10
7187.729981337283
 20
5152.523837199223
 30
0.0
  0
SPLINE
  5
153
330
1F
100
AcDbEntity
  8
0
  6
Continuous
 62
     7
370
    25
100
AcDbSpline
210
0.0
220
0.0
230
1.0
 70
     8
 71
     3
 72
    17
 73
    13
 74
     0
 42
0.000000001
 43
0.00000001
 40
0.0
 40
0.0
 40
0.0
 40
0.0
 40
0.029429935658684
 40
0.1481655948244283
 40
0.2703411989396673
 40
0.3892709770439383
 40
0.5116331840107751
 40
0.6304715418909048
 40
0.7527780049210788
 40
0.8712678318808408
 40
0.9932086580421812
 40
1.0
 40
1.0
 40
1.0
 40
1.0
 10
7153.924853047412
 20
5152.487981366979
 30
0.0
 10
7154.275544383111
 20
5152.495068188113
 30
0.0
 10
7156.041106868745
 20
5152.530746929684
 30
0.0
 10
7159.452932281924
 20
5152.592801617659
 30
0.0
 10
7163.970211061793
 20
5152.673808978292
 30
0.0
 10
7168.458573315088
 20
5152.745811832872
 30
0.0
 10
7172.689983995496
 20
5152.793154279503
 30
0.0
 10
7176.617745149562
 20
5152.813901727323
 30
0.0
 10
7180.077967001425
 20
5152.805832720823
 30
0.0
 10
7182.942035150234
 20
5152.772358629472
 30
0.0
 10
7184.66109627367
 20
5152.741968946889
 30
0.0
 10
7185.21869061256
 20
5152.719033751974
 30
0.0
 10
7185.248106832953
 20
5152.717823792149
 30
0.0
  0
SPLINE
  5
154
330
1F
100
AcDbEntity
  8
0
  6
Continuous
 62
     7
370
    25
100
AcDbSpline
210
0.0
220
0.0
230
1.0
 70
     8
 71
     3
 72
    16
 73
    12
 74
     0
 42
0.000000001
 43
0.00000001
 40
0.0
 40
0.0
 40
0.0
 40
0.0
 40
0.0391123109638375
 40
0.1436653937513243
 40
0.2490452874780507
 40
0.3562771175712008
 40
0.4639034970735844
 40
0.6143726680908648
 40
0.7652884441968912
 40
0.9171527234209662
 40
1.0
 40
1.0
 40
1.0
 40
1.0
 10
7091.397107294615
 20
5176.734770529713
 30
0.0
 10
7090.741570383888
 20
5177.57798725422
 30
0.0
 10
7088.333684833859
 20
5180.675248954149
 30
0.0
 10
7084.981454549173
 20
5186.620050857956
 30
0.0
 10
7081.1614541333
 20
5194.386063407556
 30
0.0
 10
7077.932242725559
 20
5202.518121479108
 30
0.0
 10
7074.775470471997
 20
5211.978562838987
 30
0.0
 10
7071.843263173047
 20
5222.757050025077
 30
0.0
 10
7069.224714484529
 20
5234.849967295573
 30
0.0
 10
7067.40075237022
 20
5245.219246907803
 30
0.0
 10
7066.53835079875
 20
5251.566841600185
 30
0.0
 10
7066.233944732038
 20
5253.807382894764
 30
0.0
  0
SPLINE
  5
155
330
1F
100
AcDbEntity
  8
0
  6
Continuous
 62
     7
370
    25
100
AcDbSpline
210
0.0
220
0.0
230
1.0
 70
     8
 71
     3
 72
    14
 73
    10
 74
     0
 42
0.000000001
 43
0.00000001
 40
0.0
 40
0.0
 40
0.0
 40
0.0
 40
0.0541664384703871
 40
0.2606564380666178
 40
0.4671479390631151
 40
0.4671609719218089
 40
0.673637918446935
 40
0.8801292436303897
 40
1.0
 40
1.0
 40
1.0
 40
1.0
 10
7061.940507496368
 20
5295.588225884948
 30
0.0
 10
7061.925224370337
 20
5295.798099096191
 30
0.0
 10
7061.851679841543
 20
5296.808038188241
 30
0.0
 10
7061.72655449601
 20
5298.618528196507
 30
0.0
 10
7061.61881735493
 20
5300.219332111091
 30
0.0
 10
7061.513526170845
 20
5301.820247532699
 30
0.0
 10
7061.410503067785
 20
5303.421311032038
 30
0.0
 10
7061.281907195712
 20
5305.487320341543
 30
0.0
 10
7061.207180203945
 20
5306.752986853865
 30
0.0
 10
7061.179733446093
 20
5307.217858267302
 30
0.0
  0
LINE
  5
156
330
1F
100
AcDbEntity
  8
0
  6
Continuous
 62
     8
370
    25
100
AcDbLine
 10
7132.9666337527
 20
5101.487981367
 30
0.0
 11
7188.9666337527
 21
5101.487981367
 31
0.0
  0
LWPOLYLINE
  5
157
330
1F
100
AcDbEntity
  8
0
  6
Continuous
 62
     8
370
    25
100
AcDbPolyline
 90
       20
 70
   128
 43
0.0
 10
7046.1622964095
 20
5154.4145368849
 10
7046.3415605201
 20
5154.4317700586
 10
7046.8736142292
 20
5154.4829738127
 10
7047.7431513202
 20
5154.5666751084
 10
7048.9251567942
 20
5154.6804660119
 10
7050.3856265058
 20
5154.8210729659
 10
7052.0825454005
 20
5154.9844509646
 10
7053.9670962112
 20
5155.1658999202
 10
7055.9850638423
 20
5155.3601998767
 10
7058.0783950391
 20
5155.5617611781
 10
7060.1868684745
 20
5155.7647852728
 10
7062.2498272066
 20
5155.9634315272
 10
7064.2079236687
 20
5156.1519852502
 10
7066.0048269907
 20
5156.3250220946
 10
7067.5888435355
 20
5156.4775641053
 10
7068.9144040313
 20
5156.6052229264
 10
7069.9433745161
 20
5156.7043260461
 10
7070.6461533823
 20
5156.7720224481
 10
7071.0025229616
 20
5156.8063646301
 10
7071.0472012519
 20
5156.8106806866
  0
LWPOLYLINE
  5
158
330
1F
100
AcDbEntity
  8
0
  6
Continuous
 62
     8
370
    25
100
AcDbPolyline
 90
       20
 70
   128
 43
0.0
 10
7088.4666344394
 20
5115.987981367
 10
7088.4669251997
 20
5116.1677824876
 10
7088.4672075954
 20
5116.7020132987
 10
7088.4674735025
 20
5117.5753049525
 10
7088.4677152712
 20
5118.762534438
 10
7088.4679259463
 20
5120.2295473246
 10
7088.4680994672
 20
5121.9341403225
 10
7088.4682308419
 20
5123.8272753947
 10
7088.468316291
 20
5125.854490492
 10
7088.4683533562
 20
5127.957466327
 10
7088.4683409714
 20
5130.0757041138
 10
7088.4682794927
 20
5132.1482660079
 10
7088.4681706889
 20
5134.1155281772
 10
7088.46801769
 20
5135.9208960708
 10
7088.4678248974
 20
5137.5124325414
 10
7088.4675978575
 20
5138.8443519825
 10
7088.4673431019
 20
5139.8783374968
 10
7088.4670679593
 20
5140.5846432036
 10
7088.4667803452
 20
5140.9429499738
 10
7088.466634779
 20
5140.9879811234
  0
LINE
  5
159
330
1F
100
AcDbEntity
  8
0
  6
Continuous
 62
     8
370
    25
100
AcDbLine
 10
7188.2760755078
 20
5073.5356234657
 30
0.0
 11
7135.7498544444
 21
5073.5356234657
 31
0.0
  0
LINE
  5
15A
330
1F
100
AcDbEntity
  8
0
  6
Continuous
 62
     8
370
    25
100
AcDbLine
 10
7133.8604225271
 20
4948.8823055056
 30
0.0
 11
7188.0728480328
 21
4948.8823055056
 31
0.0
  0
LWPOLYLINE
  5
15B
330
1F
100
AcDbEntity
  8
0
  6
Continuous
 62
     8
370
    25
100
AcDbPolyline
 90
       29
 70
   128
 43
0.0
 10
7103.9666405481
 20
5080.1879813552
 10
7103.9673578741
 20
5080.143993482
 10
7103.9687835646
 20
5079.7929829453
 10
7103.9701802696
 20
5079.0957086872
 10
7103.9715291008
 20
5078.0616001459
 10
7103.9728118177
 20
5076.7046418654
 10
7103.9740110737
 20
5075.0431843786
 10
7103.975110651
 20
5073.0996960479
 10
7103.9760956796
 20
5070.9004592188
 10
7103.9769528388
 20
5068.4752147968
 10
7103.9776705369
 20
5065.8567600522
 10
7103.9782390683
 20
5063.0805050934
 10
7103.9786507446
 20
5060.1839940063
 10
7103.9788999985
 20
5057.2063971342
 10
7103.9789834594
 20
5054.187981367
 10
7103.9788999985
 20
5051.1695655997
 10
7103.9786507446
 20
5048.1919687277
 10
7103.9782390683
 20
5045.2954576405
 10
7103.9776705369
 20
5042.5192026818
 10
7103.9769528388
 20
5039.9007479371
 10
7103.9760956796
 20
5037.4755035151
 10
7103.975110651
 20
5035.2762666861
 10
7103.9740110737
 20
5033.3327783553
 10
7103.9728118177
 20
5031.6713208686
 10
7103.9715291008
 20
5030.3143625881
 10
7103.9701802696
 20
5029.2802540468
 10
7103.9687835646
 20
5028.5829797887
 10
7103.9673578741
 20
5028.2319692519
 10
7103.9666404685
 20
5028.1879813743
  0
LINE
  5
15C
330
1F
100
AcDbEntity
  8
0
  6
Continuous
 62
     8
370
    25
100
AcDbLine
 10
7137.9666363445
 20
5089.687981367
 30
0.0
 11
7183.9666337527
 21
5089.687981367
 31
0.0
  0
LWPOLYLINE
  5
15D
330
1F
100
AcDbEntity
  8
0
  6
Continuous
 62
     8
370
    25
100
AcDbPolyline
 90
       35
 70
   128
 43
0.0
 10
6978.9666542622
 20
5094.187981367
 10
6978.9677790713
 20
5094.1177494782
 10
6978.9695492273
 20
5093.7204318647
 10
6978.9712939423
 20
5092.9757016549
 10
6978.9729978836
 20
5091.8901035645
 10
6978.974646077
 20
5090.4731778686
 10
6978.976224038
 20
5088.7373765612
 10
6978.9777178994
 20
5086.6979539265
 10
6978.9791145333
 20
5084.3728324841
 10
6978.9804016658
 20
5081.7824454847
 10
6978.9815679856
 20
5078.9495573424
 10
6978.9826032431
 20
5075.8990635802
 10
6978.9834983404
 20
5072.6577720468
 10
6978.9842454113
 20
5069.2541673288
 10
6978.9848378905
 20
5065.7181604268
 10
6978.9852705714
 20
5062.0808258967
 10
6978.9855396515
 20
5058.3741287651
 10
6978.9856427661
 20
5054.6306436196
 10
6978.9855790091
 20
5050.8832683424
 10
6978.9853489407
 20
5047.164935002
 10
6978.9849545828
 20
5043.5083204455
 10
6978.984399401
 20
5039.9455591333
 10
6978.9836882743
 20
5036.5079607398
 10
6978.9828274521
 20
5033.2257350032
 10
6978.9818244993
 20
5030.1277262414
 10
6978.9806882299
 20
5027.2411598668
 10
6978.9794286295
 20
5024.5914031284
 10
6978.9780567675
 20
5022.2017421837
 10
6978.9765846999
 20
5020.0931774591
 10
6978.9750253632
 20
5018.2842390972
 10
6978.973392461
 20
5016.7908241133
 10
6978.9717003433
 20
5015.626056692
 10
6978.9699638804
 20
5014.8001728513
 10
6978.9681983325
 20
5014.320430488
 10
6978.9666542622
 20
5014.187981367
  0
SPLINE
  5
15E
330
1F
100
AcDbEntity
  8
0
  6
Continuous
 62
     8
370
    25
100
AcDbSpline
210
0.0
220
0.0
230
1.0
 70
    24
 71
     3
 72
    33
 73
    29
 74
     0
 42
0.000000001
 43
0.00000001
 40
0.0
 40
0.0
 40
0.0
 40
0.0
 40
0.0332258622826944
 40
0.0664880229683098
 40
0.0997147302977004
 40
0.1337450050905451
 40
0.1678797116469803
 40
0.2020562925513352
 40
0.2362032920194956
 40
0.270243908926822
 40
0.3058852458835841
 40
0.3416224796161627
 40
0.3774011253614581
 40
0.413155337266461
 40
0.4488109528258072
 40
0.4885576479645755
 40
0.528406290239181
 40
0.5682991641273625
 40
0.6081662866879172
 40
0.6479285217420198
 40
0.6933285992167526
 40
0.7388503450787492
 40
0.7844210714667564
 40
0.8299576618628758
 40
0.875370223276715
 40
0.9262886645605438
 40
0.9773650751814864
 40
1.0
 40
1.0
 40
1.0
 40
1.0
 10
7192.966633752656
 20
5309.417858267301
 30
0.0
 10
7197.248129608012
 20
5309.417858267301
 30
0.0
 10
7205.815798743207
 20
5309.417858267301
 30
0.0
 10
7218.609035298323
 20
5309.417858267301
 30
0.0
 10
7231.395257456621
 20
5309.417858267301
 30
0.0
 10
7244.121126285972
 20
5309.417858267301
 30
0.0
 10
7256.738350521889
 20
5309.417858267301
 30
0.0
 10
7269.096265627722
 20
5309.417858267301
 30
0.0
 10
7281.124821432638
 20
5309.417858267301
 30
0.0
 10
7292.956915121951
 20
5309.417858267301
 30
0.0
 10
7304.538746635488
 20
5309.417858267301
 30
0.0
 10
7315.836423347577
 20
5309.417858267301
 30
0.0
 10
7326.6438375344
 20
5309.417858267301
 30
0.0
 10
7336.916590390823
 20
5309.417858267301
 30
0.0
 10
7346.99612873352
 20
5309.417858267301
 30
0.0
 10
7356.788152271313
 20
5309.417858267301
 30
0.0
 10
7366.213298186899
 20
5309.417858267301
 30
0.0
 10
7374.910747290489
 20
5309.417858267301
 30
0.0
 10
7382.855786870368
 20
5309.417858267301
 30
0.0
 10
7390.372979733738
 20
5309.417858267301
 30
0.0
 10
7397.323679680437
 20
5309.417858267301
 30
0.0
 10
7403.582440902438
 20
5309.417858267301
 30
0.0
 10
7408.849978705413
 20
5309.417858267301
 30
0.0
 10
7413.110507789682
 20
5309.417858267301
 30
0.0
 10
7416.51153491313
 20
5309.417858267301
 30
0.0
 10
7418.809248857906
 20
5309.417858267301
 30
0.0
 10
7419.946168553196
 20
5309.417858267301
 30
0.0
 10
7419.830610494489
 20
5309.417858267301
 30
0.0
 10
7419.795125477762
 20
5309.417858267301
 30
0.0
  0
SPLINE
  5
15F
330
1F
100
AcDbEntity
  8
0
  6
Continuous
 62
     8
370
    25
100
AcDbSpline
210
0.0
220
0.0
230
1.0
 70
    24
 71
     3
 72
    32
 73
    28
 74
     0
 42
0.000000001
 43
0.00000001
 40
0.0
 40
0.0
 40
0.0
 40
0.0
 40
0.0338236718579369
 40
0.0778331312913993
 40
0.1219093360766459
 40
0.1659802348835873
 40
0.2099774302107659
 40
0.2538388201391384
 40
0.2979216837332175
 40
0.3421856040907114
 40
0.3865258525902716
 40
0.4308467370852644
 40
0.4750658813493825
 40
0.5191187765854326
 40
0.5590698445099397
 40
0.599155853997329
 40
0.6392739400050265
 40
0.6793338292535643
 40
0.7192629170003879
 40
0.7593862194409043
 40
0.7996848308462232
 40
0.8400310449824128
 40
0.8803065046468004
 40
0.9204103055205767
 40
0.9354737212248687
 40
0.9677369311640057
 40
1.0
 40
1.0
 40
1.0
 40
1.0
 10
6966.050436634671
 20
5309.417858267301
 30
0.0
 10
6966.071484788772
 20
5309.417858267301
 30
0.0
 10
6966.119919617151
 20
5309.417858267301
 30
0.0
 10
6967.3101629797
 20
5309.417858267301
 30
0.0
 10
6969.421709597752
 20
5309.417858267301
 30
0.0
 10
6972.496354575541
 20
5309.417858267301
 30
0.0
 10
6976.492275517472
 20
5309.417858267301
 30
0.0
 10
6981.429807743088
 20
5309.417858267301
 30
0.0
 10
6987.338015627531
 20
5309.417858267301
 30
0.0
 10
6994.217920511885
 20
5309.417858267301
 30
0.0
 10
7002.046354181728
 20
5309.417858267301
 30
0.0
 10
7010.799655128263
 20
5309.417858267301
 30
0.0
 10
7020.453742389249
 20
5309.417858267301
 30
0.0
 10
7030.674377265444
 20
5309.417858267301
 30
0.0
 10
7041.378406359386
 20
5309.417858267301
 30
0.0
 10
7052.45476352575
 20
5309.417858267301
 30
0.0
 10
7064.220221775512
 20
5309.417858267301
 30
0.0
 10
7076.617941637766
 20
5309.417858267301
 30
0.0
 10
7089.62966440771
 20
5309.417858267301
 30
0.0
 10
7103.253151805924
 20
5309.417858267301
 30
0.0
 10
7117.43647438361
 20
5309.417858267301
 30
0.0
 10
7132.07552877301
 20
5309.417858267301
 30
0.0
 10
7147.054166911963
 20
5309.417858267301
 30
0.0
 10
7159.125628531384
 20
5309.417858267301
 30
0.0
 10
7170.277809482777
 20
5309.417858267301
 30
0.0
 10
7180.493428615864
 20
5309.417858267301
 30
0.0
 10
7188.808904768361
 20
5309.417858267301
 30
0.0
 10
7192.966633752656
 20
5309.417858267301
 30
0.0
  0
SPLINE
  5
160
330
1F
100
AcDbEntity
  8
0
  6
Continuous
 62
     8
370
    25
100
AcDbSpline
210
0.0
220
0.0
230
1.0
 70
    24
 71
     3
 72
    38
 73
    34
 74
     0
 42
0.000000001
 43
0.00000001
 40
0.0
 40
0.0
 40
0.0
 40
0.0
 40
0.0400010397748113
 40
0.0800024905558482
 40
0.1017571656639337
 40
0.1235119274885321
 40
0.1625343316553448
 40
0.2021062782915256
 40
0.241679772767757
 40
0.2817993549707936
 40
0.3063761946853
 40
0.3309532919963398
 40
0.3643069501065319
 40
0.3976877479624797
 40
0.431044305422665
 40
0.4565052623684854
 40
0.4819664691878533
 40
0.5144406079633892
 40
0.546915328180359
 40
0.579696779320506
 40
0.6124787373616503
 40
0.6461785353678458
 40
0.6798787923690922
 40
0.713871138159725
 40
0.7478638535659016
 40
0.7802503389165069
 40
0.8126370503060186
 40
0.8452547669377002
 40
0.8778726429721303
 40
0.9112005480828853
 40
0.9445285510059228
 40
0.9780944597890128
 40
0.9999999999999999
 40
0.9999999999999999
 40
0.9999999999999999
 40
0.9999999999999999
 10
7192.966633752656
 20
5311.417858267302
 30
0.0
 10
7187.810821904587
 20
5311.417858267302
 30
0.0
 10
7177.499145233056
 20
5311.417858267302
 30
0.0
 10
7164.464429237272
 20
5311.417858267302
 30
0.0
 10
7153.873580370644
 20
5311.417858267302
 30
0.0
 10
7143.49691773032
 20
5311.417858267302
 30
0.0
 10
7131.060598842297
 20
5311.417858267302
 30
0.0
 10
7116.776313029844
 20
5311.417858267302
 30
0.0
 10
7102.794690948746
 20
5311.417858267302
 30
0.0
 10
7091.011931491954
 20
5311.417858267302
 30
0.0
 10
7081.266761309446
 20
5311.417858267302
 30
0.0
 10
7072.511342203071
 20
5311.417858267302
 30
0.0
 10
7063.165809477749
 20
5311.417858267302
 30
0.0
 10
7053.377446929454
 20
5311.417858267302
 30
0.0
 10
7044.797124723134
 20
5311.417858267302
 30
0.0
 10
7037.319870255742
 20
5311.417858267302
 30
0.0
 10
7030.238227066743
 20
5311.417858267302
 30
0.0
 10
7022.959877897245
 20
5311.417858267302
 30
0.0
 10
7015.583174864359
 20
5311.417858267302
 30
0.0
 10
7008.685705349683
 20
5311.417858267302
 30
0.0
 10
7002.217007116016
 20
5311.417858267302
 30
0.0
 10
6996.220586449191
 20
5311.417858267302
 30
0.0
 10
6990.69944341385
 20
5311.417858267302
 30
0.0
 10
6985.71732780225
 20
5311.417858267302
 30
0.0
 10
6981.349866348225
 20
5311.417858267302
 30
0.0
 10
6977.582810166684
 20
5311.417858267302
 30
0.0
 10
6974.378113043389
 20
5311.417858267302
 30
0.0
 10
6971.679288812451
 20
5311.417858267302
 30
0.0
 10
6969.475705295001
 20
5311.417858267302
 30
0.0
 10
6967.780448752341
 20
5311.417858267302
 30
0.0
 10
6966.630464729101
 20
5311.417858267302
 30
0.0
 10
6966.020114308657
 20
5311.417858267302
 30
0.0
 10
6966.026200066148
 20
5311.417858267302
 30
0.0
 10
6966.02860331697
 20
5311.417858267302
 30
0.0
  0
SPLINE
  5
161
330
1F
100
AcDbEntity
  8
0
  6
Continuous
 62
     8
370
    25
100
AcDbSpline
210
0.0
220
0.0
230
1.0
 70
    24
 71
     3
 72
    38
 73
    34
 74
     0
 42
0.000000001
 43
0.00000001
 40
0.0
 40
0.0
 40
0.0
 40
0.0
 40
0.0298986315286396
 40
0.0620474387894027
 40
0.0944091693626471
 40
0.1267708072987342
 40
0.154732415150878
 40
0.1826939369023482
 40
0.2204771720891817
 40
0.2582830328185733
 40
0.2960646558555726
 40
0.3248153555455278
 40
0.3535658357539628
 40
0.4025325227766417
 40
0.4355978593066631
 40
0.4686819249774772
 40
0.5017452556769866
 40
0.5268926116752888
 40
0.5520397378865123
 40
0.5959446538677493
 40
0.6404477474439455
 40
0.6849481564560279
 40
0.707526445048757
 40
0.7301045502597573
 40
0.772009555444801
 40
0.8145741752049426
 40
0.8571368199789716
 40
0.8787753811317752
 40
0.9004138440590009
 40
0.9251606321575788
 40
0.9500565198474753
 40
0.9749523307175288
 40
1.0
 40
1.0
 40
1.0
 40
1.0
 10
7419.950319012291
 20
5311.417858267302
 30
0.0
 10
7419.915204426552
 20
5311.417858267302
 30
0.0
 10
7419.842332525803
 20
5311.417858267302
 30
0.0
 10
7419.108152599956
 20
5311.417858267302
 30
0.0
 10
7417.892159090504
 20
5311.417858267302
 30
0.0
 10
7416.233052326247
 20
5311.417858267302
 30
0.0
 10
7414.224544461832
 20
5311.417858267302
 30
0.0
 10
7411.668634245624
 20
5311.417858267302
 30
0.0
 10
7408.292253213721
 20
5311.417858267302
 30
0.0
 10
7403.903666077569
 20
5311.417858267302
 30
0.0
 10
7399.228197056216
 20
5311.417858267302
 30
0.0
 10
7394.446308146405
 20
5311.417858267302
 30
0.0
 10
7388.611186428829
 20
5311.417858267302
 30
0.0
 10
7381.846967495456
 20
5311.417858267302
 30
0.0
 10
7374.067561446492
 20
5311.417858267302
 30
0.0
 10
7366.845764576357
 20
5311.417858267302
 30
0.0
 10
7359.730169352834
 20
5311.417858267302
 30
0.0
 10
7352.860012800799
 20
5311.417858267302
 30
0.0
 10
7344.738439843296
 20
5311.417858267302
 30
0.0
 10
7334.362177174628
 20
5311.417858267302
 30
0.0
 10
7321.375391345843
 20
5311.417858267302
 30
0.0
 10
7309.798575193642
 20
5311.417858267302
 30
0.0
 10
7300.118263777152
 20
5311.417858267302
 30
0.0
 10
7290.481445989066
 20
5311.417858267302
 30
0.0
 10
7278.233444747964
 20
5311.417858267302
 30
0.0
 10
7263.153914233008
 20
5311.417858267302
 30
0.0
 10
7250.087795951838
 20
5311.417858267302
 30
0.0
 10
7239.395996858158
 20
5311.417858267302
 30
0.0
 10
7230.835936746228
 20
5311.417858267302
 30
0.0
 10
7221.784292775872
 20
5311.417858267302
 30
0.0
 10
7212.249763996264
 20
5311.417858267302
 30
0.0
 10
7202.629871942922
 20
5311.417858267302
 30
0.0
 10
7196.194235892523
 20
5311.417858267302
 30
0.0
 10
7192.966633752656
 20
5311.417858267302
 30
0.0
  0
SPLINE
  5
162
330
1F
100
AcDbEntity
  8
0
  6
Continuous
 62
     8
370
    25
100
AcDbSpline
210
0.0
220
0.0
230
1.0
 70
     8
 71
     3
 72
    10
 73
     6
 74
     0
 42
0.000000001
 43
0.00000001
 40
0.0
 40
0.0
 40
0.0
 40
0.0
 40
0.3637258519477833
 40
0.7605690439328867
 40
1.0
 40
1.0
 40
1.0
 40
1.0
 10
7185.248106832953
 20
5152.717823792149
 30
0.0
 10
7185.780251072119
 20
5152.698927849091
 30
0.0
 10
7186.892991431515
 20
5152.6594154821
 30
0.0
 10
7187.608615680745
 20
5152.592120368697
 30
0.0
 10
7187.69679814006
 20
5152.542506845515
 30
0.0
 10
7187.729981337283
 20
5152.523837199223
 30
0.0
  0
ARC
  5
163
330
1F
100
AcDbEntity
  8
0
  6
Continuous
 62
     7
370
    25
100
AcDbCircle
 10
6274.0050172556
 20
4454.2836426165
 30
0.0
 40
8.552641741590591
100
AcDbArc
 50
275.0626111306
 51
307.5338480608
  0
ARC
  5
164
330
1F
100
AcDbEntity
  8
0
  6
Continuous
 62
     7
370
    25
100
AcDbCircle
 10
6274.0050172556
 20
4454.2836426165
 30
0.0
 40
8.552641741589584
100
AcDbArc
 50
232.4819240194
 51
265.0008069322
  0
LINE
  5
165
330
1F
100
AcDbEntity
  8
0
  6
Continuous
 62
     7
370
    25
100
AcDbLine
 10
6313.9264763936
 20
4548.8566896985
 30
0.0
 11
6313.9252267197
 21
4551.489013516
 31
0.0
  0
LINE
  5
166
330
1F
100
AcDbEntity
  8
0
  6
Continuous
 62
     7
370
    25
100
AcDbLine
 10
6233.9252357348
 20
4551.4510341825
 30
0.0
 11
6233.9265040377
 21
4548.7794702586
 31
0.0
  0
LINE
  5
167
330
1F
100
AcDbEntity
  8
0
  6
Continuous
 62
     7
370
    25
100
AcDbLine
 10
6293.9252289734
 20
4551.4795186826
 30
0.0
 11
6293.9204815568
 21
4561.4795175557
 31
0.0
  0
LINE
  5
168
330
1F
100
AcDbEntity
  8
0
  6
Continuous
 62
     7
370
    25
100
AcDbLine
 10
6253.9204860643
 20
4561.460527889
 30
0.0
 11
6253.925233481
 21
4551.4605290159
 31
0.0
  0
LINE
  5
169
330
1F
100
AcDbEntity
  8
0
  6
Continuous
 62
     7
370
    25
100
AcDbLine
 10
6279.7559423381
 20
4447.5628801765
 30
0.0
 11
6279.7559061978
 21
4447.8254564602
 31
0.0
  0
LINE
  5
16A
330
1F
100
AcDbEntity
  8
0
  6
Continuous
 62
     7
370
    25
100
AcDbLine
 10
6268.2559386627
 20
4447.5887921971
 30
0.0
 11
6268.2559424471
 21
4447.5612973468
 31
0.0
  0
ARC
  5
16B
330
1F
100
AcDbEntity
  8
0
  6
Continuous
 62
     7
370
    25
100
AcDbCircle
 10
6274.0187553361
 20
4354.4700460491
 30
0.0
 40
15.00000000000034
100
AcDbArc
 50
281.2003103159
 51
320.1262122086
  0
ARC
  5
16C
330
1F
100
AcDbEntity
  8
0
  6
Continuous
 62
     7
370
    25
100
AcDbCircle
 10
6274.0187553361
 20
4354.4700460491
 30
0.0
 40
15.00000000000016
100
AcDbArc
 50
341.2003103159
 51
20.1262122086
  0
ARC
  5
16D
330
1F
100
AcDbEntity
  8
0
  6
Continuous
 62
     7
370
    25
100
AcDbCircle
 10
6274.0187553361
 20
4354.4700460491
 30
0.0
 40
15.00000000000038
100
AcDbArc
 50
41.2003103159
 51
80.1262122086
  0
ARC
  5
16E
330
1F
100
AcDbEntity
  8
0
  6
Continuous
 62
     7
370
    25
100
AcDbCircle
 10
6274.0187553361
 20
4354.4700460491
 30
0.0
 40
15.0000000000006
100
AcDbArc
 50
101.2003103159
 51
140.1262122086
  0
ARC
  5
16F
330
1F
100
AcDbEntity
  8
0
  6
Continuous
 62
     7
370
    25
100
AcDbCircle
 10
6274.0187553361
 20
4354.4700460491
 30
0.0
 40
15.00000000000016
100
AcDbArc
 50
161.2003103159
 51
200.1262122086
  0
ARC
  5
170
330
1F
100
AcDbEntity
  8
0
  6
Continuous
 62
     7
370
    25
100
AcDbCircle
 10
6274.0187553361
 20
4354.4700460491
 30
0.0
 40
15.00000000000038
100
AcDbArc
 50
221.2003103159
 51
260.1262122086
  0
LWPOLYLINE
  5
171
330
1F
100
AcDbEntity
  8
0
  6
Continuous
 62
     7
370
    25
100
AcDbPolyline
 90
        7
 70
   128
 43
0.0
 10
6279.2155432203
 20
4447.5014527097
 10
6279.2087944527
 20
4447.6310411516
 10
6278.8543860466
 20
4447.7567145102
 10
6278.1752203824
 20
4447.8694156279
 10
6277.216789166
 20
4447.9615955866
 10
6276.0432897992
 20
4448.027080011
 10
6274.7333253253
 20
4448.0614826397
  0
ARC
  5
172
330
1F
100
AcDbEntity
  8
0
  6
Continuous
 62
     7
370
    25
100
AcDbCircle
 10
6351.0415385815
 20
4447.7902169858
 30
0.0
 40
76.3086954114647
100
AcDbArc
 50
179.7963219035
 51
181.5212729688
  0
LWPOLYLINE
  5
173
330
1F
100
AcDbEntity
  8
0
  6
Continuous
 62
     7
370
    25
100
AcDbPolyline
 90
        7
 70
   128
 43
0.0
 10
6273.2333395396
 20
4448.060652507
 10
6271.9265645234
 20
4448.0248017038
 10
6270.7590698707
 20
4447.95802171
 10
6269.8090564185
 20
4447.8647855665
 10
6269.140157732
 20
4447.7513383934
 10
6268.797177817
 20
4447.6252790813
 10
6268.7963584539
 20
4447.5000186405
  0
LWPOLYLINE
  5
174
330
1F
100
AcDbEntity
  8
0
  6
Continuous
 62
     7
370
    25
100
AcDbPolyline
 90
        9
 70
   128
 43
0.0
 10
6273.2333395396
 20
4448.060652507
 10
6273.2385426548
 20
4447.194125955
 10
6273.2441879793
 20
4446.5178021976
 10
6273.2501240474
 20
4446.049827211
 10
6273.2561915924
 20
4445.8027569092
 10
6273.2622278203
 20
4445.7832202649
 10
6273.2680707772
 20
4445.9917414525
 10
6273.2735636948
 20
4446.4227257838
 10
6273.2785591963
 20
4447.0646098155
  0
LINE
  5
175
330
1F
100
AcDbEntity
  8
0
  6
Continuous
 62
     7
370
    25
100
AcDbLine
 10
6273.2344826401
 20
4448.0354737018
 30
0.0
 11
6273.277455301
 21
4447.0889250561
 31
0.0
  0
ARC
  5
176
330
1F
100
AcDbEntity
  8
0
  6
Continuous
 62
     7
370
    25
100
AcDbCircle
 10
6274.0134632368
 20
4393.6170283004
 30
0.0
 40
54.44921312317097
100
AcDbArc
 50
89.2424819613
 51
90.8209361013
  0
ARC
  5
177
330
1F
100
AcDbEntity
  8
0
  6
Continuous
 62
     7
370
    25
100
AcDbCircle
 10
6273.9984212848
 20
4501.5090641531
 30
0.0
 40
54.44921312142901
100
AcDbArc
 50
269.2424819614
 51
270.8209361014
  0
ARC
  5
178
330
1F
100
AcDbEntity
  8
0
  6
Continuous
 62
     7
370
    25
100
AcDbCircle
 10
6274.0187553361
 20
4354.4700460491
 30
0.0
 40
5.25000000000072
100
AcDbArc
 50
278.3327619291
 51
81.9063405256
  0
LINE
  5
179
330
1F
100
AcDbEntity
  8
0
  6
Continuous
 62
     7
370
    25
100
AcDbLine
 10
6274.7795957926
 20
4349.2754698586
 30
0.0
 11
6274.7579116143
 21
4359.6677520813
 31
0.0
  0
ARC
  5
17A
330
1F
100
AcDbEntity
  8
0
  6
Continuous
 62
     7
370
    25
100
AcDbCircle
 10
6274.0187553361
 20
4354.4700460491
 30
0.0
 40
5.250000000000002
100
AcDbArc
 50
98.3327619291
 51
261.9063405256
  0
LINE
  5
17B
330
1F
100
AcDbEntity
  8
0
  6
Continuous
 62
     7
370
    25
100
AcDbLine
 10
6273.2579148796
 20
4359.6646222397
 30
0.0
 11
6273.2795990579
 21
4349.272340017
 31
0.0
  0
ARC
  5
17C
330
1F
100
AcDbEntity
  8
0
  6
Continuous
 62
     7
370
    25
100
AcDbCircle
 10
6274.0187553361
 20
4354.4700460491
 30
0.0
 40
5.25000000000072
100
AcDbArc
 50
81.9063405256
 51
98.3327619291
  0
ARC
  5
17D
330
1F
100
AcDbEntity
  8
0
  6
Continuous
 62
     7
370
    25
100
AcDbCircle
 10
6274.0187553361
 20
4354.4700460491
 30
0.0
 40
5.250000000000002
100
AcDbArc
 50
261.9063405256
 51
278.3327619291
  0
CIRCLE
  5
17E
330
1F
100
AcDbEntity
  8
0
  6
Continuous
 62
     7
370
    25
100
AcDbCircle
 10
6274.0187553361
 20
4354.4700460491
 30
0.0
 40
24.96512544439432
  0
CIRCLE
  5
17F
330
1F
100
AcDbEntity
  8
0
  6
Continuous
 62
     7
370
    25
100
AcDbCircle
 10
6274.0187553361
 20
4354.4700460491
 30
0.0
 40
34.99999999999958
  0
CIRCLE
  5
180
330
1F
100
AcDbEntity
  8
0
  6
Continuous
 62
     7
370
    25
100
AcDbCircle
 10
6274.0187553361
 20
4354.4700460491
 30
0.0
 40
35.16921944985918
  0
CIRCLE
  5
181
330
1F
100
AcDbEntity
  8
0
  6
Continuous
 62
     7
370
    25
100
AcDbCircle
 10
6274.0187553361
 20
4354.4700460491
 30
0.0
 40
22.00000000000044
  0
CIRCLE
  5
182
330
1F
100
AcDbEntity
  8
0
  6
Continuous
 62
     7
370
    25
100
AcDbCircle
 10
6274.0187553361
 20
4354.4700460491
 30
0.0
 40
20.50000000000115
  0
CIRCLE
  5
183
330
1F
100
AcDbEntity
  8
0
  6
Continuous
 62
     7
370
    25
100
AcDbCircle
 10
6274.0187553361
 20
4354.4700460491
 30
0.0
 40
19.48700763430486
  0
CIRCLE
  5
184
330
1F
100
AcDbEntity
  8
0
  6
Continuous
 62
     7
370
    25
100
AcDbCircle
 10
6274.0187553361
 20
4354.4700460491
 30
0.0
 40
5.700000000000354
  0
CIRCLE
  5
185
330
1F
100
AcDbEntity
  8
0
  6
Continuous
 62
     7
370
    25
100
AcDbCircle
 10
6267.1595738834
 20
4342.2654719148
 30
0.0
 40
5.000000000001341
  0
CIRCLE
  5
186
330
1F
100
AcDbEntity
  8
0
  6
Continuous
 62
     7
370
    25
100
AcDbCircle
 10
6260.0196933671
 20
4354.3079843692
 30
0.0
 40
4.999999999999657
  0
CIRCLE
  5
187
330
1F
100
AcDbEntity
  8
0
  6
Continuous
 62
     7
370
    25
100
AcDbCircle
 10
6266.8788748198
 20
4366.5125585035
 30
0.0
 40
5.000000000000449
  0
CIRCLE
  5
188
330
1F
100
AcDbEntity
  8
0
  6
Continuous
 62
     7
370
    25
100
AcDbCircle
 10
6280.8779367888
 20
4366.6746201834
 30
0.0
 40
5.000000000000102
  0
CIRCLE
  5
189
330
1F
100
AcDbEntity
  8
0
  6
Continuous
 62
     7
370
    25
100
AcDbCircle
 10
6288.0178173051
 20
4354.6321077291
 30
0.0
 40
5.000000000000548
  0
CIRCLE
  5
18A
330
1F
100
AcDbEntity
  8
0
  6
Continuous
 62
     7
370
    25
100
AcDbCircle
 10
6281.1586358524
 20
4342.4275335948
 30
0.0
 40
5.000000000000548
  0
LINE
  5
18B
330
1F
100
AcDbEntity
  8
0
  6
Continuous
 62
     7
370
    25
100
AcDbLine
 10
6313.9252267197
 20
4551.489013516
 30
0.0
 11
6233.9252357348
 21
4551.4510341825
 31
0.0
  0
LINE
  5
18C
330
1F
100
AcDbEntity
  8
0
  6
Continuous
 62
     7
370
    25
100
AcDbLine
 10
6289.8265730258
 20
4516.4775689355
 30
0.0
 11
6258.2038165048
 21
4516.4625562936
 31
0.0
  0
LINE
  5
18D
330
1F
100
AcDbEntity
  8
0
  6
Continuous
 62
     7
370
    25
100
AcDbLine
 10
6293.9204815568
 20
4561.4795175557
 30
0.0
 11
6253.9204860643
 21
4561.460527889
 31
0.0
  0
ARC
  5
18E
330
1F
100
AcDbEntity
  8
0
  6
Continuous
 62
     7
370
    25
100
AcDbCircle
 10
6279.6363285054
 20
4411.117909021
 30
0.0
 40
37.49692589502947
100
AcDbArc
 50
81.9549476551
 51
85.2500624332
  0
ARC
  5
18F
330
1F
100
AcDbEntity
  8
0
  6
Continuous
 62
     7
370
    25
100
AcDbCircle
 10
6274.2776874686
 20
4352.9207952443
 30
0.0
 40
95.93931593384148
100
AcDbArc
 50
84.9388544513
 51
97.1101992852
  0
ARC
  5
190
330
1F
100
AcDbEntity
  8
0
  6
Continuous
 62
     7
370
    25
100
AcDbCircle
 10
6263.2753468162
 20
4442.7121344385
 30
0.0
 40
5.48015332090849
100
AcDbArc
 50
99.1647766167
 51
111.1236232572
  0
LWPOLYLINE
  5
191
330
1F
100
AcDbEntity
  8
0
  6
Continuous
 62
     7
370
    25
100
AcDbPolyline
 90
       11
 70
   128
 43
0.0
 10
6261.300401284
 20
4447.8240490079
 10
6261.0196849622
 20
4447.6175943293
 10
6261.1014257372
 20
4447.4095904447
 10
6261.5433421571
 20
4447.2058429132
 10
6262.3330999721
 20
4447.0120384956
 10
6263.4486563936
 20
4446.833586432
 10
6264.8588753271
 20
4446.6754674661
 10
6266.5243964052
 20
4446.5420948278
 10
6268.3987335686
 20
4446.4371910568
 10
6270.4295725296
 20
4446.3636841034
 10
6270.8002437882
 20
4446.3541339443
  0
LINE
  5
192
330
1F
100
AcDbEntity
  8
0
  6
Continuous
 62
     7
370
    25
100
AcDbLine
 10
6273.2724956435
 20
4446.3179785894
 30
0.0
 11
6274.7312402778
 21
4446.3181336332
 31
0.0
  0
LWPOLYLINE
  5
193
330
1F
100
AcDbEntity
  8
0
  6
Continuous
 62
     7
370
    25
100
AcDbPolyline
 90
        3
 70
   128
 43
0.0
 10
6277.211973395
 20
4446.3550164379
 10
6277.5802866457
 20
4446.3646037303
 10
6277.9760848866
 20
4446.3761620758
  0
LWPOLYLINE
  5
194
330
1F
100
AcDbEntity
  8
0
  6
Continuous
 62
     7
370
    25
100
AcDbPolyline
 90
       12
 70
   128
 43
0.0
 10
6277.9760848866
 20
4446.3761620758
 10
6279.9815422836
 20
4446.4563429458
 10
6281.8202157862
 20
4446.5673860885
 10
6283.4407865087
 20
4446.7061921988
 10
6284.7980229929
 20
4446.8688870841
 10
6285.8540436554
 20
4447.0509297969
 10
6286.5793740932
 20
4447.2472393756
 10
6286.9537697388
 20
4447.452336659
 10
6286.9667809027
 20
4447.6604972136
 10
6286.6180444327
 20
4447.8659111076
 10
6285.9172938496
 20
4448.0628450706
 10
6284.884087677
 20
4448.2458025144
  0
LWPOLYLINE
  5
195
330
1F
100
AcDbEntity
  8
0
  6
Continuous
 62
     7
370
    25
100
AcDbPolyline
 90
       44
 70
   128
 43
0.0
 10
6277.3194944434
 20
4446.2454617475
 10
6279.777861974
 20
4446.3066902763
 10
6282.1238845887
 20
4446.4001034104
 10
6284.3118996259
 20
4446.5238829695
 10
6286.2993198618
 20
4446.6756197252
 10
6288.0474624222
 20
4446.8523602941
 10
6289.5223017005
 20
4447.0506646223
 10
6290.6951316278
 20
4447.2666729413
 10
6291.5431244037
 20
4447.4961808952
 10
6292.0497748133
 20
4447.7347213725
 10
6292.2052214828
 20
4447.9776514542
 10
6292.0064388195
 20
4448.2202427826
 10
6291.4572959019
 20
4448.4577735935
 10
6290.5684811721
 20
4448.6856206198
 10
6289.357294398
 20
4448.8993490783
 10
6287.8473099524
 20
4449.0947989877
 10
6286.0679179649
 20
4449.2681661378
 10
6284.0537522765
 20
4449.4160761342
 10
6281.8440163313
 20
4449.5356500771
 10
6279.4817201259
 20
4449.6245605958
 10
6277.0128430689
 20
4449.681077148
 10
6274.4854390439
 20
4449.7040997034
 10
6271.9487010953
 20
4449.6931801542
 10
6269.4520039418
 20
4449.648531037
 10
6267.0439429537
 20
4449.571021396
 10
6264.7713882988
 20
4449.4621598682
 10
6262.6785726685
 20
4449.3240653194
 10
6260.8062303386
 20
4449.159425603
 10
6259.1908043227
 20
4448.9714452437
 10
6257.8637370507
 20
4448.7637830655
 10
6256.8508583775
 20
4448.5404809764
 10
6256.1718828345
 20
4448.3058852976
 10
6255.8400259081
 20
4448.064562167
 10
6255.8617468161
 20
4447.821208665
 10
6256.2366227856
 20
4447.5805613907
 10
6256.9573572823
 20
4447.3473042695
 10
6258.009922029
 20
4447.1259773859
 10
6259.3738300502
 20
4446.9208886161
 10
6261.0225344278
 20
4446.7360297795
 10
6262.9239450064
 20
4446.5749989432
 10
6265.0410529918
 20
4446.4409303893
 10
6267.3326512854
 20
4446.3364336096
 10
6269.7541365329
 20
4446.2635425151
 10
6271.104757388
 20
4446.237763332
  0
LINE
  5
196
330
1F
100
AcDbEntity
  8
0
  6
Continuous
 62
     7
370
    25
100
AcDbLine
 10
6273.2713447117
 20
4446.2171756434
 30
0.0
 11
6274.7476280786
 21
4446.2174049704
 31
0.0
  0
LINE
  5
197
330
1F
100
AcDbEntity
  8
0
  6
Continuous
 62
     7
370
    25
100
AcDbLine
 10
6276.9074918406
 20
4446.2385620051
 30
0.0
 11
6277.3194944434
 21
4446.2454617475
 31
0.0
  0
LINE
  5
198
330
1F
100
AcDbEntity
  8
0
  6
Continuous
 62
     7
370
    25
100
AcDbLine
 10
6277.9760391071
 20
4446.7087719103
 30
0.0
 11
6277.9760848866
 21
4446.3761620758
 31
0.0
  0
LINE
  5
199
330
1F
100
AcDbEntity
  8
0
  6
Continuous
 62
     7
370
    25
100
AcDbLine
 10
6269.3650729137
 20
4447.8868353377
 30
0.0
 11
6262.402499223
 21
4448.1223301373
 31
0.0
  0
ARC
  5
19A
330
1F
100
AcDbEntity
  8
0
  6
Continuous
 62
     7
370
    25
100
AcDbCircle
 10
6274.0965991456
 20
4400.3001935615
 30
0.0
 40
47.82129040518071
100
AcDbArc
 50
86.3708138292
 51
95.6782399073
  0
LINE
  5
19B
330
1F
100
AcDbEntity
  8
0
  6
Continuous
 62
     7
370
    25
100
AcDbLine
 10
6282.7413410072
 20
4448.4860552012
 30
0.0
 11
6277.1236342708
 21
4448.02558381
 31
0.0
  0
LINE
  5
19C
330
1F
100
AcDbEntity
  8
0
  6
Continuous
 62
     7
370
    25
100
AcDbLine
 10
6279.2663809406
 20
4447.7853311232
 30
0.0
 11
6284.884087677
 21
4448.2458025144
 31
0.0
  0
LWPOLYLINE
  5
19D
330
1F
100
AcDbEntity
  8
0
  6
Continuous
 62
     7
370
    25
100
AcDbPolyline
 90
        7
 70
   128
 43
0.0
 10
6278.9057957043
 20
4447.2743593894
 10
6278.968394551
 20
4447.2843741257
 10
6279.4258005233
 20
4447.3787731572
 10
6279.6901033295
 20
4447.4797035079
 10
6279.7518861718
 20
4447.5835691482
 10
6279.6089478002
 20
4447.6866694677
 10
6279.2663809406
 20
4447.7853311232
  0
LINE
  5
19E
330
1F
100
AcDbEntity
  8
0
  6
Continuous
 62
     7
370
    25
100
AcDbLine
 10
6277.9760848866
 20
4446.3761620758
 30
0.0
 11
6277.6482876365
 21
4446.5457965536
 31
0.0
  0
LINE
  5
19F
330
1F
100
AcDbEntity
  8
0
  6
Continuous
 62
     7
370
    25
100
AcDbLine
 10
6273.3863733234
 20
4447.0140998241
 30
0.0
 11
6274.7312402778
 21
4446.3181336332
 31
0.0
  0
LWPOLYLINE
  5
1A0
330
1F
100
AcDbEntity
  8
0
  6
Continuous
 62
     7
370
    25
100
AcDbPolyline
 90
        5
 70
   128
 43
0.0
 10
6268.2629749747
 20
4447.5885542083
 10
6268.3118593809
 20
4447.4846405493
 10
6268.5636172629
 20
4447.3834862789
 10
6269.0092787836
 20
4447.2886954047
 10
6269.1061684712
 20
4447.2730105945
  0
LINE
  5
1A1
330
1F
100
AcDbEntity
  8
0
  6
Continuous
 62
     7
370
    25
100
AcDbLine
 10
6261.300401284
 20
4447.8240490079
 30
0.0
 11
6268.2629749747
 21
4447.5885542083
 31
0.0
  0
LWPOLYLINE
  5
1A2
330
1F
100
AcDbEntity
  8
0
  6
Continuous
 62
     7
370
    25
100
AcDbPolyline
 90
        3
 70
   128
 43
0.0
 10
6274.73929708
 20
4447.0881427008
 10
6273.5560791118
 20
4447.0847422842
 10
6273.2774596661
 20
4447.0878743429
  0
LWPOLYLINE
  5
1A3
330
1F
100
AcDbEntity
  8
0
  6
Continuous
 62
     7
370
    25
100
AcDbPolyline
 90
        3
 70
   128
 43
0.0
 10
6273.2344826401
 20
4448.0354737018
 10
6273.7735436825
 20
4448.0407679011
 10
6274.7334559902
 20
4448.0363167182
  0
LINE
  5
1A4
330
1F
100
AcDbEntity
  8
0
  6
Continuous
 62
     7
370
    25
100
AcDbLine
 10
6277.1235315156
 20
4448.7721489844
 30
0.0
 11
6277.1236342708
 21
4448.02558381
 31
0.0
  0
LINE
  5
1A5
330
1F
100
AcDbEntity
  8
0
  6
Continuous
 62
     7
370
    25
100
AcDbLine
 10
6269.3649575034
 20
4448.7253456085
 30
0.0
 11
6269.3650729137
 21
4447.8868353377
 31
0.0
  0
SPLINE
  5
1A6
330
1F
100
AcDbEntity
  8
0
  6
Continuous
 62
     7
370
    25
100
AcDbSpline
210
0.0
220
0.0
230
1.0
 70
     8
 71
     3
 72
   124
 73
   120
 74
     0
 42
0.000000001
 43
0.00000001
 40
0.0
 40
0.0
 40
0.0
 40
0.0
 40
0.0312500000000001
 40
0.0312500000000001
 40
0.0625000000000002
 40
0.0625000000000002
 40
0.0937500000000003
 40
0.0937500000000003
 40
0.1093750000000003
 40
0.1093750000000003
 40
0.1250000000000003
 40
0.1250000000000003
 40
0.1406250000000003
 40
0.1406250000000003
 40
0.1562500000000003
 40
0.1562500000000003
 40
0.1875000000000004
 40
0.1875000000000004
 40
0.2031250000000004
 40
0.2031250000000004
 40
0.2187500000000005
 40
0.2187500000000005
 40
0.2343750000000005
 40
0.2343750000000005
 40
0.2500000000000005
 40
0.2500000000000005
 40
0.2656250000000006
 40
0.2656250000000006
 40
0.2812500000000006
 40
0.2812500000000006
 40
0.3125000000000007
 40
0.3125000000000007
 40
0.3437500000000008
 40
0.3437500000000008
 40
0.3515625000000008
 40
0.3515625000000008
 40
0.3593750000000008
 40
0.3593750000000008
 40
0.3750000000000007
 40
0.3750000000000007
 40
0.3906250000000006
 40
0.3906250000000006
 40
0.4062500000000004
 40
0.4062500000000004
 40
0.4218750000000003
 40
0.4218750000000003
 40
0.4375000000000002
 40
0.4375000000000002
 40
0.4453125000000001
 40
0.4453125000000001
 40
0.4492187500000001
 40
0.4492187500000001
 40
0.4531250000000001
 40
0.4531250000000001
 40
0.4609375
 40
0.4609375
 40
0.4687499999999999
 40
0.4687499999999999
 40
0.4843749999999999
 40
0.4843749999999999
 40
0.4999999999999998
 40
0.4999999999999998
 40
0.5156249999999998
 40
0.5156249999999998
 40
0.5312499999999998
 40
0.5312499999999998
 40
0.5624999999999997
 40
0.5624999999999997
 40
0.5781249999999996
 40
0.5781249999999996
 40
0.5859374999999996
 40
0.5859374999999996
 40
0.5937499999999996
 40
0.5937499999999996
 40
0.6015624999999997
 40
0.6015624999999997
 40
0.6093749999999997
 40
0.6093749999999997
 40
0.6171874999999997
 40
0.6171874999999997
 40
0.6249999999999997
 40
0.6249999999999997
 40
0.6562499999999997
 40
0.6562499999999997
 40
0.6718749999999997
 40
0.6718749999999997
 40
0.6796874999999998
 40
0.6796874999999998
 40
0.6874999999999998
 40
0.6874999999999998
 40
0.7031249999999997
 40
0.7031249999999997
 40
0.7187499999999997
 40
0.7187499999999997
 40
0.7343749999999996
 40
0.7343749999999996
 40
0.7499999999999994
 40
0.7499999999999994
 40
0.7812499999999996
 40
0.7812499999999996
 40
0.7968749999999997
 40
0.7968749999999997
 40
0.8124999999999997
 40
0.8124999999999997
 40
0.8749999999999998
 40
0.8749999999999998
 40
0.9062499999999999
 40
0.9062499999999999
 40
0.9218749999999999
 40
0.9218749999999999
 40
0.9374999999999999
 40
0.9374999999999999
 40
0.9687499999999999
 40
0.9687499999999999
 40
0.9765624999999999
 40
0.9765624999999999
 40
0.984375
 40
0.984375
 40
1.0
 40
1.0
 40
1.0
 40
1.0
 10
6274.0187553361
 20
4124.914868672652
 30
0.0
 10
6280.448492775102
 20
4124.914200376035
 30
0.0
 10
6286.856384651138
 20
4125.114991519112
 30
0.0
 10
6299.628069559112
 20
4125.924452261022
 30
0.0
 10
6305.992358561324
 20
4126.528524205341
 30
0.0
 10
6318.676842111744
 20
4128.145345277647
 30
0.0
 10
6324.997347973313
 20
4129.155207148543
 30
0.0
 10
6334.444232554024
 20
4130.984374026976
 30
0.0
 10
6337.589707574751
 20
4131.646962891835
 30
0.0
 10
6343.858166044603
 20
4133.076400032955
 30
0.0
 10
6346.979573466282
 20
4133.842831534949
 30
0.0
 10
6353.195921569832
 20
4135.482459977341
 30
0.0
 10
6356.291359920925
 20
4136.355847817625
 30
0.0
 10
6362.431373821018
 20
4138.207313492968
 30
0.0
 10
6365.478974481901
 20
4139.185694912113
 30
0.0
 10
6374.554726250123
 20
4142.278401815602
 30
0.0
 10
6380.515080873477
 20
4144.55203351193
 30
0.0
 10
6389.319691177204
 20
4148.281951232957
 30
0.0
 10
6392.231890688444
 20
4149.578544183758
 30
0.0
 10
6398.006337651979
 20
4152.289152901242
 30
0.0
 10
6400.8674660509
 20
4153.705784180352
 30
0.0
 10
6406.538943897824
 20
4156.658316672404
 30
0.0
 10
6409.349890717013
 20
4158.192828064166
 30
0.0
 10
6414.920564410541
 20
4161.382213318484
 30
0.0
 10
6417.685350696188
 20
4163.041459114511
 30
0.0
 10
6423.113577860177
 20
4166.470380899558
 30
0.0
 10
6425.781066092778
 20
4168.24040473161
 30
0.0
 10
6431.023137255446
 20
4171.891115440794
 30
0.0
 10
6433.598630298795
 20
4173.770725240313
 30
0.0
 10
6441.180306815665
 20
4179.582079144719
 30
0.0
 10
6446.035380549555
 20
4183.693889546304
 30
0.0
 10
6455.32513718285
 20
4192.418384277816
 30
0.0
 10
6459.758692903234
 20
4197.032431394147
 30
0.0
 10
6464.99156788091
 20
4203.168180429044
 30
0.0
 10
6466.021507769289
 20
4204.41128792583
 30
0.0
 10
6468.039711775713
 20
4206.924455613101
 30
0.0
 10
6469.029248446161
 20
4208.195266601324
 30
0.0
 10
6471.93992168004
 20
4212.049828073804
 30
0.0
 10
6473.801824714902
 20
4214.676652794328
 30
0.0
 10
6477.364445961608
 20
4220.047438214962
 30
0.0
 10
6479.069569485874
 20
4222.795527964118
 30
0.0
 10
6482.273991662648
 20
4228.370801860408
 30
0.0
 10
6483.776621810786
 20
4231.202195983563
 30
0.0
 10
6486.58806981482
 20
4236.950120869849
 30
0.0
 10
6487.894890743076
 20
4239.867524119667
 30
0.0
 10
6490.309234044367
 20
4245.789830068004
 30
0.0
 10
6491.415851225194
 20
4248.795152427534
 30
0.0
 10
6492.934693133144
 20
4253.365141515877
 30
0.0
 10
6493.420094143145
 20
4254.897648680202
 30
0.0
 10
6494.096613254394
 20
4257.219238257834
 30
0.0
 10
6494.313655435282
 20
4257.998014891329
 30
0.0
 10
6494.727158567795
 20
4259.557371812693
 30
0.0
 10
6494.924057216488
 20
4260.337969033008
 30
0.0
 10
6495.488880959791
 20
4262.682182548561
 30
0.0
 10
6495.83134562325
 20
4264.24818360964
 30
0.0
 10
6496.457550490236
 20
4267.385683527721
 30
0.0
 10
6496.741192439953
 20
4268.957190928061
 30
0.0
 10
6497.500551277873
 20
4273.680220069728
 30
0.0
 10
6497.877066697713
 20
4276.840924991833
 30
0.0
 10
6498.367953837847
 20
4283.186469317449
 30
0.0
 10
6498.484773525463
 20
4286.371095744033
 30
0.0
 10
6498.474968498177
 20
4292.762697524241
 30
0.0
 10
6498.346725583217
 20
4295.970100979362
 30
0.0
 10
6497.830493960696
 20
4302.407692729758
 30
0.0
 10
6497.445755370794
 20
4305.594321508411
 30
0.0
 10
6495.929543752625
 20
4315.062291387516
 30
0.0
 10
6494.43941763275
 20
4321.25255835286
 30
0.0
 10
6491.481224972201
 20
4330.35459658855
 30
0.0
 10
6490.37740807334
 20
4333.35874807471
 30
0.0
 10
6488.542692821037
 20
4337.819622119251
 30
0.0
 10
6487.8998573112
 20
4339.302614509003
 30
0.0
 10
6486.562633672704
 20
4342.231565923341
 30
0.0
 10
6485.868747529344
 20
4343.677951564699
 30
0.0
 10
6484.431732381836
 20
4346.535468349642
 30
0.0
 10
6483.688440256827
 20
4347.946493869089
 30
0.0
 10
6482.150278475396
 20
4350.731615793487
 30
0.0
 10
6481.35627014337
 20
4352.10613578193
 30
0.0
 10
6479.713464951526
 20
4354.815935586847
 30
0.0
 10
6478.864337674768
 20
4356.150957368333
 30
0.0
 10
6477.12940007231
 20
4358.794747391715
 30
0.0
 10
6476.238429283613
 20
4360.099826362981
 30
0.0
 10
6471.69659181506
 20
4366.56294432126
 30
0.0
 10
6467.746718834168
 20
4371.507187940465
 30
0.0
 10
6461.396716488763
 20
4378.620935731361
 30
0.0
 10
6459.211153660966
 20
4380.943113986592
 30
0.0
 10
6455.835062489955
 20
4384.357047296176
 30
0.0
 10
6454.692499229886
 20
4385.483739685878
 30
0.0
 10
6452.384242792044
 20
4387.704277313679
 30
0.0
 10
6451.217420305176
 20
4388.799299698112
 30
0.0
 10
6447.680230038268
 20
4392.040258644293
 30
0.0
 10
6445.273657315359
 20
4394.14270245379
 30
0.0
 10
6440.369502273876
 20
4398.238296705397
 30
0.0
 10
6437.869847079511
 20
4400.228958556742
 30
0.0
 10
6432.775668824998
 20
4404.096340985296
 30
0.0
 10
6430.180038829067
 20
4405.974788492968
 30
0.0
 10
6424.907260944478
 20
4409.620351799715
 30
0.0
 10
6422.236239620091
 20
4411.384293842868
 30
0.0
 10
6414.122397678224
 20
4416.504925521046
 30
0.0
 10
6408.577738865214
 20
4419.688657948035
 30
0.0
 10
6400.06527647284
 20
4424.132566294931
 30
0.0
 10
6397.191400423822
 20
4425.56110694615
 30
0.0
 10
6391.411553841026
 20
4428.29833049793
 30
0.0
 10
6388.503551347971
 20
4429.607714300125
 30
0.0
 10
6373.876303515991
 20
4435.868933804775
 30
0.0
 10
6361.899498948508
 20
4439.977296423512
 30
0.0
 10
6343.554693580046
 20
4444.897341062783
 30
0.0
 10
6337.377127528698
 20
4446.332317667488
 30
0.0
 10
6328.018498623921
 20
4448.182637357244
 30
0.0
 10
6324.883900097686
 20
4448.750111800459
 30
0.0
 10
6318.58460777335
 20
4449.786491228273
 30
0.0
 10
6315.416183832876
 20
4450.255354346578
 30
0.0
 10
6305.904325384842
 20
4451.504420878713
 30
0.0
 10
6299.547832368605
 20
4452.131858661091
 30
0.0
 10
6291.584545547483
 20
4452.678355673283
 30
0.0
 10
6289.99075839294
 20
4452.772486522652
 30
0.0
 10
6286.8015860323
 20
4452.939221194429
 30
0.0
 10
6285.206245382165
 20
4453.012416874325
 30
0.0
 10
6280.417084811615
 20
4453.189952473616
 30
0.0
 10
6277.22037925125
 20
4453.255614251473
 30
0.0
 10
6274.0187553361
 20
4453.255766393672
 30
0.0
  0
SPLINE
  5
1A7
330
1F
100
AcDbEntity
  8
0
  6
Continuous
 62
     7
370
    25
100
AcDbSpline
210
0.0
220
0.0
230
1.0
 70
     8
 71
     3
 72
   132
 73
   128
 74
     0
 42
0.000000001
 43
0.00000001
 40
0.0
 40
0.0
 40
0.0
 40
0.0
 40
0.015625
 40
0.015625
 40
0.0234375
 40
0.0234375
 40
0.03125
 40
0.03125
 40
0.0625000000000001
 40
0.0625000000000001
 40
0.0781250000000002
 40
0.0781250000000002
 40
0.0937500000000002
 40
0.0937500000000002
 40
0.1250000000000004
 40
0.1250000000000004
 40
0.1562500000000006
 40
0.1562500000000006
 40
0.1875000000000007
 40
0.1875000000000007
 40
0.2031250000000008
 40
0.2031250000000008
 40
0.2187500000000009
 40
0.2187500000000009
 40
0.2500000000000011
 40
0.2500000000000011
 40
0.2656250000000011
 40
0.2656250000000011
 40
0.2812500000000012
 40
0.2812500000000012
 40
0.2968750000000013
 40
0.2968750000000013
 40
0.3125000000000013
 40
0.3125000000000013
 40
0.3203125000000014
 40
0.3203125000000014
 40
0.3281250000000014
 40
0.3281250000000014
 40
0.3437500000000015
 40
0.3437500000000015
 40
0.3750000000000015
 40
0.3750000000000015
 40
0.3828125000000015
 40
0.3828125000000015
 40
0.3906250000000015
 40
0.3906250000000015
 40
0.3984375000000014
 40
0.3984375000000014
 40
0.4062500000000014
 40
0.4062500000000014
 40
0.4140625000000014
 40
0.4140625000000014
 40
0.4179687500000014
 40
0.4179687500000014
 40
0.4218750000000014
 40
0.4218750000000014
 40
0.4375000000000015
 40
0.4375000000000015
 40
0.4687500000000018
 40
0.4687500000000018
 40
0.4843750000000019
 40
0.4843750000000019
 40
0.500000000000002
 40
0.500000000000002
 40
0.5156250000000021
 40
0.5156250000000021
 40
0.5234375000000022
 40
0.5234375000000022
 40
0.5312500000000022
 40
0.5312500000000022
 40
0.5390625000000022
 40
0.5390625000000022
 40
0.5468750000000022
 40
0.5468750000000022
 40
0.5507812500000022
 40
0.5507812500000022
 40
0.5546875000000022
 40
0.5546875000000022
 40
0.5625000000000023
 40
0.5625000000000023
 40
0.5781250000000023
 40
0.5781250000000023
 40
0.5937500000000023
 40
0.5937500000000023
 40
0.6093750000000023
 40
0.6093750000000023
 40
0.6250000000000023
 40
0.6250000000000023
 40
0.6406250000000023
 40
0.6406250000000023
 40
0.6484375000000023
 40
0.6484375000000023
 40
0.6562500000000023
 40
0.6562500000000023
 40
0.6875000000000021
 40
0.6875000000000021
 40
0.7187500000000018
 40
0.7187500000000018
 40
0.7343750000000016
 40
0.7343750000000016
 40
0.7500000000000013
 40
0.7500000000000013
 40
0.7578125000000013
 40
0.7578125000000013
 40
0.7656250000000013
 40
0.7656250000000013
 40
0.7812500000000012
 40
0.7812500000000012
 40
0.7968750000000011
 40
0.7968750000000011
 40
0.8125000000000011
 40
0.8125000000000011
 40
0.8437500000000009
 40
0.8437500000000009
 40
0.8750000000000007
 40
0.8750000000000007
 40
0.8906250000000006
 40
0.8906250000000006
 40
0.8984375000000006
 40
0.8984375000000006
 40
0.9062500000000006
 40
0.9062500000000006
 40
0.9375000000000003
 40
0.9375000000000003
 40
0.9687500000000002
 40
0.9687500000000002
 40
1.0
 40
1.0
 40
1.0
 40
1.0
 10
6274.0187553361
 20
4453.255766393672
 30
0.0
 10
6270.814968270416
 20
4453.255614148679
 30
0.0
 10
6267.616106145038
 20
4453.189864560531
 30
0.0
 10
6262.823717886629
 20
4453.012100869997
 30
0.0
 10
6261.22730337811
 20
4452.938801876028
 30
0.0
 10
6258.035980915456
 20
4452.771891774109
 30
0.0
 10
6256.44112322119
 20
4452.67761302065
 30
0.0
 10
6248.472482082081
 20
4452.130397020707
 30
0.0
 10
6242.11172188448
 20
4451.502164540193
 30
0.0
 10
6232.593499019082
 20
4450.251417292503
 30
0.0
 10
6229.423008698515
 20
4449.781922931073
 30
0.0
 10
6223.119664844669
 20
4448.7441733884
 30
0.0
 10
6219.983059117515
 20
4448.175953114976
 30
0.0
 10
6210.618475811116
 20
4446.323176060804
 30
0.0
 10
6204.437033015035
 20
4444.886257277461
 30
0.0
 10
6192.199577549642
 20
4441.601792602779
 30
0.0
 10
6186.144040245666
 20
4439.752728868525
 30
0.0
 10
6174.166051919457
 20
4435.618852653491
 30
0.0
 10
6168.242542892878
 20
4433.337521061254
 30
0.0
 10
6159.46111304103
 20
4429.575472204396
 30
0.0
 10
6156.551446517283
 20
4428.264218673717
 30
0.0
 10
6150.768329819191
 20
4425.523065472928
 30
0.0
 10
6147.89302840543
 20
4424.092556662476
 30
0.0
 10
6139.376651719402
 20
4419.642528449071
 30
0.0
 10
6133.829607456065
 20
4416.454335181065
 30
0.0
 10
6125.712472361647
 20
4411.326525798629
 30
0.0
 10
6123.040395865923
 20
4409.560118604521
 30
0.0
 10
6117.765665488813
 20
4405.909356780532
 30
0.0
 10
6115.169512568365
 20
4404.02844334012
 30
0.0
 10
6110.074175168802
 20
4400.155706128194
 30
0.0
 10
6107.574052897925
 20
4398.162232028299
 30
0.0
 10
6102.668988388291
 20
4394.060983784279
 30
0.0
 10
6100.261982106425
 20
4391.955687048244
 30
0.0
 10
6096.724387451492
 20
4388.710153584888
 30
0.0
 10
6095.557460899447
 20
4387.613569474133
 30
0.0
 10
6093.249051657478
 20
4385.38984198338
 30
0.0
 10
6092.10650324923
 20
4384.261579687549
 30
0.0
 10
6088.730957597716
 20
4380.84333278493
 30
0.0
 10
6086.545792672467
 20
4378.518254356096
 30
0.0
 10
6080.197773060324
 20
4371.395232439755
 30
0.0
 10
6076.250263208259
 20
4366.444049712046
 30
0.0
 10
6071.711347060937
 20
4359.972294674087
 30
0.0
 10
6070.821206630594
 20
4358.665305259006
 30
0.0
 10
6069.087903534083
 20
4356.017720294038
 30
0.0
 10
6068.239606058927
 20
4354.680790298869
 30
0.0
 10
6066.599374663928
 20
4351.966519259204
 30
0.0
 10
6065.806580225642
 20
4350.589805834024
 30
0.0
 10
6064.270899393649
 20
4347.800266030981
 30
0.0
 10
6063.528879510477
 20
4346.387026040615
 30
0.0
 10
6062.094384243101
 20
4343.525079698458
 30
0.0
 10
6061.401768950047
 20
4342.076471233444
 30
0.0
 10
6060.400920179136
 20
4339.876307847094
 30
0.0
 10
6060.073381869421
 20
4339.137448835916
 30
0.0
 10
6059.433672045618
 20
4337.656510215545
 30
0.0
 10
6059.121332477785
 20
4336.91413705824
 30
0.0
 10
6057.596799779457
 20
4333.192854661943
 30
0.0
 10
6056.496600325744
 20
4330.185567348575
 30
0.0
 10
6053.5499589614
 20
4321.073943245656
 30
0.0
 10
6052.068285360649
 20
4314.8770931028
 30
0.0
 10
6050.565720215712
 20
4305.399001092384
 30
0.0
 10
6050.185728246549
 20
4302.207393551986
 30
0.0
 10
6049.679975104234
 20
4295.765895236083
 30
0.0
 10
6049.557081853146
 20
4292.557099394527
 30
0.0
 10
6049.557906292963
 20
4286.162156019358
 30
0.0
 10
6049.680260409568
 20
4282.975879619925
 30
0.0
 10
6050.057284133347
 20
4278.214299358147
 30
0.0
 10
6050.215155512913
 20
4276.630073408735
 30
0.0
 10
6050.597162227999
 20
4273.467737054831
 30
0.0
 10
6050.82215469235
 20
4271.889702263707
 30
0.0
 10
6051.334408969255
 20
4268.739415765082
 30
0.0
 10
6051.620940882515
 20
4267.167098445593
 30
0.0
 10
6052.253154132744
 20
4264.028001274491
 30
0.0
 10
6052.598738711948
 20
4262.461213037255
 30
0.0
 10
6053.168888728127
 20
4260.115878380966
 30
0.0
 10
6053.367674013487
 20
4259.334917558353
 30
0.0
 10
6053.785251760484
 20
4257.774860926316
 30
0.0
 10
6054.004251796507
 20
4256.996406189015
 30
0.0
 10
6054.68613302647
 20
4254.675418023089
 30
0.0
 10
6055.174276308996
 20
4253.142941850531
 30
0.0
 10
6056.700891190116
 20
4248.572829987965
 30
0.0
 10
6057.813236798785
 20
4245.56766659515
 30
0.0
 10
6060.239096741026
 20
4239.645699605778
 30
0.0
 10
6061.551910746316
 20
4236.728569026499
 30
0.0
 10
6064.37535416067
 20
4230.981195238021
 30
0.0
 10
6065.883969004794
 20
4228.150075740041
 30
0.0
 10
6069.101222649486
 20
4222.575713190949
 30
0.0
 10
6070.812151431812
 20
4219.828525172158
 30
0.0
 10
6074.385794891316
 20
4214.460372316343
 30
0.0
 10
6076.25341486903
 20
4211.835014214506
 30
0.0
 10
6079.172505559265
 20
4207.982539141827
 30
0.0
 10
6080.164862761269
 20
4206.712434430922
 30
0.0
 10
6082.188841937018
 20
4204.20077652224
 30
0.0
 10
6083.221842585728
 20
4202.958185324917
 30
0.0
 10
6088.466913412489
 20
4196.828606146881
 30
0.0
 10
6092.910248775634
 20
4192.219526027851
 30
0.0
 10
6102.218785587185
 20
4183.504034089767
 30
0.0
 10
6107.083510428547
 20
4179.397037359042
 30
0.0
 10
6114.67939101973
 20
4173.592577214144
 30
0.0
 10
6117.259507443746
 20
4171.715132534822
 30
0.0
 10
6122.510977748218
 20
4168.068933067295
 30
0.0
 10
6125.183286961663
 20
4166.301309716772
 30
0.0
 10
6129.261740335081
 20
4163.733281622239
 30
0.0
 10
6130.634369393312
 20
4162.890553511541
 30
0.0
 10
6133.396304575377
 20
4161.236355561224
 30
0.0
 10
6134.783710949819
 20
4160.425697471481
 30
0.0
 10
6138.963984429761
 20
4158.039818656894
 30
0.0
 10
6141.774693930434
 20
4156.510152286517
 30
0.0
 10
6147.442365860432
 20
4153.568879020934
 30
0.0
 10
6150.299965957322
 20
4152.158883869954
 30
0.0
 10
6156.063387220278
 20
4149.462030567845
 30
0.0
 10
6158.968186116578
 20
4148.172573898079
 30
0.0
 10
6167.745400821988
 20
4144.464631338389
 30
0.0
 10
6173.680670973838
 20
4142.206656046744
 30
0.0
 10
6185.716951445484
 20
4138.113847702436
 30
0.0
 10
6191.817885397327
 20
4136.278793322309
 30
0.0
 10
6201.09015907243
 20
4133.834940392888
 30
0.0
 10
6204.200870650713
 20
4133.071287253021
 30
0.0
 10
6208.896325701657
 20
4132.000859214033
 30
0.0
 10
6210.467131242409
 20
4131.656430260528
 30
0.0
 10
6213.609653344046
 20
4130.994416761599
 30
0.0
 10
6215.182336645462
 20
4130.676610233306
 30
0.0
 10
6223.052811771668
 20
4129.153079790272
 30
0.0
 10
6229.371762545484
 20
4128.143725404865
 30
0.0
 10
6242.05311396802
 20
4126.527715444609
 30
0.0
 10
6248.415825829441
 20
4125.923946227528
 30
0.0
 10
6261.184334718492
 20
4125.11488960473
 30
0.0
 10
6267.590627788555
 20
4124.914200543365
 30
0.0
 10
6274.0187553361
 20
4124.914868672652
 30
0.0
  0
SPLINE
  5
1A8
330
1F
100
AcDbEntity
  8
0
  6
Continuous
 62
     7
370
    25
100
AcDbSpline
210
0.0
220
0.0
230
1.0
 70
    11
 71
     3
 72
   216
 73
   212
 74
     0
 42
0.000000001
 43
0.00000001
 40
0.0
 40
0.0
 40
0.0
 40
0.0
 40
0.015625
 40
0.015625
 40
0.0234374999999999
 40
0.0234374999999999
 40
0.0273437499999999
 40
0.0273437499999999
 40
0.0312499999999999
 40
0.0312499999999999
 40
0.0468749999999998
 40
0.0468749999999998
 40
0.0624999999999997
 40
0.0624999999999997
 40
0.0664062499999996
 40
0.0664062499999996
 40
0.0703124999999996
 40
0.0703124999999996
 40
0.0781249999999996
 40
0.0781249999999996
 40
0.0937499999999995
 40
0.0937499999999995
 40
0.1093749999999994
 40
0.1093749999999994
 40
0.1132812499999994
 40
0.1132812499999994
 40
0.1171874999999994
 40
0.1171874999999994
 40
0.1249999999999993
 40
0.1249999999999993
 40
0.1406249999999993
 40
0.1406249999999993
 40
0.1562499999999993
 40
0.1562499999999993
 40
0.1601562499999993
 40
0.1601562499999993
 40
0.1640624999999994
 40
0.1640624999999994
 40
0.1718749999999994
 40
0.1718749999999994
 40
0.1874999999999994
 40
0.1874999999999994
 40
0.2031249999999993
 40
0.2031249999999993
 40
0.2109374999999993
 40
0.2109374999999993
 40
0.2148437499999993
 40
0.2148437499999993
 40
0.2187499999999993
 40
0.2187499999999993
 40
0.2343749999999993
 40
0.2343749999999993
 40
0.2499999999999992
 40
0.2656249999999992
 40
0.2656249999999992
 40
0.2812499999999992
 40
0.2812499999999992
 40
0.2851562499999991
 40
0.2851562499999991
 40
0.2890624999999991
 40
0.2890624999999991
 40
0.2968749999999991
 40
0.2968749999999991
 40
0.312499999999999
 40
0.312499999999999
 40
0.3281249999999989
 40
0.3281249999999989
 40
0.3437499999999988
 40
0.3437499999999988
 40
0.3476562499999988
 40
0.3476562499999988
 40
0.3515624999999988
 40
0.3515624999999988
 40
0.3593749999999988
 40
0.3593749999999988
 40
0.3749999999999989
 40
0.3749999999999989
 40
0.3906249999999989
 40
0.3906249999999989
 40
0.4062499999999989
 40
0.4062499999999989
 40
0.4101562499999989
 40
0.4101562499999989
 40
0.4140624999999989
 40
0.4140624999999989
 40
0.4218749999999989
 40
0.4218749999999989
 40
0.4374999999999989
 40
0.4374999999999989
 40
0.4531249999999989
 40
0.4531249999999989
 40
0.4570312499999989
 40
0.4570312499999989
 40
0.4609374999999989
 40
0.4609374999999989
 40
0.4687499999999989
 40
0.4687499999999989
 40
0.4843749999999991
 40
0.4843749999999991
 40
0.4999999999999991
 40
0.4999999999999991
 40
0.5039062499999991
 40
0.5039062499999991
 40
0.5078124999999991
 40
0.5078124999999991
 40
0.5156249999999991
 40
0.5156249999999991
 40
0.5312499999999991
 40
0.5312499999999991
 40
0.5390624999999991
 40
0.5390624999999991
 40
0.5429687499999991
 40
0.5429687499999991
 40
0.5468749999999991
 40
0.5468749999999991
 40
0.5624999999999992
 40
0.5624999999999992
 40
0.5781249999999992
 40
0.5781249999999992
 40
0.5859374999999993
 40
0.5859374999999993
 40
0.5898437499999993
 40
0.5898437499999993
 40
0.5937499999999993
 40
0.5937499999999993
 40
0.6093749999999994
 40
0.6093749999999994
 40
0.6249999999999994
 40
0.6249999999999994
 40
0.6328124999999994
 40
0.6328124999999994
 40
0.6367187499999994
 40
0.6367187499999994
 40
0.6406249999999994
 40
0.6406249999999994
 40
0.6562499999999997
 40
0.6562499999999997
 40
0.6718749999999998
 40
0.6718749999999998
 40
0.6796874999999999
 40
0.6796874999999999
 40
0.6835937499999999
 40
0.6835937499999999
 40
0.6874999999999999
 40
0.6874999999999999
 40
0.703125
 40
0.703125
 40
0.71875
 40
0.71875
 40
0.7343750000000001
 40
0.7343750000000001
 40
0.7421875000000002
 40
0.7421875000000002
 40
0.7460937500000002
 40
0.7460937500000002
 40
0.7500000000000001
 40
0.7500000000000001
 40
0.7656250000000002
 40
0.7656250000000002
 40
0.7812500000000003
 40
0.7812500000000003
 40
0.7968750000000003
 40
0.7968750000000003
 40
0.8125000000000004
 40
0.8125000000000004
 40
0.8164062500000004
 40
0.8164062500000004
 40
0.8203125000000004
 40
0.8203125000000004
 40
0.8281250000000006
 40
0.8281250000000006
 40
0.8437500000000006
 40
0.8437500000000006
 40
0.8593750000000007
 40
0.8593750000000007
 40
0.8750000000000008
 40
0.8750000000000008
 40
0.8789062500000008
 40
0.8789062500000008
 40
0.8828125000000008
 40
0.8828125000000008
 40
0.8906250000000007
 40
0.8906250000000007
 40
0.9062500000000007
 40
0.9062500000000007
 40
0.9218750000000007
 40
0.9218750000000007
 40
0.9296875000000007
 40
0.9296875000000007
 40
0.9335937500000006
 40
0.9335937500000006
 40
0.9375000000000006
 40
0.9375000000000006
 40
0.9531250000000004
 40
0.9531250000000004
 40
0.9687500000000003
 40
0.9687500000000003
 40
0.9765625000000003
 40
0.9765625000000003
 40
0.9804687500000002
 40
0.9804687500000002
 40
0.9843750000000002
 40
0.9843750000000002
 40
0.9921875000000001
 40
0.9921875000000001
 40
0.9960937500000001
 40
0.9960937500000001
 40
0.9980468750000001
 40
0.9990234375000001
 40
0.9990234375000001
 40
1.0
 40
1.0
 40
1.0
 40
1.0
 10
6013.5187553361
 20
4322.470046049142
 30
0.0
 10
6013.5187553361
 20
4314.469416812305
 30
0.0
 10
6014.02046671779
 20
4306.518396022647
 30
0.0
 10
6015.510823421974
 20
4294.664816338378
 30
0.0
 10
6016.130845758748
 20
4290.725808571799
 30
0.0
 10
6017.246289127138
 20
4284.835629963083
 30
0.0
 10
6017.649034205287
 20
4282.875796057029
 30
0.0
 10
6018.511519647607
 20
4278.983205484027
 30
0.0
 10
6018.971739069097
 20
4277.047795115525
 30
0.0
 10
6021.415240088309
 20
4267.424236420425
 30
0.0
 10
6023.824439795336
 20
4259.896081593468
 30
0.0
 10
6029.510023602988
 20
4245.165524385713
 30
0.0
 10
6032.786553804195
 20
4237.963176886691
 30
0.0
 10
6037.417164852621
 20
4229.161192527205
 30
0.0
 10
6038.370103127462
 20
4227.410868944087
 30
0.0
 10
6040.32970433471
 20
4223.930403112697
 30
0.0
 10
6041.334543070641
 20
4222.203637277304
 30
0.0
 10
6044.411987116371
 20
4217.081575113226
 30
0.0
 10
6046.551740145492
 20
4213.736822979112
 30
0.0
 10
6053.225285444901
 20
4203.904428810946
 30
0.0
 10
6058.012666160637
 20
4197.618095096948
 30
0.0
 10
6068.229561416505
 20
4185.555178344737
 30
0.0
 10
6073.659200048123
 20
4179.778693815148
 30
0.0
 10
6080.839317405568
 20
4172.870121588235
 30
0.0
 10
6082.296606518004
 20
4171.502667885212
 30
0.0
 10
6085.237192354582
 20
4168.811041342634
 30
0.0
 10
6086.721594888907
 20
4167.485730726838
 30
0.0
 10
6091.216258676614
 20
4163.570038780475
 30
0.0
 10
6094.267945204279
 20
4161.039852435028
 30
0.0
 10
6103.582957557727
 20
4153.681720456876
 30
0.0
 10
6110.005837764226
 20
4149.085622983022
 30
0.0
 10
6123.257369514615
 20
4140.483053572804
 30
0.0
 10
6130.086086808074
 20
4136.476677177011
 30
0.0
 10
6138.870744863438
 20
4131.830181442528
 30
0.0
 10
6140.640141799055
 20
4130.918995634369
 30
0.0
 10
6144.203850700338
 20
4129.132827999533
 30
0.0
 10
6145.997037881409
 20
4128.258467693852
 30
0.0
 10
6151.390901307724
 20
4125.700183229083
 30
0.0
 10
6155.013053250019
 20
4124.077373554751
 30
0.0
 10
6165.955825843682
 20
4119.449481583763
 30
0.0
 10
6173.352589764589
 20
4116.684389506279
 30
0.0
 10
6188.341068832471
 20
4111.768657393566
 30
0.0
 10
6195.932808221547
 20
4109.618093765181
 30
0.0
 10
6207.46448927063
 20
4106.846337866944
 30
0.0
 10
6211.33243397505
 20
4105.998223831636
 30
0.0
 10
6217.170501469065
 20
4104.839992611364
 30
0.0
 10
6219.12255142054
 20
4104.472913013199
 30
0.0
 10
6223.038747382477
 20
4103.776878471418
 30
0.0
 10
6225.004542325411
 20
4103.447668635662
 30
0.0
 10
6234.84416222527
 20
4101.900470298337
 30
0.0
 10
6242.715614610528
 20
4100.983129643097
 30
0.0
 10
6258.458050336289
 20
4099.765569560754
 30
0.0
 10
6274.200016917262
 20
4099.165262319437
 30
0.0
 10
6289.941056727486
 20
4099.784305462885
 30
0.0
 10
6305.681627381861
 20
4101.020616000719
 30
0.0
 10
6313.551678181148
 20
4101.947339151093
 30
0.0
 10
6323.388937247176
 20
4103.506285070164
 30
0.0
 10
6325.354339894468
 20
4103.837866519118
 30
0.0
 10
6329.268088097884
 20
4104.538324660673
 30
0.0
 10
6331.218327262073
 20
4104.907495760519
 30
0.0
 10
6337.049241588715
 20
4106.071544957133
 30
0.0
 10
6340.91012401719
 20
4106.922929168884
 30
0.0
 10
6352.414021121164
 20
4109.701905055605
 30
0.0
 10
6359.978452028086
 20
4111.853844891283
 30
0.0
 10
6374.895949151586
 20
4116.76114789516
 30
0.0
 10
6382.249034593022
 20
4119.516456178474
 30
0.0
 10
6396.73660047803
 20
4125.651166372576
 30
0.0
 10
6403.871129604066
 20
4129.030429300195
 30
0.0
 10
6412.644062038358
 20
4133.66912097232
 30
0.0
 10
6414.391368705098
 20
4134.617642405894
 30
0.0
 10
6417.871127461346
 20
4136.557093484561
 30
0.0
 10
6419.60534686517
 20
4137.549116877234
 30
0.0
 10
6424.757775091089
 20
4140.573762801747
 30
0.0
 10
6428.133408199524
 20
4142.658972590805
 30
0.0
 10
6438.082637746658
 20
4149.120606301787
 30
0.0
 10
6444.478985457326
 20
4153.702546368804
 30
0.0
 10
6456.790351094358
 20
4163.424518190646
 30
0.0
 10
6462.705443416588
 20
4168.564463685037
 30
0.0
 10
6474.031628915873
 20
4179.428731005302
 30
0.0
 10
6479.442889591142
 20
4185.152858620541
 30
0.0
 10
6485.866677668042
 20
4192.702574596561
 30
0.0
 10
6487.134369096445
 20
4194.232305674014
 30
0.0
 10
6489.634758089529
 20
4197.332342472551
 30
0.0
 10
6490.868522816615
 20
4198.904049962804
 30
0.0
 10
6494.508879279923
 20
4203.672526820852
 30
0.0
 10
6496.839742914126
 20
4206.902876045157
 30
0.0
 10
6503.543969499206
 20
4216.74814725876
 30
0.0
 10
6507.62976298392
 20
4223.516867684862
 30
0.0
 10
6515.014208858089
 20
4237.475288801799
 30
0.0
 10
6518.313045926286
 20
4244.664890722406
 30
0.0
 10
6521.91514528654
 20
4253.930774364278
 30
0.0
 10
6522.609415936729
 20
4255.797936268128
 30
0.0
 10
6523.944587883351
 20
4259.560803172879
 30
0.0
 10
6524.586486481365
 20
4261.459721025938
 30
0.0
 10
6526.421263147224
 20
4267.171498550957
 30
0.0
 10
6527.523734408242
 20
4270.999018884317
 30
0.0
 10
6530.472069150046
 20
4282.540087164385
 30
0.0
 10
6531.959859871034
 20
4290.311978430551
 30
0.0
 10
6533.971914810395
 20
4306.012755129593
 30
0.0
 10
6534.496320874241
 20
4313.941617450587
 30
0.0
 10
6534.523486229335
 20
4323.955075580823
 30
0.0
 10
6534.497338786651
 20
4325.955679884766
 30
0.0
 10
6534.382815693429
 20
4329.942816090206
 30
0.0
 10
6534.29444652672
 20
4331.930946877796
 30
0.0
 10
6533.937245137781
 20
4337.879242107658
 30
0.0
 10
6533.576387585334
 20
4341.823321400415
 30
0.0
 10
6532.132882538592
 20
4353.592471741425
 30
0.0
 10
6530.690293283765
 20
4361.354628404892
 30
0.0
 10
6527.81609358809
 20
4372.873706974503
 30
0.0
 10
6526.739389662837
 20
4376.692663152673
 30
0.0
 10
6524.945386919753
 20
4382.389819217344
 30
0.0
 10
6524.317545951642
 20
4384.283655482271
 30
0.0
 10
6523.001828247472
 20
4388.060834332815
 30
0.0
 10
6522.314276950329
 20
4389.942882238461
 30
0.0
 10
6518.75037227686
 20
4399.265312163584
 30
0.0
 10
6515.480117554936
 20
4406.492128737415
 30
0.0
 10
6508.154059916633
 20
4420.512575858368
 30
0.0
 10
6504.098042490777
 20
4427.306088115475
 30
0.0
 10
6497.442631327417
 20
4437.181269520779
 30
0.0
 10
6495.128727923549
 20
4440.4203706689
 30
0.0
 10
6491.51524509881
 20
4445.200371157076
 30
0.0
 10
6490.286150990196
 20
4446.781492769286
 30
0.0
 10
6487.794072746482
 20
4449.900770478208
 30
0.0
 10
6486.529558487589
 20
4451.44101476895
 30
0.0
 10
6480.116566244476
 20
4459.047315419255
 30
0.0
 10
6474.697644776205
 20
4464.829469506592
 30
0.0
 10
6463.318750087512
 20
4475.825800152167
 30
0.0
 10
6457.358638053989
 20
4481.039830989187
 30
0.0
 10
6448.025785704768
 20
4488.448650767418
 30
0.0
 10
6444.849258542826
 20
4490.849417532016
 30
0.0
 10
6439.986664093674
 20
4494.347896710406
 30
0.0
 10
6438.349899669037
 20
4495.496560755309
 30
0.0
 10
6435.059099953074
 20
4497.749540540985
 30
0.0
 10
6433.403213121448
 20
4498.855205700369
 30
0.0
 10
6425.072327235728
 20
4504.281360122704
 30
0.0
 10
6418.243388036873
 20
4508.296159432506
 30
0.0
 10
6404.275156969878
 20
4515.709468564546
 30
0.0
 10
6397.135802105508
 20
4519.107853290665
 30
0.0
 10
6386.200450583465
 20
4523.756012110535
 30
0.0
 10
6382.517546391014
 20
4525.230361999305
 30
0.0
 10
6376.936748006147
 20
4527.329805726095
 30
0.0
 10
6375.067070968488
 20
4528.010932386015
 30
0.0
 10
6371.308888308843
 20
4529.335796439593
 30
0.0
 10
6369.418747701155
 20
4529.980067125864
 30
0.0
 10
6359.940578233844
 20
4533.101324147402
 30
0.0
 10
6352.302478198828
 20
4535.26887710124
 30
0.0
 10
6336.920551112667
 20
4538.977106650819
 30
0.0
 10
6329.17670683399
 20
4540.51768110112
 30
0.0
 10
6313.58570615189
 20
4542.986272011525
 30
0.0
 10
6305.738545009708
 20
4543.9142603746
 30
0.0
 10
6293.89017708414
 20
4544.845981776519
 30
0.0
 10
6289.927763414456
 20
4545.079726847551
 30
0.0
 10
6283.964505408108
 20
4545.313909827695
 30
0.0
 10
6281.973478519496
 20
4545.372557325099
 30
0.0
 10
6277.984826736144
 20
4545.450731438566
 30
0.0
 10
6275.988469965751
 20
4545.470187252395
 30
0.0
 10
6266.031459432478
 20
4545.469477370626
 30
0.0
 10
6258.113678735976
 20
4545.156707889881
 30
0.0
 10
6242.371570900333
 20
4543.921138978027
 30
0.0
 10
6234.547247969565
 20
4542.998312076229
 30
0.0
 10
6218.992225890387
 20
4540.541517157026
 30
0.0
 10
6211.261521103816
 20
4539.007585943427
 30
0.0
 10
6195.896270607193
 20
4535.312032946364
 30
0.0
 10
6188.26170766213
 20
4533.150523666636
 30
0.0
 10
6178.781874263726
 20
4530.034979506585
 30
0.0
 10
6176.891212094773
 20
4529.391784563036
 30
0.0
 10
6173.134283423555
 20
4528.06991044004
 30
0.0
 10
6171.266005294648
 20
4527.39057703461
 30
0.0
 10
6165.691640828195
 20
4525.297547978907
 30
0.0
 10
6162.016007837563
 20
4523.828853420787
 30
0.0
 10
6151.110829966933
 20
4519.202940784744
 30
0.0
 10
6144.002731602735
 20
4515.826389647974
 30
0.0
 10
6130.116450557074
 20
4508.477457882075
 30
0.0
 10
6123.338219885837
 20
4504.505163922739
 30
0.0
 10
6110.12685698485
 20
4495.937326367974
 30
0.0
 10
6103.693619223312
 20
4491.341973363524
 30
0.0
 10
6095.884461096451
 20
4485.178086192099
 30
0.0
 10
6094.334282349175
 20
4483.924263597476
 30
0.0
 10
6091.257795661209
 20
4481.373507603521
 30
0.0
 10
6089.731996124905
 20
4480.076877466075
 30
0.0
 10
6085.217519899535
 20
4476.144241955129
 30
0.0
 10
6082.282788790709
 20
4473.458207167231
 30
0.0
 10
6073.704511215766
 20
4465.206277126914
 30
0.0
 10
6068.286274334452
 20
4459.447076262001
 30
0.0
 10
6058.071048326759
 20
4447.395671562581
 30
0.0
 10
6053.273896617981
 20
4441.103607216543
 30
0.0
 10
6046.574954595046
 20
4431.239290777833
 30
0.0
 10
6044.424951872086
 20
4427.879993902992
 30
0.0
 10
6041.330208338574
 20
4422.729290825952
 30
0.0
 10
6040.324062482543
 20
4420.999838602325
 30
0.0
 10
6038.367063317216
 20
4417.523653200012
 30
0.0
 10
6037.415467176488
 20
4415.775687160511
 30
0.0
 10
6032.791683598272
 20
4406.986607739535
 30
0.0
 10
6029.520996487307
 20
4399.798147093778
 30
0.0
 10
6023.845519888592
 20
4385.103448611319
 30
0.0
 10
6021.440599525678
 20
4377.597258804707
 30
0.0
 10
6018.511576737437
 20
4366.08902246769
 30
0.0
 10
6017.648536459407
 20
4362.211363296542
 30
0.0
 10
6016.530020272966
 20
4356.330267778483
 30
0.0
 10
6016.186427759468
 20
4354.358409521163
 30
0.0
 10
6015.559686968193
 20
4350.395661067543
 30
0.0
 10
6015.27762868786
 20
4348.411799547322
 30
0.0
 10
6014.525175749904
 20
4342.45277014079
 30
0.0
 10
6014.148435425631
 20
4338.47016277605
 30
0.0
 10
6013.771028623735
 20
4332.481341393638
 30
0.0
 10
6013.67652716374
 20
4330.482581204345
 30
0.0
 10
6013.581924726695
 20
4327.480695556388
 30
0.0
 10
6013.546412421506
 20
4325.978816274231
 30
0.0
 10
6013.528635931529
 20
4324.475528138792
 30
0.0
 10
6013.520732885564
 20
4323.473022441343
 30
0.0
 10
6013.5187553361
 20
4322.970085376444
 30
0.0
 10
6013.5187553361
 20
4322.470046049142
 30
0.0
  0
SPLINE
  5
1A9
330
1F
100
AcDbEntity
  8
0
  6
Continuous
 62
     7
370
    25
100
AcDbSpline
210
0.0
220
0.0
230
1.0
 70
    11
 71
     3
 72
   213
 73
   209
 74
     0
 42
0.000000001
 43
0.00000001
 40
0.0
 40
0.0
 40
0.0
 40
0.0
 40
0.0156249999999996
 40
0.0156249999999996
 40
0.0234374999999995
 40
0.0234374999999995
 40
0.0273437499999994
 40
0.0273437499999994
 40
0.0312499999999993
 40
0.0312499999999993
 40
0.046874999999999
 40
0.046874999999999
 40
0.0624999999999986
 40
0.0624999999999986
 40
0.0664062499999985
 40
0.0664062499999985
 40
0.0703124999999985
 40
0.0703124999999985
 40
0.0781249999999983
 40
0.0781249999999983
 40
0.0937499999999981
 40
0.0937499999999981
 40
0.1093749999999979
 40
0.1093749999999979
 40
0.1171874999999978
 40
0.1171874999999978
 40
0.1210937499999978
 40
0.1210937499999978
 40
0.1249999999999978
 40
0.1249999999999978
 40
0.1406249999999978
 40
0.1406249999999978
 40
0.1562499999999977
 40
0.1562499999999977
 40
0.1718749999999976
 40
0.1718749999999976
 40
0.1796874999999976
 40
0.1796874999999976
 40
0.1835937499999976
 40
0.1835937499999976
 40
0.1874999999999976
 40
0.1874999999999976
 40
0.2031249999999975
 40
0.2031249999999975
 40
0.2187499999999974
 40
0.2187499999999974
 40
0.2343749999999973
 40
0.2343749999999973
 40
0.2499999999999972
 40
0.2499999999999972
 40
0.2539062499999972
 40
0.2539062499999972
 40
0.2578124999999972
 40
0.2578124999999972
 40
0.2656249999999971
 40
0.2656249999999971
 40
0.2812499999999971
 40
0.2812499999999971
 40
0.2968749999999969
 40
0.2968749999999969
 40
0.3124999999999969
 40
0.3124999999999969
 40
0.3203124999999969
 40
0.3203124999999969
 40
0.3281249999999968
 40
0.3281249999999968
 40
0.3437499999999968
 40
0.3437499999999968
 40
0.3593749999999967
 40
0.3593749999999967
 40
0.3632812499999967
 40
0.3632812499999967
 40
0.3671874999999967
 40
0.3671874999999967
 40
0.3749999999999968
 40
0.3749999999999968
 40
0.3906249999999968
 40
0.3906249999999968
 40
0.4062499999999968
 40
0.4062499999999968
 40
0.4101562499999968
 40
0.4101562499999968
 40
0.4140624999999969
 40
0.4140624999999969
 40
0.4218749999999969
 40
0.4218749999999969
 40
0.4374999999999971
 40
0.4374999999999971
 40
0.4531249999999972
 40
0.4531249999999972
 40
0.4570312499999973
 40
0.4570312499999973
 40
0.4609374999999973
 40
0.4609374999999973
 40
0.4687499999999975
 40
0.4687499999999975
 40
0.4843749999999978
 40
0.4843749999999978
 40
0.4921874999999979
 40
0.4921874999999979
 40
0.4960937499999981
 40
0.4960937499999981
 40
0.4999999999999981
 40
0.4999999999999981
 40
0.5156249999999984
 40
0.5156249999999984
 40
0.5312499999999987
 40
0.5312499999999987
 40
0.5390624999999989
 40
0.5390624999999989
 40
0.5429687499999989
 40
0.5429687499999989
 40
0.5468749999999989
 40
0.5468749999999989
 40
0.5624999999999991
 40
0.5624999999999991
 40
0.5781249999999993
 40
0.5781249999999993
 40
0.5859374999999994
 40
0.5859374999999994
 40
0.5898437499999994
 40
0.5898437499999994
 40
0.5937499999999994
 40
0.5937499999999994
 40
0.6093749999999997
 40
0.6093749999999997
 40
0.6249999999999999
 40
0.6249999999999999
 40
0.6406250000000001
 40
0.6406250000000001
 40
0.6484375000000001
 40
0.6484375000000001
 40
0.6523437500000001
 40
0.6523437500000001
 40
0.6562500000000001
 40
0.6562500000000001
 40
0.671875
 40
0.671875
 40
0.6874999999999999
 40
0.6874999999999999
 40
0.7031249999999998
 40
0.7031249999999998
 40
0.7109374999999997
 40
0.7109374999999997
 40
0.7148437499999997
 40
0.7148437499999997
 40
0.7187499999999997
 40
0.7187499999999997
 40
0.7343749999999997
 40
0.7343749999999997
 40
0.7499999999999997
 40
0.7656249999999997
 40
0.7656249999999997
 40
0.7812499999999996
 40
0.7812499999999996
 40
0.7851562499999997
 40
0.7851562499999997
 40
0.7890624999999997
 40
0.7890624999999997
 40
0.7968749999999997
 40
0.7968749999999997
 40
0.8124999999999997
 40
0.8124999999999997
 40
0.8281249999999997
 40
0.8281249999999997
 40
0.8359374999999997
 40
0.8359374999999997
 40
0.8398437499999997
 40
0.8398437499999997
 40
0.8437499999999997
 40
0.8437499999999997
 40
0.8593749999999998
 40
0.8593749999999998
 40
0.8749999999999999
 40
0.8749999999999999
 40
0.8828124999999999
 40
0.8828124999999999
 40
0.88671875
 40
0.88671875
 40
0.890625
 40
0.890625
 40
0.90625
 40
0.90625
 40
0.9218750000000001
 40
0.9218750000000001
 40
0.9296875000000002
 40
0.9296875000000002
 40
0.9335937500000002
 40
0.9335937500000002
 40
0.9375000000000002
 40
0.9375000000000002
 40
0.9531250000000002
 40
0.9531250000000002
 40
0.9687500000000001
 40
0.9687500000000001
 40
0.9726562500000002
 40
0.9726562500000002
 40
0.9765625000000002
 40
0.9765625000000002
 40
0.9843750000000001
 40
0.9921875000000001
 40
0.9921875000000001
 40
0.9960937500000001
 40
0.9960937500000001
 40
0.998046875
 40
0.9990234375
 40
0.9990234375
 40
1.0
 40
1.0
 40
1.0
 40
1.0
 10
6009.518755336099
 20
4322.470046049142
 30
0.0
 10
6009.5187553361
 20
4330.620041793864
 30
0.0
 10
6010.028694186724
 20
4338.729531688617
 30
0.0
 10
6011.549044065138
 20
4350.833759719786
 30
0.0
 10
6012.183021427491
 20
4354.862721762101
 30
0.0
 10
6013.318725059221
 20
4360.863610694922
 30
0.0
 10
6013.728133206214
 20
4362.857628020591
 30
0.0
 10
6014.608340565645
 20
4366.833163637422
 30
0.0
 10
6015.079527841275
 20
4368.816187446267
 30
0.0
 10
6017.583992570293
 20
4378.682407844197
 30
0.0
 10
6020.051299144525
 20
4386.38307475734
 30
0.0
 10
6025.860550877618
 20
4401.421698626912
 30
0.0
 10
6029.202705427398
 20
4408.759568749565
 30
0.0
 10
6033.914114295401
 20
4417.710576135872
 30
0.0
 10
6034.883152102647
 20
4419.489681967486
 30
0.0
 10
6036.874686256256
 20
4423.025724537386
 30
0.0
 10
6037.897878180361
 20
4424.783815080743
 30
0.0
 10
6041.043247783037
 20
4430.017373162975
 30
0.0
 10
6043.22817810714
 20
4433.430907705173
 30
0.0
 10
6050.035409422545
 20
4443.454959466072
 30
0.0
 10
6054.909424055201
 20
4449.849548208414
 30
0.0
 10
6065.287702118804
 20
4462.098076954273
 30
0.0
 10
6070.792127090785
 20
4467.95187838243
 30
0.0
 10
6079.506804224712
 20
4476.33965859636
 30
0.0
 10
6082.48818958247
 20
4479.069967068724
 30
0.0
 10
6087.074459095469
 20
4483.067472466052
 30
0.0
 10
6088.624507996094
 20
4484.385485080969
 30
0.0
 10
6091.750268073259
 20
4486.978610531883
 30
0.0
 10
6093.325282291186
 20
4488.25326266343
 30
0.0
 10
6101.259597286963
 20
4494.519547057497
 30
0.0
 10
6107.796088442162
 20
4499.191228024396
 30
0.0
 10
6121.219954921174
 20
4507.901001125428
 30
0.0
 10
6128.107436301962
 20
4511.938901753303
 30
0.0
 10
6142.218114468984
 20
4519.408504294769
 30
0.0
 10
6149.441359192432
 20
4522.840119648502
 30
0.0
 10
6160.523714059877
 20
4527.54065590244
 30
0.0
 10
6164.259150127679
 20
4529.032894126676
 30
0.0
 10
6169.924350845932
 20
4531.159214366823
 30
0.0
 10
6171.823096411154
 20
4531.849307305314
 30
0.0
 10
6175.641340908077
 20
4533.192018988764
 30
0.0
 10
6177.562941916154
 20
4533.84532033011
 30
0.0
 10
6187.196985108056
 20
4537.009212540022
 30
0.0
 10
6194.955857092928
 20
4539.203301310391
 30
0.0
 10
6210.571538193763
 20
4542.952266936392
 30
0.0
 10
6218.428364729349
 20
4544.507030098356
 30
0.0
 10
6234.237425060204
 20
4546.993856364968
 30
0.0
 10
6242.189664459594
 20
4547.925882892886
 30
0.0
 10
6258.189431307788
 20
4549.168013947928
 30
0.0
 10
6266.236954285499
 20
4549.478147656798
 30
0.0
 10
6276.357336943939
 20
4549.467820056897
 30
0.0
 10
6278.38659942798
 20
4549.445758655498
 30
0.0
 10
6282.439232431801
 20
4549.361653569234
 30
0.0
 10
6284.462187416696
 20
4549.299672144578
 30
0.0
 10
6290.52104292926
 20
4549.054386512163
 30
0.0
 10
6294.546939334339
 20
4548.811772482992
 30
0.0
 10
6306.585010787459
 20
4547.849054985419
 30
0.0
 10
6314.557649790584
 20
4546.894560570467
 30
0.0
 10
6330.397593574579
 20
4544.361093796208
 30
0.0
 10
6338.264903337265
 20
4542.782150971783
 30
0.0
 10
6353.89165984245
 20
4538.984795303822
 30
0.0
 10
6361.651124388748
 20
4536.766488010789
 30
0.0
 10
6373.20527879372
 20
4532.934849881352
 30
0.0
 10
6377.022601168355
 20
4531.579930690954
 30
0.0
 10
6384.57640100985
 20
4528.719278670395
 30
0.0
 10
6388.314974604536
 20
4527.212853344684
 30
0.0
 10
6399.415213934498
 20
4522.464281723942
 30
0.0
 10
6406.661672385702
 20
4518.993384167009
 30
0.0
 10
6420.838205265695
 20
4511.423388805611
 30
0.0
 10
6427.768344351314
 20
4507.32441938132
 30
0.0
 10
6436.22175296222
 20
4501.785198377678
 30
0.0
 10
6437.901944917265
 20
4500.656526088786
 30
0.0
 10
6441.240946401052
 20
4498.356725367382
 30
0.0
 10
6442.901529096685
 20
4497.184277964513
 30
0.0
 10
6447.830871573101
 20
4493.61633563062
 30
0.0
 10
6451.050791319979
 20
4491.168106652401
 30
0.0
 10
6460.510466158131
 20
4483.613401232238
 30
0.0
 10
6466.550661261574
 20
4478.297456756347
 30
0.0
 10
6478.080404918313
 20
4467.087581949218
 30
0.0
 10
6483.570094874121
 20
4461.193800041051
 30
0.0
 10
6490.065297280737
 20
4453.441445731547
 30
0.0
 10
6491.345940189722
 20
4451.871663867732
 30
0.0
 10
6493.869634501733
 20
4448.692642236078
 30
0.0
 10
6495.113713587944
 20
4447.081927306464
 30
0.0
 10
6498.769082366902
 20
4442.215294363115
 30
0.0
 10
6501.109535640723
 20
4438.917687485221
 30
0.0
 10
6507.840452499705
 20
4428.864724768868
 30
0.0
 10
6511.941291479645
 20
4421.949678066924
 30
0.0
 10
6519.345628808253
 20
4407.679953459041
 30
0.0
 10
6522.649344592011
 20
4400.325395440696
 30
0.0
 10
6526.247553801534
 20
4390.839179315153
 30
0.0
 10
6526.941609215175
 20
4388.92403344457
 30
0.0
 10
6528.268405535806
 20
4385.083936837616
 30
0.0
 10
6528.901433405971
 20
4383.158580946183
 30
0.0
 10
6530.709941525867
 20
4377.366684072345
 30
0.0
 10
6531.794909164792
 20
4373.484324879428
 30
0.0
 10
6534.689675520876
 20
4361.774308933533
 30
0.0
 10
6536.140353485697
 20
4353.883891338623
 30
0.0
 10
6537.587365988942
 20
4341.920862304173
 30
0.0
 10
6537.94795262671
 20
4337.911908473615
 30
0.0
 10
6538.302539072048
 20
4331.865920607253
 30
0.0
 10
6538.389668313174
 20
4329.845162104459
 30
0.0
 10
6538.500964598124
 20
4325.792641667609
 30
0.0
 10
6538.525118707516
 20
4323.758728710476
 30
0.0
 10
6538.486159656321
 20
4313.58514855946
 30
0.0
 10
6537.94684940415
 20
4305.529068177826
 30
0.0
 10
6535.893946247234
 20
4289.575631945281
 30
0.0
 10
6534.380212741158
 20
4281.678299000332
 30
0.0
 10
6531.384403527273
 20
4269.95044645817
 30
0.0
 10
6530.264678475733
 20
4266.060894774403
 30
0.0
 10
6528.401820349422
 20
4260.256424633373
 30
0.0
 10
6527.7501292388
 20
4258.326476034757
 30
0.0
 10
6526.394714541389
 20
4254.50198088726
 30
0.0
 10
6525.689984829812
 20
4252.604183333409
 30
0.0
 10
6522.033908572723
 20
4243.186010351787
 30
0.0
 10
6518.686517517594
 20
4235.87741696065
 30
0.0
 10
6511.194256943477
 20
4221.686676219527
 30
0.0
 10
6507.04920331755
 20
4214.80462731944
 30
0.0
 10
6500.247914602352
 20
4204.793687895052
 30
0.0
 10
6497.8833331112
 20
4201.508837645266
 30
0.0
 10
6494.190318686387
 20
4196.659710785406
 30
0.0
 10
6492.937822507645
 20
4195.060253714967
 30
0.0
 10
6490.400101616932
 20
4191.906279768104
 30
0.0
 10
6489.11346490192
 20
4190.349899952158
 30
0.0
 10
6482.593576114002
 20
4182.668513972805
 30
0.0
 10
6477.101046727078
 20
4176.844075281992
 30
0.0
 10
6465.603961203648
 20
4165.788765396256
 30
0.0
 10
6459.599236523749
 20
4160.55808958542
 30
0.0
 10
6447.100431750191
 20
4150.664023692047
 30
0.0
 10
6440.606277117074
 20
4146.000720019449
 30
0.0
 10
6430.504194473211
 20
4139.424081020601
 30
0.0
 10
6427.076584961412
 20
4137.301711303144
 30
0.0
 10
6421.844637792436
 20
4134.223107078769
 30
0.0
 10
6420.083340407373
 20
4133.213209208245
 30
0.0
 10
6416.548410406957
 20
4131.238390139357
 30
0.0
 10
6414.773379276126
 20
4130.272577786295
 30
0.0
 10
6405.861143187436
 20
4125.549360462492
 30
0.0
 10
6398.612996348704
 20
4122.108634127527
 30
0.0
 10
6383.894082312768
 20
4115.862641311537
 30
0.0
 10
6376.423265686445
 20
4113.057515923719
 30
0.0
 10
6361.26630335633
 20
4108.061912366597
 30
0.0
 10
6353.580138236586
 20
4105.871489619254
 30
0.0
 10
6341.890637172326
 20
4103.04329161549
 30
0.0
 10
6337.967385467064
 20
4102.176919480825
 30
0.0
 10
6332.042157407338
 20
4100.992539981158
 30
0.0
 10
6330.060353640055
 20
4100.616950868509
 30
0.0
 10
6326.083220842876
 20
4099.904379900253
 30
0.0
 10
6324.085999600149
 20
4099.567103334587
 30
0.0
 10
6314.088778827788
 20
4097.981477711427
 30
0.0
 10
6306.090753936795
 20
4097.039590213572
 30
0.0
 10
6290.094225989285
 20
4095.784860707727
 30
0.0
 10
6274.097219773519
 20
4095.159311840821
 30
0.0
 10
6258.09926871586
 20
4095.776739520086
 30
0.0
 10
6242.100839297285
 20
4097.023469736391
 30
0.0
 10
6234.101385458965
 20
4097.961418461755
 30
0.0
 10
6224.101757695861
 20
4099.542283512881
 30
0.0
 10
6222.10478410569
 20
4099.878484811503
 30
0.0
 10
6218.126005151713
 20
4100.589291156868
 30
0.0
 10
6216.142779046644
 20
4100.964118121349
 30
0.0
 10
6210.211528130592
 20
4102.14667273957
 30
0.0
 10
6206.281920995544
 20
4103.012443475472
 30
0.0
 10
6194.566631601527
 20
4105.841490923759
 30
0.0
 10
6186.85432194208
 20
4108.036000492991
 30
0.0
 10
6171.628447687965
 20
4113.051362290855
 30
0.0
 10
6164.114858301577
 20
4115.872136388683
 30
0.0
 10
6152.999796380977
 20
4120.592793434253
 30
0.0
 10
6149.32070706571
 20
4122.248068038566
 30
0.0
 10
6143.842203124118
 20
4124.857449251625
 30
0.0
 10
6142.020768585679
 20
4125.749334262306
 30
0.0
 10
6138.403048665753
 20
4127.57020096447
 30
0.0
 10
6136.606869845405
 20
4128.499059291195
 30
0.0
 10
6127.68942110918
 20
4133.235533437558
 30
0.0
 10
6120.75804353012
 20
4137.319052037737
 30
0.0
 10
6107.308474127732
 20
4146.086424674467
 30
0.0
 10
6100.790215583975
 20
4150.770181770024
 30
0.0
 10
6091.337858370123
 20
4158.268068417781
 30
0.0
 10
6088.241345718286
 20
4160.846219678738
 30
0.0
 10
6083.680926115249
 20
4164.836001421058
 30
0.0
 10
6082.174852335467
 20
4166.186365895333
 30
0.0
 10
6079.191428773771
 20
4168.928829181418
 30
0.0
 10
6077.713650606565
 20
4170.321443181023
 30
0.0
 10
6070.433994215809
 20
4177.355703160902
 30
0.0
 10
6064.929728497883
 20
4183.236680732292
 30
0.0
 10
6054.57367644558
 20
4195.516538716205
 30
0.0
 10
6049.721765098317
 20
4201.91531990026
 30
0.0
 10
6042.959260713566
 20
4211.922558660222
 30
0.0
 10
6040.791162934216
 20
4215.326622900833
 30
0.0
 10
6037.673218568829
 20
4220.539241791186
 30
0.0
 10
6036.654963693517
 20
4222.296931003611
 30
0.0
 10
6034.670938104756
 20
4225.836609412479
 30
0.0
 10
6033.706145196787
 20
4227.616672187472
 30
0.0
 10
6029.01803800199
 20
4236.568012989294
 30
0.0
 10
6025.701186414371
 20
4243.891955139038
 30
0.0
 10
6019.946211229627
 20
4258.869882609054
 30
0.0
 10
6017.507940938996
 20
4266.523812832425
 30
0.0
 10
6015.035249661518
 20
4276.307246046578
 30
0.0
 10
6014.569550319371
 20
4278.274764353473
 30
0.0
 10
6013.696827232603
 20
4282.231839050091
 30
0.0
 10
6013.289321861037
 20
4284.224101405638
 30
0.0
 10
6012.160968999814
 20
4290.210235324093
 30
0.0
 10
6010.906594845108
 20
4298.216475042233
 30
0.0
 10
6010.150889419241
 20
4306.272019738753
 30
0.0
 10
6009.772145708997
 20
4312.332269920858
 30
0.0
 10
6009.677253753154
 20
4314.35545357811
 30
0.0
 10
6009.582232424603
 20
4317.394907408671
 30
0.0
 10
6009.54655239456
 20
4318.915804056746
 30
0.0
 10
6009.528686689438
 20
4320.438462064324
 30
0.0
 10
6009.520743395348
 20
4321.453959650137
 30
0.0
 10
6009.5187553361
 20
4321.960671315097
 30
0.0
 10
6009.5187553361
 20
4322.470046049142
 30
0.0
  0
SPLINE
  5
1AA
330
1F
100
AcDbEntity
  8
0
  6
Continuous
 62
     7
370
    25
100
AcDbSpline
210
0.0
220
0.0
230
1.0
 70
    11
 71
     3
 72
   206
 73
   202
 74
     0
 42
0.000000001
 43
0.00000001
 40
0.0
 40
0.0
 40
0.0
 40
0.0
 40
0.0156250000000004
 40
0.0156250000000004
 40
0.0195312500000004
 40
0.0195312500000004
 40
0.0234375000000005
 40
0.0234375000000005
 40
0.0312500000000007
 40
0.0312500000000007
 40
0.046875000000001
 40
0.046875000000001
 40
0.0625000000000013
 40
0.0625000000000013
 40
0.0703125000000014
 40
0.0703125000000014
 40
0.0781250000000016
 40
0.0781250000000016
 40
0.0937500000000019
 40
0.0937500000000019
 40
0.1093750000000022
 40
0.1093750000000022
 40
0.1171875000000024
 40
0.1171875000000024
 40
0.1210937500000025
 40
0.1210937500000025
 40
0.1250000000000025
 40
0.1250000000000025
 40
0.1406250000000026
 40
0.1406250000000026
 40
0.1562500000000027
 40
0.1562500000000027
 40
0.1718750000000028
 40
0.1718750000000028
 40
0.1796875000000029
 40
0.1796875000000029
 40
0.1835937500000029
 40
0.1835937500000029
 40
0.1875000000000029
 40
0.1875000000000029
 40
0.2031250000000031
 40
0.2031250000000031
 40
0.2187500000000032
 40
0.2187500000000032
 40
0.2343750000000034
 40
0.2343750000000034
 40
0.2500000000000036
 40
0.2500000000000036
 40
0.2539062500000036
 40
0.2539062500000036
 40
0.2578125000000036
 40
0.2578125000000036
 40
0.2656250000000037
 40
0.2656250000000037
 40
0.2812500000000039
 40
0.2812500000000039
 40
0.2968750000000041
 40
0.2968750000000041
 40
0.3125000000000042
 40
0.3125000000000042
 40
0.3281250000000044
 40
0.3281250000000044
 40
0.3437500000000046
 40
0.3437500000000046
 40
0.3593750000000047
 40
0.3593750000000047
 40
0.3632812500000048
 40
0.3632812500000048
 40
0.3671875000000048
 40
0.3671875000000048
 40
0.3750000000000047
 40
0.3750000000000047
 40
0.3906250000000047
 40
0.3906250000000047
 40
0.4062500000000046
 40
0.4062500000000046
 40
0.4101562500000046
 40
0.4101562500000046
 40
0.4140625000000045
 40
0.4140625000000045
 40
0.4218750000000045
 40
0.4218750000000045
 40
0.4375000000000046
 40
0.4375000000000046
 40
0.4531250000000045
 40
0.4531250000000045
 40
0.4570312500000045
 40
0.4570312500000045
 40
0.4609375000000044
 40
0.4609375000000044
 40
0.4687500000000044
 40
0.4687500000000044
 40
0.4843750000000044
 40
0.4843750000000044
 40
0.4921875000000044
 40
0.4921875000000044
 40
0.4960937500000044
 40
0.4960937500000044
 40
0.5000000000000043
 40
0.5000000000000043
 40
0.5156250000000043
 40
0.5156250000000043
 40
0.5312500000000043
 40
0.5312500000000043
 40
0.5351562500000043
 40
0.5351562500000043
 40
0.5390625000000043
 40
0.5390625000000043
 40
0.5468750000000042
 40
0.5468750000000042
 40
0.5625000000000042
 40
0.5625000000000042
 40
0.5781250000000041
 40
0.5781250000000041
 40
0.585937500000004
 40
0.585937500000004
 40
0.589843750000004
 40
0.589843750000004
 40
0.593750000000004
 40
0.593750000000004
 40
0.6093750000000039
 40
0.6093750000000039
 40
0.6250000000000038
 40
0.6250000000000038
 40
0.6406250000000037
 40
0.6406250000000037
 40
0.6484375000000037
 40
0.6484375000000037
 40
0.6523437500000037
 40
0.6523437500000037
 40
0.6562500000000037
 40
0.6562500000000037
 40
0.6718750000000036
 40
0.6718750000000036
 40
0.6875000000000034
 40
0.6875000000000034
 40
0.7031250000000033
 40
0.7031250000000033
 40
0.7109375000000033
 40
0.7109375000000033
 40
0.7148437500000032
 40
0.7148437500000032
 40
0.7187500000000032
 40
0.7187500000000032
 40
0.7343750000000031
 40
0.7343750000000031
 40
0.750000000000003
 40
0.750000000000003
 40
0.765625000000003
 40
0.765625000000003
 40
0.7812500000000029
 40
0.7812500000000029
 40
0.7968750000000028
 40
0.7968750000000028
 40
0.8125000000000027
 40
0.8125000000000027
 40
0.8281250000000026
 40
0.8281250000000026
 40
0.8359375000000026
 40
0.8359375000000026
 40
0.8398437500000026
 40
0.8398437500000026
 40
0.8437500000000024
 40
0.8437500000000024
 40
0.8593750000000022
 40
0.8593750000000022
 40
0.8750000000000019
 40
0.8750000000000019
 40
0.8828125000000017
 40
0.8828125000000017
 40
0.8867187500000017
 40
0.8867187500000017
 40
0.8906250000000017
 40
0.8906250000000017
 40
0.9062500000000013
 40
0.9062500000000013
 40
0.921875000000001
 40
0.921875000000001
 40
0.9296875000000009
 40
0.9296875000000009
 40
0.9335937500000009
 40
0.9335937500000009
 40
0.9375000000000008
 40
0.9375000000000008
 40
0.9531250000000007
 40
0.9531250000000007
 40
0.9687500000000004
 40
0.9687500000000004
 40
0.9726562500000003
 40
0.9726562500000003
 40
0.9765625000000003
 40
0.9765625000000003
 40
0.9843750000000002
 40
0.9921875
 40
0.9921875
 40
0.99609375
 40
0.99609375
 40
0.998046875
 40
0.9990234375
 40
0.9990234375
 40
1.0
 40
1.0
 40
1.0
 40
1.0
 10
6008.5187553361
 20
4322.470046049141
 30
0.0
 10
6008.5187553361
 20
4330.662623421935
 30
0.0
 10
6009.031402547083
 20
4338.81469883689
 30
0.0
 10
6010.305210930557
 20
4348.954782663245
 30
0.0
 10
6010.591709096559
 20
4350.980292070777
 30
0.0
 10
6011.228327956112
 20
4355.026284355172
 30
0.0
 10
6011.57733738461
 20
4357.039569774602
 30
0.0
 10
6012.713539725217
 20
4363.044453849792
 30
0.0
 10
6013.590276062348
 20
4367.003947057007
 30
0.0
 10
6016.566002551785
 20
4378.755646543484
 30
0.0
 10
6019.009533385957
 20
4386.421431101721
 30
0.0
 10
6024.776971921959
 20
4401.429965045233
 30
0.0
 10
6028.10101113071
 20
4408.7726661769
 30
0.0
 10
6033.740780910914
 20
4419.546852831287
 30
0.0
 10
6035.729876902713
 20
4423.098189819681
 30
0.0
 10
6039.92793960627
 20
4430.12018701058
 30
0.0
 10
6042.116798627178
 20
4433.55714915153
 30
0.0
 10
6048.935893219422
 20
4443.647266129235
 30
0.0
 10
6053.820213591196
 20
4450.084133629328
 30
0.0
 10
6064.223378366235
 20
4462.414099098591
 30
0.0
 10
6069.742386888787
 20
4468.307056422075
 30
0.0
 10
6078.481919634063
 20
4476.751411061695
 30
0.0
 10
6081.47208831666
 20
4479.500216699317
 30
0.0
 10
6086.072262607215
 20
4483.524940811324
 30
0.0
 10
6087.627055187156
 20
4484.851935583077
 30
0.0
 10
6090.762753943428
 20
4487.46298389551
 30
0.0
 10
6092.342856716281
 20
4488.746484895917
 30
0.0
 10
6100.303197534792
 20
4495.056462280885
 30
0.0
 10
6106.862369429154
 20
4499.761338968343
 30
0.0
 10
6120.335081373802
 20
4508.53418271193
 30
0.0
 10
6127.248728439813
 20
4512.601957427569
 30
0.0
 10
6141.415113972546
 20
4520.1280543011
 30
0.0
 10
6148.667900671695
 20
4523.586289770343
 30
0.0
 10
6159.797099449661
 20
4528.324281670141
 30
0.0
 10
6163.548572789379
 20
4529.828591816731
 30
0.0
 10
6169.238470621629
 20
4531.972387550492
 30
0.0
 10
6171.145555478422
 20
4532.668200196149
 30
0.0
 10
6174.980694257159
 20
4534.022137565082
 30
0.0
 10
6176.911060055603
 20
4534.681012766519
 30
0.0
 10
6186.584746533626
 20
4537.870679716643
 30
0.0
 10
6194.376345739754
 20
4540.083538362483
 30
0.0
 10
6210.059418065101
 20
4543.866430421569
 30
0.0
 10
6217.950908883994
 20
4545.43634991322
 30
0.0
 10
6233.831203758321
 20
4547.949845119892
 30
0.0
 10
6241.820013444691
 20
4548.893384592143
 30
0.0
 10
6257.894848061891
 20
4550.154750473074
 30
0.0
 10
6265.980868305966
 20
4550.472607047441
 30
0.0
 10
6276.150624571545
 20
4550.469386418727
 30
0.0
 10
6278.189833407583
 20
4550.448614073817
 30
0.0
 10
6282.260672770657
 20
4550.366877407606
 30
0.0
 10
6284.292746805821
 20
4550.305963922624
 30
0.0
 10
6290.379006340285
 20
4550.063533582034
 30
0.0
 10
6294.423234569737
 20
4549.822358602367
 30
0.0
 10
6306.516483711101
 20
4548.862558982533
 30
0.0
 10
6314.526150568741
 20
4547.908147918161
 30
0.0
 10
6330.44061402922
 20
4545.371004696623
 30
0.0
 10
6338.345415695276
 20
4543.788302875285
 30
0.0
 10
6354.047604896981
 20
4539.979336728396
 30
0.0
 10
6361.84501033044
 20
4537.753179636025
 30
0.0
 10
6377.326868831194
 20
4532.624121084862
 30
0.0
 10
6384.91750342436
 20
4529.752025370848
 30
0.0
 10
6399.786775909061
 20
4523.394869228579
 30
0.0
 10
6407.067212896116
 20
4519.909263410333
 30
0.0
 10
6421.310631504547
 20
4512.305963080893
 30
0.0
 10
6428.273678324205
 20
4508.188398386684
 30
0.0
 10
6436.767474029072
 20
4502.623283800996
 30
0.0
 10
6438.455705874589
 20
4501.489299875964
 30
0.0
 10
6441.810709462893
 20
4499.178602591312
 30
0.0
 10
6443.47915184881
 20
4498.000638302871
 30
0.0
 10
6448.431024181511
 20
4494.416431707558
 30
0.0
 10
6451.665645330178
 20
4491.956970720043
 30
0.0
 10
6461.168467807079
 20
4484.367399700127
 30
0.0
 10
6467.236155364175
 20
4479.026655417448
 30
0.0
 10
6478.818268375182
 20
4467.763980095434
 30
0.0
 10
6484.332835924165
 20
4461.842198323098
 30
0.0
 10
6490.857396379332
 20
4454.052715402988
 30
0.0
 10
6492.143823677849
 20
4452.475401048348
 30
0.0
 10
6494.678908530385
 20
4449.281096252137
 30
0.0
 10
6495.928566150267
 20
4447.662663995742
 30
0.0
 10
6499.600210125107
 20
4442.772818359305
 30
0.0
 10
6501.951025394353
 20
4439.45949029402
 30
0.0
 10
6508.7115891363
 20
4429.358640038048
 30
0.0
 10
6512.83027776343
 20
4422.410704940562
 30
0.0
 10
6520.266523755237
 20
4408.073304261422
 30
0.0
 10
6523.584298874255
 20
4400.683958691535
 30
0.0
 10
6527.197657838247
 20
4391.153048496516
 30
0.0
 10
6527.894629897162
 20
4389.228881246643
 30
0.0
 10
6529.2270582921
 20
4385.37048595663
 30
0.0
 10
6529.862763186955
 20
4383.435962212906
 30
0.0
 10
6531.678891441803
 20
4377.616507213018
 30
0.0
 10
6532.768391597298
 20
4373.715703225545
 30
0.0
 10
6535.67514859994
 20
4361.950140642387
 30
0.0
 10
6537.131682951767
 20
4354.02240965944
 30
0.0
 10
6538.58432075965
 20
4342.002997210402
 30
0.0
 10
6538.946254656308
 20
4337.97517984061
 30
0.0
 10
6539.302064213622
 20
4331.900792709404
 30
0.0
 10
6539.389468112423
 20
4329.870550447687
 30
0.0
 10
6539.501045582825
 20
4325.799027620007
 30
0.0
 10
6539.525207280402
 20
4323.755792652911
 30
0.0
 10
6539.485597727171
 20
4313.53336047535
 30
0.0
 10
6538.943373561047
 20
4305.420774841074
 30
0.0
 10
6536.867395057164
 20
4289.322541638443
 30
0.0
 10
6535.333571082891
 20
4281.336902985119
 30
0.0
 10
6532.793384945609
 20
4271.434600607277
 30
0.0
 10
6532.255875991014
 20
4269.46516855353
 30
0.0
 10
6531.125580976434
 20
4265.556771459087
 30
0.0
 10
6530.532425748274
 20
4263.616361112279
 30
0.0
 10
6528.67071515658
 20
4257.835619237998
 30
0.0
 10
6527.319983064621
 20
4254.035743312252
 30
0.0
 10
6522.950580233755
 20
4242.792276315565
 30
0.0
 10
6519.615582491349
 20
4235.504413021992
 30
0.0
 10
6512.139222117978
 20
4221.325659853032
 30
0.0
 10
6507.997729982201
 20
4214.434833732862
 30
0.0
 10
6501.188667289637
 20
4204.392411236316
 30
0.0
 10
6498.819312063087
 20
4201.094003458948
 30
0.0
 10
6495.115035886743
 20
4196.220356584397
 30
0.0
 10
6493.859296182105
 20
4194.613586580549
 30
0.0
 10
6491.314387720708
 20
4191.444448719842
 30
0.0
 10
6490.024033534835
 20
4189.880516703925
 30
0.0
 10
6483.484937034762
 20
4182.161534548575
 30
0.0
 10
6477.975058513653
 20
4176.307549160744
 30
0.0
 10
6466.439229123962
 20
4165.194559812367
 30
0.0
 10
6460.413110641323
 20
4159.935749094589
 30
0.0
 10
6447.867322687465
 20
4149.987144141046
 30
0.0
 10
6441.347579697533
 20
4145.297434665235
 30
0.0
 10
6431.20378002909
 20
4138.682740691343
 30
0.0
 10
6427.761708220087
 20
4136.547945266688
 30
0.0
 10
6422.507199821869
 20
4133.451128265649
 30
0.0
 10
6420.739097807333
 20
4132.435735488485
 30
0.0
 10
6417.192023977499
 20
4130.450974605583
 30
0.0
 10
6415.410822788551
 20
4129.480249314331
 30
0.0
 10
6406.467248288558
 20
4124.732771555699
 30
0.0
 10
6399.192471430122
 20
4121.27361155586
 30
0.0
 10
6384.417202196134
 20
4114.993043208218
 30
0.0
 10
6376.916660535363
 20
4112.171774114154
 30
0.0
 10
6361.697105827754
 20
4107.146519527822
 30
0.0
 10
6353.978073749702
 20
4104.942587807613
 30
0.0
 10
6342.236821564895
 20
4102.096405134421
 30
0.0
 10
6338.295910393525
 20
4101.224418501192
 30
0.0
 10
6332.343561230175
 20
4100.032232971037
 30
0.0
 10
6330.352611729297
 20
4099.654144527057
 30
0.0
 10
6326.356973071801
 20
4098.936788577331
 30
0.0
 10
6324.350006429116
 20
4098.597175392359
 30
0.0
 10
6314.315339299512
 20
4097.002201687248
 30
0.0
 10
6306.286395247067
 20
4096.054127379152
 30
0.0
 10
6290.226174618876
 20
4094.789900134876
 30
0.0
 10
6282.194897800643
 20
4094.473812892861
 30
0.0
 10
6266.13003826809
 20
4094.466346002574
 30
0.0
 10
6258.096455560679
 20
4094.774964483028
 30
0.0
 10
6242.026953782287
 20
4096.025163211481
 30
0.0
 10
6233.991034969715
 20
4096.966673452602
 30
0.0
 10
6217.916769516872
 20
4099.507434935351
 30
0.0
 10
6209.976958382855
 20
4101.091218387434
 30
0.0
 10
6194.293772793254
 20
4104.878828997446
 30
0.0
 10
6186.549774309595
 20
4107.082746787945
 30
0.0
 10
6171.260041026375
 20
4112.120578555618
 30
0.0
 10
6163.714280984895
 20
4114.954412324893
 30
0.0
 10
6152.550674892563
 20
4119.697793841983
 30
0.0
 10
6148.85535620571
 20
4121.361167079955
 30
0.0
 10
6143.352446442907
 20
4123.983546550852
 30
0.0
 10
6141.52300962294
 20
4124.879847369112
 30
0.0
 10
6137.891488315594
 20
4126.708668259108
 30
0.0
 10
6136.088429315671
 20
4127.64160027013
 30
0.0
 10
6127.136688562295
 20
4132.398935199798
 30
0.0
 10
6120.178224551019
 20
4136.500713847637
 30
0.0
 10
6106.675355048422
 20
4145.308051750665
 30
0.0
 10
6100.130881861706
 20
4150.013512292355
 30
0.0
 10
6090.640024867791
 20
4157.546862010339
 30
0.0
 10
6087.530816435663
 20
4160.137320132343
 30
0.0
 10
6082.951585942866
 20
4164.14634511108
 30
0.0
 10
6081.439280708511
 20
4165.503254595587
 30
0.0
 10
6078.44347697242
 20
4168.259079575055
 30
0.0
 10
6076.960270517879
 20
4169.657838156792
 30
0.0
 10
6069.653958289387
 20
4176.723004710138
 30
0.0
 10
6064.129366399915
 20
4182.630007508356
 30
0.0
 10
6053.734840843894
 20
4194.964681978266
 30
0.0
 10
6048.864780966156
 20
4201.392253270496
 30
0.0
 10
6042.076884897112
 20
4211.444949555817
 30
0.0
 10
6039.9006291562
 20
4214.864545906534
 30
0.0
 10
6036.770940165105
 20
4220.101067012165
 30
0.0
 10
6035.748771101467
 20
4221.86698088896
 30
0.0
 10
6033.757873658012
 20
4225.421867421243
 30
0.0
 10
6032.789736912371
 20
4227.209582327791
 30
0.0
 10
6028.085372423985
 20
4236.19942456109
 30
0.0
 10
6024.756989525688
 20
4243.554936453283
 30
0.0
 10
6018.981992324743
 20
4258.597580692613
 30
0.0
 10
6016.535230361897
 20
4266.284657506879
 30
0.0
 10
6014.053946493189
 20
4276.110568307503
 30
0.0
 10
6013.586630034655
 20
4278.086634502899
 30
0.0
 10
6012.71087989428
 20
4282.060911856996
 30
0.0
 10
6012.301966039509
 20
4284.061837259203
 30
0.0
 10
6011.169833038594
 20
4290.0733463367
 30
0.0
 10
6009.911253873514
 20
4298.113534616979
 30
0.0
 10
6009.15301220898
 20
4306.203257555704
 30
0.0
 10
6008.77299691413
 20
4312.289228158944
 30
0.0
 10
6008.677786252353
 20
4314.320999754246
 30
0.0
 10
6008.582445722131
 20
4317.3733573362
 30
0.0
 10
6008.546645810652
 20
4318.900711321744
 30
0.0
 10
6008.52872006688
 20
4320.4298348944
 30
0.0
 10
6008.520750077629
 20
4321.44964468957
 30
0.0
 10
6008.5187553361
 20
4321.958009963342
 30
0.0
 10
6008.5187553361
 20
4322.470046049141
 30
0.0
  0
SPLINE
  5
1AB
330
1F
100
AcDbEntity
  8
0
  6
Continuous
 62
     7
370
    25
100
AcDbSpline
210
0.0
220
0.0
230
1.0
 70
     8
 71
     3
 72
   130
 73
   126
 74
     0
 42
0.000000001
 43
0.00000001
 40
0.0
 40
0.0
 40
0.0
 40
0.0
 40
0.062500000000001
 40
0.062500000000001
 40
0.0937500000000015
 40
0.0937500000000015
 40
0.1015625000000017
 40
0.1015625000000017
 40
0.1093750000000018
 40
0.1093750000000018
 40
0.125000000000002
 40
0.125000000000002
 40
0.1875000000000029
 40
0.1875000000000029
 40
0.2031250000000031
 40
0.2031250000000031
 40
0.2187500000000033
 40
0.2187500000000033
 40
0.2343750000000035
 40
0.2343750000000035
 40
0.2500000000000037
 40
0.2500000000000037
 40
0.2578125000000038
 40
0.2578125000000038
 40
0.2656250000000038
 40
0.2656250000000038
 40
0.2812500000000042
 40
0.2812500000000042
 40
0.3125000000000047
 40
0.3125000000000047
 40
0.3281250000000048
 40
0.3281250000000048
 40
0.3437500000000051
 40
0.3437500000000051
 40
0.3750000000000054
 40
0.3750000000000054
 40
0.3828125000000054
 40
0.3828125000000054
 40
0.3906250000000055
 40
0.3906250000000055
 40
0.4062500000000056
 40
0.4062500000000056
 40
0.4218750000000056
 40
0.4218750000000056
 40
0.4375000000000056
 40
0.4375000000000056
 40
0.4453125000000056
 40
0.4453125000000056
 40
0.4492187500000055
 40
0.4492187500000055
 40
0.4531250000000054
 40
0.4531250000000054
 40
0.4609375000000055
 40
0.4609375000000055
 40
0.4687500000000055
 40
0.4687500000000055
 40
0.4843750000000055
 40
0.4843750000000055
 40
0.5000000000000056
 40
0.5000000000000056
 40
0.5156250000000056
 40
0.5156250000000056
 40
0.5312500000000056
 40
0.5312500000000056
 40
0.5625000000000057
 40
0.5625000000000057
 40
0.5781250000000057
 40
0.5781250000000057
 40
0.5820312500000057
 40
0.5820312500000057
 40
0.5859375000000056
 40
0.5859375000000056
 40
0.5937500000000056
 40
0.5937500000000056
 40
0.6093750000000056
 40
0.6093750000000056
 40
0.6171875000000054
 40
0.6171875000000054
 40
0.6250000000000053
 40
0.6250000000000053
 40
0.6328125000000052
 40
0.6328125000000052
 40
0.6406250000000051
 40
0.6406250000000051
 40
0.6562500000000049
 40
0.6562500000000049
 40
0.6718750000000048
 40
0.6718750000000048
 40
0.6796875000000047
 40
0.6796875000000047
 40
0.6875000000000046
 40
0.6875000000000046
 40
0.7031250000000042
 40
0.7031250000000042
 40
0.7187500000000039
 40
0.7187500000000039
 40
0.7343750000000037
 40
0.7343750000000037
 40
0.7500000000000033
 40
0.7500000000000033
 40
0.7812500000000028
 40
0.7812500000000028
 40
0.7890625000000028
 40
0.7890625000000028
 40
0.7968750000000027
 40
0.7968750000000027
 40
0.8125000000000024
 40
0.8125000000000024
 40
0.843750000000002
 40
0.843750000000002
 40
0.8750000000000017
 40
0.8750000000000017
 40
0.9062500000000012
 40
0.9062500000000012
 40
0.9218750000000011
 40
0.9218750000000011
 40
0.9375000000000009
 40
0.9375000000000009
 40
0.9687500000000003
 40
0.9687500000000003
 40
0.9765625000000003
 40
0.9765625000000003
 40
0.9843750000000002
 40
0.9843750000000002
 40
1.0
 40
1.0
 40
1.0
 40
1.0
 10
6274.01875533612
 20
4121.063200551223
 30
0.0
 10
6260.860845993247
 20
4121.085949436218
 30
0.0
 10
6247.780772903624
 20
4121.857737243038
 30
0.0
 10
6228.290440017876
 20
4124.264295046996
 30
0.0
 10
6221.815091780992
 20
4125.272701705062
 30
0.0
 10
6213.749388583412
 20
4126.807300820531
 30
0.0
 10
6212.137669397582
 20
4127.127899669691
 30
0.0
 10
6208.917101636662
 20
4127.796722016961
 30
0.0
 10
6207.307882474978
 20
4128.145056297659
 30
0.0
 10
6202.500419722715
 20
4129.228516553158
 30
0.0
 10
6199.317167481437
 20
4130.003100597775
 30
0.0
 10
6183.511585168295
 20
4134.142374591211
 30
0.0
 10
6171.222145834906
 20
4138.308181182035
 30
0.0
 10
6156.315148801616
 20
4144.609941357127
 30
0.0
 10
6153.356661959076
 20
4145.92543351563
 30
0.0
 10
6147.490472167981
 20
4148.67863157401
 30
0.0
 10
6144.583509834983
 20
4150.118119798774
 30
0.0
 10
6138.818990677524
 20
4153.115992842653
 30
0.0
 10
6135.961201751667
 20
4154.673819099244
 30
0.0
 10
6130.297101185261
 20
4157.913354031431
 30
0.0
 10
6127.491202313927
 20
4159.596056054835
 30
0.0
 10
6123.326705419781
 20
4162.226842774096
 30
0.0
 10
6121.94577812673
 20
4163.121191069602
 30
0.0
 10
6119.198715011374
 20
4164.945484005015
 30
0.0
 10
6117.83184391655
 20
4165.87578209514
 30
0.0
 10
6113.773462608226
 20
4168.705387284274
 30
0.0
 10
6111.117120855823
 20
4170.647314289926
 30
0.0
 10
6103.306352619161
 20
4176.651526633188
 30
0.0
 10
6098.316998664252
 20
4180.899927634084
 30
0.0
 10
6091.170086017617
 20
4187.652622622822
 30
0.0
 10
6088.844769324562
 20
4189.96777313651
 30
0.0
 10
6084.31666478381
 20
4194.736222754784
 30
0.0
 10
6082.114137319035
 20
4197.191108795397
 30
0.0
 10
6075.702315172375
 20
4204.768589202476
 30
0.0
 10
6071.742824531575
 20
4210.050588031599
 30
0.0
 10
6067.192987767291
 20
4216.945188937643
 30
0.0
 10
6066.30232514514
 20
4218.339972994541
 30
0.0
 10
6064.566661492911
 20
4221.154655789271
 30
0.0
 10
6063.722259102358
 20
4222.572488791433
 30
0.0
 10
6061.264109037305
 20
4226.859598061284
 30
0.0
 10
6059.72381088589
 20
4229.761764723055
 30
0.0
 10
6056.837885705792
 20
4235.653270973994
 30
0.0
 10
6055.494037041397
 20
4238.64340690737
 30
0.0
 10
6053.006216053039
 20
4244.713182576577
 30
0.0
 10
6051.864062814057
 20
4247.793636891174
 30
0.0
 10
6050.293475060302
 20
4252.478192910376
 30
0.0
 10
6049.79294447631
 20
4254.050010291969
 30
0.0
 10
6049.098382945028
 20
4256.432917872427
 30
0.0
 10
6048.876234065028
 20
4257.231914786948
 30
0.0
 10
6048.452918997211
 20
4258.829844299391
 30
0.0
 10
6048.25115540928
 20
4259.62974283041
 30
0.0
 10
6047.672258714549
 20
4262.031929453493
 30
0.0
 10
6047.321143078981
 20
4263.636673032881
 30
0.0
 10
6046.679851189027
 20
4266.851911552993
 30
0.0
 10
6046.389757954713
 20
4268.462414329017
 30
0.0
 10
6045.614051511225
 20
4273.302848330063
 30
0.0
 10
6045.22991499383
 20
4276.542356762962
 30
0.0
 10
6044.725225411209
 20
4283.046250213421
 30
0.0
 10
6044.602883839986
 20
4286.310466434645
 30
0.0
 10
6044.604330622919
 20
4292.862128225809
 30
0.0
 10
6044.729753116118
 20
4296.149728023179
 30
0.0
 10
6045.243463516924
 20
4302.749736435322
 30
0.0
 10
6045.628709933973
 20
4306.019016276841
 30
0.0
 10
6047.151986302298
 20
4315.731101415942
 30
0.0
 10
6048.653660484212
 20
4322.082697307191
 30
0.0
 10
6051.63931747611
 20
4331.424409360699
 30
0.0
 10
6052.754240608735
 20
4334.507996244101
 30
0.0
 10
6054.298902694753
 20
4338.324234427798
 30
0.0
 10
6054.615368755286
 20
4339.085574039582
 30
0.0
 10
6055.263466178475
 20
4340.60441238913
 30
0.0
 10
6055.595508106434
 20
4341.362804699546
 30
0.0
 10
6056.611037813544
 20
4343.623470860715
 30
0.0
 10
6057.314045521722
 20
4345.111959169312
 30
0.0
 10
6059.497880457066
 20
4349.523815293209
 30
0.0
 10
6061.053364760036
 20
4352.393685186948
 30
0.0
 10
6063.549344049902
 20
4356.581864264636
 30
0.0
 10
6064.411271225854
 20
4357.956473732814
 30
0.0
 10
6066.175271423895
 20
4360.676924875833
 30
0.0
 10
6067.079434280881
 20
4362.021269012469
 30
0.0
 10
6068.932310170082
 20
4364.678033429169
 30
0.0
 10
6069.876530494998
 20
4365.993673102708
 30
0.0
 10
6071.809376464672
 20
4368.593132393989
 30
0.0
 10
6072.794662928472
 20
4369.879344808916
 30
0.0
 10
6075.811810298203
 20
4373.694064187614
 30
0.0
 10
6077.901627911314
 20
4376.181040414461
 30
0.0
 10
6082.229272576978
 20
4381.048931958368
 30
0.0
 10
6084.466239058313
 20
4383.430463945329
 30
0.0
 10
6087.919384353198
 20
4386.932755030393
 30
0.0
 10
6089.08841976125
 20
4388.089399153858
 30
0.0
 10
6091.452250876825
 20
4390.371727509012
 30
0.0
 10
6092.646972233954
 20
4391.497420873248
 30
0.0
 10
6096.268162976078
 20
4394.82976867738
 30
0.0
 10
6098.731581785551
 20
4396.991784150672
 30
0.0
 10
6103.748111364296
 20
4401.207457350018
 30
0.0
 10
6106.30276000273
 20
4403.259257161067
 30
0.0
 10
6111.506286000692
 20
4407.249018129561
 30
0.0
 10
6114.154580350311
 20
4409.187683627064
 30
0.0
 10
6119.540074426659
 20
4412.957607153191
 30
0.0
 10
6122.268415105794
 20
4414.783484930877
 30
0.0
 10
6130.55465204236
 20
4420.088868662034
 30
0.0
 10
6136.216217462961
 20
4423.393923250321
 30
0.0
 10
6143.462423713352
 20
4427.239641858908
 30
0.0
 10
6144.920065848783
 20
4427.994609526451
 30
0.0
 10
6147.85182743983
 20
4429.476740246457
 30
0.0
 10
6149.326141706083
 20
4430.204039614035
 30
0.0
 10
6153.759843406296
 20
4432.338115504121
 30
0.0
 10
6156.73455390699
 20
4433.699225022177
 30
0.0
 10
6165.713597775424
 20
4437.603646114245
 30
0.0
 10
6171.772207839128
 20
4439.970121274693
 30
0.0
 10
6184.026266441045
 20
4444.257244438281
 30
0.0
 10
6190.222766736822
 20
4446.174465758339
 30
0.0
 10
6202.748046301603
 20
4449.577936343147
 30
0.0
 10
6209.076096788813
 20
4451.066560018424
 30
0.0
 10
6218.664570416008
 20
4452.985425966713
 30
0.0
 10
6221.876459186028
 20
4453.573795844338
 30
0.0
 10
6228.331560812406
 20
4454.648480030657
 30
0.0
 10
6231.578827034362
 20
4455.134841577815
 30
0.0
 10
6241.329515655977
 20
4456.430735427331
 30
0.0
 10
6247.845887432646
 20
4457.081398683034
 30
0.0
 10
6256.009718417602
 20
4457.648578428407
 30
0.0
 10
6257.643635275356
 20
4457.746592930448
 30
0.0
 10
6260.913212490306
 20
4457.919255113375
 30
0.0
 10
6262.548765421374
 20
4457.995342546427
 30
0.0
 10
6267.45870329322
 20
4458.179657802954
 30
0.0
 10
6270.736075989168
 20
4458.247842974583
 30
0.0
 10
6274.018524973725
 20
4458.24799444057
 30
0.0
  0
SPLINE
  5
1AC
330
1F
100
AcDbEntity
  8
0
  6
Continuous
 62
     7
370
    25
100
AcDbSpline
210
0.0
220
0.0
230
1.0
 70
     8
 71
     3
 72
   132
 73
   128
 74
     0
 42
0.000000001
 43
0.00000001
 40
0.0
 40
0.0
 40
0.0
 40
0.0
 40
0.0156250000000001
 40
0.0156250000000001
 40
0.0234375000000001
 40
0.0234375000000001
 40
0.0312500000000001
 40
0.0312500000000001
 40
0.0625000000000002
 40
0.0625000000000002
 40
0.0781250000000002
 40
0.0781250000000002
 40
0.0937500000000002
 40
0.0937500000000002
 40
0.1250000000000002
 40
0.1250000000000002
 40
0.1562500000000003
 40
0.1562500000000003
 40
0.1875000000000003
 40
0.1875000000000003
 40
0.2031250000000004
 40
0.2031250000000004
 40
0.2109375000000004
 40
0.2109375000000004
 40
0.2187500000000004
 40
0.2187500000000004
 40
0.2500000000000007
 40
0.2500000000000007
 40
0.2656250000000009
 40
0.2656250000000009
 40
0.2812500000000011
 40
0.2812500000000011
 40
0.2968750000000012
 40
0.2968750000000012
 40
0.3125000000000014
 40
0.3125000000000014
 40
0.3203125000000014
 40
0.3203125000000014
 40
0.3281250000000016
 40
0.3281250000000016
 40
0.3437500000000018
 40
0.3437500000000018
 40
0.359375000000002
 40
0.359375000000002
 40
0.3671875000000021
 40
0.3671875000000021
 40
0.3750000000000023
 40
0.3750000000000023
 40
0.3828125000000024
 40
0.3828125000000024
 40
0.3906250000000025
 40
0.3906250000000025
 40
0.4062500000000028
 40
0.4062500000000028
 40
0.4140625000000029
 40
0.4140625000000029
 40
0.4179687500000029
 40
0.4179687500000029
 40
0.4218750000000029
 40
0.4218750000000029
 40
0.4375000000000029
 40
0.4375000000000029
 40
0.468750000000003
 40
0.468750000000003
 40
0.4843750000000031
 40
0.4843750000000031
 40
0.5000000000000031
 40
0.5000000000000031
 40
0.5156250000000031
 40
0.5156250000000031
 40
0.5312500000000032
 40
0.5312500000000032
 40
0.5390625000000032
 40
0.5390625000000032
 40
0.5468750000000032
 40
0.5468750000000032
 40
0.5507812500000033
 40
0.5507812500000033
 40
0.5546875000000033
 40
0.5546875000000033
 40
0.5625000000000033
 40
0.5625000000000033
 40
0.5781250000000032
 40
0.5781250000000032
 40
0.5937500000000032
 40
0.5937500000000032
 40
0.6093750000000031
 40
0.6093750000000031
 40
0.6171875000000032
 40
0.6171875000000032
 40
0.6250000000000032
 40
0.6250000000000032
 40
0.6562500000000034
 40
0.6562500000000034
 40
0.6718750000000034
 40
0.6718750000000034
 40
0.6875000000000036
 40
0.6875000000000036
 40
0.7187500000000034
 40
0.7187500000000034
 40
0.7343750000000033
 40
0.7343750000000033
 40
0.7500000000000033
 40
0.7500000000000033
 40
0.7578125000000032
 40
0.7578125000000032
 40
0.7656250000000031
 40
0.7656250000000031
 40
0.7812500000000029
 40
0.7812500000000029
 40
0.7968750000000028
 40
0.7968750000000028
 40
0.8125000000000024
 40
0.8125000000000024
 40
0.8437500000000019
 40
0.8437500000000019
 40
0.8750000000000013
 40
0.8750000000000013
 40
0.8906250000000011
 40
0.8906250000000011
 40
0.898437500000001
 40
0.898437500000001
 40
0.9062500000000009
 40
0.9062500000000009
 40
0.9375000000000006
 40
0.9375000000000006
 40
1.0
 40
1.0
 40
1.0
 40
1.0
 10
6274.018985698475
 20
4458.24799444057
 30
0.0
 10
6277.300287980599
 20
4458.247843027497
 30
0.0
 10
6280.576517488194
 20
4458.179705005169
 30
0.0
 10
6285.484744428364
 20
4457.995512082992
 30
0.0
 10
6287.119728168824
 20
4457.919480437929
 30
0.0
 10
6290.388165554342
 20
4457.746910421637
 30
0.0
 10
6292.021515115003
 20
4457.648977084942
 30
0.0
 10
6300.182507987006
 20
4457.082181354313
 30
0.0
 10
6306.696618210995
 20
4456.431945095497
 30
0.0
 10
6316.443933963391
 20
4455.136952546493
 30
0.0
 10
6319.690109381153
 20
4454.650928415951
 30
0.0
 10
6326.143065953253
 20
4453.576978029858
 30
0.0
 10
6329.353892252376
 20
4452.989007816122
 30
0.0
 10
6338.93921517704
 20
4451.071460463201
 30
0.0
 10
6345.265214837905
 20
4449.583877587855
 30
0.0
 10
6357.786485189878
 20
4446.182789777049
 30
0.0
 10
6363.981036553523
 20
4444.266941233779
 30
0.0
 10
6376.231296099953
 20
4439.98288554812
 30
0.0
 10
6382.288055438008
 20
4437.618103126499
 30
0.0
 10
6391.264422167294
 20
4433.71654352493
 30
0.0
 10
6394.238256195898
 20
4432.356439664951
 30
0.0
 10
6398.670666226979
 20
4430.223947324288
 30
0.0
 10
6400.144558081562
 20
4429.49718543918
 30
0.0
 10
6403.07560602296
 20
4428.016096516044
 30
0.0
 10
6404.532898855811
 20
4427.261662440331
 30
0.0
 10
6411.777394666666
 20
4423.4186726628
 30
0.0
 10
6417.437704347416
 20
4420.115991165841
 30
0.0
 10
6425.722194050007
 20
4414.814397198694
 30
0.0
 10
6428.449869539027
 20
4412.989889385077
 30
0.0
 10
6433.834536856829
 20
4409.222556965437
 30
0.0
 10
6436.48246253965
 20
4407.28524103876
 30
0.0
 10
6441.685339582343
 20
4403.298285982657
 30
0.0
 10
6444.239717065921
 20
4401.247953547584
 30
0.0
 10
6449.255706987412
 20
4397.035218304644
 30
0.0
 10
6451.71889340451
 20
4394.874717036665
 30
0.0
 10
6455.339852369117
 20
4391.544781661084
 30
0.0
 10
6456.534512461463
 20
4390.419911762679
 30
0.0
 10
6458.898250427235
 20
4388.139265833171
 30
0.0
 10
6460.067361421326
 20
4386.983375324754
 30
0.0
 10
6463.520770937515
 20
4383.48336151617
 30
0.0
 10
6465.75795908549
 20
4381.1033803317
 30
0.0
 10
6470.086354575087
 20
4376.238810735065
 30
0.0
 10
6472.176592643674
 20
4373.753527759225
 30
0.0
 10
6475.194650477229
 20
4369.941548742806
 30
0.0
 10
6476.180234703573
 20
4368.656245679254
 30
0.0
 10
6478.113642158845
 20
4366.058580698637
 30
0.0
 10
6479.058307468784
 20
4364.74395587346
 30
0.0
 10
6480.911729437423
 20
4362.088974727644
 30
0.0
 10
6481.816506506626
 20
4360.745766704546
 30
0.0
 10
6483.581347195688
 20
4358.027309802472
 30
0.0
 10
6484.443875510306
 20
4356.653827079558
 30
0.0
 10
6486.941859603953
 20
4352.469172548533
 30
0.0
 10
6488.498615705141
 20
4349.601605962741
 30
0.0
 10
6490.684428179023
 20
4345.193254847723
 30
0.0
 10
6491.388110816923
 20
4343.705946161739
 30
0.0
 10
6492.404735089025
 20
4341.447108316327
 30
0.0
 10
6492.737219512807
 20
4340.689155956265
 30
0.0
 10
6493.386226033234
 20
4339.171135789552
 30
0.0
 10
6493.703147278806
 20
4338.410205430372
 30
0.0
 10
6495.250115587659
 20
4334.596021183087
 30
0.0
 10
6496.366927035522
 20
4331.514088424648
 30
0.0
 10
6499.358664256923
 20
4322.177443923805
 30
0.0
 10
6500.864747657566
 20
4315.829316496356
 30
0.0
 10
6502.395182016762
 20
4306.122571871554
 30
0.0
 10
6502.782909379716
 20
4302.855986008561
 30
0.0
 10
6503.302113048491
 20
4296.257914287876
 30
0.0
 10
6503.430327884604
 20
4292.971112235118
 30
0.0
 10
6503.437337172669
 20
4286.421214196807
 30
0.0
 10
6503.317878037014
 20
4283.15787030252
 30
0.0
 10
6502.819353983188
 20
4276.655683692506
 30
0.0
 10
6502.438618408628
 20
4273.416998650658
 30
0.0
 10
6501.667732815923
 20
4268.577826215317
 30
0.0
 10
6501.379189972774
 20
4266.967749299151
 30
0.0
 10
6500.741103698023
 20
4263.7533526048
 30
0.0
 10
6500.391644702882
 20
4262.149024857635
 30
0.0
 10
6499.815533139647
 20
4259.747433653243
 30
0.0
 10
6499.614748699385
 20
4258.947728803481
 30
0.0
 10
6499.193529691725
 20
4257.350173651531
 30
0.0
 10
6498.972520477599
 20
4256.551288212883
 30
0.0
 10
6498.280941837523
 20
4254.167986012914
 30
0.0
 10
6497.782140531206
 20
4252.596021672494
 30
0.0
 10
6496.21561895334
 20
4247.911527050256
 30
0.0
 10
6495.076467140457
 20
4244.830983518599
 30
0.0
 10
6492.594671684608
 20
4238.761019259124
 30
0.0
 10
6491.253919351613
 20
4235.770751610486
 30
0.0
 10
6488.374233655198
 20
4229.878960962822
 30
0.0
 10
6486.837062369844
 20
4226.976648912491
 30
0.0
 10
6484.383811028923
 20
4222.689228227928
 30
0.0
 10
6483.541035046199
 20
4221.271294331632
 30
0.0
 10
6481.808594569974
 20
4218.456423021148
 30
0.0
 10
6480.919344546255
 20
4217.061163255932
 30
0.0
 10
6476.37663676609
 20
4210.164920867379
 30
0.0
 10
6472.423250491899
 20
4204.881315541498
 30
0.0
 10
6466.020387417912
 20
4197.301569769103
 30
0.0
 10
6463.82178075685
 20
4194.846876487529
 30
0.0
 10
6459.306638319499
 20
4190.083556717348
 30
0.0
 10
6456.989847919709
 20
4187.772765509104
 30
0.0
 10
6449.874957396639
 20
4181.037275167227
 30
0.0
 10
6444.915811324918
 20
4176.805302664772
 30
0.0
 10
6437.165518889442
 20
4170.830209409605
 30
0.0
 10
6434.531675156229
 20
4168.898841722694
 30
0.0
 10
6429.170550424226
 20
4165.147924433057
 30
0.0
 10
6426.442924925804
 20
4163.328787099341
 30
0.0
 10
6422.278665965811
 20
4160.687226976753
 30
0.0
 10
6420.878482449278
 20
4159.821183872179
 30
0.0
 10
6418.053837738335
 20
4158.118151204057
 30
0.0
 10
6416.632967081889
 20
4157.282999803432
 30
0.0
 10
6412.354078605787
 20
4154.827472888569
 30
0.0
 10
6409.476687926175
 20
4153.254466468651
 30
0.0
 10
6403.675115630953
 20
4150.229234149127
 30
0.0
 10
6400.750746340304
 20
4148.777492691401
 30
0.0
 10
6394.852126919577
 20
4146.002766203052
 30
0.0
 10
6391.878529827183
 20
4144.678095499135
 30
0.0
 10
6382.892295662258
 20
4140.873009822907
 30
0.0
 10
6376.814694752053
 20
4138.560284723612
 30
0.0
 10
6364.489634024044
 20
4134.373287973383
 30
0.0
 10
6358.242707124708
 20
4132.497640710512
 30
0.0
 10
6348.746276271202
 20
4130.009515684808
 30
0.0
 10
6345.559963403949
 20
4129.233924015518
 30
0.0
 10
6340.749903064271
 20
4128.149500556739
 30
0.0
 10
6339.140256282255
 20
4127.800957630016
 30
0.0
 10
6335.918718611431
 20
4127.131707436397
 30
0.0
 10
6334.306513518075
 20
4126.810903830949
 30
0.0
 10
6326.238376164682
 20
4125.275325375975
 30
0.0
 10
6319.761065344834
 20
4124.266282081129
 30
0.0
 10
6300.264803004055
 20
4121.858215716026
 30
0.0
 10
6287.1807214281
 20
4121.085956449987
 30
0.0
 10
6274.01875533612
 20
4121.063200551223
 30
0.0
  0
CIRCLE
  5
1AD
330
1F
100
AcDbEntity
  8
0
  6
Continuous
 62
     7
370
    25
100
AcDbCircle
 10
6274.0187553361
 20
4508.9700460491
 30
0.0
 40
17.5
  0
SPLINE
  5
1AE
330
1F
100
AcDbEntity
  8
0
  6
Continuous
 62
     7
370
    25
100
AcDbSpline
210
0.0
220
0.0
230
1.0
 70
    11
 71
     3
 72
    39
 73
    35
 74
     0
 42
0.000000001
 43
0.00000001
 40
0.0
 40
0.0
 40
0.0
 40
0.0
 40
0.1963495408493621
 40
0.3926990816987241
 40
0.5890486225480862
 40
0.7853981633974483
 40
0.9817477042468103
 40
1.178097245096172
 40
1.374446785945534
 40
1.570796326794897
 40
1.767145867644259
 40
1.963495408493621
 40
2.159844949342983
 40
2.356194490192345
 40
2.552544031041707
 40
2.748893571891069
 40
2.945243112740431
 40
3.141592653589793
 40
3.337942194439155
 40
3.534291735288517
 40
3.730641276137879
 40
3.926990816987241
 40
4.123340357836604
 40
4.319689898685965
 40
4.516039439535327
 40
4.71238898038469
 40
4.908738521234052
 40
5.105088062083414
 40
5.301437602932776
 40
5.497787143782138
 40
5.6941366846315
 40
5.890486225480862
 40
6.086835766330224
 40
6.283185307179586
 40
6.283185307179586
 40
6.283185307179586
 40
6.283185307179586
 10
6007.5187553361
 20
4322.470046049141
 30
0.0
 10
6007.5187553361
 20
4337.479538447694
 30
0.0
 10
6010.964168081809
 20
4367.498523244798
 30
0.0
 10
6026.26345321718
 20
4410.778612001881
 30
0.0
 10
6051.090620978951
 20
4450.638108711905
 30
0.0
 10
6084.47569277214
 20
4485.547799419256
 30
0.0
 10
6125.125517086955
 20
4514.176626650396
 30
0.0
 10
6171.475318932065
 20
4535.437441178316
 30
0.0
 10
6221.747698855514
 20
4548.52462725547
 30
0.0
 10
6274.0187553361
 20
4552.942755445978
 30
0.0
 10
6326.289811816686
 20
4548.52462725547
 30
0.0
 10
6376.562191740135
 20
4535.437441178316
 30
0.0
 10
6422.911993585245
 20
4514.176626650396
 30
0.0
 10
6463.56181790006
 20
4485.547799419256
 30
0.0
 10
6496.946889693249
 20
4450.638108711905
 30
0.0
 10
6521.774057455021
 20
4410.778612001881
 30
0.0
 10
6537.073342590391
 20
4367.498523244798
 30
0.0
 10
6542.241461708954
 20
4322.470046049141
 30
0.0
 10
6537.073342590391
 20
4277.441568853485
 30
0.0
 10
6521.774057455021
 20
4234.161480096403
 30
0.0
 10
6496.946889693249
 20
4194.301983386379
 30
0.0
 10
6463.56181790006
 20
4159.392292679027
 30
0.0
 10
6422.911993585245
 20
4130.763465447887
 30
0.0
 10
6376.562191740135
 20
4109.502650919968
 30
0.0
 10
6326.289811816687
 20
4096.415464842814
 30
0.0
 10
6274.0187553361
 20
4091.997336652305
 30
0.0
 10
6221.747698855514
 20
4096.415464842814
 30
0.0
 10
6171.475318932065
 20
4109.502650919968
 30
0.0
 10
6125.125517086955
 20
4130.763465447887
 30
0.0
 10
6084.475692772141
 20
4159.392292679027
 30
0.0
 10
6051.090620978952
 20
4194.301983386379
 30
0.0
 10
6026.26345321718
 20
4234.161480096403
 30
0.0
 10
6010.964168081809
 20
4277.441568853485
 30
0.0
 10
6007.5187553361
 20
4307.46055365059
 30
0.0
 10
6007.5187553361
 20
4322.470046049141
 30
0.0
  0
ENDSEC
  0
SECTION
  2
OBJECTS
  0
DICTIONARY
  5
C
330
0
100
AcDbDictionary
281
     1
  3
ACAD_GROUP
350
D
  3
ACAD_LAYOUT
350
1A
  3
ACAD_MLINESTYLE
350
17
  3
ACAD_PLOTSETTINGS
350
19
  3
ACAD_PLOTSTYLENAME
350
E
  3
ACAD_SCALELIST
350
47
  0
DICTIONARY
  5
D
102
{ACAD_REACTORS
330
C
102
}
330
C
100
AcDbDictionary
281
     1
  0
DICTIONARY
  5
1A
102
{ACAD_REACTORS
330
C
102
}
330
C
100
AcDbDictionary
281
     1
  3
Layout1
350
1E
  3
Layout2
350
26
  3
Model
350
22
  0
DICTIONARY
  5
17
102
{ACAD_REACTORS
330
C
102
}
330
C
100
AcDbDictionary
281
     1
  3
Standard
350
18
  0
DICTIONARY
  5
19
102
{ACAD_REACTORS
330
C
102
}
330
C
100
AcDbDictionary
281
     1
  0
ACDBDICTIONARYWDFLT
  5
E
102
{ACAD_REACTORS
330
C
102
}
330
C
100
AcDbDictionary
281
     1
  3
Normal
350
F
100
AcDbDictionaryWithDefault
340
F
  0
DICTIONARY
  5
47
102
{ACAD_REACTORS
330
C
102
}
330
C
100
AcDbDictionary
281
     1
  3
A0
350
48
  3
A1
350
49
  3
A2
350
4A
  3
A3
350
4B
  3
A4
350
4C
  3
A5
350
4D
  3
A6
350
4E
  3
A7
350
4F
  3
A8
350
50
  3
A9
350
51
  3
B0
350
52
  3
B1
350
53
  3
B2
350
54
  3
B3
350
55
  3
B4
350
56
  3
B5
350
57
  3
B6
350
58
  3
B7
350
59
  3
B8
350
5A
  3
B9
350
5B
  3
C0
350
5C
  3
C1
350
5D
  3
C2
350
5E
  3
C3
350
5F
  3
C4
350
60
  3
C5
350
61
  3
C6
350
62
  3
C7
350
63
  3
C8
350
64
  3
C9
350
65
  3
D0
350
66
  3
D1
350
67
  3
D2
350
68
  0
LAYOUT
  5
1E
102
{ACAD_REACTORS
330
1A
102
}
330
1A
100
AcDbPlotSettings
  1

  2
none_device
  4

  6

 40
0.0
 41
0.0
 42
0.0
 43
0.0
 44
0.0
 45
0.0
 46
0.0
 47
0.0
 48
0.0
 49
0.0
140
0.0
141
0.0
142
1.0
143
1.0
 70
   688
 72
     1
 73
     0
 74
     5
  7

 75
    16
147
1.0
148
0.0
149
0.0
100
AcDbLayout
  1
Layout1
 70
     1
 71
     1
 10
0.0
 20
0.0
 11
420.0
 21
297.0
 12
0.0
 22
0.0
 32
0.0
 14
1.0000000000E+20
 24
1.0000000000E+20
 34
1.0000000000E+20
 15
-1.0000000000E+20
 25
-1.0000000000E+20
 35
-1.0000000000E+20
146
0.0
 13
0.0
 23
0.0
 33
0.0
 16
1.0
 26
0.0
 36
0.0
 17
0.0
 27
1.0
 37
0.0
 76
     0
330
1B
  0
LAYOUT
  5
26
102
{ACAD_REACTORS
330
1A
102
}
330
1A
100
AcDbPlotSettings
  1

  2
none_device
  4

  6

 40
0.0
 41
0.0
 42
0.0
 43
0.0
 44
0.0
 45
0.0
 46
0.0
 47
0.0
 48
0.0
 49
0.0
140
0.0
141
0.0
142
1.0
143
1.0
 70
   688
 72
     1
 73
     0
 74
     5
  7

 75
    16
147
1.0
148
0.0
149
0.0
100
AcDbLayout
  1
Layout2
 70
     1
 71
     2
 10
0.0
 20
0.0
 11
0.0
 21
0.0
 12
0.0
 22
0.0
 32
0.0
 14
0.0
 24
0.0
 34
0.0
 15
0.0
 25
0.0
 35
0.0
146
0.0
 13
0.0
 23
0.0
 33
0.0
 16
1.0
 26
0.0
 36
0.0
 17
0.0
 27
1.0
 37
0.0
 76
     0
330
23
  0
LAYOUT
  5
22
102
{ACAD_REACTORS
330
1A
102
}
330
1A
100
AcDbPlotSettings
  1

  2
none_device
  4
Letter_(8.50_x_11.00_Inches)
  6

 40
6.35
 41
6.35
 42
6.35000508
 43
6.35000508
 44
215.9
 45
279.4
 46
0.0
 47
0.0
 48
0.0
 49
0.0
140
0.0
141
0.0
142
1.0
143
1.0
 70
  1712
 72
     1
 73
     0
 74
     0
  7

 75
     0
147
1.0
148
0.0
149
0.0
100
AcDbLayout
  1
Model
 70
     1
 71
     0
 10
0.0
 20
0.0
 11
20000.0
 21
10000.0
 12
0.0
 22
0.0
 32
0.0
 14
0.0
 24
0.0
 34
0.0
 15
20000.0
 25
10000.0
 35
0.0
146
0.0
 13
0.0
 23
0.0
 33
0.0
 16
1.0
 26
0.0
 36
0.0
 17
0.0
 27
1.0
 37
0.0
 76
     0
330
1F
331
29
  0
MLINESTYLE
  5
18
102
{ACAD_REACTORS
330
17
102
}
330
17
100
AcDbMlineStyle
  2
Standard
 70
     0
  3

 62
   256
 51
90.0
 52
90.0
 71
     2
 49
0.5
 62
   256
  6
BYLAYER
 49
-0.5
 62
   256
  6
BYLAYER
  0
ACDBPLACEHOLDER
  5
F
102
{ACAD_REACTORS
330
E
102
}
330
E
  0
SCALE
  5
48
102
{ACAD_REACTORS
330
47
102
}
330
47
100
AcDbScale
 70
     0
300
1:1
140
1.0
141
1.0
290
     1
  0
SCALE
  5
49
102
{ACAD_REACTORS
330
47
102
}
330
47
100
AcDbScale
 70
     0
300
1:2
140
1.0
141
2.0
290
     0
  0
SCALE
  5
4A
102
{ACAD_REACTORS
330
47
102
}
330
47
100
AcDbScale
 70
     0
300
1:4
140
1.0
141
4.0
290
     0
  0
SCALE
  5
4B
102
{ACAD_REACTORS
330
47
102
}
330
47
100
AcDbScale
 70
     0
300
1:5
140
1.0
141
5.0
290
     0
  0
SCALE
  5
4C
102
{ACAD_REACTORS
330
47
102
}
330
47
100
AcDbScale
 70
     0
300
1:8
140
1.0
141
8.0
290
     0
  0
SCALE
  5
4D
102
{ACAD_REACTORS
330
47
102
}
330
47
100
AcDbScale
 70
     0
300
1:10
140
1.0
141
10.0
290
     0
  0
SCALE
  5
4E
102
{ACAD_REACTORS
330
47
102
}
330
47
100
AcDbScale
 70
     0
300
1:16
140
1.0
141
16.0
290
     0
  0
SCALE
  5
4F
102
{ACAD_REACTORS
330
47
102
}
330
47
100
AcDbScale
 70
     0
300
1:20
140
1.0
141
20.0
290
     0
  0
SCALE
  5
50
102
{ACAD_REACTORS
330
47
102
}
330
47
100
AcDbScale
 70
     0
300
1:30
140
1.0
141
30.0
290
     0
  0
SCALE
  5
51
102
{ACAD_REACTORS
330
47
102
}
330
47
100
AcDbScale
 70
     0
300
1:40
140
1.0
141
40.0
290
     0
  0
SCALE
  5
52
102
{ACAD_REACTORS
330
47
102
}
330
47
100
AcDbScale
 70
     0
300
1:50
140
1.0
141
50.0
290
     0
  0
SCALE
  5
53
102
{ACAD_REACTORS
330
47
102
}
330
47
100
AcDbScale
 70
     0
300
1:100
140
1.0
141
100.0
290
     0
  0
SCALE
  5
54
102
{ACAD_REACTORS
330
47
102
}
330
47
100
AcDbScale
 70
     0
300
2:1
140
2.0
141
1.0
290
     0
  0
SCALE
  5
55
102
{ACAD_REACTORS
330
47
102
}
330
47
100
AcDbScale
 70
     0
300
4:1
140
4.0
141
1.0
290
     0
  0
SCALE
  5
56
102
{ACAD_REACTORS
330
47
102
}
330
47
100
AcDbScale
 70
     0
300
8:1
140
8.0
141
1.0
290
     0
  0
SCALE
  5
57
102
{ACAD_REACTORS
330
47
102
}
330
47
100
AcDbScale
 70
     0
300
10:1
140
10.0
141
1.0
290
     0
  0
SCALE
  5
58
102
{ACAD_REACTORS
330
47
102
}
330
47
100
AcDbScale
 70
     0
300
100:1
140
100.0
141
1.0
290
     0
  0
SCALE
  5
59
102
{ACAD_REACTORS
330
47
102
}
330
47
100
AcDbScale
 70
     0
300
1/128" = 1'-0"
140
0.0078125
141
12.0
290
     0
  0
SCALE
  5
5A
102
{ACAD_REACTORS
330
47
102
}
330
47
100
AcDbScale
 70
     0
300
1/64" = 1'-0"
140
0.015625
141
12.0
290
     0
  0
SCALE
  5
5B
102
{ACAD_REACTORS
330
47
102
}
330
47
100
AcDbScale
 70
     0
300
1/32" = 1'-0"
140
0.03125
141
12.0
290
     0
  0
SCALE
  5
5C
102
{ACAD_REACTORS
330
47
102
}
330
47
100
AcDbScale
 70
     0
300
1/16" = 1'-0"
140
0.0625
141
12.0
290
     0
  0
SCALE
  5
5D
102
{ACAD_REACTORS
330
47
102
}
330
47
100
AcDbScale
 70
     0
300
3/32" = 1'-0"
140
0.09375
141
12.0
290
     0
  0
SCALE
  5
5E
102
{ACAD_REACTORS
330
47
102
}
330
47
100
AcDbScale
 70
     0
300
1/8" = 1'-0"
140
0.125
141
12.0
290
     0
  0
SCALE
  5
5F
102
{ACAD_REACTORS
330
47
102
}
330
47
100
AcDbScale
 70
     0
300
3/16" = 1'-0"
140
0.1875
141
12.0
290
     0
  0
SCALE
  5
60
102
{ACAD_REACTORS
330
47
102
}
330
47
100
AcDbScale
 70
     0
300
1/4" = 1'-0"
140
0.25
141
12.0
290
     0
  0
SCALE
  5
61
102
{ACAD_REACTORS
330
47
102
}
330
47
100
AcDbScale
 70
     0
300
3/8" = 1'-0"
140
0.375
141
12.0
290
     0
  0
SCALE
  5
62
102
{ACAD_REACTORS
330
47
102
}
330
47
100
AcDbScale
 70
     0
300
1/2" = 1'-0"
140
0.5
141
12.0
290
     0
  0
SCALE
  5
63
102
{ACAD_REACTORS
330
47
102
}
330
47
100
AcDbScale
 70
     0
300
3/4" = 1'-0"
140
0.75
141
12.0
290
     0
  0
SCALE
  5
64
102
{ACAD_REACTORS
330
47
102
}
330
47
100
AcDbScale
 70
     0
300
1" = 1'-0"
140
1.0
141
12.0
290
     0
  0
SCALE
  5
65
102
{ACAD_REACTORS
330
47
102
}
330
47
100
AcDbScale
 70
     0
300
1-1/2" = 1'-0"
140
1.5
141
12.0
290
     0
  0
SCALE
  5
66
102
{ACAD_REACTORS
330
47
102
}
330
47
100
AcDbScale
 70
     0
300
3" = 1'-0"
140
3.0
141
12.0
290
     0
  0
SCALE
  5
67
102
{ACAD_REACTORS
330
47
102
}
330
47
100
AcDbScale
 70
     0
300
6" = 1'-0"
140
6.0
141
12.0
290
     0
  0
SCALE
  5
68
102
{ACAD_REACTORS
330
47
102
}
330
47
100
AcDbScale
 70
     0
300
1'-0" = 1'-0"
140
12.0
141
12.0
290
     0
  0
ENDSEC
  0
EOF
