  0
SECTION
  2
HEADER
  9
$ACADVER
  1
AC1015
  9
$ACADMAINTVER
 70
     6
  9
$DWGCODEPAGE
  3
ANSI_1250
  9
$INSBASE
 10
0.0
 20
0.0
 30
0.0
  9
$EXTMIN
 10
0.0
 20
0.0
 30
0.0
  9
$EXTMAX
 10
20000.0
 20
10000.0
 30
0.0
  9
$LIMMIN
 10
0.0
 20
0.0
  9
$LIMMAX
 10
20000.0
 20
10000.0
  9
$ORTHOMODE
 70
     0
  9
$REGENMODE
 70
     1
  9
$FILLMODE
 70
     1
  9
$QTEXTMODE
 70
     0
  9
$MIRRTEXT
 70
     1
  9
$LTSCALE
 40
1.0
  9
$ATTMODE
 70
     1
  9
$TEXTSIZE
 40
2.0
  9
$TRACEWID
 40
1.0
  9
$TEXTSTYLE
  7
Standard
  9
$CLAYER
  8
0
  9
$CELTYPE
  6
ByLayer
  9
$CECOLOR
 62
   256
  9
$CELTSCALE
 40
1.0
  9
$DISPSILH
 70
     0
  9
$DIMSCALE
 40
1.0
  9
$DIMASZ
 40
2.0
  9
$DIMEXO
 40
1.0
  9
$DIMDLI
 40
3.75
  9
$DIMRND
 40
0.0
  9
$DIMDLE
 40
0.0
  9
$DIMEXE
 40
1.0
  9
$DIMTP
 40
0.0
  9
$DIMTM
 40
0.0
  9
$DIMTXT
 40
2.0
  9
$DIMCEN
 40
2.5
  9
$DIMTSZ
 40
0.0
  9
$DIMTOL
 70
     0
  9
$DIMLIM
 70
     0
  9
$DIMTIH
 70
     1
  9
$DIMTOH
 70
     1
  9
$DIMSE1
 70
     0
  9
$DIMSE2
 70
     0
  9
$DIMTAD
 70
     1
  9
$DIMZIN
 70
     0
  9
$DIMBLK
  1

  9
$DIMASO
 70
     1
  9
$DIMSHO
 70
     1
  9
$DIMPOST
  1

  9
$DIMAPOST
  1

  9
$DIMALT
 70
     0
  9
$DIMALTD
 70
     3
  9
$DIMALTF
 40
0.0393700787
  9
$DIMLFAC
 40
1.0
  9
$DIMTOFL
 70
     1
  9
$DIMTVP
 40
0.0
  9
$DIMTIX
 70
     0
  9
$DIMSOXD
 70
     0
  9
$DIMSAH
 70
     0
  9
$DIMBLK1
  1

  9
$DIMBLK2
  1

  9
$DIMSTYLE
  2
ISO-25
  9
$DIMCLRD
 70
     0
  9
$DIMCLRE
 70
     0
  9
$DIMCLRT
 70
     0
  9
$DIMTFAC
 40
1.0
  9
$DIMGAP
 40
1.524
  9
$DIMJUST
 70
     0
  9
$DIMSD1
 70
     0
  9
$DIMSD2
 70
     0
  9
$DIMTOLJ
 70
     0
  9
$DIMTZIN
 70
     0
  9
$DIMALTZ
 70
     0
  9
$DIMALTTZ
 70
     0
  9
$DIMUPT
 70
     0
  9
$DIMDEC
 70
     2
  9
$DIMTDEC
 70
     0
  9
$DIMALTU
 70
     2
  9
$DIMALTTD
 70
     3
  9
$DIMTXSTY
  7
Standard
  9
$DIMAUNIT
 70
     0
  9
$DIMADEC
 70
     2
  9
$DIMALTRND
 40
0.0
  9
$DIMAZIN
 70
     0
  9
$DIMDSEP
 70
    44
  9
$DIMATFIT
 70
     3
  9
$DIMFRAC
 70
     0
  9
$DIMLDRBLK
  1

  9
$DIMLUNIT
 70
     2
  9
$DIMLWD
 70
    -2
  9
$DIMLWE
 70
    -2
  9
$DIMTMOVE
 70
     0
  9
$LUNITS
 70
     2
  9
$LUPREC
 70
     3
  9
$SKETCHINC
 40
1.0
  9
$FILLETRAD
 40
10.0
  9
$AUNITS
 70
     0
  9
$AUPREC
 70
     2
  9
$MENU
  1
.
  9
$ELEVATION
 40
0.0
  9
$PELEVATION
 40
0.0
  9
$THICKNESS
 40
0.0
  9
$LIMCHECK
 70
     0
  9
$CHAMFERA
 40
0.0
  9
$CHAMFERB
 40
0.0
  9
$CHAMFERC
 40
0.0
  9
$CHAMFERD
 40
0.0
  9
$SKPOLY
 70
     0
  9
$TDCREATE
 40
2458688.304325197
  9
$TDUCREATE
 40
2458688.220991863
  9
$TDUPDATE
 40
2458688.304325382
  9
$TDUUPDATE
 40
2458688.220992049
  9
$TDINDWG
 40
0.0000000116
  9
$TDUSRTIMER
 40
0.0000000116
  9
$USRTIMER
 70
     1
  9
$ANGBASE
 50
0.0
  9
$ANGDIR
 70
     0
  9
$PDMODE
 70
     0
  9
$PDSIZE
 40
-1.0
  9
$PLINEWID
 40
0.0
  9
$SPLFRAME
 70
     0
  9
$SPLINETYPE
 70
     6
  9
$SPLINESEGS
 70
     8
  9
$HANDSEED
  5
1CA
  9
$SURFTAB1
 70
     6
  9
$SURFTAB2
 70
     6
  9
$SURFTYPE
 70
     6
  9
$SURFU
 70
     6
  9
$SURFV
 70
     6
  9
$UCSBASE
  2

  9
$UCSNAME
  2

  9
$UCSORG
 10
0.0
 20
0.0
 30
0.0
  9
$UCSXDIR
 10
1.0
 20
0.0
 30
0.0
  9
$UCSYDIR
 10
0.0
 20
1.0
 30
0.0
  9
$UCSORTHOREF
  2

  9
$UCSORTHOVIEW
 70
     0
  9
$UCSORGTOP
 10
0.0
 20
0.0
 30
0.0
  9
$UCSORGBOTTOM
 10
0.0
 20
0.0
 30
0.0
  9
$UCSORGLEFT
 10
0.0
 20
0.0
 30
0.0
  9
$UCSORGRIGHT
 10
0.0
 20
0.0
 30
0.0
  9
$UCSORGFRONT
 10
0.0
 20
0.0
 30
0.0
  9
$UCSORGBACK
 10
0.0
 20
0.0
 30
0.0
  9
$PUCSBASE
  2

  9
$PUCSNAME
  2

  9
$PUCSORG
 10
0.0
 20
0.0
 30
0.0
  9
$PUCSXDIR
 10
1.0
 20
0.0
 30
0.0
  9
$PUCSYDIR
 10
0.0
 20
1.0
 30
0.0
  9
$PUCSORTHOREF
  2

  9
$PUCSORTHOVIEW
 70
     0
  9
$PUCSORGTOP
 10
0.0
 20
0.0
 30
0.0
  9
$PUCSORGBOTTOM
 10
0.0
 20
0.0
 30
0.0
  9
$PUCSORGLEFT
 10
0.0
 20
0.0
 30
0.0
  9
$PUCSORGRIGHT
 10
0.0
 20
0.0
 30
0.0
  9
$PUCSORGFRONT
 10
0.0
 20
0.0
 30
0.0
  9
$PUCSORGBACK
 10
0.0
 20
0.0
 30
0.0
  9
$USERI1
 70
     0
  9
$USERI2
 70
     0
  9
$USERI3
 70
     0
  9
$USERI4
 70
     0
  9
$USERI5
 70
     0
  9
$USERR1
 40
0.0
  9
$USERR2
 40
0.0
  9
$USERR3
 40
0.0
  9
$USERR4
 40
0.0
  9
$USERR5
 40
0.0
  9
$WORLDVIEW
 70
     1
  9
$SHADEDGE
 70
     3
  9
$SHADEDIF
 70
    70
  9
$TILEMODE
 70
     1
  9
$MAXACTVP
 70
    64
  9
$PINSBASE
 10
0.0
 20
0.0
 30
0.0
  9
$PLIMCHECK
 70
     0
  9
$PEXTMIN
 10
1.0000000000E+20
 20
1.0000000000E+20
 30
1.0000000000E+20
  9
$PEXTMAX
 10
-1.0000000000E+20
 20
-1.0000000000E+20
 30
-1.0000000000E+20
  9
$PLIMMIN
 10
0.0
 20
0.0
  9
$PLIMMAX
 10
420.0
 20
297.0
  9
$UNITMODE
 70
     0
  9
$VISRETAIN
 70
     1
  9
$PLINEGEN
 70
     0
  9
$PSLTSCALE
 70
     1
  9
$TREEDEPTH
 70
  3020
  9
$CMLSTYLE
  2
Standard
  9
$CMLJUST
 70
     0
  9
$CMLSCALE
 40
20.0
  9
$PROXYGRAPHICS
 70
     1
  9
$MEASUREMENT
 70
     1
  9
$CELWEIGHT
370
    -1
  9
$ENDCAPS
280
     0
  9
$JOINSTYLE
280
     0
  9
$LWDISPLAY
290
     1
  9
$INSUNITS
 70
     4
  9
$HYPERLINKBASE
  1

  9
$STYLESHEET
  1

  9
$XEDIT
290
     1
  9
$CEPSNTYPE
380
     0
  9
$PSTYLEMODE
290
     1
  9
$FINGERPRINTGUID
  2
{58F48CCC-A4C4-4F45-9255-B69E08CF246F}
  9
$VERSIONGUID
  2
{FAEB1C32-E019-11D5-929B-00C0DF256EC4}
  9
$EXTNAMES
290
     1
  9
$PSVPSCALE
 40
0.0
  9
$OLESTARTUP
290
     0
  0
ENDSEC
  0
SECTION
  2
CLASSES
  0
CLASS
  1
ACDBDICTIONARYWDFLT
  2
AcDbDictionaryWithDefault
  3
ObjectDBX Classes
 90
        0
280
     0
281
     0
  0
CLASS
  1
VISUALSTYLE
  2
AcDbVisualStyle
  3
ObjectDBX Classes
 90
     4095
280
     0
281
     0
  0
CLASS
  1
MATERIAL
  2
AcDbMaterial
  3
ObjectDBX Classes
 90
     1153
280
     0
281
     0
  0
CLASS
  1
SCALE
  2
AcDbScale
  3
ObjectDBX Classes
 90
     1153
280
     0
281
     0
  0
CLASS
  1
TABLESTYLE
  2
AcDbTableStyle
  3
ObjectDBX Classes
 90
     4095
280
     0
281
     0
  0
CLASS
  1
MLEADERSTYLE
  2
AcDbMLeaderStyle
  3
ACDB_MLEADERSTYLE_CLASS
 90
     4095
280
     0
281
     0
  0
CLASS
  1
SUN
  2
AcDbSun
  3
SCENEOE
 90
     1153
280
     0
281
     0
  0
CLASS
  1
ACDBPLACEHOLDER
  2
AcDbPlaceHolder
  3
ObjectDBX Classes
 90
        0
280
     0
281
     0
  0
CLASS
  1
LAYOUT
  2
AcDbLayout
  3
ObjectDBX Classes
 90
        0
280
     0
281
     0
  0
ENDSEC
  0
SECTION
  2
TABLES
  0
TABLE
  2
VPORT
  5
8
330
0
100
AcDbSymbolTable
 70
     1
  0
VPORT
  5
29
330
8
100
AcDbSymbolTableRecord
100
AcDbViewportTableRecord
  2
*Active
 70
     0
 10
0.0
 20
0.0
 11
1.0
 21
1.0
 12
10000.0
 22
5000.0
 13
0.0
 23
0.0
 14
10.0
 24
10.0
 15
10.0
 25
10.0
 16
0.0
 26
0.0
 36
1.0
 17
0.0
 27
0.0
 37
0.0
 40
10000.0
 41
2.0
 42
50.0
 43
0.0
 44
0.0
 50
0.0
 51
0.0
 71
     0
 72
  2000
 73
     1
 74
     3
 75
     0
 76
     0
 77
     0
 78
     0
281
     0
 65
     1
110
0.0
120
0.0
130
0.0
111
1.0
121
0.0
131
0.0
112
0.0
122
1.0
132
0.0
 79
     0
146
0.0
  0
ENDTAB
  0
TABLE
  2
LTYPE
  5
5
330
0
100
AcDbSymbolTable
 70
     6
  0
LTYPE
  5
14
330
5
100
AcDbSymbolTableRecord
100
AcDbLinetypeTableRecord
  2
ByBlock
 70
     0
  3

 72
    65
 73
     0
 40
0.0
  0
LTYPE
  5
15
330
5
100
AcDbSymbolTableRecord
100
AcDbLinetypeTableRecord
  2
ByLayer
 70
     0
  3

 72
    65
 73
     0
 40
0.0
  0
LTYPE
  5
16
330
5
100
AcDbSymbolTableRecord
100
AcDbLinetypeTableRecord
  2
Continuous
 70
     0
  3
Solid line
 72
    65
 73
     0
 40
0.0
  0
LTYPE
  5
6E
330
5
100
AcDbSymbolTableRecord
100
AcDbLinetypeTableRecord
  2
HIDDEN
 70
     0
  3
Hidden __ __ __ __ __ __ __ __ __ __ __ __ __ __
 72
    65
 73
     2
 40
1.905
 49
1.27
 74
     0
 49
-0.635
 74
     0
  0
LTYPE
  5
6F
330
5
100
AcDbSymbolTableRecord
100
AcDbLinetypeTableRecord
  2
PHANTOM
 70
     0
  3
Phantom ______  __  __  ______  __  __  ______
 72
    65
 73
     6
 40
12.7
 49
6.35
 74
     0
 49
-1.27
 74
     0
 49
1.27
 74
     0
 49
-1.27
 74
     0
 49
1.27
 74
     0
 49
-1.27
 74
     0
  0
LTYPE
  5
70
330
5
100
AcDbSymbolTableRecord
100
AcDbLinetypeTableRecord
  2
CENTER
 70
     0
  3
Center ____ _ ____ _ ____ _ ____ _ ____ _ ____
 72
    65
 73
     4
 40
10.16
 49
6.35
 74
     0
 49
-1.27
 74
     0
 49
1.27
 74
     0
 49
-1.27
 74
     0
  0
LTYPE
  5
71
330
5
100
AcDbSymbolTableRecord
100
AcDbLinetypeTableRecord
  2
CENTERX2
 70
     0
  3
Center (2x) ________  __  ________  __  _____
 72
    65
 73
     4
 40
20.32
 49
12.7
 74
     0
 49
-2.54
 74
     0
 49
2.54
 74
     0
 49
-2.54
 74
     0
  0
LTYPE
  5
72
330
5
100
AcDbSymbolTableRecord
100
AcDbLinetypeTableRecord
  2
DOT2
 70
     0
  3
Dot (.5x) ........................................
 72
    65
 73
     2
 40
0.635
 49
0.0
 74
     0
 49
-0.635
 74
     0
  0
ENDTAB
  0
TABLE
  2
LAYER
  5
2
330
0
100
AcDbSymbolTable
 70
    13
  0
LAYER
  5
10
330
2
100
AcDbSymbolTableRecord
100
AcDbLayerTableRecord
  2
0
 70
     0
 62
     7
  6
Continuous
370
    -3
390
F
  0
LAYER
  5
73
330
2
100
AcDbSymbolTableRecord
100
AcDbLayerTableRecord
  2
FORMAT
 70
     0
 62
     7
  6
Continuous
370
    -3
390
F
  0
LAYER
  5
74
330
2
100
AcDbSymbolTableRecord
100
AcDbLayerTableRecord
  2
OSA
 70
     0
 62
     7
  6
CENTER
370
    -3
390
F
  0
LAYER
  5
75
330
2
100
AcDbSymbolTableRecord
100
AcDbLayerTableRecord
  2
0_35
 70
     0
 62
     7
  6
Continuous
370
    35
390
F
  0
LAYER
  5
76
330
2
100
AcDbSymbolTableRecord
100
AcDbLayerTableRecord
  2
0_5
 70
     0
 62
     7
  6
Continuous
370
    50
390
F
  0
LAYER
  5
77
330
2
100
AcDbSymbolTableRecord
100
AcDbLayerTableRecord
  2
0_25
 70
     0
 62
     7
  6
Continuous
370
    25
390
F
  0
LAYER
  5
78
330
2
100
AcDbSymbolTableRecord
100
AcDbLayerTableRecord
  2
0_18
 70
     0
 62
     7
  6
Continuous
370
    -3
390
F
  0
LAYER
  5
79
330
2
100
AcDbSymbolTableRecord
100
AcDbLayerTableRecord
  2
SLD-0
 70
     0
 62
   179
  6
Continuous
370
    -3
390
F
  0
LAYER
  5
7A
330
2
100
AcDbSymbolTableRecord
100
AcDbLayerTableRecord
  2
KOTY
 70
     0
 62
     7
  6
Continuous
370
    -3
390
F
  0
LAYER
  5
7B
330
2
100
AcDbSymbolTableRecord
100
AcDbLayerTableRecord
  2
SILNA
 70
     0
 62
   179
  6
Continuous
370
    -3
390
F
  0
LAYER
  5
7C
330
2
100
AcDbSymbolTableRecord
100
AcDbLayerTableRecord
  2
0_18_1
 70
     0
 62
   179
  6
Continuous
370
    -3
390
F
  0
LAYER
  5
7D
330
2
100
AcDbSymbolTableRecord
100
AcDbLayerTableRecord
  2
0_35_1
 70
     0
 62
   179
  6
Continuous
370
    35
390
F
  0
LAYER
  5
7E
330
2
100
AcDbSymbolTableRecord
100
AcDbLayerTableRecord
  2
0_5_1
 70
     0
 62
   179
  6
Continuous
370
    50
390
F
  0
ENDTAB
  0
TABLE
  2
STYLE
  5
3
330
0
100
AcDbSymbolTable
 70
     1
  0
STYLE
  5
11
330
3
100
AcDbSymbolTableRecord
100
AcDbTextStyleTableRecord
  2
Standard
 70
     0
 40
0.0
 41
1.0
 50
0.0
 71
     0
 42
2.0
  3
txt
  4

  0
ENDTAB
  0
TABLE
  2
VIEW
  5
6
330
0
100
AcDbSymbolTable
 70
     0
  0
ENDTAB
  0
TABLE
  2
UCS
  5
7
330
0
100
AcDbSymbolTable
 70
     0
  0
ENDTAB
  0
TABLE
  2
APPID
  5
9
330
0
100
AcDbSymbolTable
 70
     1
  0
APPID
  5
12
330
9
100
AcDbSymbolTableRecord
100
AcDbRegAppTableRecord
  2
ACAD
 70
     0
  0
ENDTAB
  0
TABLE
  2
DIMSTYLE
  5
A
330
0
100
AcDbSymbolTable
 70
     1
100
AcDbDimStyleTable
  0
DIMSTYLE
105
27
330
A
100
AcDbSymbolTableRecord
100
AcDbDimStyleTableRecord
  2
ISO-25
 70
     0
 41
2.5
 42
0.625
 43
3.75
 44
1.25
 73
     0
 74
     0
 77
     1
 78
     8
140
2.5
141
2.5
143
0.0393700787
147
0.625
171
     3
172
     1
178
     0
271
     2
272
     2
274
     3
278
    44
283
     0
284
     8
340
11
  0
ENDTAB
  0
TABLE
  2
BLOCK_RECORD
  5
1
330
0
100
AcDbSymbolTable
 70
     1
  0
BLOCK_RECORD
  5
1F
330
1
100
AcDbSymbolTableRecord
100
AcDbBlockTableRecord
  2
*Model_Space
340
22
  0
BLOCK_RECORD
  5
1B
330
1
100
AcDbSymbolTableRecord
100
AcDbBlockTableRecord
  2
*Paper_Space
340
1E
  0
BLOCK_RECORD
  5
23
330
1
100
AcDbSymbolTableRecord
100
AcDbBlockTableRecord
  2
*Paper_Space0
340
26
  0
ENDTAB
  0
ENDSEC
  0
SECTION
  2
BLOCKS
  0
BLOCK
  5
20
330
1F
100
AcDbEntity
  8
0
100
AcDbBlockBegin
  2
*Model_Space
 70
     0
 10
0.0
 20
0.0
 30
0.0
  3
*Model_Space
  1

  0
ENDBLK
  5
21
330
1F
100
AcDbEntity
  8
0
100
AcDbBlockEnd
  0
BLOCK
  5
1C
330
1B
100
AcDbEntity
 67
     1
  8
0
100
AcDbBlockBegin
  2
*Paper_Space
 70
     0
 10
0.0
 20
0.0
 30
0.0
  3
*Paper_Space
  1

  0
ENDBLK
  5
1D
330
1B
100
AcDbEntity
 67
     1
  8
0
100
AcDbBlockEnd
  0
BLOCK
  5
24
330
23
100
AcDbEntity
  8
0
100
AcDbBlockBegin
  2
*Paper_Space0
 70
     0
 10
0.0
 20
0.0
 30
0.0
  3
*Paper_Space0
  1

  0
ENDBLK
  5
25
330
23
100
AcDbEntity
  8
0
100
AcDbBlockEnd
  0
ENDSEC
  0
SECTION
  2
ENTITIES
  0
LINE
  5
7F
330
1F
100
AcDbEntity
  8
0
  6
Continuous
 62
     7
370
    25
100
AcDbLine
 10
6308.0187571838
 20
5125.5494576206
 30
0.0
 11
6301.3281972751
 21
5182.8970980158
 31
0.0
  0
LINE
  5
80
330
1F
100
AcDbEntity
  8
0
  6
Continuous
 62
     7
370
    25
100
AcDbLine
 10
6246.7093133971
 20
5182.8970980158
 30
0.0
 11
6240.0187534884
 21
5125.5494576206
 31
0.0
  0
LINE
  5
81
330
1F
100
AcDbEntity
  8
0
  6
Continuous
 62
     7
370
    25
100
AcDbLine
 10
6240.0187534884
 20
5125.5494576206
 30
0.0
 11
6246.9125410214
 21
5058.2437884321
 31
0.0
  0
LINE
  5
82
330
1F
100
AcDbEntity
  8
0
  6
Continuous
 62
     7
370
    25
100
AcDbLine
 10
6301.1249696508
 20
5058.2437884321
 30
0.0
 11
6308.0187571838
 21
5125.5494576206
 31
0.0
  0
ARC
  5
83
330
1F
100
AcDbEntity
  8
0
  6
Continuous
 62
     7
370
    25
100
AcDbCircle
 10
6249.6891029982
 20
5182.5494545927
 30
0.0
 40
3.0
100
AcDbArc
 50
90.0
 51
173.345574954
  0
ARC
  5
84
330
1F
100
AcDbEntity
  8
0
  6
Continuous
 62
     7
370
    25
100
AcDbCircle
 10
6298.348407674
 20
5182.5494545927
 30
0.0
 40
3.0
100
AcDbArc
 50
6.654425046
 51
90.0
  0
ARC
  5
85
330
1F
100
AcDbEntity
  8
0
  6
Continuous
 62
     7
370
    25
100
AcDbCircle
 10
6249.8969274699
 20
5058.5494545927
 30
0.0
 40
3.000000000000424
100
AcDbArc
 50
185.8481280262
 51
270.0
  0
ARC
  5
86
330
1F
100
AcDbEntity
  8
0
  6
Continuous
 62
     7
370
    25
100
AcDbCircle
 10
6298.1405832023
 20
5058.5494545927
 30
0.0
 40
3.000000000000424
100
AcDbArc
 50
270.0
 51
354.1518719738
  0
LINE
  5
87
330
1F
100
AcDbEntity
  8
0
  6
Continuous
 62
     7
370
    25
100
AcDbLine
 10
6299.0187557086
 20
5188.0494576206
 30
0.0
 11
6297.0187553808
 21
5192.0494508257
 31
0.0
  0
LINE
  5
88
330
1F
100
AcDbEntity
  8
0
  6
Continuous
 62
     7
370
    25
100
AcDbLine
 10
6251.0187552914
 20
5192.0494508257
 30
0.0
 11
6249.0187549636
 21
5188.0494576206
 31
0.0
  0
ARC
  5
89
330
1F
100
AcDbEntity
  8
0
  6
Continuous
 62
     7
370
    25
100
AcDbCircle
 10
6254.0187553361
 20
5199.0494545927
 30
0.0
 40
3.0
100
AcDbArc
 50
90.0
 51
180.0
  0
ARC
  5
8A
330
1F
100
AcDbEntity
  8
0
  6
Continuous
 62
     7
370
    25
100
AcDbCircle
 10
6294.0187553361
 20
5199.0494545927
 30
0.0
 40
2.999999999999091
100
AcDbArc
 50
0.0
 51
90.0
  0
LINE
  5
8B
330
1F
100
AcDbEntity
  8
0
  6
Continuous
 62
     7
370
    25
100
AcDbLine
 10
6251.0187552914
 20
5199.0494501104
 30
0.0
 11
6251.0187552914
 21
5192.0494508257
 31
0.0
  0
LINE
  5
8C
330
1F
100
AcDbEntity
  8
0
  6
Continuous
 62
     7
370
    25
100
AcDbLine
 10
6297.0187553808
 20
5192.0494508257
 30
0.0
 11
6297.0187553808
 21
5199.0494501104
 31
0.0
  0
LINE
  5
8D
330
1F
100
AcDbEntity
  8
0
  6
Continuous
 62
     7
370
    25
100
AcDbLine
 10
6258.0187545761
 20
5188.0494576206
 30
0.0
 11
6258.0187545761
 21
5185.5494600048
 31
0.0
  0
LINE
  5
8E
330
1F
100
AcDbEntity
  8
0
  6
Continuous
 62
     7
370
    25
100
AcDbLine
 10
6290.0187560961
 20
5185.5494600048
 30
0.0
 11
6290.0187560961
 21
5188.0494576206
 31
0.0
  0
LINE
  5
8F
330
1F
100
AcDbEntity
  8
0
  6
Continuous
 62
     7
370
    25
100
AcDbLine
 10
6244.0187560067
 20
5221.0494499912
 30
0.0
 11
6246.0187544718
 21
5217.0494567862
 31
0.0
  0
LINE
  5
90
330
1F
100
AcDbEntity
  8
0
  6
Continuous
 62
     7
370
    25
100
AcDbLine
 10
6302.0187562004
 20
5217.0494567862
 30
0.0
 11
6304.0187546655
 21
5221.0494499912
 31
0.0
  0
LINE
  5
91
330
1F
100
AcDbEntity
  8
0
  6
Continuous
 62
     7
370
    25
100
AcDbLine
 10
6246.0187544718
 20
5217.0494567862
 30
0.0
 11
6246.0187544718
 21
5210.0494575014
 31
0.0
  0
LINE
  5
92
330
1F
100
AcDbEntity
  8
0
  6
Continuous
 62
     7
370
    25
100
AcDbLine
 10
6302.0187562004
 20
5210.0494575014
 30
0.0
 11
6302.0187562004
 21
5217.0494567862
 31
0.0
  0
ARC
  5
93
330
1F
100
AcDbEntity
  8
0
  6
Continuous
 62
     7
370
    25
100
AcDbCircle
 10
6249.0187553361
 20
5210.0494545927
 30
0.0
 40
3.0
100
AcDbArc
 50
180.0
 51
270.0
  0
ARC
  5
94
330
1F
100
AcDbEntity
  8
0
  6
Continuous
 62
     7
370
    25
100
AcDbCircle
 10
6299.0187553361
 20
5210.0494545927
 30
0.0
 40
3.000000000000909
100
AcDbArc
 50
270.0
 51
0.0
  0
LINE
  5
95
330
1F
100
AcDbEntity
  8
0
  6
Continuous
 62
     7
370
    25
100
AcDbLine
 10
6258.0187545761
 20
5207.0494514218
 30
0.0
 11
6258.0187545761
 21
5202.0494561901
 31
0.0
  0
LINE
  5
96
330
1F
100
AcDbEntity
  8
0
  6
Continuous
 62
     7
370
    25
100
AcDbLine
 10
6258.0187545761
 20
5188.0494576206
 30
0.0
 11
6258.0187545761
 21
5185.5494600048
 31
0.0
  0
LINE
  5
97
330
1F
100
AcDbEntity
  8
0
  6
Continuous
 62
     7
370
    25
100
AcDbLine
 10
6290.0187560961
 20
5185.5494600048
 30
0.0
 11
6290.0187560961
 21
5188.0494576206
 31
0.0
  0
LINE
  5
98
330
1F
100
AcDbEntity
  8
0
  6
Continuous
 62
     7
370
    25
100
AcDbLine
 10
6290.0187560961
 20
5202.0494561901
 30
0.0
 11
6290.0187560961
 21
5207.0494514218
 31
0.0
  0
LINE
  5
99
330
1F
100
AcDbEntity
  8
0
  6
Continuous
 62
     7
370
    25
100
AcDbLine
 10
6240.8187558547
 20
5256.8494525066
 30
0.0
 11
6242.0187538162
 21
5254.049457263
 31
0.0
  0
LINE
  5
9A
330
1F
100
AcDbEntity
  8
0
  6
Continuous
 62
     7
370
    25
100
AcDbLine
 10
6306.018756856
 20
5254.049457263
 30
0.0
 11
6307.2187548175
 21
5256.8494525066
 31
0.0
  0
LINE
  5
9B
330
1F
100
AcDbEntity
  8
0
  6
Continuous
 62
     7
370
    25
100
AcDbLine
 10
6242.0187538162
 20
5254.049457263
 30
0.0
 11
6247.518755649
 21
5248.5494535675
 31
0.0
  0
LINE
  5
9C
330
1F
100
AcDbEntity
  8
0
  6
Continuous
 62
     7
370
    25
100
AcDbLine
 10
6300.5187550232
 20
5248.5494535675
 30
0.0
 11
6306.018756856
 21
5254.049457263
 31
0.0
  0
LINE
  5
9D
330
1F
100
AcDbEntity
  8
0
  6
Continuous
 62
     7
370
    25
100
AcDbLine
 10
6244.5187551573
 20
5224.0494560709
 30
0.0
 11
6244.5187551573
 21
5221.0494499912
 31
0.0
  0
LINE
  5
9E
330
1F
100
AcDbEntity
  8
0
  6
Continuous
 62
     7
370
    25
100
AcDbLine
 10
6303.5187555149
 20
5221.0494499912
 30
0.0
 11
6303.5187555149
 21
5224.0494560709
 31
0.0
  0
LINE
  5
9F
330
1F
100
AcDbEntity
  8
0
  6
Continuous
 62
     7
370
    25
100
AcDbLine
 10
6247.518755649
 20
5248.5494535675
 30
0.0
 11
6247.518755649
 21
5224.0494560709
 31
0.0
  0
LINE
  5
A0
330
1F
100
AcDbEntity
  8
0
  6
Continuous
 62
     7
370
    25
100
AcDbLine
 10
6300.5187550232
 20
5224.0494560709
 30
0.0
 11
6300.5187550232
 21
5248.5494535675
 31
0.0
  0
LINE
  5
A1
330
1F
100
AcDbEntity
  8
0
  6
Continuous
 62
     7
370
    25
100
AcDbLine
 10
6240.0187534884
 20
5125.5494576206
 30
0.0
 11
6308.0187571838
 21
5125.5494576206
 31
0.0
  0
LINE
  5
A2
330
1F
100
AcDbEntity
  8
0
  6
Continuous
 62
     7
370
    25
100
AcDbLine
 10
6249.6891023263
 20
5185.5494600048
 30
0.0
 11
6298.3484083459
 21
5185.5494600048
 31
0.0
  0
LINE
  5
A3
330
1F
100
AcDbEntity
  8
0
  6
Continuous
 62
     7
370
    25
100
AcDbLine
 10
6249.8969269589
 20
5055.549449872
 30
0.0
 11
6298.1405837133
 21
5055.549449872
 31
0.0
  0
LINE
  5
A4
330
1F
100
AcDbEntity
  8
0
  6
Continuous
 62
     7
370
    25
100
AcDbLine
 10
6251.0187552914
 20
5192.0494508257
 30
0.0
 11
6297.0187553808
 21
5192.0494508257
 31
0.0
  0
LINE
  5
A5
330
1F
100
AcDbEntity
  8
0
  6
Continuous
 62
     7
370
    25
100
AcDbLine
 10
6249.0187549636
 20
5188.0494576206
 30
0.0
 11
6299.0187557086
 21
5188.0494576206
 31
0.0
  0
LINE
  5
A6
330
1F
100
AcDbEntity
  8
0
  6
Continuous
 62
     7
370
    25
100
AcDbLine
 10
6254.0187557831
 20
5202.0494561901
 30
0.0
 11
6294.0187548891
 21
5202.0494561901
 31
0.0
  0
LINE
  5
A7
330
1F
100
AcDbEntity
  8
0
  6
Continuous
 62
     7
370
    25
100
AcDbLine
 10
6290.5187552467
 20
5185.5494600048
 30
0.0
 11
6290.0187560961
 21
5185.915730547
 31
0.0
  0
LINE
  5
A8
330
1F
100
AcDbEntity
  8
0
  6
Continuous
 62
     7
370
    25
100
AcDbLine
 10
6258.0187545761
 20
5185.915730547
 30
0.0
 11
6257.5187554255
 21
5185.5494600048
 31
0.0
  0
ARC
  5
A9
330
1F
100
AcDbEntity
  8
0
  6
Continuous
 62
     7
370
    25
100
AcDbCircle
 10
6274.0187553361
 20
5163.5494545927
 30
0.0
 40
40.00000000000064
100
AcDbArc
 50
40.9505470202
 51
54.9003678046
  0
ARC
  5
AA
330
1F
100
AcDbEntity
  8
0
  6
Continuous
 62
     7
370
    25
100
AcDbCircle
 10
6274.0187553361
 20
5163.5494545927
 30
0.0
 40
40.00000000000026
100
AcDbArc
 50
125.0996321954
 51
216.1070114058
  0
ARC
  5
AB
330
1F
100
AcDbEntity
  8
0
  6
Continuous
 62
     7
370
    25
100
AcDbCircle
 10
6274.0187553361
 20
5163.5494545927
 30
0.0
 40
40.00000000000064
100
AcDbArc
 50
323.8929885942
 51
40.9505470202
  0
LINE
  5
AC
330
1F
100
AcDbEntity
  8
0
  6
Continuous
 62
     7
370
    25
100
AcDbLine
 10
6274.0187553361
 20
5217.0494567862
 30
0.0
 11
6302.0187562004
 21
5217.0494567862
 31
0.0
  0
LINE
  5
AD
330
1F
100
AcDbEntity
  8
0
  6
Continuous
 62
     7
370
    25
100
AcDbLine
 10
6246.0187544718
 20
5217.0494567862
 30
0.0
 11
6274.0187553361
 21
5217.0494567862
 31
0.0
  0
LINE
  5
AE
330
1F
100
AcDbEntity
  8
0
  6
Continuous
 62
     7
370
    25
100
AcDbLine
 10
6274.0187553361
 20
5221.0494499912
 30
0.0
 11
6304.0187546655
 21
5221.0494499912
 31
0.0
  0
LINE
  5
AF
330
1F
100
AcDbEntity
  8
0
  6
Continuous
 62
     7
370
    25
100
AcDbLine
 10
6244.0187560067
 20
5221.0494499912
 30
0.0
 11
6274.0187553361
 21
5221.0494499912
 31
0.0
  0
LINE
  5
B0
330
1F
100
AcDbEntity
  8
0
  6
Continuous
 62
     7
370
    25
100
AcDbLine
 10
6274.0187553361
 20
5207.0494514218
 30
0.0
 11
6299.0187557086
 21
5207.0494514218
 31
0.0
  0
LINE
  5
B1
330
1F
100
AcDbEntity
  8
0
  6
Continuous
 62
     7
370
    25
100
AcDbLine
 10
6249.0187549636
 20
5207.0494514218
 30
0.0
 11
6274.0187553361
 21
5207.0494514218
 31
0.0
  0
LINE
  5
B2
330
1F
100
AcDbEntity
  8
0
  6
Continuous
 62
     7
370
    25
100
AcDbLine
 10
6242.0187538162
 20
5254.049457263
 30
0.0
 11
6306.018756856
 21
5254.049457263
 31
0.0
  0
LINE
  5
B3
330
1F
100
AcDbEntity
  8
0
  6
Continuous
 62
     7
370
    25
100
AcDbLine
 10
6247.518755649
 20
5248.5494535675
 30
0.0
 11
6300.5187550232
 21
5248.5494535675
 31
0.0
  0
LINE
  5
B4
330
1F
100
AcDbEntity
  8
0
  6
Continuous
 62
     7
370
    25
100
AcDbLine
 10
6244.5187551573
 20
5224.0494560709
 30
0.0
 11
6303.5187555149
 21
5224.0494560709
 31
0.0
  0
LINE
  5
B5
330
1F
100
AcDbEntity
  8
0
  6
Continuous
 62
     7
370
    25
100
AcDbLine
 10
6471.0187522367
 20
5368.8494545666
 30
0.0
 11
6077.0187584355
 21
5368.8494545666
 31
0.0
  0
LINE
  5
B6
330
1F
100
AcDbEntity
  8
0
  6
Continuous
 62
     7
370
    25
100
AcDbLine
 10
6077.0187584355
 20
5368.8494545666
 30
0.0
 11
6077.0187584355
 21
5371.8494545927
 31
0.0
  0
LINE
  5
B7
330
1F
100
AcDbEntity
  8
0
  6
Continuous
 62
     7
370
    25
100
AcDbLine
 10
6077.0187584355
 20
5371.8494545927
 30
0.0
 11
6471.0187522367
 21
5371.8494545927
 31
0.0
  0
LINE
  5
B8
330
1F
100
AcDbEntity
  8
0
  6
Continuous
 62
     7
370
    25
100
AcDbLine
 10
6471.0187522367
 20
5371.8494545927
 30
0.0
 11
6471.0187522367
 21
5368.8494545666
 31
0.0
  0
ARC
  5
B9
330
1F
100
AcDbEntity
  8
0
  6
Continuous
 62
     7
370
    25
100
AcDbCircle
 10
6077.0187553361
 20
5368.8494545927
 30
0.0
 40
3.0
100
AcDbArc
 50
90.0
 51
180.0
  0
LINE
  5
BA
330
1F
100
AcDbEntity
  8
0
  6
Continuous
 62
     7
370
    25
100
AcDbLine
 10
6077.0187584355
 20
5368.8494545666
 30
0.0
 11
6074.0187523559
 21
5368.8494545666
 31
0.0
  0
LINE
  5
BB
330
1F
100
AcDbEntity
  8
0
  6
Continuous
 62
     7
370
    25
100
AcDbLine
 10
6077.0187584355
 20
5368.8494545666
 30
0.0
 11
6077.0187584355
 21
5259.8494511356
 31
0.0
  0
LINE
  5
BC
330
1F
100
AcDbEntity
  8
0
  6
Continuous
 62
     7
370
    25
100
AcDbLine
 10
6077.0187584355
 20
5259.8494511356
 30
0.0
 11
6074.0187523559
 21
5259.8494511356
 31
0.0
  0
LINE
  5
BD
330
1F
100
AcDbEntity
  8
0
  6
Continuous
 62
     7
370
    25
100
AcDbLine
 10
6074.0187523559
 20
5259.8494511356
 30
0.0
 11
6074.0187523559
 21
5368.8494545666
 31
0.0
  0
ARC
  5
BE
330
1F
100
AcDbEntity
  8
0
  6
Continuous
 62
     7
370
    25
100
AcDbCircle
 10
6077.0187553361
 20
5259.8494545927
 30
0.0
 40
3.0
100
AcDbArc
 50
180.0
 51
270.0
  0
LINE
  5
BF
330
1F
100
AcDbEntity
  8
0
  6
Continuous
 62
     7
370
    25
100
AcDbLine
 10
6077.0187584355
 20
5256.8494525066
 30
0.0
 11
6077.0187584355
 21
5259.8494511356
 31
0.0
  0
LINE
  5
C0
330
1F
100
AcDbEntity
  8
0
  6
Continuous
 62
     7
370
    25
100
AcDbLine
 10
6471.0187522367
 20
5259.8494511356
 30
0.0
 11
6471.0187522367
 21
5368.8494545666
 31
0.0
  0
LINE
  5
C1
330
1F
100
AcDbEntity
  8
0
  6
Continuous
 62
     7
370
    25
100
AcDbLine
 10
6077.0187584355
 20
5259.8494511356
 30
0.0
 11
6471.0187522367
 21
5259.8494511356
 31
0.0
  0
LINE
  5
C2
330
1F
100
AcDbEntity
  8
0
  6
Continuous
 62
     7
370
    25
100
AcDbLine
 10
6471.0187522367
 20
5256.8494525066
 30
0.0
 11
6077.0187584355
 21
5256.8494525066
 31
0.0
  0
LINE
  5
C3
330
1F
100
AcDbEntity
  8
0
  6
Continuous
 62
     7
370
    25
100
AcDbLine
 10
6471.0187522367
 20
5259.8494511356
 30
0.0
 11
6471.0187522367
 21
5256.8494525066
 31
0.0
  0
LINE
  5
C4
330
1F
100
AcDbEntity
  8
0
  6
Continuous
 62
     7
370
    25
100
AcDbLine
 10
6474.0187583163
 20
5368.8494545666
 30
0.0
 11
6471.0187522367
 21
5368.8494545666
 31
0.0
  0
ARC
  5
C5
330
1F
100
AcDbEntity
  8
0
  6
Continuous
 62
     7
370
    25
100
AcDbCircle
 10
6471.0187553361
 20
5368.8494545927
 30
0.0
 40
3.0
100
AcDbArc
 50
0.0
 51
90.0
  0
LINE
  5
C6
330
1F
100
AcDbEntity
  8
0
  6
Continuous
 62
     7
370
    25
100
AcDbLine
 10
6474.0187583163
 20
5368.8494545666
 30
0.0
 11
6474.0187583163
 21
5259.8494511356
 31
0.0
  0
LINE
  5
C7
330
1F
100
AcDbEntity
  8
0
  6
Continuous
 62
     7
370
    25
100
AcDbLine
 10
6474.0187583163
 20
5259.8494511356
 30
0.0
 11
6471.0187522367
 21
5259.8494511356
 31
0.0
  0
ARC
  5
C8
330
1F
100
AcDbEntity
  8
0
  6
Continuous
 62
     7
370
    25
100
AcDbCircle
 10
6471.0187553361
 20
5259.8494545927
 30
0.0
 40
3.0
100
AcDbArc
 50
270.0
 51
0.0
  0
LINE
  5
C9
330
1F
100
AcDbEntity
  8
0
  6
Continuous
 62
     8
370
    25
100
AcDbLine
 10
6301.3281972751
 20
5182.8970980158
 30
0.0
 11
6246.7093133971
 21
5182.8970980158
 31
0.0
  0
LINE
  5
CA
330
1F
100
AcDbEntity
  8
0
  6
Continuous
 62
     8
370
    25
100
AcDbLine
 10
6246.9125410214
 20
5058.2437884321
 30
0.0
 11
6301.1249696508
 21
5058.2437884321
 31
0.0
  0
LINE
  5
CB
330
1F
100
AcDbEntity
  8
0
  6
Continuous
 62
     8
370
    25
100
AcDbLine
 10
6251.0187552914
 20
5199.0494501104
 30
0.0
 11
6297.0187553808
 21
5199.0494501104
 31
0.0
  0
LINE
  5
CC
330
1F
100
AcDbEntity
  8
0
  6
Continuous
 62
     8
370
    25
100
AcDbLine
 10
6274.0187553361
 20
5210.0494575014
 30
0.0
 11
6302.0187562004
 21
5210.0494575014
 31
0.0
  0
LINE
  5
CD
330
1F
100
AcDbEntity
  8
0
  6
Continuous
 62
     8
370
    25
100
AcDbLine
 10
6246.0187544718
 20
5210.0494575014
 30
0.0
 11
6274.0187553361
 21
5210.0494575014
 31
0.0
  0
LINE
  5
CE
330
1F
100
AcDbEntity
  8
0
  6
Continuous
 62
     7
370
    25
100
AcDbLine
 10
7071.1661985465
 20
5125.5494576206
 30
0.0
 11
7064.4756407332
 21
5182.8970980158
 31
0.0
  0
LINE
  5
CF
330
1F
100
AcDbEntity
  8
0
  6
Continuous
 62
     7
370
    25
100
AcDbLine
 10
7005.0373001345
 20
5141.5874731054
 30
0.0
 11
7003.1661985763
 21
5125.5494576206
 31
0.0
  0
LINE
  5
D0
330
1F
100
AcDbEntity
  8
0
  6
Continuous
 62
     7
370
    25
100
AcDbLine
 10
7003.1661985763
 20
5125.5494576206
 30
0.0
 11
7010.0599861093
 21
5058.2437884321
 31
0.0
  0
LINE
  5
D1
330
1F
100
AcDbEntity
  8
0
  6
Continuous
 62
     7
370
    25
100
AcDbLine
 10
7064.2724131089
 20
5058.2437884321
 30
0.0
 11
7071.1661985465
 21
5125.5494576206
 31
0.0
  0
LINE
  5
D2
330
1F
100
AcDbEntity
  8
0
  6
Continuous
 62
     7
370
    25
100
AcDbLine
 10
6993.1662006625
 20
5191.0494487991
 30
0.0
 11
6989.1662000068
 21
5189.5494532099
 31
0.0
  0
LINE
  5
D3
330
1F
100
AcDbEntity
  8
0
  6
Continuous
 62
     7
370
    25
100
AcDbLine
 10
6989.1662000068
 20
5137.549452137
 30
0.0
 11
6993.1662006625
 21
5136.0494565478
 31
0.0
  0
ARC
  5
D4
330
1F
100
AcDbEntity
  8
0
  6
Continuous
 62
     7
370
    25
100
AcDbCircle
 10
7061.4958512718
 20
5182.5494545927
 30
0.0
 40
3.0
100
AcDbArc
 50
6.654425046
 51
90.0
  0
ARC
  5
D5
330
1F
100
AcDbEntity
  8
0
  6
Continuous
 62
     7
370
    25
100
AcDbCircle
 10
7013.0443710677
 20
5058.5494545927
 30
0.0
 40
3.0
100
AcDbArc
 50
185.8481280262
 51
270.0
  0
ARC
  5
D6
330
1F
100
AcDbEntity
  8
0
  6
Continuous
 62
     7
370
    25
100
AcDbCircle
 10
7061.2880268001
 20
5058.5494545927
 30
0.0
 40
3.0
100
AcDbArc
 50
270.0
 51
354.1518719738
  0
ARC
  5
D7
330
1F
100
AcDbEntity
  8
0
  6
Continuous
 62
     7
370
    25
100
AcDbCircle
 10
6980.1661989339
 20
5186.5494545927
 30
0.0
 40
3.0
100
AcDbArc
 50
90.0
 51
180.0
  0
ARC
  5
D8
330
1F
100
AcDbEntity
  8
0
  6
Continuous
 62
     7
370
    25
100
AcDbCircle
 10
6980.1661989339
 20
5140.5494545927
 30
0.0
 40
3.000000000000909
100
AcDbArc
 50
180.0
 51
270.0
  0
LINE
  5
D9
330
1F
100
AcDbEntity
  8
0
  6
Continuous
 62
     7
370
    25
100
AcDbLine
 10
6989.1662000068
 20
5189.5494532099
 30
0.0
 11
6980.166196669
 21
5189.5494532099
 31
0.0
  0
LINE
  5
DA
330
1F
100
AcDbEntity
  8
0
  6
Continuous
 62
     7
370
    25
100
AcDbLine
 10
6980.166196669
 20
5137.549452137
 30
0.0
 11
6989.1662000068
 21
5137.549452137
 31
0.0
  0
LINE
  5
DB
330
1F
100
AcDbEntity
  8
0
  6
Continuous
 62
     7
370
    25
100
AcDbLine
 10
7062.1661989339
 20
5188.0494576206
 30
0.0
 11
7060.1661988389
 21
5192.0494508257
 31
0.0
  0
LINE
  5
DC
330
1F
100
AcDbEntity
  8
0
  6
Continuous
 62
     7
370
    25
100
AcDbLine
 10
7014.1661985167
 20
5192.0494508257
 30
0.0
 11
7012.1661981889
 21
5188.0494576206
 31
0.0
  0
ARC
  5
DD
330
1F
100
AcDbEntity
  8
0
  6
Continuous
 62
     7
370
    25
100
AcDbCircle
 10
7017.1661989339
 20
5199.0494545927
 30
0.0
 40
3.0
100
AcDbArc
 50
90.0
 51
180.0
  0
ARC
  5
DE
330
1F
100
AcDbEntity
  8
0
  6
Continuous
 62
     7
370
    25
100
AcDbCircle
 10
7057.1661989339
 20
5199.0494545927
 30
0.0
 40
3.0
100
AcDbArc
 50
0.0
 51
90.0
  0
LINE
  5
DF
330
1F
100
AcDbEntity
  8
0
  6
Continuous
 62
     7
370
    25
100
AcDbLine
 10
7014.1661985167
 20
5199.0494501104
 30
0.0
 11
7014.1661985167
 21
5192.0494508257
 31
0.0
  0
LINE
  5
E0
330
1F
100
AcDbEntity
  8
0
  6
Continuous
 62
     7
370
    25
100
AcDbLine
 10
7060.1661988389
 20
5192.0494508257
 30
0.0
 11
7060.1661988389
 21
5199.0494501104
 31
0.0
  0
LINE
  5
E1
330
1F
100
AcDbEntity
  8
0
  6
Continuous
 62
     7
370
    25
100
AcDbLine
 10
6993.1662006625
 20
5141.5494602432
 30
0.0
 11
7005.0610451349
 21
5141.5494602432
 31
0.0
  0
LINE
  5
E2
330
1F
100
AcDbEntity
  8
0
  6
Continuous
 62
     7
370
    25
100
AcDbLine
 10
7010.166197861
 20
5185.5494600048
 30
0.0
 11
6993.1662006625
 21
5185.5494600048
 31
0.0
  0
LINE
  5
E3
330
1F
100
AcDbEntity
  8
0
  6
Continuous
 62
     7
370
    25
100
AcDbLine
 10
7021.1661978014
 20
5188.0494576206
 30
0.0
 11
7021.1661978014
 21
5185.5494600048
 31
0.0
  0
LINE
  5
E4
330
1F
100
AcDbEntity
  8
0
  6
Continuous
 62
     7
370
    25
100
AcDbLine
 10
7053.1661993214
 20
5185.5494600048
 30
0.0
 11
7053.1661993214
 21
5188.0494576206
 31
0.0
  0
LINE
  5
E5
330
1F
100
AcDbEntity
  8
0
  6
Continuous
 62
     7
370
    25
100
AcDbLine
 10
6877.1661965497
 20
5203.5494517794
 30
0.0
 11
6862.1661959537
 21
5203.5494517794
 31
0.0
  0
LINE
  5
E6
330
1F
100
AcDbEntity
  8
0
  6
Continuous
 62
     7
370
    25
100
AcDbLine
 10
6862.1661959537
 20
5123.5494535675
 30
0.0
 11
6877.1661965497
 21
5123.5494535675
 31
0.0
  0
ARC
  5
E7
330
1F
100
AcDbEntity
  8
0
  6
Continuous
 62
     7
370
    25
100
AcDbCircle
 10
6877.1661989339
 20
5183.5494545927
 30
0.0
 40
19.99999999999909
100
AcDbArc
 50
0.0
 51
90.0
  0
ARC
  5
E8
330
1F
100
AcDbEntity
  8
0
  6
Continuous
 62
     7
370
    25
100
AcDbCircle
 10
6877.1661989339
 20
5143.5494545927
 30
0.0
 40
20.0
100
AcDbArc
 50
270.0
 51
0.0
  0
LINE
  5
E9
330
1F
100
AcDbEntity
  8
0
  6
Continuous
 62
     7
370
    25
100
AcDbLine
 10
6862.1661959537
 20
5183.5494559517
 30
0.0
 11
6852.1662054904
 21
5183.5494559517
 31
0.0
  0
LINE
  5
EA
330
1F
100
AcDbEntity
  8
0
  6
Continuous
 62
     7
370
    25
100
AcDbLine
 10
6852.1662054904
 20
5143.5494493952
 30
0.0
 11
6862.1661959537
 21
5143.5494493952
 31
0.0
  0
LINE
  5
EB
330
1F
100
AcDbEntity
  8
0
  6
Continuous
 62
     7
370
    25
100
AcDbLine
 10
6977.1661980399
 20
5183.5494559517
 30
0.0
 11
6897.1661923774
 21
5183.5494559517
 31
0.0
  0
LINE
  5
EC
330
1F
100
AcDbEntity
  8
0
  6
Continuous
 62
     7
370
    25
100
AcDbLine
 10
6897.1661923774
 20
5143.5494493952
 30
0.0
 11
6977.1661980399
 21
5143.5494493952
 31
0.0
  0
LINE
  5
ED
330
1F
100
AcDbEntity
  8
0
  6
Continuous
 62
     7
370
    25
100
AcDbLine
 10
7007.166199232
 20
5221.0494499912
 30
0.0
 11
7009.1661995598
 21
5217.0494567862
 31
0.0
  0
LINE
  5
EE
330
1F
100
AcDbEntity
  8
0
  6
Continuous
 62
     7
370
    25
100
AcDbLine
 10
7065.16619896
 20
5217.0494567862
 30
0.0
 11
7067.1661988222
 21
5221.0494499912
 31
0.0
  0
ARC
  5
EF
330
1F
100
AcDbEntity
  8
0
  6
Continuous
 62
     7
370
    25
100
AcDbCircle
 10
7012.1661989339
 20
5210.0494545927
 30
0.0
 40
3.0
100
AcDbArc
 50
180.0
 51
270.0
  0
ARC
  5
F0
330
1F
100
AcDbEntity
  8
0
  6
Continuous
 62
     7
370
    25
100
AcDbCircle
 10
7062.1661989339
 20
5210.0494545927
 30
0.0
 40
3.0
100
AcDbArc
 50
270.0
 51
0.0
  0
LINE
  5
F1
330
1F
100
AcDbEntity
  8
0
  6
Continuous
 62
     7
370
    25
100
AcDbLine
 10
7009.1661995598
 20
5217.0494567862
 30
0.0
 11
7009.1661995598
 21
5210.0494575014
 31
0.0
  0
LINE
  5
F2
330
1F
100
AcDbEntity
  8
0
  6
Continuous
 62
     7
370
    25
100
AcDbLine
 10
7065.16619896
 20
5210.0494575014
 30
0.0
 11
7065.16619896
 21
5217.0494567862
 31
0.0
  0
LINE
  5
F3
330
1F
100
AcDbEntity
  8
0
  6
Continuous
 62
     7
370
    25
100
AcDbLine
 10
7021.1661978014
 20
5207.0494514218
 30
0.0
 11
7021.1661978014
 21
5202.0494561901
 31
0.0
  0
LINE
  5
F4
330
1F
100
AcDbEntity
  8
0
  6
Continuous
 62
     7
370
    25
100
AcDbLine
 10
7021.1661978014
 20
5188.0494576206
 30
0.0
 11
7021.1661978014
 21
5185.5494600048
 31
0.0
  0
LINE
  5
F5
330
1F
100
AcDbEntity
  8
0
  6
Continuous
 62
     7
370
    25
100
AcDbLine
 10
7053.1661993214
 20
5185.5494600048
 30
0.0
 11
7053.1661993214
 21
5188.0494576206
 31
0.0
  0
LINE
  5
F6
330
1F
100
AcDbEntity
  8
0
  6
Continuous
 62
     7
370
    25
100
AcDbLine
 10
7053.1661993214
 20
5202.0494561901
 30
0.0
 11
7053.1661993214
 21
5207.0494514218
 31
0.0
  0
LINE
  5
F7
330
1F
100
AcDbEntity
  8
0
  6
Continuous
 62
     7
370
    25
100
AcDbLine
 10
7003.9661972173
 20
5256.8494525066
 30
0.0
 11
7005.1661989041
 21
5254.049457263
 31
0.0
  0
LINE
  5
F8
330
1F
100
AcDbEntity
  8
0
  6
Continuous
 62
     7
370
    25
100
AcDbLine
 10
7069.16619915
 20
5254.049457263
 30
0.0
 11
7070.3661989742
 21
5256.8494525066
 31
0.0
  0
LINE
  5
F9
330
1F
100
AcDbEntity
  8
0
  6
Continuous
 62
     7
370
    25
100
AcDbLine
 10
7005.1661989041
 20
5254.049457263
 30
0.0
 11
7009.6771603771
 21
5249.53849579
 31
0.0
  0
LINE
  5
FA
330
1F
100
AcDbEntity
  8
0
  6
Continuous
 62
     7
370
    25
100
AcDbLine
 10
7063.666198947
 20
5248.5494535675
 30
0.0
 11
7069.16619915
 21
5254.049457263
 31
0.0
  0
LINE
  5
FB
330
1F
100
AcDbEntity
  8
0
  6
Continuous
 62
     7
370
    25
100
AcDbLine
 10
7007.6662002452
 20
5224.0494560709
 30
0.0
 11
7007.6662002452
 21
5221.0494499912
 31
0.0
  0
LINE
  5
FC
330
1F
100
AcDbEntity
  8
0
  6
Continuous
 62
     7
370
    25
100
AcDbLine
 10
7066.6661987402
 20
5221.0494499912
 30
0.0
 11
7066.6661987402
 21
5224.0494560709
 31
0.0
  0
LINE
  5
FD
330
1F
100
AcDbEntity
  8
0
  6
Continuous
 62
     7
370
    25
100
AcDbLine
 10
7010.6661988743
 20
5224.5874177923
 30
0.0
 11
7010.6661988743
 21
5224.0494560709
 31
0.0
  0
LINE
  5
FE
330
1F
100
AcDbEntity
  8
0
  6
Continuous
 62
     7
370
    25
100
AcDbLine
 10
7063.666198947
 20
5224.0494560709
 30
0.0
 11
7063.666198947
 21
5248.5494535675
 31
0.0
  0
ARC
  5
FF
330
1F
100
AcDbEntity
  8
0
  6
Continuous
 62
     7
370
    25
100
AcDbCircle
 10
6958.1661989338
 20
5267.0494545951
 30
0.0
 40
17.5
100
AcDbArc
 50
215.6517508009
 51
270.0
  0
ARC
  5
100
330
1F
100
AcDbEntity
  8
0
  6
Continuous
 62
     7
370
    25
100
AcDbCircle
 10
6958.1661989338
 20
5267.0494545951
 30
0.0
 40
42.49999999999996
100
AcDbArc
 50
193.886540366
 51
270.0
  0
LINE
  5
101
330
1F
100
AcDbEntity
  8
0
  6
Continuous
 62
     7
370
    25
100
AcDbLine
 10
7009.6790938028
 20
5249.5494555941
 30
0.0
 11
6958.1661967882
 21
5249.5494555941
 31
0.0
  0
LINE
  5
102
330
1F
100
AcDbEntity
  8
0
  6
Continuous
 62
     7
370
    25
100
AcDbLine
 10
6958.1661967882
 20
5224.5494496336
 30
0.0
 11
7010.6840877183
 21
5224.5494496336
 31
0.0
  0
SPLINE
  5
103
330
1F
100
AcDbEntity
  8
0
  6
Continuous
 62
     7
370
    25
100
AcDbSpline
210
0.0
220
0.0
230
1.0
 70
     8
 71
     3
 72
    26
 73
    22
 74
     0
 42
0.000000001
 43
0.00000001
 40
0.0
 40
0.0
 40
0.0
 40
0.0
 40
0.0518149766651517
 40
0.111380773025565
 40
0.172281681113092
 40
0.2246887684376204
 40
0.2783592757553622
 40
0.3194181369728933
 40
0.361621578887695
 40
0.4027070094975182
 40
0.4449492302366858
 40
0.5015056657822344
 40
0.5596412336099277
 40
0.6344161083479871
 40
0.7113477495603495
 40
0.7733911268446607
 40
0.8370630707500982
 40
0.8877153232890498
 40
0.9397478979028313
 40
0.9904520432860906
 40
1.0
 40
1.0
 40
1.0
 40
1.0
 10
7011.944446558567
 20
5182.897098015799
 30
0.0
 10
7012.27155960161
 20
5182.379080093383
 30
0.0
 10
7012.974717374627
 20
5181.265555773712
 30
0.0
 10
7014.234290701978
 20
5179.071455702926
 30
0.0
 10
7015.49620079937
 20
5176.535658052236
 30
0.0
 10
7016.595618249522
 20
5173.76298738778
 30
0.0
 10
7017.337841924827
 20
5171.065150694204
 30
0.0
 10
7017.713862679978
 20
5168.378255548511
 30
0.0
 10
7017.737603817872
 20
5165.847597688542
 30
0.0
 10
7017.417655511192
 20
5163.282407271041
 30
0.0
 10
7016.718252436261
 20
5160.494221944252
 30
0.0
 10
7015.582505707324
 20
5157.52539252207
 30
0.0
 10
7013.92161775755
 20
5154.211368665406
 30
0.0
 10
7011.90826199431
 20
5150.881835362832
 30
0.0
 10
7009.868072030328
 20
5147.900396519978
 30
0.0
 10
7008.095533018763
 20
5145.481400429544
 30
0.0
 10
7006.779276220577
 20
5143.760389809278
 30
0.0
 10
7005.812701823458
 20
5142.527551768078
 30
0.0
 10
7005.248325521175
 20
5141.818198999887
 30
0.0
 10
7004.995906171621
 20
5141.503283327846
 30
0.0
 10
7005.052163711234
 20
5141.573564291356
 30
0.0
 10
7005.061078662487
 20
5141.584701489463
 30
0.0
  0
LINE
  5
104
330
1F
100
AcDbEntity
  8
0
  6
Continuous
 62
     7
370
    25
100
AcDbLine
 10
7003.1661985763
 20
5125.5494576206
 30
0.0
 11
7071.1661985465
 21
5125.5494576206
 31
0.0
  0
LINE
  5
105
330
1F
100
AcDbEntity
  8
0
  6
Continuous
 62
     7
370
    25
100
AcDbLine
 10
6993.1662006625
 20
5191.0494487991
 30
0.0
 11
6993.1662006625
 21
5136.0494565478
 31
0.0
  0
LINE
  5
106
330
1F
100
AcDbEntity
  8
0
  6
Continuous
 62
     7
370
    25
100
AcDbLine
 10
6989.1662000068
 20
5189.5494532099
 30
0.0
 11
6989.1662000068
 21
5137.549452137
 31
0.0
  0
ARC
  5
107
330
1F
100
AcDbEntity
  8
0
  6
Continuous
 62
     7
370
    25
100
AcDbCircle
 10
7014.7974571065
 20
5182.6907836241
 30
0.0
 40
2.860460594912552
100
AcDbArc
 50
92.0237912863
 51
175.8638769093
  0
LINE
  5
108
330
1F
100
AcDbEntity
  8
0
  6
Continuous
 62
     7
370
    25
100
AcDbLine
 10
7014.6964414366
 20
5185.5494600048
 30
0.0
 11
7061.4958512801
 21
5185.5494600048
 31
0.0
  0
LINE
  5
109
330
1F
100
AcDbEntity
  8
0
  6
Continuous
 62
     7
370
    25
100
AcDbLine
 10
7013.0443720468
 20
5055.549449872
 30
0.0
 11
7061.288026764
 21
5055.549449872
 31
0.0
  0
LINE
  5
10A
330
1F
100
AcDbEntity
  8
0
  6
Continuous
 62
     7
370
    25
100
AcDbLine
 10
6977.1661980399
 20
5186.5494620314
 30
0.0
 11
6977.1661980399
 21
5140.5494582167
 31
0.0
  0
LINE
  5
10B
330
1F
100
AcDbEntity
  8
0
  6
Continuous
 62
     7
370
    25
100
AcDbLine
 10
7014.1661985167
 20
5192.0494508257
 30
0.0
 11
7060.1661988389
 21
5192.0494508257
 31
0.0
  0
LINE
  5
10C
330
1F
100
AcDbEntity
  8
0
  6
Continuous
 62
     7
370
    25
100
AcDbLine
 10
7012.1661981889
 20
5188.0494576206
 30
0.0
 11
7062.1661989339
 21
5188.0494576206
 31
0.0
  0
LINE
  5
10D
330
1F
100
AcDbEntity
  8
0
  6
Continuous
 62
     7
370
    25
100
AcDbLine
 10
7017.1661971458
 20
5202.0494561901
 30
0.0
 11
7057.16619858
 21
5202.0494561901
 31
0.0
  0
SPLINE
  5
10E
330
1F
100
AcDbEntity
  8
0
  6
Continuous
 62
     7
370
    25
100
AcDbSpline
210
0.0
220
0.0
230
1.0
 70
     8
 71
     3
 72
    11
 73
     7
 74
     0
 42
0.000000001
 43
0.00000001
 40
0.0
 40
0.0
 40
0.0
 40
0.0
 40
0.1561473866000618
 40
0.4307961767177934
 40
0.7130078228504207
 40
0.9999999999999999
 40
0.9999999999999999
 40
0.9999999999999999
 40
0.9999999999999999
 10
7010.166197861047
 20
5185.549460004821
 30
0.0
 10
7010.175664243133
 20
5185.535944280072
 30
0.0
 10
7010.201781114495
 20
5185.498655647362
 30
0.0
 10
7010.485604698257
 20
5185.089854241935
 30
0.0
 10
7011.068852677654
 20
5184.241371336582
 30
0.0
 10
7011.650952318866
 20
5183.347691018828
 30
0.0
 10
7011.944446558567
 20
5182.897098015799
 30
0.0
  0
SPLINE
  5
10F
330
1F
100
AcDbEntity
  8
0
  6
Continuous
 62
     7
370
    25
100
AcDbSpline
210
0.0
220
0.0
230
1.0
 70
    24
 71
     3
 72
    12
 73
     8
 74
     0
 42
0.000000001
 43
0.00000001
 40
0.0
 40
0.0
 40
0.0
 40
0.0
 40
0.0026572796581698
 40
0.0516700664266138
 40
0.3670805911900973
 40
0.7311421549285645
 40
1.0
 40
1.0
 40
1.0
 40
1.0
 10
7010.166197861047
 20
5185.549460004821
 30
0.0
 10
7010.169593934856
 20
5185.549460004821
 30
0.0
 10
7010.235629648757
 20
5185.549460004821
 30
0.0
 10
7010.715977110368
 20
5185.549460004821
 30
0.0
 10
7011.803355300434
 20
5185.549460004821
 30
0.0
 10
7013.396584558111
 20
5185.549460004821
 30
0.0
 10
7014.308899260597
 20
5185.549460004821
 30
0.0
 10
7014.69644143662
 20
5185.549460004821
 30
0.0
  0
LINE
  5
110
330
1F
100
AcDbEntity
  8
0
  6
Continuous
 62
     7
370
    25
100
AcDbLine
 10
6862.1661959537
 20
5203.5494517794
 30
0.0
 11
6862.1661959537
 21
5123.5494535675
 31
0.0
  0
LINE
  5
111
330
1F
100
AcDbEntity
  8
0
  6
Continuous
 62
     7
370
    25
100
AcDbLine
 10
6897.1661923774
 20
5183.5494559517
 30
0.0
 11
6897.1661923774
 21
5143.5494493952
 31
0.0
  0
LINE
  5
112
330
1F
100
AcDbEntity
  8
0
  6
Continuous
 62
     7
370
    25
100
AcDbLine
 10
6852.1662054904
 20
5183.5494559517
 30
0.0
 11
6852.1662054904
 21
5143.5494493952
 31
0.0
  0
LINE
  5
113
330
1F
100
AcDbEntity
  8
0
  6
Continuous
 62
     7
370
    25
100
AcDbLine
 10
7007.166199232
 20
5221.0494499912
 30
0.0
 11
7067.1661988222
 21
5221.0494499912
 31
0.0
  0
LINE
  5
114
330
1F
100
AcDbEntity
  8
0
  6
Continuous
 62
     7
370
    25
100
AcDbLine
 10
7009.1661995598
 20
5217.0494567862
 30
0.0
 11
7065.16619896
 21
5217.0494567862
 31
0.0
  0
LINE
  5
115
330
1F
100
AcDbEntity
  8
0
  6
Continuous
 62
     7
370
    25
100
AcDbLine
 10
7012.1661981889
 20
5207.0494514218
 30
0.0
 11
7062.1661989339
 21
5207.0494514218
 31
0.0
  0
LINE
  5
116
330
1F
100
AcDbEntity
  8
0
  6
Continuous
 62
     7
370
    25
100
AcDbLine
 10
7037.1661985614
 20
5254.049457263
 30
0.0
 11
7069.16619915
 21
5254.049457263
 31
0.0
  0
LINE
  5
117
330
1F
100
AcDbEntity
  8
0
  6
Continuous
 62
     7
370
    25
100
AcDbLine
 10
7005.1661989041
 20
5254.049457263
 30
0.0
 11
7037.1661985614
 21
5254.049457263
 31
0.0
  0
SPLINE
  5
118
330
1F
100
AcDbEntity
  8
0
  6
Continuous
 62
     7
370
    25
100
AcDbSpline
210
0.0
220
0.0
230
1.0
 70
     8
 71
     3
 72
    10
 73
     6
 74
     0
 42
0.000000001
 43
0.00000001
 40
0.0
 40
0.0
 40
0.0
 40
0.0
 40
0.4575032561212527
 40
0.9222009516276772
 40
1.0
 40
1.0
 40
1.0
 40
1.0
 10
7009.679190660329
 20
5249.540522347941
 30
0.0
 10
7009.741751967839
 20
5249.497497983236
 30
0.0
 10
7009.867858386862
 20
5249.410772676817
 30
0.0
 10
7010.591167118292
 20
5248.913976797324
 30
0.0
 10
7011.056264853425
 20
5248.595172981938
 30
0.0
 10
7011.122964168401
 20
5248.549453567519
 30
0.0
  0
LINE
  5
119
330
1F
100
AcDbEntity
  8
0
  6
Continuous
 62
     7
370
    25
100
AcDbLine
 10
7011.1229641684
 20
5248.5494535675
 30
0.0
 11
7063.666198947
 21
5248.5494535675
 31
0.0
  0
LINE
  5
11A
330
1F
100
AcDbEntity
  8
0
  6
Continuous
 62
     7
370
    25
100
AcDbLine
 10
7037.1661985614
 20
5224.0494560709
 30
0.0
 11
7066.6661987402
 21
5224.0494560709
 31
0.0
  0
LINE
  5
11B
330
1F
100
AcDbEntity
  8
0
  6
Continuous
 62
     7
370
    25
100
AcDbLine
 10
7007.6662002452
 20
5224.0494560709
 30
0.0
 11
7037.1661985614
 21
5224.0494560709
 31
0.0
  0
SPLINE
  5
11C
330
1F
100
AcDbEntity
  8
0
  6
Continuous
 62
     7
370
    25
100
AcDbSpline
210
0.0
220
0.0
230
1.0
 70
     8
 71
     3
 72
    14
 73
    10
 74
     0
 42
0.000000001
 43
0.00000001
 40
0.0
 40
0.0
 40
0.0
 40
0.0
 40
0.153353053223319
 40
0.3112241451733564
 40
0.4645392344488444
 40
0.6224056249039948
 40
0.772938577168142
 40
0.9287239360073105
 40
1.0
 40
1.0
 40
1.0
 40
1.0
 10
7013.166200215431
 20
5231.572232793822
 30
0.0
 10
7013.009983995822
 20
5230.949420955068
 30
0.0
 10
7012.692949164182
 20
5229.685448193875
 30
0.0
 10
7012.145257989864
 20
5228.07204487114
 30
0.0
 10
7011.616375263533
 20
5226.6936477098
 30
0.0
 10
7011.161833749973
 20
5225.629076162699
 30
0.0
 10
7010.834792515589
 20
5224.907538284716
 30
0.0
 10
7010.671270444832
 20
5224.560199622058
 30
0.0
 10
7010.68102553257
 20
5224.580915076009
 30
0.0
 10
7010.684087718339
 20
5224.587417792334
 30
0.0
  0
SPLINE
  5
11D
330
1F
100
AcDbEntity
  8
0
  6
Continuous
 62
     7
370
    25
100
AcDbSpline
210
0.0
220
0.0
230
1.0
 70
     8
 71
     3
 72
    10
 73
     6
 74
     0
 42
0.000000001
 43
0.00000001
 40
0.0
 40
0.0
 40
0.0
 40
0.0
 40
0.1883899196848355
 40
0.633274800143626
 40
1.0
 40
1.0
 40
1.0
 40
1.0
 10
7011.122964168401
 20
5248.549453567519
 30
0.0
 10
7011.228396087035
 20
5248.306258647381
 30
0.0
 10
7011.582806648456
 20
5247.488756231621
 30
0.0
 10
7012.367992888593
 20
5245.553494425461
 30
0.0
 10
7012.917779628873
 20
5243.468699726445
 30
0.0
 10
7013.166200215431
 20
5242.526687335028
 30
0.0
  0
LINE
  5
11E
330
1F
100
AcDbEntity
  8
0
  6
Continuous
 62
     7
370
    25
100
AcDbLine
 10
7013.1662002154
 20
5231.5722327938
 30
0.0
 11
7013.1662002154
 21
5242.526687335
 31
0.0
  0
ARC
  5
11F
330
1F
100
AcDbEntity
  8
0
  6
Continuous
 62
     7
370
    25
100
AcDbCircle
 10
6865.1661989339
 20
5259.8494545927
 30
0.0
 40
3.0
100
AcDbArc
 50
180.0
 51
270.0
  0
LINE
  5
120
330
1F
100
AcDbEntity
  8
0
  6
Continuous
 62
     7
370
    25
100
AcDbLine
 10
6865.1662020334
 20
5259.8494511356
 30
0.0
 11
6862.1661959537
 21
5259.8494511356
 31
0.0
  0
LINE
  5
121
330
1F
100
AcDbEntity
  8
0
  6
Continuous
 62
     7
370
    25
100
AcDbLine
 10
6865.1662020334
 20
5256.8494525066
 30
0.0
 11
6865.1662020334
 21
5259.8494511356
 31
0.0
  0
LINE
  5
122
330
1F
100
AcDbEntity
  8
0
  6
Continuous
 62
     7
370
    25
100
AcDbLine
 10
7259.1661958345
 20
5368.8494545666
 30
0.0
 11
6865.1662020334
 21
5368.8494545666
 31
0.0
  0
LINE
  5
123
330
1F
100
AcDbEntity
  8
0
  6
Continuous
 62
     7
370
    25
100
AcDbLine
 10
6865.1662020334
 20
5368.8494545666
 30
0.0
 11
6865.1662020334
 21
5371.8494545927
 31
0.0
  0
LINE
  5
124
330
1F
100
AcDbEntity
  8
0
  6
Continuous
 62
     7
370
    25
100
AcDbLine
 10
6865.1662020334
 20
5371.8494545927
 30
0.0
 11
7259.1661958345
 21
5371.8494545927
 31
0.0
  0
LINE
  5
125
330
1F
100
AcDbEntity
  8
0
  6
Continuous
 62
     7
370
    25
100
AcDbLine
 10
7259.1661958345
 20
5368.8494545666
 30
0.0
 11
7259.1661958345
 21
5371.8494545927
 31
0.0
  0
LINE
  5
126
330
1F
100
AcDbEntity
  8
0
  6
Continuous
 62
     7
370
    25
100
AcDbLine
 10
6865.1662020334
 20
5368.8494545666
 30
0.0
 11
6862.1661959537
 21
5368.8494545666
 31
0.0
  0
ARC
  5
127
330
1F
100
AcDbEntity
  8
0
  6
Continuous
 62
     7
370
    25
100
AcDbCircle
 10
6865.1661989339
 20
5368.8494545927
 30
0.0
 40
3.0
100
AcDbArc
 50
90.0
 51
180.0
  0
LINE
  5
128
330
1F
100
AcDbEntity
  8
0
  6
Continuous
 62
     7
370
    25
100
AcDbLine
 10
7259.1661958345
 20
5256.8494525066
 30
0.0
 11
6865.1662020334
 21
5256.8494525066
 31
0.0
  0
LINE
  5
129
330
1F
100
AcDbEntity
  8
0
  6
Continuous
 62
     7
370
    25
100
AcDbLine
 10
6865.1662020334
 20
5259.8494511356
 30
0.0
 11
7259.1661958345
 21
5259.8494511356
 31
0.0
  0
LINE
  5
12A
330
1F
100
AcDbEntity
  8
0
  6
Continuous
 62
     7
370
    25
100
AcDbLine
 10
7259.1661958345
 20
5256.8494525066
 30
0.0
 11
7259.1661958345
 21
5259.8494511356
 31
0.0
  0
LINE
  5
12B
330
1F
100
AcDbEntity
  8
0
  6
Continuous
 62
     7
370
    25
100
AcDbLine
 10
7259.1661958345
 20
5259.8494511356
 30
0.0
 11
7259.1661958345
 21
5368.8494545666
 31
0.0
  0
LINE
  5
12C
330
1F
100
AcDbEntity
  8
0
  6
Continuous
 62
     7
370
    25
100
AcDbLine
 10
6865.1662020334
 20
5368.8494545666
 30
0.0
 11
6865.1662020334
 21
5259.8494511356
 31
0.0
  0
LINE
  5
12D
330
1F
100
AcDbEntity
  8
0
  6
Continuous
 62
     7
370
    25
100
AcDbLine
 10
6862.1661959537
 20
5259.8494511356
 30
0.0
 11
6862.1661959537
 21
5368.8494545666
 31
0.0
  0
ARC
  5
12E
330
1F
100
AcDbEntity
  8
0
  6
Continuous
 62
     7
370
    25
100
AcDbCircle
 10
7259.1661989339
 20
5368.8494545927
 30
0.0
 40
3.0
100
AcDbArc
 50
0.0
 51
90.0
  0
LINE
  5
12F
330
1F
100
AcDbEntity
  8
0
  6
Continuous
 62
     7
370
    25
100
AcDbLine
 10
7262.1662019142
 20
5368.8494545666
 30
0.0
 11
7259.1661958345
 21
5368.8494545666
 31
0.0
  0
LINE
  5
130
330
1F
100
AcDbEntity
  8
0
  6
Continuous
 62
     7
370
    25
100
AcDbLine
 10
7262.1662019142
 20
5259.8494511356
 30
0.0
 11
7259.1661958345
 21
5259.8494511356
 31
0.0
  0
ARC
  5
131
330
1F
100
AcDbEntity
  8
0
  6
Continuous
 62
     7
370
    25
100
AcDbCircle
 10
7259.1661989339
 20
5259.8494545927
 30
0.0
 40
3.0
100
AcDbArc
 50
270.0
 51
0.0
  0
LINE
  5
132
330
1F
100
AcDbEntity
  8
0
  6
Continuous
 62
     7
370
    25
100
AcDbLine
 10
7262.1662019142
 20
5368.8494545666
 30
0.0
 11
7262.1662019142
 21
5259.8494511356
 31
0.0
  0
LINE
  5
133
330
1F
100
AcDbEntity
  8
0
  6
Continuous
 62
     8
370
    25
100
AcDbLine
 10
7064.4756407332
 20
5182.8970980158
 30
0.0
 11
7011.9444465586
 21
5182.8970980158
 31
0.0
  0
LINE
  5
134
330
1F
100
AcDbEntity
  8
0
  6
Continuous
 62
     8
370
    25
100
AcDbLine
 10
7010.0599861093
 20
5058.2437884321
 30
0.0
 11
7064.2724131089
 21
5058.2437884321
 31
0.0
  0
LINE
  5
135
330
1F
100
AcDbEntity
  8
0
  6
Continuous
 62
     8
370
    25
100
AcDbLine
 10
6980.166196669
 20
5189.5494532099
 30
0.0
 11
6980.166196669
 21
5137.549452137
 31
0.0
  0
LINE
  5
136
330
1F
100
AcDbEntity
  8
0
  6
Continuous
 62
     8
370
    25
100
AcDbLine
 10
7014.1661985167
 20
5199.0494501104
 30
0.0
 11
7060.1661988389
 21
5199.0494501104
 31
0.0
  0
LINE
  5
137
330
1F
100
AcDbEntity
  8
0
  6
Continuous
 62
     8
370
    25
100
AcDbLine
 10
6877.1661965497
 20
5203.5494517794
 30
0.0
 11
6877.1661965497
 21
5123.5494535675
 31
0.0
  0
LINE
  5
138
330
1F
100
AcDbEntity
  8
0
  6
Continuous
 62
     8
370
    25
100
AcDbLine
 10
7009.1661995598
 20
5210.0494575014
 30
0.0
 11
7065.16619896
 21
5210.0494575014
 31
0.0
  0
LINE
  5
139
330
1F
100
AcDbEntity
  8
0
  6
Continuous
 62
     8
370
    25
100
AcDbLine
 10
6958.1661967882
 20
5224.5494496336
 30
0.0
 11
6958.1661967882
 21
5249.5494555941
 31
0.0
  0
ARC
  5
13A
330
1F
100
AcDbEntity
  8
0
  6
Continuous
 62
     7
370
    25
100
AcDbCircle
 10
6274.0187553362
 20
4590.0487223072
 30
0.0
 40
8.552641741590838
100
AcDbArc
 50
232.1768619348
 51
264.9643274477
  0
LINE
  5
13B
330
1F
100
AcDbEntity
  8
0
  6
Continuous
 62
     7
370
    25
100
AcDbLine
 10
6279.2687552653
 20
4583.3011538701
 30
0.0
 11
6279.2687552653
 21
4584.0007261353
 31
0.0
  0
LINE
  5
13C
330
1F
100
AcDbEntity
  8
0
  6
Continuous
 62
     7
370
    25
100
AcDbLine
 10
6268.7687554069
 20
4584.0007261353
 30
0.0
 11
6268.7687554069
 21
4583.3011538701
 31
0.0
  0
ARC
  5
13D
330
1F
100
AcDbEntity
  8
0
  6
Continuous
 62
     7
370
    25
100
AcDbCircle
 10
6274.0187553362
 20
4590.0487223072
 30
0.0
 40
8.552641741590605
100
AcDbArc
 50
275.0260666621
 51
307.8231380652
  0
LINE
  5
13E
330
1F
100
AcDbEntity
  8
0
  6
Continuous
 62
     7
370
    25
100
AcDbLine
 10
6279.259143085
 20
4584.0118125992
 30
0.0
 11
6278.9098975852
 21
4584.2129559236
 31
0.0
  0
LINE
  5
13F
330
1F
100
AcDbEntity
  8
0
  6
Continuous
 62
     7
370
    25
100
AcDbLine
 10
6269.127613087
 20
4584.2129559236
 30
0.0
 11
6268.7783675872
 21
4584.0118125992
 31
0.0
  0
LINE
  5
140
330
1F
100
AcDbEntity
  8
0
  6
Continuous
 62
     7
370
    25
100
AcDbLine
 10
6294.0187548891
 20
4668.8276649432
 30
0.0
 11
6294.0187548891
 21
4678.8276554065
 31
0.0
  0
LINE
  5
141
330
1F
100
AcDbEntity
  8
0
  6
Continuous
 62
     7
370
    25
100
AcDbLine
 10
6254.0187557831
 20
4678.8276554065
 30
0.0
 11
6254.0187557831
 21
4668.8276649432
 31
0.0
  0
LINE
  5
142
330
1F
100
AcDbEntity
  8
0
  6
Continuous
 62
     7
370
    25
100
AcDbLine
 10
6257.8022462919
 20
4584.2881471829
 30
0.0
 11
6262.4355351224
 21
4583.9707822518
 31
0.0
  0
LINE
  5
143
330
1F
100
AcDbEntity
  8
0
  6
Continuous
 62
     7
370
    25
100
AcDbLine
 10
6285.6019755498
 20
4583.9707822518
 30
0.0
 11
6290.2352643803
 21
4584.2881471829
 31
0.0
  0
LINE
  5
144
330
1F
100
AcDbEntity
  8
0
  6
Continuous
 62
     7
370
    25
100
AcDbLine
 10
6292.2187560841
 20
4584.5764995532
 30
0.0
 11
6292.2187560841
 21
4586.3069863038
 31
0.0
  0
LINE
  5
145
330
1F
100
AcDbEntity
  8
0
  6
Continuous
 62
     7
370
    25
100
AcDbLine
 10
6255.8187545881
 20
4586.3069863038
 30
0.0
 11
6255.8187545881
 21
4584.5764995532
 31
0.0
  0
LINE
  5
146
330
1F
100
AcDbEntity
  8
0
  6
Continuous
 62
     7
370
    25
100
AcDbLine
 10
6268.2687553249
 20
4584.2348904328
 30
0.0
 11
6268.2687553249
 21
4584.1767461019
 31
0.0
  0
LINE
  5
147
330
1F
100
AcDbEntity
  8
0
  6
Continuous
 62
     7
370
    25
100
AcDbLine
 10
6279.7687553473
 20
4584.1767461019
 30
0.0
 11
6279.7687553473
 21
4584.2176050858
 31
0.0
  0
CIRCLE
  5
148
330
1F
100
AcDbEntity
  8
0
  6
Continuous
 62
     7
370
    25
100
AcDbCircle
 10
6274.0187553361
 20
4493.827661963
 30
0.0
 40
35.0
  0
ARC
  5
149
330
1F
100
AcDbEntity
  8
0
  6
Continuous
 62
     7
370
    25
100
AcDbCircle
 10
6274.0187553361
 20
4493.827661963
 30
0.0
 40
35.16921944985916
100
AcDbArc
 50
270.0
 51
329.6260805965
  0
ARC
  5
14A
330
1F
100
AcDbEntity
  8
0
  6
Continuous
 62
     7
370
    25
100
AcDbCircle
 10
6274.0187553361
 20
4493.827661963
 30
0.0
 40
35.16921944985823
100
AcDbArc
 50
30.3739194035
 51
149.6260805965
  0
ARC
  5
14B
330
1F
100
AcDbEntity
  8
0
  6
Continuous
 62
     7
370
    25
100
AcDbCircle
 10
6274.0187553361
 20
4493.827661963
 30
0.0
 40
35.16921944985916
100
AcDbArc
 50
210.3739194035
 51
270.0
  0
CIRCLE
  5
14C
330
1F
100
AcDbEntity
  8
0
  6
Continuous
 62
     7
370
    25
100
AcDbCircle
 10
6274.0187553361
 20
4493.827661963
 30
0.0
 40
24.96512544439429
  0
CIRCLE
  5
14D
330
1F
100
AcDbEntity
  8
0
  6
Continuous
 62
     7
370
    25
100
AcDbCircle
 10
6274.0187553361
 20
4493.827661963
 30
0.0
 40
22.0
  0
CIRCLE
  5
14E
330
1F
100
AcDbEntity
  8
0
  6
Continuous
 62
     7
370
    25
100
AcDbCircle
 10
6274.0187553361
 20
4493.827661963
 30
0.0
 40
20.5
  0
CIRCLE
  5
14F
330
1F
100
AcDbEntity
  8
0
  6
Continuous
 62
     7
370
    25
100
AcDbCircle
 10
6274.0187553361
 20
4493.827661963
 30
0.0
 40
19.48700763430406
  0
CIRCLE
  5
150
330
1F
100
AcDbEntity
  8
0
  6
Continuous
 62
     7
370
    25
100
AcDbCircle
 10
6274.0187553361
 20
4493.827661963
 30
0.0
 40
5.699999999999818
  0
CIRCLE
  5
151
330
1F
100
AcDbEntity
  8
0
  6
Continuous
 62
     7
370
    25
100
AcDbCircle
 10
6274.0187553361
 20
4507.827661963
 30
0.0
 40
5.0
  0
CIRCLE
  5
152
330
1F
100
AcDbEntity
  8
0
  6
Continuous
 62
     7
370
    25
100
AcDbCircle
 10
6286.1431109891
 20
4500.827661963
 30
0.0
 40
5.0
  0
CIRCLE
  5
153
330
1F
100
AcDbEntity
  8
0
  6
Continuous
 62
     7
370
    25
100
AcDbCircle
 10
6286.1431109891
 20
4486.827661963
 30
0.0
 40
5.0
  0
CIRCLE
  5
154
330
1F
100
AcDbEntity
  8
0
  6
Continuous
 62
     7
370
    25
100
AcDbCircle
 10
6274.0187553361
 20
4479.827661963
 30
0.0
 40
5.0
  0
CIRCLE
  5
155
330
1F
100
AcDbEntity
  8
0
  6
Continuous
 62
     7
370
    25
100
AcDbCircle
 10
6261.8943996831
 20
4486.827661963
 30
0.0
 40
5.0
  0
CIRCLE
  5
156
330
1F
100
AcDbEntity
  8
0
  6
Continuous
 62
     7
370
    25
100
AcDbCircle
 10
6261.8943996831
 20
4500.827661963
 30
0.0
 40
5.0
  0
ARC
  5
157
330
1F
100
AcDbEntity
  8
0
  6
Continuous
 62
     7
370
    25
100
AcDbCircle
 10
6274.0187553361
 20
4493.827661963
 30
0.0
 40
5.250000000000563
100
AcDbArc
 50
98.2132107017
 51
261.7867892983
  0
LINE
  5
158
330
1F
100
AcDbEntity
  8
0
  6
Continuous
 62
     7
370
    25
100
AcDbLine
 10
6273.2687553296
 20
4499.0238145905
 30
0.0
 11
6273.2687553296
 21
4488.6315100806
 31
0.0
  0
ARC
  5
159
330
1F
100
AcDbEntity
  8
0
  6
Continuous
 62
     7
370
    25
100
AcDbCircle
 10
6274.0187553361
 20
4493.827661963
 30
0.0
 40
5.250000000000563
100
AcDbArc
 50
278.2132107017
 51
81.7867892983
  0
LINE
  5
15A
330
1F
100
AcDbEntity
  8
0
  6
Continuous
 62
     7
370
    25
100
AcDbLine
 10
6274.7687553426
 20
4488.6315100806
 30
0.0
 11
6274.7687553426
 21
4499.0238145905
 31
0.0
  0
ARC
  5
15B
330
1F
100
AcDbEntity
  8
0
  6
Continuous
 62
     7
370
    25
100
AcDbCircle
 10
6274.0187553361
 20
4493.827661963
 30
0.0
 40
5.249999999999662
100
AcDbArc
 50
81.7867892983
 51
98.2132107017
  0
ARC
  5
15C
330
1F
100
AcDbEntity
  8
0
  6
Continuous
 62
     7
370
    25
100
AcDbCircle
 10
6274.0187553361
 20
4493.827661963
 30
0.0
 40
5.250000000000563
100
AcDbArc
 50
261.7867892983
 51
278.2132107017
  0
ARC
  5
15D
330
1F
100
AcDbEntity
  8
0
  6
Continuous
 62
     7
370
    25
100
AcDbCircle
 10
6272.1105988572
 20
4557.6480572113
 30
0.0
 40
25.86101240632764
100
AcDbArc
 50
87.4055294946
 51
97.4128733462
  0
ARC
  5
15E
330
1F
100
AcDbEntity
  8
0
  6
Continuous
 62
     7
370
    25
100
AcDbCircle
 10
6194.0997361711
 20
4583.0408066471
 30
0.0
 40
79.18273452105947
100
AcDbArc
 50
358.906073632
 51
0.3196500968
  0
ARC
  5
15F
330
1F
100
AcDbEntity
  8
0
  6
Continuous
 62
     7
370
    25
100
AcDbCircle
 10
6274.0162281104
 20
4523.4572342046
 30
0.0
 40
60.77090962518785
100
AcDbArc
 50
85.0416472972
 51
94.9535553011
  0
ARC
  5
160
330
1F
100
AcDbEntity
  8
0
  6
Continuous
 62
     7
370
    25
100
AcDbCircle
 10
6275.9469687022
 20
4557.9526262795
 30
0.0
 40
25.55640852581168
100
AcDbArc
 50
82.543620219
 51
92.6144071653
  0
ARC
  5
161
330
1F
100
AcDbEntity
  8
0
  6
Continuous
 62
     7
370
    25
100
AcDbCircle
 10
6274.0186104456
 20
4433.9587809175
 30
0.0
 40
149.5255978419057
100
AcDbArc
 50
89.7077737496
 51
90.282550121
  0
ARC
  5
162
330
1F
100
AcDbEntity
  8
0
  6
Continuous
 62
     7
370
    25
100
AcDbCircle
 10
6274.0189169578
 20
4732.841668998
 30
0.0
 40
149.7237375286845
100
AcDbArc
 50
269.7081540732
 51
270.2821697974
  0
LWPOLYLINE
  5
163
330
1F
100
AcDbEntity
  8
0
  6
Continuous
 62
     7
370
    25
100
AcDbPolyline
 90
        9
 70
   128
 43
0.0
 10
6274.7562722441
 20
4583.1197471337
 10
6274.7590871666
 20
4582.4034185128
 10
6274.762161346
 20
4581.8922118263
 10
6274.7654124767
 20
4581.5998361425
 10
6274.7687531889
 20
4581.5341592746
 10
6274.7720939012
 20
4581.6969172077
 10
6274.7753449737
 20
4582.0837588029
 10
6274.7784192113
 20
4582.6843054013
 10
6274.7812340756
 20
4583.4824339466
  0
LINE
  5
164
330
1F
100
AcDbEntity
  8
0
  6
Continuous
 62
     7
370
    25
100
AcDbLine
 10
6274.7812340756
 20
4583.4824339466
 30
0.0
 11
6274.7562722441
 21
4583.1197471337
 31
0.0
  0
LINE
  5
165
330
1F
100
AcDbEntity
  8
0
  6
Continuous
 62
     7
370
    25
100
AcDbLine
 10
6289.1242663979
 20
4678.8276554065
 30
0.0
 11
6254.0187557831
 21
4678.8276554065
 31
0.0
  0
LINE
  5
166
330
1F
100
AcDbEntity
  8
0
  6
Continuous
 62
     7
370
    25
100
AcDbLine
 10
6294.0187548891
 20
4678.8276554065
 30
0.0
 11
6289.1242663979
 21
4678.8276554065
 31
0.0
  0
ARC
  5
167
330
1F
100
AcDbEntity
  8
0
  6
Continuous
 62
     7
370
    25
100
AcDbCircle
 10
6274.0187553361
 20
4493.827661963
 30
0.0
 40
15.00000000000013
100
AcDbArc
 50
270.0
 51
289.4629509463
  0
ARC
  5
168
330
1F
100
AcDbEntity
  8
0
  6
Continuous
 62
     7
370
    25
100
AcDbCircle
 10
6274.0187553361
 20
4493.827661963
 30
0.0
 40
14.99999999999988
100
AcDbArc
 50
310.5370490537
 51
349.4629509463
  0
ARC
  5
169
330
1F
100
AcDbEntity
  8
0
  6
Continuous
 62
     7
370
    25
100
AcDbCircle
 10
6274.0187553361
 20
4493.827661963
 30
0.0
 40
15.00000000000057
100
AcDbArc
 50
10.5370490537
 51
49.4629509463
  0
ARC
  5
16A
330
1F
100
AcDbEntity
  8
0
  6
Continuous
 62
     7
370
    25
100
AcDbCircle
 10
6274.0187553361
 20
4493.827661963
 30
0.0
 40
14.99999999999982
100
AcDbArc
 50
70.5370490537
 51
109.4629509463
  0
ARC
  5
16B
330
1F
100
AcDbEntity
  8
0
  6
Continuous
 62
     7
370
    25
100
AcDbCircle
 10
6274.0187553361
 20
4493.827661963
 30
0.0
 40
15.00000000000057
100
AcDbArc
 50
130.5370490537
 51
169.4629509463
  0
ARC
  5
16C
330
1F
100
AcDbEntity
  8
0
  6
Continuous
 62
     7
370
    25
100
AcDbCircle
 10
6274.0187553361
 20
4493.827661963
 30
0.0
 40
14.99999999999998
100
AcDbArc
 50
190.5370490537
 51
229.4629509463
  0
ARC
  5
16D
330
1F
100
AcDbEntity
  8
0
  6
Continuous
 62
     7
370
    25
100
AcDbCircle
 10
6274.0187553361
 20
4493.827661963
 30
0.0
 40
14.99999999999982
100
AcDbArc
 50
250.5370490537
 51
270.0
  0
ARC
  5
16E
330
1F
100
AcDbEntity
  8
0
  6
Continuous
 62
     7
370
    25
100
AcDbCircle
 10
6282.9442494117
 20
4546.9036553252
 30
0.0
 40
37.57293402216842
100
AcDbArc
 50
85.0418482616
 51
87.3972688934
  0
ARC
  5
16F
330
1F
100
AcDbEntity
  8
0
  6
Continuous
 62
     7
370
    25
100
AcDbCircle
 10
6273.9424157416
 20
4300.9402331546
 30
0.0
 40
283.6997519203329
100
AcDbArc
 50
87.8368981445
 51
92.0122965708
  0
ARC
  5
170
330
1F
100
AcDbEntity
  8
0
  6
Continuous
 62
     7
370
    25
100
AcDbCircle
 10
6266.1903938772
 20
4528.7824768391
 30
0.0
 40
55.72638626260955
100
AcDbArc
 50
92.2726352705
 51
94.0814658882
  0
LWPOLYLINE
  5
171
330
1F
100
AcDbEntity
  8
0
  6
Continuous
 62
     7
370
    25
100
AcDbPolyline
 90
       11
 70
   128
 43
0.0
 10
6262.2240801945
 20
4584.3675331192
 10
6261.4785629928
 20
4584.2963428216
 10
6261.0830526471
 20
4584.2218072133
 10
6261.0485890552
 20
4584.1460199075
 10
6261.3761333421
 20
4584.071096869
 10
6262.0565436453
 20
4583.9991168098
 10
6263.0708284348
 20
4583.9320913868
 10
6264.3906792298
 20
4583.8718981462
 10
6265.9792575657
 20
4583.8202134686
 10
6267.7922250375
 20
4583.778475316
 10
6268.7687554069
 20
4583.761689158
  0
LWPOLYLINE
  5
172
330
1F
100
AcDbEntity
  8
0
  6
Continuous
 62
     7
370
    25
100
AcDbPolyline
 90
       11
 70
   128
 43
0.0
 10
6279.2687552653
 20
4583.761689158
 10
6279.3682591662
 20
4583.7632388787
 10
6281.2661306605
 20
4583.8000969009
 10
6282.9617216855
 20
4583.8474602418
 10
6284.407708016
 20
4583.9040101485
 10
6285.5637298569
 20
4583.9681819992
 10
6286.3975215375
 20
4584.0381653028
 10
6286.8858121008
 20
4584.1120229082
 10
6287.014972572
 20
4584.1876835542
 10
6286.7813978016
 20
4584.2630461769
 10
6286.1916070476
 20
4584.3359948115
  0
LWPOLYLINE
  5
173
330
1F
100
AcDbEntity
  8
0
  6
Continuous
 62
     7
370
    25
100
AcDbPolyline
 90
       31
 70
   128
 43
0.0
 10
6290.2352643803
 20
4584.2881471829
 10
6291.103786011
 20
4584.3576014953
 10
6291.8104512289
 20
4584.4427094774
 10
6292.1708209112
 20
4584.5304326134
 10
6292.1778803363
 20
4584.6190423684
 10
6291.8314953938
 20
4584.7068325596
 10
6291.1384032711
 20
4584.7920821028
 10
6290.1120988324
 20
4584.8731295185
 10
6288.7725542903
 20
4584.9484101849
 10
6287.1458438829
 20
4585.0164563375
 10
6285.2636297837
 20
4585.0759343224
 10
6283.1625474289
 20
4585.1256892996
 10
6280.8834916584
 20
4585.1647526937
 10
6278.4708213665
 20
4585.1923719959
 10
6275.9714963984
 20
4585.208003314
 10
6273.4341636904
 20
4585.2113411741
 10
6270.9082094159
 20
4585.2023259716
 10
6268.4427985594
 20
4585.1811290698
 10
6266.0859172836
 20
4585.1481602507
 10
6263.8834390461
 20
4585.1040677147
 10
6261.8782344878
 20
4585.0497008281
 10
6260.109330681
 20
4584.9861324744
 10
6258.61115769
 20
4584.914584549
 10
6257.4128770873
 20
4584.8364577608
 10
6256.5378101215
 20
4584.7532720284
 10
6256.0029888198
 20
4584.6666441278
 10
6255.8188253686
 20
4584.5782653408
 10
6255.9889034972
 20
4584.4898493009
 10
6256.5099114224
 20
4584.4031170921
 10
6257.3717089042
 20
4584.319767447
 10
6257.8022462919
 20
4584.2881471829
  0
LINE
  5
174
330
1F
100
AcDbEntity
  8
0
  6
Continuous
 62
     7
370
    25
100
AcDbLine
 10
6270.2339460745
 20
4584.327814074
 30
0.0
 11
6263.9805880979
 21
4584.4650314169
 31
0.0
  0
ARC
  5
175
330
1F
100
AcDbEntity
  8
0
  6
Continuous
 62
     7
370
    25
100
AcDbCircle
 10
6273.994604108
 20
4446.2361343634
 30
0.0
 40
138.1428773196147
100
AcDbArc
 50
88.2892119978
 51
91.559953436
  0
LINE
  5
176
330
1F
100
AcDbEntity
  8
0
  6
Continuous
 62
     7
370
    25
100
AcDbLine
 10
6284.6504591078
 20
4584.4378293471
 30
0.0
 11
6278.1187832959
 21
4584.3174354153
 31
0.0
  0
LINE
  5
177
330
1F
100
AcDbEntity
  8
0
  6
Continuous
 62
     7
370
    25
100
AcDbLine
 10
6279.6599317014
 20
4584.2156008797
 30
0.0
 11
6286.1916070476
 21
4584.3359948115
 31
0.0
  0
LWPOLYLINE
  5
178
330
1F
100
AcDbEntity
  8
0
  6
Continuous
 62
     7
370
    25
100
AcDbPolyline
 90
        5
 70
   128
 43
0.0
 10
6279.132129778
 20
4584.0849623995
 10
6279.3749483906
 20
4584.1037527637
 10
6279.6725217856
 20
4584.1401861029
 10
6279.7686575584
 20
4584.1779083924
 10
6279.6599317014
 20
4584.2156008797
  0
LWPOLYLINE
  5
179
330
1F
100
AcDbEntity
  8
0
  6
Continuous
 62
     7
370
    25
100
AcDbPolyline
 90
        5
 70
   128
 43
0.0
 10
6268.4774377055
 20
4584.2303157763
 10
6268.2877012201
 20
4584.1930181699
 10
6268.3021558121
 20
4584.1551468687
 10
6268.5202859946
 20
4584.1180429773
 10
6268.9053808942
 20
4584.0849623995
  0
LINE
  5
17A
330
1F
100
AcDbEntity
  8
0
  6
Continuous
 62
     7
370
    25
100
AcDbLine
 10
6262.2240801945
 20
4584.3675331192
 30
0.0
 11
6268.4774377055
 21
4584.2303157763
 31
0.0
  0
LWPOLYLINE
  5
17B
330
1F
100
AcDbEntity
  8
0
  6
Continuous
 62
     7
370
    25
100
AcDbPolyline
 90
       14
 70
   128
 43
0.0
 10
6269.0381060027
 20
4584.1614053564
 10
6269.0468096778
 20
4584.19520119
 10
6269.373884578
 20
4584.2413351851
 10
6270.0454482481
 20
4584.2826710062
 10
6271.0116935566
 20
4584.3161539154
 10
6272.2009591896
 20
4584.3393028693
 10
6273.52504238
 20
4584.3503893332
 10
6274.8857419726
 20
4584.3485937433
 10
6276.1821410757
 20
4584.3340576606
 10
6277.3180919837
 20
4584.3078539686
 10
6278.2093460344
 20
4584.271927269
 10
6278.7898030735
 20
4584.2289448695
 10
6279.0164134137
 20
4584.1820807176
 10
6278.9994046695
 20
4584.1614053564
  0
LINE
  5
17C
330
1F
100
AcDbEntity
  8
0
  6
Continuous
 62
     7
370
    25
100
AcDbLine
 10
6270.2339460745
 20
4584.6107796745
 30
0.0
 11
6270.2339460745
 21
4584.327814074
 31
0.0
  0
LINE
  5
17D
330
1F
100
AcDbEntity
  8
0
  6
Continuous
 62
     7
370
    25
100
AcDbLine
 10
6278.1187832959
 20
4584.6072779016
 30
0.0
 11
6278.1187832959
 21
4584.3174354153
 31
0.0
  0
LINE
  5
17E
330
1F
100
AcDbEntity
  8
0
  6
Continuous
 62
     7
370
    25
100
AcDbLine
 10
6077.0187584355
 20
4668.8276649432
 30
0.0
 11
6471.0187522367
 21
4668.8276649432
 31
0.0
  0
LINE
  5
17F
330
1F
100
AcDbEntity
  8
0
  6
Continuous
 62
     7
370
    25
100
AcDbLine
 10
6471.0187522367
 20
4668.8276649432
 30
0.0
 11
6471.0187522367
 21
4665.8276588635
 31
0.0
  0
LINE
  5
180
330
1F
100
AcDbEntity
  8
0
  6
Continuous
 62
     7
370
    25
100
AcDbLine
 10
6471.0187522367
 20
4665.8276588635
 30
0.0
 11
6077.0187584355
 21
4665.8276588635
 31
0.0
  0
LINE
  5
181
330
1F
100
AcDbEntity
  8
0
  6
Continuous
 62
     7
370
    25
100
AcDbLine
 10
6077.0187584355
 20
4665.8276588635
 30
0.0
 11
6077.0187584355
 21
4668.8276649432
 31
0.0
  0
ARC
  5
182
330
1F
100
AcDbEntity
  8
0
  6
Continuous
 62
     7
370
    25
100
AcDbCircle
 10
6471.0187553361
 20
4665.827661963
 30
0.0
 40
3.0
100
AcDbArc
 50
0.0
 51
90.0
  0
LINE
  5
183
330
1F
100
AcDbEntity
  8
0
  6
Continuous
 62
     7
370
    25
100
AcDbLine
 10
6471.0187522367
 20
4665.8276588635
 30
0.0
 11
6474.0187583163
 21
4665.8276588635
 31
0.0
  0
ARC
  5
184
330
1F
100
AcDbEntity
  8
0
  6
Continuous
 62
     7
370
    25
100
AcDbCircle
 10
6077.0187553361
 20
4665.827661963
 30
0.0
 40
3.0
100
AcDbArc
 50
90.0
 51
180.0
  0
LINE
  5
185
330
1F
100
AcDbEntity
  8
0
  6
Continuous
 62
     7
370
    25
100
AcDbLine
 10
6074.0187523559
 20
4665.8276588635
 30
0.0
 11
6077.0187584355
 21
4665.8276588635
 31
0.0
  0
LINE
  5
186
330
1F
100
AcDbEntity
  8
0
  6
Continuous
 62
     7
370
    25
100
AcDbLine
 10
6471.0187522367
 20
4271.8276650624
 30
0.0
 11
6471.0187522367
 21
4665.8276588635
 31
0.0
  0
LINE
  5
187
330
1F
100
AcDbEntity
  8
0
  6
Continuous
 62
     7
370
    25
100
AcDbLine
 10
6474.0187583163
 20
4665.8276588635
 30
0.0
 11
6474.0187583163
 21
4271.8276650624
 31
0.0
  0
LINE
  5
188
330
1F
100
AcDbEntity
  8
0
  6
Continuous
 62
     7
370
    25
100
AcDbLine
 10
6471.0187522367
 20
4271.8276650624
 30
0.0
 11
6474.0187583163
 21
4271.8276650624
 31
0.0
  0
LINE
  5
189
330
1F
100
AcDbEntity
  8
0
  6
Continuous
 62
     7
370
    25
100
AcDbLine
 10
6074.0187523559
 20
4271.8276650624
 30
0.0
 11
6074.0187523559
 21
4665.8276588635
 31
0.0
  0
LINE
  5
18A
330
1F
100
AcDbEntity
  8
0
  6
Continuous
 62
     7
370
    25
100
AcDbLine
 10
6077.0187584355
 20
4665.8276588635
 30
0.0
 11
6077.0187584355
 21
4271.8276650624
 31
0.0
  0
LINE
  5
18B
330
1F
100
AcDbEntity
  8
0
  6
Continuous
 62
     7
370
    25
100
AcDbLine
 10
6074.0187523559
 20
4271.8276650624
 30
0.0
 11
6077.0187584355
 21
4271.8276650624
 31
0.0
  0
LINE
  5
18C
330
1F
100
AcDbEntity
  8
0
  6
Continuous
 62
     7
370
    25
100
AcDbLine
 10
6450.6756422713
 20
4577.4967343526
 30
0.0
 11
6450.6756422713
 21
4312.1585966067
 31
0.0
  0
ELLIPSE
  5
18D
330
1F
100
AcDbEntity
  8
0
  6
Continuous
 62
     7
370
    25
100
AcDbEllipse
 10
6430.6634521982
 20
4577.4723588251
 30
0.0
 11
-14.1593708919836
 21
-14.15937089198269
 31
0.0
210
0.0
220
0.0
230
1.0
 40
0.998782766
 41
2.35680347777808
 42
3.92638182940163
  0
LINE
  5
18E
330
1F
100
AcDbEntity
  8
0
  6
Continuous
 62
     7
370
    25
100
AcDbLine
 10
6117.3496899798
 20
4597.4845559316
 30
0.0
 11
6430.6878206924
 21
4597.4845559316
 31
0.0
  0
ELLIPSE
  5
18F
330
1F
100
AcDbEntity
  8
0
  6
Continuous
 62
     7
370
    25
100
AcDbEllipse
 10
6117.374058474
 20
4577.4723588251
 30
0.0
 11
-14.15937089198451
 21
14.15937089198451
 31
0.0
210
0.0
220
0.0
230
1.0
 40
0.998782766
 41
5.498396131367746
 42
7.067974482991396
  0
LINE
  5
190
330
1F
100
AcDbEntity
  8
0
  6
Continuous
 62
     7
370
    25
100
AcDbLine
 10
6097.3618684009
 20
4312.1585966067
 30
0.0
 11
6097.3618684009
 21
4577.4967343526
 31
0.0
  0
ELLIPSE
  5
191
330
1F
100
AcDbEntity
  8
0
  6
Continuous
 62
     7
370
    25
100
AcDbEllipse
 10
6117.374058474
 20
4312.1829651009
 30
0.0
 11
-14.15937089198451
 21
-14.15937089198451
 31
0.0
210
0.0
220
0.0
230
1.0
 40
0.998782766
 41
5.498396131367746
 42
7.06797448299144
  0
LINE
  5
192
330
1F
100
AcDbEntity
  8
0
  6
Continuous
 62
     7
370
    25
100
AcDbLine
 10
6430.6878206924
 20
4292.1707750278
 30
0.0
 11
6117.3496899798
 21
4292.1707750278
 31
0.0
  0
ELLIPSE
  5
193
330
1F
100
AcDbEntity
  8
0
  6
Continuous
 62
     7
370
    25
100
AcDbEllipse
 10
6430.6634521982
 20
4312.1829651009
 30
0.0
 11
-14.1593708919836
 21
14.1593708919836
 31
0.0
210
0.0
220
0.0
230
1.0
 40
0.998782766
 41
2.356803477777971
 42
3.926381829401629
  0
LINE
  5
194
330
1F
100
AcDbEntity
  8
0
  6
Continuous
 62
     7
370
    25
100
AcDbLine
 10
6077.0187584355
 20
4271.8276650624
 30
0.0
 11
6471.0187522367
 21
4271.8276650624
 31
0.0
  0
LINE
  5
195
330
1F
100
AcDbEntity
  8
0
  6
Continuous
 62
     7
370
    25
100
AcDbLine
 10
6450.6756422713
 20
4577.4967343526
 30
0.0
 11
6440.6817314818
 21
4577.4967343526
 31
0.0
  0
ELLIPSE
  5
196
330
1F
100
AcDbEntity
  8
0
  6
Continuous
 62
     7
370
    25
100
AcDbEllipse
 10
6430.6634521982
 20
4577.4723588251
 30
0.0
 11
7.096910224568092
 21
7.096910224567182
 31
0.0
210
0.0
220
0.0
230
1.0
 40
0.9963586389
 41
5.498396131367908
 42
7.067974482991497
  0
LINE
  5
197
330
1F
100
AcDbEntity
  8
0
  6
Continuous
 62
     7
370
    25
100
AcDbLine
 10
6430.6878206924
 20
4597.4845559316
 30
0.0
 11
6430.6878206924
 21
4587.4906451421
 31
0.0
  0
ELLIPSE
  5
198
330
1F
100
AcDbEntity
  8
0
  6
Continuous
 62
     7
370
    25
100
AcDbEllipse
 10
6117.374058474
 20
4577.4723588251
 30
0.0
 11
7.096910224566273
 21
-7.096910224566273
 31
0.0
210
0.0
220
0.0
230
1.0
 40
0.9963586389
 41
2.356803477778042
 42
3.926381829401467
  0
LINE
  5
199
330
1F
100
AcDbEntity
  8
0
  6
Continuous
 62
     7
370
    25
100
AcDbLine
 10
6107.3557791904
 20
4577.4967343526
 30
0.0
 11
6097.3618684009
 21
4577.4967343526
 31
0.0
  0
LINE
  5
19A
330
1F
100
AcDbEntity
  8
0
  6
Continuous
 62
     7
370
    25
100
AcDbLine
 10
6117.3496899798
 20
4587.4906451421
 30
0.0
 11
6117.3496899798
 21
4597.4845559316
 31
0.0
  0
LINE
  5
19B
330
1F
100
AcDbEntity
  8
0
  6
Continuous
 62
     7
370
    25
100
AcDbLine
 10
6430.6878206924
 20
4587.4906451421
 30
0.0
 11
6117.3496899798
 21
4587.4906451421
 31
0.0
  0
LINE
  5
19C
330
1F
100
AcDbEntity
  8
0
  6
Continuous
 62
     7
370
    25
100
AcDbLine
 10
6107.3557791904
 20
4577.4967343526
 30
0.0
 11
6107.3557791904
 21
4312.1585966067
 31
0.0
  0
LINE
  5
19D
330
1F
100
AcDbEntity
  8
0
  6
Continuous
 62
     7
370
    25
100
AcDbLine
 10
6107.3557791904
 20
4312.1585966067
 30
0.0
 11
6097.3618684009
 21
4312.1585966067
 31
0.0
  0
LINE
  5
19E
330
1F
100
AcDbEntity
  8
0
  6
Continuous
 62
     7
370
    25
100
AcDbLine
 10
6450.6756422713
 20
4312.1585966067
 30
0.0
 11
6440.6817314818
 21
4312.1585966067
 31
0.0
  0
LINE
  5
19F
330
1F
100
AcDbEntity
  8
0
  6
Continuous
 62
     7
370
    25
100
AcDbLine
 10
6440.6817314818
 20
4312.1585966067
 30
0.0
 11
6440.6817314818
 21
4577.4967343526
 31
0.0
  0
ELLIPSE
  5
1A0
330
1F
100
AcDbEntity
  8
0
  6
Continuous
 62
     7
370
    25
100
AcDbEllipse
 10
6117.374058474
 20
4312.1829651009
 30
0.0
 11
7.096910224567182
 21
7.096910224566273
 31
0.0
210
0.0
220
0.0
230
1.0
 40
0.9963586389
 41
2.356803477778074
 42
3.926381829401654
  0
LINE
  5
1A1
330
1F
100
AcDbEntity
  8
0
  6
Continuous
 62
     7
370
    25
100
AcDbLine
 10
6117.3496899798
 20
4302.1646858172
 30
0.0
 11
6117.3496899798
 21
4292.1707750278
 31
0.0
  0
LINE
  5
1A2
330
1F
100
AcDbEntity
  8
0
  6
Continuous
 62
     7
370
    25
100
AcDbLine
 10
6430.6878206924
 20
4292.1707750278
 30
0.0
 11
6430.6878206924
 21
4302.1646858172
 31
0.0
  0
ELLIPSE
  5
1A3
330
1F
100
AcDbEntity
  8
0
  6
Continuous
 62
     7
370
    25
100
AcDbEllipse
 10
6430.6634521982
 20
4312.1829651009
 30
0.0
 11
7.096910224568092
 21
-7.096910224567182
 31
0.0
210
0.0
220
0.0
230
1.0
 40
0.9963586389
 41
5.498396131367689
 42
7.067974482991368
  0
LINE
  5
1A4
330
1F
100
AcDbEntity
  8
0
  6
Continuous
 62
     7
370
    25
100
AcDbLine
 10
6117.3496899798
 20
4302.1646858172
 30
0.0
 11
6430.6878206924
 21
4302.1646858172
 31
0.0
  0
ARC
  5
1A5
330
1F
100
AcDbEntity
  8
0
  6
Continuous
 62
     7
370
    25
100
AcDbCircle
 10
6471.0187553361
 20
4271.827661963
 30
0.0
 40
3.0
100
AcDbArc
 50
270.0
 51
0.0
  0
LINE
  5
1A6
330
1F
100
AcDbEntity
  8
0
  6
Continuous
 62
     7
370
    25
100
AcDbLine
 10
6471.0187522367
 20
4271.8276650624
 30
0.0
 11
6471.0187522367
 21
4268.8276589828
 31
0.0
  0
LINE
  5
1A7
330
1F
100
AcDbEntity
  8
0
  6
Continuous
 62
     7
370
    25
100
AcDbLine
 10
6471.0187522367
 20
4268.8276589828
 30
0.0
 11
6077.0187584355
 21
4268.8276589828
 31
0.0
  0
LINE
  5
1A8
330
1F
100
AcDbEntity
  8
0
  6
Continuous
 62
     7
370
    25
100
AcDbLine
 10
6077.0187584355
 20
4268.8276589828
 30
0.0
 11
6077.0187584355
 21
4271.8276650624
 31
0.0
  0
ARC
  5
1A9
330
1F
100
AcDbEntity
  8
0
  6
Continuous
 62
     7
370
    25
100
AcDbCircle
 10
6077.0187553361
 20
4271.827661963
 30
0.0
 40
3.0
100
AcDbArc
 50
180.0
 51
270.0
  0
LINE
  5
1AA
330
1F
100
AcDbEntity
  8
0
  6
Continuous
 62
     7
370
    25
100
AcDbLine
 10
6109.1385690167
 20
4575.713929625
 30
0.0
 11
6107.3557791904
 21
4577.4967343526
 31
0.0
  0
LINE
  5
1AB
330
1F
100
AcDbEntity
  8
0
  6
Continuous
 62
     7
370
    25
100
AcDbLine
 10
6117.3496899798
 20
4587.4906451421
 30
0.0
 11
6119.1324798062
 21
4585.7078404145
 31
0.0
  0
ARC
  5
1AC
330
1F
100
AcDbEntity
  8
0
  6
Continuous
 62
     7
370
    25
100
AcDbCircle
 10
6119.146757373
 20
4575.6996520583
 30
0.0
 40
10.00819854031195
100
AcDbArc
 50
90.0817374465
 51
179.9182625535
  0
LINE
  5
1AD
330
1F
100
AcDbEntity
  8
0
  6
Continuous
 62
     7
370
    25
100
AcDbLine
 10
6428.905030866
 20
4585.7078404145
 30
0.0
 11
6430.6878206924
 21
4587.4906451421
 31
0.0
  0
LINE
  5
1AE
330
1F
100
AcDbEntity
  8
0
  6
Continuous
 62
     7
370
    25
100
AcDbLine
 10
6440.6817314818
 20
4577.4967343526
 30
0.0
 11
6438.8989416555
 21
4575.713929625
 31
0.0
  0
ARC
  5
1AF
330
1F
100
AcDbEntity
  8
0
  6
Continuous
 62
     7
370
    25
100
AcDbCircle
 10
6428.8907532992
 20
4575.6996520583
 30
0.0
 40
10.00819854031195
100
AcDbArc
 50
0.0817374465
 51
89.9182625535
  0
LINE
  5
1B0
330
1F
100
AcDbEntity
  8
0
  6
Continuous
 62
     7
370
    25
100
AcDbLine
 10
6119.1324798062
 20
4303.9474756436
 30
0.0
 11
6117.3496899798
 21
4302.1646858172
 31
0.0
  0
LINE
  5
1B1
330
1F
100
AcDbEntity
  8
0
  6
Continuous
 62
     7
370
    25
100
AcDbLine
 10
6107.3557791904
 20
4312.1585966067
 30
0.0
 11
6109.1385690167
 21
4313.9413864331
 31
0.0
  0
ARC
  5
1B2
330
1F
100
AcDbEntity
  8
0
  6
Continuous
 62
     7
370
    25
100
AcDbCircle
 10
6119.1467796225
 20
4313.9556862494
 30
0.0
 40
10.00822082159675
100
AcDbArc
 50
180.0818646404
 51
269.9181353596
  0
LINE
  5
1B3
330
1F
100
AcDbEntity
  8
0
  6
Continuous
 62
     7
370
    25
100
AcDbLine
 10
6438.8989416555
 20
4313.9413864331
 30
0.0
 11
6440.6817314818
 21
4312.1585966067
 31
0.0
  0
LINE
  5
1B4
330
1F
100
AcDbEntity
  8
0
  6
Continuous
 62
     7
370
    25
100
AcDbLine
 10
6430.6878206924
 20
4302.1646858172
 30
0.0
 11
6428.905030866
 21
4303.9474756436
 31
0.0
  0
ARC
  5
1B5
330
1F
100
AcDbEntity
  8
0
  6
Continuous
 62
     7
370
    25
100
AcDbCircle
 10
6428.8907310497
 20
4313.9556862494
 30
0.0
 40
10.00822082159675
100
AcDbArc
 50
270.0818646404
 51
359.9181353596
  0
LWPOLYLINE
  5
1B6
330
1F
100
AcDbEntity
  8
0
  6
Continuous
 62
     7
370
    25
100
AcDbPolyline
 90
       29
 70
   128
 43
0.0
 10
6255.8187545881
 20
4585.9262169318
 10
6255.4161568776
 20
4585.9816939549
 10
6255.0630496487
 20
4586.0713467913
 10
6255.0630496487
 20
4586.1618489938
 10
6255.4161568776
 20
4586.2515092807
 10
6256.1157980606
 20
4586.3386587219
 10
6257.1489365444
 20
4586.4216656404
 10
6258.4963274792
 20
4586.4989952164
 10
6260.1328717217
 20
4586.5691945868
 10
6262.02808429
 20
4586.6309673505
 10
6264.146660608
 20
4586.6831586676
 10
6266.4491344847
 20
4586.7247925119
 10
6268.8926166527
 20
4586.7551014738
 10
6271.4315889541
 20
4586.7735118585
 10
6274.0187553361
 20
4586.7796883898
 10
6276.6059217181
 20
4586.7735118585
 10
6279.1448940195
 20
4586.7551014738
 10
6281.5883761875
 20
4586.7247925119
 10
6283.8908500642
 20
4586.6831586676
 10
6286.0094263822
 20
4586.6309673505
 10
6287.9046389505
 20
4586.5691945868
 10
6289.541183193
 20
4586.4989952164
 10
6290.8885741278
 20
4586.4216656404
 10
6291.9217126116
 20
4586.3386587219
 10
6292.6213537946
 20
4586.2515092807
 10
6292.9744610235
 20
4586.1618489938
 10
6292.9744610235
 20
4586.0713467913
 10
6292.6213537946
 20
4585.9816939549
 10
6292.2187560841
 20
4585.9262169318
  0
LINE
  5
1B7
330
1F
100
AcDbEntity
  8
0
  6
Continuous
 62
     7
370
    25
100
AcDbLine
 10
6438.8989416555
 20
4575.713929625
 30
0.0
 11
6438.8989416555
 21
4313.9413864331
 31
0.0
  0
LINE
  5
1B8
330
1F
100
AcDbEntity
  8
0
  6
Continuous
 62
     7
370
    25
100
AcDbLine
 10
6109.1385690167
 20
4313.9413864331
 30
0.0
 11
6109.1385690167
 21
4575.713929625
 31
0.0
  0
ELLIPSE
  5
1B9
330
1F
100
AcDbEntity
  8
0
  6
Continuous
 62
     7
370
    25
100
AcDbEllipse
 10
6274.0187553361
 20
4294.0742460179
 30
0.0
 11
322.3777777777777
 21
0.0
 31
0.0
210
0.0
220
0.0
230
1.0
 40
0.0349207695
 41
1.069629055598972
 42
2.071963597990821
  0
LINE
  5
1BA
330
1F
100
AcDbEntity
  8
0
  6
Continuous
 62
     7
370
    25
100
AcDbLine
 10
6438.8989416555
 20
4575.713929625
 30
0.0
 11
6433.7095228627
 21
4575.713929625
 31
0.0
  0
LWPOLYLINE
  5
1BB
330
1F
100
AcDbEntity
  8
0
  6
Continuous
 62
     7
370
    25
100
AcDbPolyline
 90
        9
 70
   128
 43
0.0
 10
6428.905030866
 20
4585.7078404145
 10
6429.8247305348
 20
4585.4646460133
 10
6430.7104555562
 20
4584.8611489849
 10
6431.5294531777
 20
4583.9196638184
 10
6432.2514889434
 20
4582.6749623733
 10
6432.8498748735
 20
4581.1730519848
 10
6433.3024827436
 20
4579.4694245772
 10
6433.592608352
 20
4577.6270226555
 10
6433.7095228627
 20
4575.713929625
  0
ELLIPSE
  5
1BC
330
1F
100
AcDbEntity
  8
0
  6
Continuous
 62
     7
370
    25
100
AcDbEllipse
 10
6274.0187553361
 20
4585.5871696379
 30
0.0
 11
332.3777777777777
 21
0.0
 31
0.0
210
0.0
220
0.0
230
1.0
 40
0.0338701346
 41
4.211221709188862
 42
5.213556251580705
  0
LWPOLYLINE
  5
1BD
330
1F
100
AcDbEntity
  8
0
  6
Continuous
 62
     7
370
    25
100
AcDbPolyline
 90
        9
 70
   128
 43
0.0
 10
6114.3279878095
 20
4575.713929625
 10
6114.4449023202
 20
4577.6270226555
 10
6114.7350279286
 20
4579.4694245772
 10
6115.1876357987
 20
4581.1730519848
 10
6115.7860217288
 20
4582.6749623733
 10
6116.5080574945
 20
4583.9196638184
 10
6117.327055116
 20
4584.8611489849
 10
6118.2127801374
 20
4585.4646460133
 10
6119.1324798062
 20
4585.7078404145
  0
LINE
  5
1BE
330
1F
100
AcDbEntity
  8
0
  6
Continuous
 62
     7
370
    25
100
AcDbLine
 10
6438.8989416555
 20
4313.9413864331
 30
0.0
 11
6433.7095228627
 21
4313.9413864331
 31
0.0
  0
LINE
  5
1BF
330
1F
100
AcDbEntity
  8
0
  6
Continuous
 62
     7
370
    25
100
AcDbLine
 10
6433.7095228627
 20
4313.9413864331
 30
0.0
 11
6433.7095228627
 21
4575.713929625
 31
0.0
  0
LINE
  5
1C0
330
1F
100
AcDbEntity
  8
0
  6
Continuous
 62
     7
370
    25
100
AcDbLine
 10
6114.3279878095
 20
4575.713929625
 30
0.0
 11
6109.1385690167
 21
4575.713929625
 31
0.0
  0
LINE
  5
1C1
330
1F
100
AcDbEntity
  8
0
  6
Continuous
 62
     7
370
    25
100
AcDbLine
 10
6114.3279878095
 20
4575.713929625
 30
0.0
 11
6114.3279878095
 21
4313.9413864331
 31
0.0
  0
LINE
  5
1C2
330
1F
100
AcDbEntity
  8
0
  6
Continuous
 62
     7
370
    25
100
AcDbLine
 10
6114.3279878095
 20
4313.9413864331
 30
0.0
 11
6109.1385690167
 21
4313.9413864331
 31
0.0
  0
LWPOLYLINE
  5
1C3
330
1F
100
AcDbEntity
  8
0
  6
Continuous
 62
     7
370
    25
100
AcDbPolyline
 90
        9
 70
   128
 43
0.0
 10
6119.1324798062
 20
4303.9474756436
 10
6118.2127801374
 20
4304.1906774955
 10
6117.327055116
 20
4304.7941745238
 10
6116.5080574945
 20
4305.7356596904
 10
6115.7860217288
 20
4306.9803536849
 10
6115.1876357987
 20
4308.482271524
 10
6114.7350279286
 20
4310.1859063821
 10
6114.4449023202
 20
4312.0283008533
 10
6114.3279878095
 20
4313.9413864331
  0
ELLIPSE
  5
1C4
330
1F
100
AcDbEntity
  8
0
  6
Continuous
 62
     7
370
    25
100
AcDbEllipse
 10
6274.0187553361
 20
4304.0681542881
 30
0.0
 11
332.3777777777777
 21
0.0
 31
0.0
210
0.0
220
0.0
230
1.0
 40
0.0338701346
 41
1.06962905559897
 42
2.071963597990822
  0
LWPOLYLINE
  5
1C5
330
1F
100
AcDbEntity
  8
0
  6
Continuous
 62
     7
370
    25
100
AcDbPolyline
 90
        9
 70
   128
 43
0.0
 10
6433.7095228627
 20
4313.9413864331
 10
6433.592608352
 20
4312.0283008533
 10
6433.3024827436
 20
4310.1859063821
 10
6432.8498748735
 20
4308.482271524
 10
6432.2514889434
 20
4306.9803536849
 10
6431.5294531777
 20
4305.7356596904
 10
6430.7104555562
 20
4304.7941745238
 10
6429.8247305348
 20
4304.1906774955
 10
6428.905030866
 20
4303.9474756436
  0
SPLINE
  5
1C6
330
1F
100
AcDbEntity
  8
0
  6
Continuous
 62
     7
370
    25
100
AcDbSpline
210
0.0
220
0.0
230
1.0
 70
     8
 71
     3
 72
    23
 73
    19
 74
     0
 42
0.000000001
 43
0.00000001
 40
0.0
 40
0.0
 40
0.0
 40
0.0
 40
0.0662061797500356
 40
0.1326627990270388
 40
0.1988885938958073
 40
0.2656342858364285
 40
0.3322099229115366
 40
0.3991346310106491
 40
0.4661731841490934
 40
0.5330513741081447
 40
0.6002653298895946
 40
0.6670401644663073
 40
0.7340494597420983
 40
0.8007351757880828
 40
0.8672510692572266
 40
0.933815230781297
 40
0.9999177532145863
 40
1.0
 40
1.0
 40
1.0
 40
1.0
 10
6274.0187553361
 20
4459.32766226846
 30
0.0
 10
6271.787699585023
 20
4459.456139767711
 30
0.0
 10
6267.317148620734
 20
4459.713580760786
 30
0.0
 10
6260.881320635146
 20
4461.767777425259
 30
0.0
 10
6254.948284818374
 20
4464.959278619437
 30
0.0
 10
6249.757763599712
 20
4469.277303889682
 30
0.0
 10
6245.493240064817
 20
4474.535082788121
 30
0.0
 10
6242.323569114111
 20
4480.532904982764
 30
0.0
 10
6240.37078398066
 20
4487.043488405636
 30
0.0
 10
6239.709063941164
 20
4493.82036985655
 30
0.0
 10
6240.366110743206
 20
4500.589542063457
 30
0.0
 10
6242.317388185393
 20
4507.10507680052
 30
0.0
 10
6245.481301810793
 20
4513.105439834898
 30
0.0
 10
6249.744157730754
 20
4518.356392246748
 30
0.0
 10
6254.932579261229
 20
4522.711620499753
 30
0.0
 10
6260.874984578112
 20
4525.792343995918
 30
0.0
 10
6265.125850948058
 20
4527.437196494923
 30
0.0
 10
6267.34137250574
 20
4527.658784043589
 30
0.0
 10
6267.344125699991
 20
4527.659059406996
 30
0.0
  0
SPLINE
  5
1C7
330
1F
100
AcDbEntity
  8
0
  6
Continuous
 62
     7
370
    25
100
AcDbSpline
210
0.0
220
0.0
230
1.0
 70
     8
 71
     3
 72
    22
 73
    18
 74
     0
 42
0.000000001
 43
0.00000001
 40
0.0
 40
0.0
 40
0.0
 40
0.0
 40
0.066060638054232
 40
0.1326298613316801
 40
0.1991809711024875
 40
0.2658503322895401
 40
0.3328725829137472
 40
0.399642926903206
 40
0.4668658689168649
 40
0.5337604618711074
 40
0.6008110672132299
 40
0.6677650238334261
 40
0.7343424626385747
 40
0.8011004105788081
 40
0.8673268044471024
 40
0.9337861074390874
 40
1.0
 40
1.0
 40
1.0
 40
1.0
 10
6280.708340615774
 20
4527.656254263401
 30
0.0
 10
6282.863857781624
 20
4527.089688439621
 30
0.0
 10
6287.191486930014
 20
4525.952194935828
 30
0.0
 10
6293.099875217694
 20
4522.667081906735
 30
0.0
 10
6298.296685455416
 20
4518.366538905178
 30
0.0
 10
6302.556794078717
 20
4513.100506265588
 30
0.0
 10
6305.720533689437
 20
4507.105140270293
 30
0.0
 10
6307.671382789288
 20
4500.588946412845
 30
0.0
 10
6308.328478557455
 20
4493.820385469047
 30
0.0
 10
6307.666696186348
 20
4487.043184719317
 30
0.0
 10
6305.71354697885
 20
4480.531769926685
 30
0.0
 10
6302.543387422656
 20
4474.533679640621
 30
0.0
 10
6298.278270814387
 20
4469.275839280432
 30
0.0
 10
6293.087918560652
 20
4464.958422850809
 30
0.0
 10
6287.155192546835
 20
4461.76741673254
 30
0.0
 10
6280.719956968738
 20
4459.713541349738
 30
0.0
 10
6276.249732968387
 20
4459.456129914457
 30
0.0
 10
6274.0187553361
 20
4459.32766226846
 30
0.0
  0
ELLIPSE
  5
1C8
330
1F
100
AcDbEntity
  8
0
  6
Continuous
 62
     8
370
    25
100
AcDbEllipse
 10
6274.0187553361
 20
4595.5810779081
 30
0.0
 11
322.3777777777777
 21
0.0
 31
0.0
210
0.0
220
0.0
230
1.0
 40
0.0349207695
 41
4.211221709188858
 42
4.660010452271353
  0
ELLIPSE
  5
1C9
330
1F
100
AcDbEntity
  8
0
  6
Continuous
 62
     8
370
    25
100
AcDbEllipse
 10
6274.0187553361
 20
4595.5810779081
 30
0.0
 11
322.3777777777777
 21
0.0
 31
0.0
210
0.0
220
0.0
230
1.0
 40
0.0349207695
 41
4.764767508498721
 42
5.213556251580716
  0
ENDSEC
  0
SECTION
  2
OBJECTS
  0
DICTIONARY
  5
C
330
0
100
AcDbDictionary
281
     1
  3
ACAD_GROUP
350
D
  3
ACAD_LAYOUT
350
1A
  3
ACAD_MLINESTYLE
350
17
  3
ACAD_PLOTSETTINGS
350
19
  3
ACAD_PLOTSTYLENAME
350
E
  3
ACAD_SCALELIST
350
47
  0
DICTIONARY
  5
D
102
{ACAD_REACTORS
330
C
102
}
330
C
100
AcDbDictionary
281
     1
  0
DICTIONARY
  5
1A
102
{ACAD_REACTORS
330
C
102
}
330
C
100
AcDbDictionary
281
     1
  3
Layout1
350
1E
  3
Layout2
350
26
  3
Model
350
22
  0
DICTIONARY
  5
17
102
{ACAD_REACTORS
330
C
102
}
330
C
100
AcDbDictionary
281
     1
  3
Standard
350
18
  0
DICTIONARY
  5
19
102
{ACAD_REACTORS
330
C
102
}
330
C
100
AcDbDictionary
281
     1
  0
ACDBDICTIONARYWDFLT
  5
E
102
{ACAD_REACTORS
330
C
102
}
330
C
100
AcDbDictionary
281
     1
  3
Normal
350
F
100
AcDbDictionaryWithDefault
340
F
  0
DICTIONARY
  5
47
102
{ACAD_REACTORS
330
C
102
}
330
C
100
AcDbDictionary
281
     1
  3
A0
350
48
  3
A1
350
49
  3
A2
350
4A
  3
A3
350
4B
  3
A4
350
4C
  3
A5
350
4D
  3
A6
350
4E
  3
A7
350
4F
  3
A8
350
50
  3
A9
350
51
  3
B0
350
52
  3
B1
350
53
  3
B2
350
54
  3
B3
350
55
  3
B4
350
56
  3
B5
350
57
  3
B6
350
58
  3
B7
350
59
  3
B8
350
5A
  3
B9
350
5B
  3
C0
350
5C
  3
C1
350
5D
  3
C2
350
5E
  3
C3
350
5F
  3
C4
350
60
  3
C5
350
61
  3
C6
350
62
  3
C7
350
63
  3
C8
350
64
  3
C9
350
65
  3
D0
350
66
  3
D1
350
67
  3
D2
350
68
  0
LAYOUT
  5
1E
102
{ACAD_REACTORS
330
1A
102
}
330
1A
100
AcDbPlotSettings
  1

  2
none_device
  4

  6

 40
0.0
 41
0.0
 42
0.0
 43
0.0
 44
0.0
 45
0.0
 46
0.0
 47
0.0
 48
0.0
 49
0.0
140
0.0
141
0.0
142
1.0
143
1.0
 70
   688
 72
     1
 73
     0
 74
     5
  7

 75
    16
147
1.0
148
0.0
149
0.0
100
AcDbLayout
  1
Layout1
 70
     1
 71
     1
 10
0.0
 20
0.0
 11
420.0
 21
297.0
 12
0.0
 22
0.0
 32
0.0
 14
1.0000000000E+20
 24
1.0000000000E+20
 34
1.0000000000E+20
 15
-1.0000000000E+20
 25
-1.0000000000E+20
 35
-1.0000000000E+20
146
0.0
 13
0.0
 23
0.0
 33
0.0
 16
1.0
 26
0.0
 36
0.0
 17
0.0
 27
1.0
 37
0.0
 76
     0
330
1B
  0
LAYOUT
  5
26
102
{ACAD_REACTORS
330
1A
102
}
330
1A
100
AcDbPlotSettings
  1

  2
none_device
  4

  6

 40
0.0
 41
0.0
 42
0.0
 43
0.0
 44
0.0
 45
0.0
 46
0.0
 47
0.0
 48
0.0
 49
0.0
140
0.0
141
0.0
142
1.0
143
1.0
 70
   688
 72
     1
 73
     0
 74
     5
  7

 75
    16
147
1.0
148
0.0
149
0.0
100
AcDbLayout
  1
Layout2
 70
     1
 71
     2
 10
0.0
 20
0.0
 11
0.0
 21
0.0
 12
0.0
 22
0.0
 32
0.0
 14
0.0
 24
0.0
 34
0.0
 15
0.0
 25
0.0
 35
0.0
146
0.0
 13
0.0
 23
0.0
 33
0.0
 16
1.0
 26
0.0
 36
0.0
 17
0.0
 27
1.0
 37
0.0
 76
     0
330
23
  0
LAYOUT
  5
22
102
{ACAD_REACTORS
330
1A
102
}
330
1A
100
AcDbPlotSettings
  1

  2
none_device
  4
Letter_(8.50_x_11.00_Inches)
  6

 40
6.35
 41
6.35
 42
6.35000508
 43
6.35000508
 44
215.9
 45
279.4
 46
0.0
 47
0.0
 48
0.0
 49
0.0
140
0.0
141
0.0
142
1.0
143
1.0
 70
  1712
 72
     1
 73
     0
 74
     0
  7

 75
     0
147
1.0
148
0.0
149
0.0
100
AcDbLayout
  1
Model
 70
     1
 71
     0
 10
0.0
 20
0.0
 11
20000.0
 21
10000.0
 12
0.0
 22
0.0
 32
0.0
 14
0.0
 24
0.0
 34
0.0
 15
20000.0
 25
10000.0
 35
0.0
146
0.0
 13
0.0
 23
0.0
 33
0.0
 16
1.0
 26
0.0
 36
0.0
 17
0.0
 27
1.0
 37
0.0
 76
     0
330
1F
331
29
  0
MLINESTYLE
  5
18
102
{ACAD_REACTORS
330
17
102
}
330
17
100
AcDbMlineStyle
  2
Standard
 70
     0
  3

 62
   256
 51
90.0
 52
90.0
 71
     2
 49
0.5
 62
   256
  6
BYLAYER
 49
-0.5
 62
   256
  6
BYLAYER
  0
ACDBPLACEHOLDER
  5
F
102
{ACAD_REACTORS
330
E
102
}
330
E
  0
SCALE
  5
48
102
{ACAD_REACTORS
330
47
102
}
330
47
100
AcDbScale
 70
     0
300
1:1
140
1.0
141
1.0
290
     1
  0
SCALE
  5
49
102
{ACAD_REACTORS
330
47
102
}
330
47
100
AcDbScale
 70
     0
300
1:2
140
1.0
141
2.0
290
     0
  0
SCALE
  5
4A
102
{ACAD_REACTORS
330
47
102
}
330
47
100
AcDbScale
 70
     0
300
1:4
140
1.0
141
4.0
290
     0
  0
SCALE
  5
4B
102
{ACAD_REACTORS
330
47
102
}
330
47
100
AcDbScale
 70
     0
300
1:5
140
1.0
141
5.0
290
     0
  0
SCALE
  5
4C
102
{ACAD_REACTORS
330
47
102
}
330
47
100
AcDbScale
 70
     0
300
1:8
140
1.0
141
8.0
290
     0
  0
SCALE
  5
4D
102
{ACAD_REACTORS
330
47
102
}
330
47
100
AcDbScale
 70
     0
300
1:10
140
1.0
141
10.0
290
     0
  0
SCALE
  5
4E
102
{ACAD_REACTORS
330
47
102
}
330
47
100
AcDbScale
 70
     0
300
1:16
140
1.0
141
16.0
290
     0
  0
SCALE
  5
4F
102
{ACAD_REACTORS
330
47
102
}
330
47
100
AcDbScale
 70
     0
300
1:20
140
1.0
141
20.0
290
     0
  0
SCALE
  5
50
102
{ACAD_REACTORS
330
47
102
}
330
47
100
AcDbScale
 70
     0
300
1:30
140
1.0
141
30.0
290
     0
  0
SCALE
  5
51
102
{ACAD_REACTORS
330
47
102
}
330
47
100
AcDbScale
 70
     0
300
1:40
140
1.0
141
40.0
290
     0
  0
SCALE
  5
52
102
{ACAD_REACTORS
330
47
102
}
330
47
100
AcDbScale
 70
     0
300
1:50
140
1.0
141
50.0
290
     0
  0
SCALE
  5
53
102
{ACAD_REACTORS
330
47
102
}
330
47
100
AcDbScale
 70
     0
300
1:100
140
1.0
141
100.0
290
     0
  0
SCALE
  5
54
102
{ACAD_REACTORS
330
47
102
}
330
47
100
AcDbScale
 70
     0
300
2:1
140
2.0
141
1.0
290
     0
  0
SCALE
  5
55
102
{ACAD_REACTORS
330
47
102
}
330
47
100
AcDbScale
 70
     0
300
4:1
140
4.0
141
1.0
290
     0
  0
SCALE
  5
56
102
{ACAD_REACTORS
330
47
102
}
330
47
100
AcDbScale
 70
     0
300
8:1
140
8.0
141
1.0
290
     0
  0
SCALE
  5
57
102
{ACAD_REACTORS
330
47
102
}
330
47
100
AcDbScale
 70
     0
300
10:1
140
10.0
141
1.0
290
     0
  0
SCALE
  5
58
102
{ACAD_REACTORS
330
47
102
}
330
47
100
AcDbScale
 70
     0
300
100:1
140
100.0
141
1.0
290
     0
  0
SCALE
  5
59
102
{ACAD_REACTORS
330
47
102
}
330
47
100
AcDbScale
 70
     0
300
1/128" = 1'-0"
140
0.0078125
141
12.0
290
     0
  0
SCALE
  5
5A
102
{ACAD_REACTORS
330
47
102
}
330
47
100
AcDbScale
 70
     0
300
1/64" = 1'-0"
140
0.015625
141
12.0
290
     0
  0
SCALE
  5
5B
102
{ACAD_REACTORS
330
47
102
}
330
47
100
AcDbScale
 70
     0
300
1/32" = 1'-0"
140
0.03125
141
12.0
290
     0
  0
SCALE
  5
5C
102
{ACAD_REACTORS
330
47
102
}
330
47
100
AcDbScale
 70
     0
300
1/16" = 1'-0"
140
0.0625
141
12.0
290
     0
  0
SCALE
  5
5D
102
{ACAD_REACTORS
330
47
102
}
330
47
100
AcDbScale
 70
     0
300
3/32" = 1'-0"
140
0.09375
141
12.0
290
     0
  0
SCALE
  5
5E
102
{ACAD_REACTORS
330
47
102
}
330
47
100
AcDbScale
 70
     0
300
1/8" = 1'-0"
140
0.125
141
12.0
290
     0
  0
SCALE
  5
5F
102
{ACAD_REACTORS
330
47
102
}
330
47
100
AcDbScale
 70
     0
300
3/16" = 1'-0"
140
0.1875
141
12.0
290
     0
  0
SCALE
  5
60
102
{ACAD_REACTORS
330
47
102
}
330
47
100
AcDbScale
 70
     0
300
1/4" = 1'-0"
140
0.25
141
12.0
290
     0
  0
SCALE
  5
61
102
{ACAD_REACTORS
330
47
102
}
330
47
100
AcDbScale
 70
     0
300
3/8" = 1'-0"
140
0.375
141
12.0
290
     0
  0
SCALE
  5
62
102
{ACAD_REACTORS
330
47
102
}
330
47
100
AcDbScale
 70
     0
300
1/2" = 1'-0"
140
0.5
141
12.0
290
     0
  0
SCALE
  5
63
102
{ACAD_REACTORS
330
47
102
}
330
47
100
AcDbScale
 70
     0
300
3/4" = 1'-0"
140
0.75
141
12.0
290
     0
  0
SCALE
  5
64
102
{ACAD_REACTORS
330
47
102
}
330
47
100
AcDbScale
 70
     0
300
1" = 1'-0"
140
1.0
141
12.0
290
     0
  0
SCALE
  5
65
102
{ACAD_REACTORS
330
47
102
}
330
47
100
AcDbScale
 70
     0
300
1-1/2" = 1'-0"
140
1.5
141
12.0
290
     0
  0
SCALE
  5
66
102
{ACAD_REACTORS
330
47
102
}
330
47
100
AcDbScale
 70
     0
300
3" = 1'-0"
140
3.0
141
12.0
290
     0
  0
SCALE
  5
67
102
{ACAD_REACTORS
330
47
102
}
330
47
100
AcDbScale
 70
     0
300
6" = 1'-0"
140
6.0
141
12.0
290
     0
  0
SCALE
  5
68
102
{ACAD_REACTORS
330
47
102
}
330
47
100
AcDbScale
 70
     0
300
1'-0" = 1'-0"
140
12.0
141
12.0
290
     0
  0
ENDSEC
  0
EOF
