  0
SECTION
  2
HEADER
  9
$ACADVER
  1
AC1015
  9
$ACADMAINTVER
 70
     6
  9
$DWGCODEPAGE
  3
ANSI_1250
  9
$INSBASE
 10
0.0
 20
0.0
 30
0.0
  9
$EXTMIN
 10
0.0
 20
0.0
 30
0.0
  9
$EXTMAX
 10
20000.0
 20
10000.0
 30
0.0
  9
$LIMMIN
 10
0.0
 20
0.0
  9
$LIMMAX
 10
20000.0
 20
10000.0
  9
$ORTHOMODE
 70
     0
  9
$REGENMODE
 70
     1
  9
$FILLMODE
 70
     1
  9
$QTEXTMODE
 70
     0
  9
$MIRRTEXT
 70
     1
  9
$LTSCALE
 40
1.0
  9
$ATTMODE
 70
     1
  9
$TEXTSIZE
 40
2.0
  9
$TRACEWID
 40
1.0
  9
$TEXTSTYLE
  7
Standard
  9
$CLAYER
  8
0
  9
$CELTYPE
  6
ByLayer
  9
$CECOLOR
 62
   256
  9
$CELTSCALE
 40
1.0
  9
$DISPSILH
 70
     0
  9
$DIMSCALE
 40
1.0
  9
$DIMASZ
 40
2.0
  9
$DIMEXO
 40
1.0
  9
$DIMDLI
 40
3.75
  9
$DIMRND
 40
0.0
  9
$DIMDLE
 40
0.0
  9
$DIMEXE
 40
1.0
  9
$DIMTP
 40
0.0
  9
$DIMTM
 40
0.0
  9
$DIMTXT
 40
2.0
  9
$DIMCEN
 40
2.5
  9
$DIMTSZ
 40
0.0
  9
$DIMTOL
 70
     0
  9
$DIMLIM
 70
     0
  9
$DIMTIH
 70
     1
  9
$DIMTOH
 70
     1
  9
$DIMSE1
 70
     0
  9
$DIMSE2
 70
     0
  9
$DIMTAD
 70
     1
  9
$DIMZIN
 70
     0
  9
$DIMBLK
  1

  9
$DIMASO
 70
     1
  9
$DIMSHO
 70
     1
  9
$DIMPOST
  1

  9
$DIMAPOST
  1

  9
$DIMALT
 70
     0
  9
$DIMALTD
 70
     3
  9
$DIMALTF
 40
0.0393700787
  9
$DIMLFAC
 40
1.0
  9
$DIMTOFL
 70
     1
  9
$DIMTVP
 40
0.0
  9
$DIMTIX
 70
     0
  9
$DIMSOXD
 70
     0
  9
$DIMSAH
 70
     0
  9
$DIMBLK1
  1

  9
$DIMBLK2
  1

  9
$DIMSTYLE
  2
ISO-25
  9
$DIMCLRD
 70
     0
  9
$DIMCLRE
 70
     0
  9
$DIMCLRT
 70
     0
  9
$DIMTFAC
 40
1.0
  9
$DIMGAP
 40
1.524
  9
$DIMJUST
 70
     0
  9
$DIMSD1
 70
     0
  9
$DIMSD2
 70
     0
  9
$DIMTOLJ
 70
     0
  9
$DIMTZIN
 70
     0
  9
$DIMALTZ
 70
     0
  9
$DIMALTTZ
 70
     0
  9
$DIMUPT
 70
     0
  9
$DIMDEC
 70
     2
  9
$DIMTDEC
 70
     0
  9
$DIMALTU
 70
     2
  9
$DIMALTTD
 70
     3
  9
$DIMTXSTY
  7
Standard
  9
$DIMAUNIT
 70
     0
  9
$DIMADEC
 70
     2
  9
$DIMALTRND
 40
0.0
  9
$DIMAZIN
 70
     0
  9
$DIMDSEP
 70
    44
  9
$DIMATFIT
 70
     3
  9
$DIMFRAC
 70
     0
  9
$DIMLDRBLK
  1

  9
$DIMLUNIT
 70
     2
  9
$DIMLWD
 70
    -2
  9
$DIMLWE
 70
    -2
  9
$DIMTMOVE
 70
     0
  9
$LUNITS
 70
     2
  9
$LUPREC
 70
     3
  9
$SKETCHINC
 40
1.0
  9
$FILLETRAD
 40
10.0
  9
$AUNITS
 70
     0
  9
$AUPREC
 70
     2
  9
$MENU
  1
.
  9
$ELEVATION
 40
0.0
  9
$PELEVATION
 40
0.0
  9
$THICKNESS
 40
0.0
  9
$LIMCHECK
 70
     0
  9
$CHAMFERA
 40
0.0
  9
$CHAMFERB
 40
0.0
  9
$CHAMFERC
 40
0.0
  9
$CHAMFERD
 40
0.0
  9
$SKPOLY
 70
     0
  9
$TDCREATE
 40
2458677.470589803
  9
$TDUCREATE
 40
2458677.38725647
  9
$TDUPDATE
 40
2458677.470590324
  9
$TDUUPDATE
 40
2458677.387256991
  9
$TDINDWG
 40
0.0000000116
  9
$TDUSRTIMER
 40
0.0000000116
  9
$USRTIMER
 70
     1
  9
$ANGBASE
 50
0.0
  9
$ANGDIR
 70
     0
  9
$PDMODE
 70
     0
  9
$PDSIZE
 40
-1.0
  9
$PLINEWID
 40
0.0
  9
$SPLFRAME
 70
     0
  9
$SPLINETYPE
 70
     6
  9
$SPLINESEGS
 70
     8
  9
$HANDSEED
  5
194
  9
$SURFTAB1
 70
     6
  9
$SURFTAB2
 70
     6
  9
$SURFTYPE
 70
     6
  9
$SURFU
 70
     6
  9
$SURFV
 70
     6
  9
$UCSBASE
  2

  9
$UCSNAME
  2

  9
$UCSORG
 10
0.0
 20
0.0
 30
0.0
  9
$UCSXDIR
 10
1.0
 20
0.0
 30
0.0
  9
$UCSYDIR
 10
0.0
 20
1.0
 30
0.0
  9
$UCSORTHOREF
  2

  9
$UCSORTHOVIEW
 70
     0
  9
$UCSORGTOP
 10
0.0
 20
0.0
 30
0.0
  9
$UCSORGBOTTOM
 10
0.0
 20
0.0
 30
0.0
  9
$UCSORGLEFT
 10
0.0
 20
0.0
 30
0.0
  9
$UCSORGRIGHT
 10
0.0
 20
0.0
 30
0.0
  9
$UCSORGFRONT
 10
0.0
 20
0.0
 30
0.0
  9
$UCSORGBACK
 10
0.0
 20
0.0
 30
0.0
  9
$PUCSBASE
  2

  9
$PUCSNAME
  2

  9
$PUCSORG
 10
0.0
 20
0.0
 30
0.0
  9
$PUCSXDIR
 10
1.0
 20
0.0
 30
0.0
  9
$PUCSYDIR
 10
0.0
 20
1.0
 30
0.0
  9
$PUCSORTHOREF
  2

  9
$PUCSORTHOVIEW
 70
     0
  9
$PUCSORGTOP
 10
0.0
 20
0.0
 30
0.0
  9
$PUCSORGBOTTOM
 10
0.0
 20
0.0
 30
0.0
  9
$PUCSORGLEFT
 10
0.0
 20
0.0
 30
0.0
  9
$PUCSORGRIGHT
 10
0.0
 20
0.0
 30
0.0
  9
$PUCSORGFRONT
 10
0.0
 20
0.0
 30
0.0
  9
$PUCSORGBACK
 10
0.0
 20
0.0
 30
0.0
  9
$USERI1
 70
     0
  9
$USERI2
 70
     0
  9
$USERI3
 70
     0
  9
$USERI4
 70
     0
  9
$USERI5
 70
     0
  9
$USERR1
 40
0.0
  9
$USERR2
 40
0.0
  9
$USERR3
 40
0.0
  9
$USERR4
 40
0.0
  9
$USERR5
 40
0.0
  9
$WORLDVIEW
 70
     1
  9
$SHADEDGE
 70
     3
  9
$SHADEDIF
 70
    70
  9
$TILEMODE
 70
     1
  9
$MAXACTVP
 70
    64
  9
$PINSBASE
 10
0.0
 20
0.0
 30
0.0
  9
$PLIMCHECK
 70
     0
  9
$PEXTMIN
 10
1.0000000000E+20
 20
1.0000000000E+20
 30
1.0000000000E+20
  9
$PEXTMAX
 10
-1.0000000000E+20
 20
-1.0000000000E+20
 30
-1.0000000000E+20
  9
$PLIMMIN
 10
0.0
 20
0.0
  9
$PLIMMAX
 10
420.0
 20
297.0
  9
$UNITMODE
 70
     0
  9
$VISRETAIN
 70
     1
  9
$PLINEGEN
 70
     0
  9
$PSLTSCALE
 70
     1
  9
$TREEDEPTH
 70
  3020
  9
$CMLSTYLE
  2
Standard
  9
$CMLJUST
 70
     0
  9
$CMLSCALE
 40
20.0
  9
$PROXYGRAPHICS
 70
     1
  9
$MEASUREMENT
 70
     1
  9
$CELWEIGHT
370
    -1
  9
$ENDCAPS
280
     0
  9
$JOINSTYLE
280
     0
  9
$LWDISPLAY
290
     1
  9
$INSUNITS
 70
     4
  9
$HYPERLINKBASE
  1

  9
$STYLESHEET
  1

  9
$XEDIT
290
     1
  9
$CEPSNTYPE
380
     0
  9
$PSTYLEMODE
290
     1
  9
$FINGERPRINTGUID
  2
{C451FE32-10C8-4FBB-8ABE-FD6BA8285347}
  9
$VERSIONGUID
  2
{FAEB1C32-E019-11D5-929B-00C0DF256EC4}
  9
$EXTNAMES
290
     1
  9
$PSVPSCALE
 40
0.0
  9
$OLESTARTUP
290
     0
  0
ENDSEC
  0
SECTION
  2
CLASSES
  0
CLASS
  1
ACDBDICTIONARYWDFLT
  2
AcDbDictionaryWithDefault
  3
ObjectDBX Classes
 90
        0
280
     0
281
     0
  0
CLASS
  1
VISUALSTYLE
  2
AcDbVisualStyle
  3
ObjectDBX Classes
 90
     4095
280
     0
281
     0
  0
CLASS
  1
MATERIAL
  2
AcDbMaterial
  3
ObjectDBX Classes
 90
     1153
280
     0
281
     0
  0
CLASS
  1
SCALE
  2
AcDbScale
  3
ObjectDBX Classes
 90
     1153
280
     0
281
     0
  0
CLASS
  1
TABLESTYLE
  2
AcDbTableStyle
  3
ObjectDBX Classes
 90
     4095
280
     0
281
     0
  0
CLASS
  1
MLEADERSTYLE
  2
AcDbMLeaderStyle
  3
ACDB_MLEADERSTYLE_CLASS
 90
     4095
280
     0
281
     0
  0
CLASS
  1
SUN
  2
AcDbSun
  3
SCENEOE
 90
     1153
280
     0
281
     0
  0
CLASS
  1
ACDBPLACEHOLDER
  2
AcDbPlaceHolder
  3
ObjectDBX Classes
 90
        0
280
     0
281
     0
  0
CLASS
  1
LAYOUT
  2
AcDbLayout
  3
ObjectDBX Classes
 90
        0
280
     0
281
     0
  0
ENDSEC
  0
SECTION
  2
TABLES
  0
TABLE
  2
VPORT
  5
8
330
0
100
AcDbSymbolTable
 70
     1
  0
VPORT
  5
29
330
8
100
AcDbSymbolTableRecord
100
AcDbViewportTableRecord
  2
*Active
 70
     0
 10
0.0
 20
0.0
 11
1.0
 21
1.0
 12
10000.0
 22
5000.0
 13
0.0
 23
0.0
 14
10.0
 24
10.0
 15
10.0
 25
10.0
 16
0.0
 26
0.0
 36
1.0
 17
0.0
 27
0.0
 37
0.0
 40
10000.0
 41
2.0
 42
50.0
 43
0.0
 44
0.0
 50
0.0
 51
0.0
 71
     0
 72
  2000
 73
     1
 74
     3
 75
     0
 76
     0
 77
     0
 78
     0
281
     0
 65
     1
110
0.0
120
0.0
130
0.0
111
1.0
121
0.0
131
0.0
112
0.0
122
1.0
132
0.0
 79
     0
146
0.0
  0
ENDTAB
  0
TABLE
  2
LTYPE
  5
5
330
0
100
AcDbSymbolTable
 70
     6
  0
LTYPE
  5
14
330
5
100
AcDbSymbolTableRecord
100
AcDbLinetypeTableRecord
  2
ByBlock
 70
     0
  3

 72
    65
 73
     0
 40
0.0
  0
LTYPE
  5
15
330
5
100
AcDbSymbolTableRecord
100
AcDbLinetypeTableRecord
  2
ByLayer
 70
     0
  3

 72
    65
 73
     0
 40
0.0
  0
LTYPE
  5
16
330
5
100
AcDbSymbolTableRecord
100
AcDbLinetypeTableRecord
  2
Continuous
 70
     0
  3
Solid line
 72
    65
 73
     0
 40
0.0
  0
LTYPE
  5
6E
330
5
100
AcDbSymbolTableRecord
100
AcDbLinetypeTableRecord
  2
HIDDEN
 70
     0
  3
Hidden __ __ __ __ __ __ __ __ __ __ __ __ __ __
 72
    65
 73
     2
 40
1.905
 49
1.27
 74
     0
 49
-0.635
 74
     0
  0
LTYPE
  5
6F
330
5
100
AcDbSymbolTableRecord
100
AcDbLinetypeTableRecord
  2
PHANTOM
 70
     0
  3
Phantom ______  __  __  ______  __  __  ______
 72
    65
 73
     6
 40
12.7
 49
6.35
 74
     0
 49
-1.27
 74
     0
 49
1.27
 74
     0
 49
-1.27
 74
     0
 49
1.27
 74
     0
 49
-1.27
 74
     0
  0
LTYPE
  5
70
330
5
100
AcDbSymbolTableRecord
100
AcDbLinetypeTableRecord
  2
CENTER
 70
     0
  3
Center ____ _ ____ _ ____ _ ____ _ ____ _ ____
 72
    65
 73
     4
 40
10.16
 49
6.35
 74
     0
 49
-1.27
 74
     0
 49
1.27
 74
     0
 49
-1.27
 74
     0
  0
LTYPE
  5
71
330
5
100
AcDbSymbolTableRecord
100
AcDbLinetypeTableRecord
  2
CENTERX2
 70
     0
  3
Center (2x) ________  __  ________  __  _____
 72
    65
 73
     4
 40
20.32
 49
12.7
 74
     0
 49
-2.54
 74
     0
 49
2.54
 74
     0
 49
-2.54
 74
     0
  0
LTYPE
  5
72
330
5
100
AcDbSymbolTableRecord
100
AcDbLinetypeTableRecord
  2
DOT2
 70
     0
  3
Dot (.5x) ........................................
 72
    65
 73
     2
 40
0.635
 49
0.0
 74
     0
 49
-0.635
 74
     0
  0
ENDTAB
  0
TABLE
  2
LAYER
  5
2
330
0
100
AcDbSymbolTable
 70
    13
  0
LAYER
  5
10
330
2
100
AcDbSymbolTableRecord
100
AcDbLayerTableRecord
  2
0
 70
     0
 62
     7
  6
Continuous
370
    -3
390
F
  0
LAYER
  5
73
330
2
100
AcDbSymbolTableRecord
100
AcDbLayerTableRecord
  2
FORMAT
 70
     0
 62
     7
  6
Continuous
370
    -3
390
F
  0
LAYER
  5
74
330
2
100
AcDbSymbolTableRecord
100
AcDbLayerTableRecord
  2
OSA
 70
     0
 62
     7
  6
CENTER
370
    -3
390
F
  0
LAYER
  5
75
330
2
100
AcDbSymbolTableRecord
100
AcDbLayerTableRecord
  2
0_35
 70
     0
 62
     7
  6
Continuous
370
    35
390
F
  0
LAYER
  5
76
330
2
100
AcDbSymbolTableRecord
100
AcDbLayerTableRecord
  2
0_5
 70
     0
 62
     7
  6
Continuous
370
    50
390
F
  0
LAYER
  5
77
330
2
100
AcDbSymbolTableRecord
100
AcDbLayerTableRecord
  2
0_25
 70
     0
 62
     7
  6
Continuous
370
    25
390
F
  0
LAYER
  5
78
330
2
100
AcDbSymbolTableRecord
100
AcDbLayerTableRecord
  2
0_18
 70
     0
 62
     7
  6
Continuous
370
    -3
390
F
  0
LAYER
  5
79
330
2
100
AcDbSymbolTableRecord
100
AcDbLayerTableRecord
  2
SLD-0
 70
     0
 62
   179
  6
Continuous
370
    -3
390
F
  0
LAYER
  5
7A
330
2
100
AcDbSymbolTableRecord
100
AcDbLayerTableRecord
  2
KOTY
 70
     0
 62
     7
  6
Continuous
370
    -3
390
F
  0
LAYER
  5
7B
330
2
100
AcDbSymbolTableRecord
100
AcDbLayerTableRecord
  2
SILNA
 70
     0
 62
   179
  6
Continuous
370
    -3
390
F
  0
LAYER
  5
7C
330
2
100
AcDbSymbolTableRecord
100
AcDbLayerTableRecord
  2
0_18_1
 70
     0
 62
   179
  6
Continuous
370
    -3
390
F
  0
LAYER
  5
7D
330
2
100
AcDbSymbolTableRecord
100
AcDbLayerTableRecord
  2
0_35_1
 70
     0
 62
   179
  6
Continuous
370
    35
390
F
  0
LAYER
  5
7E
330
2
100
AcDbSymbolTableRecord
100
AcDbLayerTableRecord
  2
0_5_1
 70
     0
 62
   179
  6
Continuous
370
    50
390
F
  0
ENDTAB
  0
TABLE
  2
STYLE
  5
3
330
0
100
AcDbSymbolTable
 70
     1
  0
STYLE
  5
11
330
3
100
AcDbSymbolTableRecord
100
AcDbTextStyleTableRecord
  2
Standard
 70
     0
 40
0.0
 41
1.0
 50
0.0
 71
     0
 42
2.0
  3
txt
  4

  0
ENDTAB
  0
TABLE
  2
VIEW
  5
6
330
0
100
AcDbSymbolTable
 70
     0
  0
ENDTAB
  0
TABLE
  2
UCS
  5
7
330
0
100
AcDbSymbolTable
 70
     0
  0
ENDTAB
  0
TABLE
  2
APPID
  5
9
330
0
100
AcDbSymbolTable
 70
     1
  0
APPID
  5
12
330
9
100
AcDbSymbolTableRecord
100
AcDbRegAppTableRecord
  2
ACAD
 70
     0
  0
ENDTAB
  0
TABLE
  2
DIMSTYLE
  5
A
330
0
100
AcDbSymbolTable
 70
     1
100
AcDbDimStyleTable
  0
DIMSTYLE
105
27
330
A
100
AcDbSymbolTableRecord
100
AcDbDimStyleTableRecord
  2
ISO-25
 70
     0
 41
2.5
 42
0.625
 43
3.75
 44
1.25
 73
     0
 74
     0
 77
     1
 78
     8
140
2.5
141
2.5
143
0.0393700787
147
0.625
171
     3
172
     1
178
     0
271
     2
272
     2
274
     3
278
    44
283
     0
284
     8
340
11
  0
ENDTAB
  0
TABLE
  2
BLOCK_RECORD
  5
1
330
0
100
AcDbSymbolTable
 70
     1
  0
BLOCK_RECORD
  5
1F
330
1
100
AcDbSymbolTableRecord
100
AcDbBlockTableRecord
  2
*Model_Space
340
22
  0
BLOCK_RECORD
  5
1B
330
1
100
AcDbSymbolTableRecord
100
AcDbBlockTableRecord
  2
*Paper_Space
340
1E
  0
BLOCK_RECORD
  5
23
330
1
100
AcDbSymbolTableRecord
100
AcDbBlockTableRecord
  2
*Paper_Space0
340
26
  0
ENDTAB
  0
ENDSEC
  0
SECTION
  2
BLOCKS
  0
BLOCK
  5
20
330
1F
100
AcDbEntity
  8
0
100
AcDbBlockBegin
  2
*Model_Space
 70
     0
 10
0.0
 20
0.0
 30
0.0
  3
*Model_Space
  1

  0
ENDBLK
  5
21
330
1F
100
AcDbEntity
  8
0
100
AcDbBlockEnd
  0
BLOCK
  5
1C
330
1B
100
AcDbEntity
 67
     1
  8
0
100
AcDbBlockBegin
  2
*Paper_Space
 70
     0
 10
0.0
 20
0.0
 30
0.0
  3
*Paper_Space
  1

  0
ENDBLK
  5
1D
330
1B
100
AcDbEntity
 67
     1
  8
0
100
AcDbBlockEnd
  0
BLOCK
  5
24
330
23
100
AcDbEntity
  8
0
100
AcDbBlockBegin
  2
*Paper_Space0
 70
     0
 10
0.0
 20
0.0
 30
0.0
  3
*Paper_Space0
  1

  0
ENDBLK
  5
25
330
23
100
AcDbEntity
  8
0
100
AcDbBlockEnd
  0
ENDSEC
  0
SECTION
  2
ENTITIES
  0
LINE
  5
7F
330
1F
100
AcDbEntity
  8
0
  6
Continuous
 62
     7
370
    25
100
AcDbLine
 10
6115.3538592254
 20
5244.1185581603
 30
0.0
 11
6118.3327836048
 21
5237.1677346084
 31
0.0
  0
LINE
  5
80
330
1F
100
AcDbEntity
  8
0
  6
Continuous
 62
     7
370
    25
100
AcDbLine
 10
6182.3327836048
 20
5237.1677346084
 30
0.0
 11
6185.3117079842
 21
5244.1185581603
 31
0.0
  0
LINE
  5
81
330
1F
100
AcDbEntity
  8
0
  6
Continuous
 62
     7
370
    25
100
AcDbLine
 10
6118.3327836048
 20
5237.1677346084
 30
0.0
 11
6122.8437445303
 21
5232.6567736829
 31
0.0
  0
LINE
  5
82
330
1F
100
AcDbEntity
  8
0
  6
Continuous
 62
     7
370
    25
100
AcDbLine
 10
6176.8327836048
 20
5231.6677346084
 30
0.0
 11
6182.3327836048
 21
5237.1677346084
 31
0.0
  0
LINE
  5
83
330
1F
100
AcDbEntity
  8
0
  6
Continuous
 62
     7
370
    25
100
AcDbLine
 10
6120.8327836048
 20
5207.1677346084
 30
0.0
 11
6120.8327836048
 21
5204.1677346084
 31
0.0
  0
LINE
  5
84
330
1F
100
AcDbEntity
  8
0
  6
Continuous
 62
     7
370
    25
100
AcDbLine
 10
6179.8327836048
 20
5204.1677346084
 30
0.0
 11
6179.8327836048
 21
5207.1677346084
 31
0.0
  0
LINE
  5
85
330
1F
100
AcDbEntity
  8
0
  6
Continuous
 62
     7
370
    25
100
AcDbLine
 10
6123.8327836048
 20
5207.705700321
 30
0.0
 11
6123.8327836048
 21
5207.1677346084
 31
0.0
  0
LINE
  5
86
330
1F
100
AcDbEntity
  8
0
  6
Continuous
 62
     7
370
    25
100
AcDbLine
 10
6176.8327836048
 20
5207.1677346084
 30
0.0
 11
6176.8327836048
 21
5231.6677346084
 31
0.0
  0
LINE
  5
87
330
1F
100
AcDbEntity
  8
0
  6
Continuous
 62
     7
370
    25
100
AcDbLine
 10
5997.1835145427
 20
5341.1112208938
 30
0.0
 11
6000.0944017216
 21
5341.8369865806
 31
0.0
  0
LINE
  5
88
330
1F
100
AcDbEntity
  8
0
  6
Continuous
 62
     7
370
    25
100
AcDbLine
 10
5986.3246115475
 20
5378.731174577
 30
0.0
 11
5986.2931170249
 21
5378.5898713752
 31
0.0
  0
LINE
  5
89
330
1F
100
AcDbEntity
  8
0
  6
Continuous
 62
     7
370
    25
100
AcDbLine
 10
5995.0023052665
 20
5343.6592252293
 30
0.0
 11
5997.1835145427
 21
5341.1112208938
 31
0.0
  0
LINE
  5
8A
330
1F
100
AcDbEntity
  8
0
  6
Continuous
 62
     7
370
    25
100
AcDbLine
 10
5992.5765659508
 20
5343.0544204903
 30
0.0
 11
5995.0023052665
 21
5343.6592252293
 31
0.0
  0
LINE
  5
8B
330
1F
100
AcDbEntity
  8
0
  6
Continuous
 62
     7
370
    25
100
AcDbLine
 10
5986.2931170249
 20
5378.5898713752
 30
0.0
 11
5983.8673777092
 21
5377.9850666362
 31
0.0
  0
ARC
  5
8C
330
1F
100
AcDbEntity
  8
0
  6
Continuous
 62
     7
370
    25
100
AcDbCircle
 10
6035.8327836048
 20
5250.1677346084
 30
0.0
 40
17.50000000000011
100
AcDbArc
 50
194.0
 51
270.0
  0
ARC
  5
8D
330
1F
100
AcDbEntity
  8
0
  6
Continuous
 62
     7
370
    25
100
AcDbCircle
 10
6035.8327836048
 20
5250.1677346084
 30
0.0
 40
42.50000000000058
100
AcDbArc
 50
194.0
 51
270.0
  0
LINE
  5
8E
330
1F
100
AcDbEntity
  8
0
  6
Continuous
 62
     7
370
    25
100
AcDbLine
 10
5975.5820459497
 20
5316.1437109134
 30
0.0
 11
5994.5952152381
 21
5239.8860540454
 31
0.0
  0
LINE
  5
8F
330
1F
100
AcDbEntity
  8
0
  6
Continuous
 62
     7
370
    25
100
AcDbLine
 10
6018.852608395
 20
5245.9341014354
 30
0.0
 11
5999.8394391066
 21
5322.1917583034
 31
0.0
  0
LINE
  5
90
330
1F
100
AcDbEntity
  8
0
  6
Continuous
 62
     7
370
    25
100
AcDbLine
 10
6122.8456772545
 20
5232.6677346084
 30
0.0
 11
6035.8327836048
 21
5232.6677346084
 31
0.0
  0
LINE
  5
91
330
1F
100
AcDbEntity
  8
0
  6
Continuous
 62
     7
370
    25
100
AcDbLine
 10
6035.8327836048
 20
5207.6677346084
 30
0.0
 11
6123.8506705376
 21
5207.6677346084
 31
0.0
  0
LINE
  5
92
330
1F
100
AcDbEntity
  8
0
  6
Continuous
 62
     7
370
    25
100
AcDbLine
 10
5997.898847654
 20
5321.7079145122
 30
0.0
 11
5992.5765659508
 21
5343.0544204903
 31
0.0
  0
LINE
  5
93
330
1F
100
AcDbEntity
  8
0
  6
Continuous
 62
     7
370
    25
100
AcDbLine
 10
5972.200355699
 20
5337.9740606827
 30
0.0
 11
5977.5226374022
 21
5316.6275547046
 31
0.0
  0
LINE
  5
94
330
1F
100
AcDbEntity
  8
0
  6
Continuous
 62
     7
370
    25
100
AcDbLine
 10
6335.3327836048
 20
5378.731174577
 30
0.0
 11
6335.3327836048
 21
5385.731174577
 31
0.0
  0
LINE
  5
95
330
1F
100
AcDbEntity
  8
0
  6
Continuous
 62
     7
370
    25
100
AcDbLine
 10
5965.3327836048
 20
5385.731174577
 30
0.0
 11
5965.3327836048
 21
5378.731174577
 31
0.0
  0
ARC
  5
96
330
1F
100
AcDbEntity
  8
0
  6
Continuous
 62
     7
370
    25
100
AcDbCircle
 10
6333.3327836048
 20
5385.731174577
 30
0.0
 40
2.0
100
AcDbArc
 50
0.0
 51
90.0
  0
ARC
  5
97
330
1F
100
AcDbEntity
  8
0
  6
Continuous
 62
     7
370
    25
100
AcDbCircle
 10
5967.3327836048
 20
5385.731174577
 30
0.0
 40
2.0
100
AcDbArc
 50
90.0
 51
180.0
  0
ARC
  5
98
330
1F
100
AcDbEntity
  8
0
  6
Continuous
 62
     7
370
    25
100
AcDbCircle
 10
6150.3327836048
 20
5402.1083315574
 30
0.0
 40
161.8156162081385
100
AcDbArc
 50
282.4839030133
 51
351.6935342118
  0
ARC
  5
99
330
1F
100
AcDbEntity
  8
0
  6
Continuous
 62
     7
370
    25
100
AcDbCircle
 10
6150.3327836048
 20
5402.1083315574
 30
0.0
 40
161.8156162081374
100
AcDbArc
 50
201.6998393843
 51
257.5160969867
  0
LINE
  5
9A
330
1F
100
AcDbEntity
  8
0
  6
Continuous
 62
     7
370
    25
100
AcDbLine
 10
5979.2956504212
 20
5362.3067377893
 30
0.0
 11
5950.753118027
 21
5355.1485399977
 31
0.0
  0
LINE
  5
9B
330
1F
100
AcDbEntity
  8
0
  6
Continuous
 62
     7
370
    25
100
AcDbLine
 10
5952.2126616335
 20
5349.3287691723
 30
0.0
 11
5977.3495823101
 21
5355.6328716811
 31
0.0
  0
LINE
  5
9C
330
1F
100
AcDbEntity
  8
0
  6
Continuous
 62
     7
370
    25
100
AcDbLine
 10
5937.7047270674
 20
5187.6677346084
 30
0.0
 11
5922.7047270674
 21
5187.6677346084
 31
0.0
  0
LINE
  5
9D
330
1F
100
AcDbEntity
  8
0
  6
Continuous
 62
     7
370
    25
100
AcDbLine
 10
5922.7047270674
 20
5107.6677346084
 30
0.0
 11
5937.7047270674
 21
5107.6677346084
 31
0.0
  0
ARC
  5
9E
330
1F
100
AcDbEntity
  8
0
  6
Continuous
 62
     7
370
    25
100
AcDbCircle
 10
5937.7047270674
 20
5167.6677346084
 30
0.0
 40
20.00000000000091
100
AcDbArc
 50
0.0
 51
90.0
  0
ARC
  5
9F
330
1F
100
AcDbEntity
  8
0
  6
Continuous
 62
     7
370
    25
100
AcDbCircle
 10
5937.7047270674
 20
5127.6677346084
 30
0.0
 40
19.99999999999909
100
AcDbArc
 50
270.0
 51
0.0
  0
LINE
  5
A0
330
1F
100
AcDbEntity
  8
0
  6
Continuous
 62
     7
370
    25
100
AcDbLine
 10
5922.7047270674
 20
5167.6677346084
 30
0.0
 11
5912.7047270674
 21
5167.6677346084
 31
0.0
  0
LINE
  5
A1
330
1F
100
AcDbEntity
  8
0
  6
Continuous
 62
     7
370
    25
100
AcDbLine
 10
5912.7047270674
 20
5127.6677346084
 30
0.0
 11
5922.7047270674
 21
5127.6677346084
 31
0.0
  0
LINE
  5
A2
330
1F
100
AcDbEntity
  8
0
  6
Continuous
 62
     7
370
    25
100
AcDbLine
 10
6090.3327836048
 20
5167.6677346084
 30
0.0
 11
5957.7047270674
 21
5167.6677346084
 31
0.0
  0
LINE
  5
A3
330
1F
100
AcDbEntity
  8
0
  6
Continuous
 62
     7
370
    25
100
AcDbLine
 10
5957.7047270674
 20
5127.6677346084
 30
0.0
 11
6090.3327836048
 21
5127.6677346084
 31
0.0
  0
LINE
  5
A4
330
1F
100
AcDbEntity
  8
0
  6
Continuous
 62
     7
370
    25
100
AcDbLine
 10
6120.3327836048
 20
5204.1677346084
 30
0.0
 11
6122.3327836048
 21
5200.1677346084
 31
0.0
  0
LINE
  5
A5
330
1F
100
AcDbEntity
  8
0
  6
Continuous
 62
     7
370
    25
100
AcDbLine
 10
6178.3327836048
 20
5200.1677346084
 30
0.0
 11
6180.3327836048
 21
5204.1677346084
 31
0.0
  0
LINE
  5
A6
330
1F
100
AcDbEntity
  8
0
  6
Continuous
 62
     7
370
    25
100
AcDbLine
 10
6122.3327836048
 20
5200.1677346084
 30
0.0
 11
6122.3327836048
 21
5193.1677346084
 31
0.0
  0
LINE
  5
A7
330
1F
100
AcDbEntity
  8
0
  6
Continuous
 62
     7
370
    25
100
AcDbLine
 10
6178.3327836048
 20
5193.1677346084
 30
0.0
 11
6178.3327836048
 21
5200.1677346084
 31
0.0
  0
ARC
  5
A8
330
1F
100
AcDbEntity
  8
0
  6
Continuous
 62
     7
370
    25
100
AcDbCircle
 10
6125.3327836048
 20
5193.1677346084
 30
0.0
 40
3.0
100
AcDbArc
 50
180.0
 51
270.0
  0
ARC
  5
A9
330
1F
100
AcDbEntity
  8
0
  6
Continuous
 62
     7
370
    25
100
AcDbCircle
 10
6175.3327836048
 20
5193.1677346084
 30
0.0
 40
3.0
100
AcDbArc
 50
270.0
 51
0.0
  0
LINE
  5
AA
330
1F
100
AcDbEntity
  8
0
  6
Continuous
 62
     7
370
    25
100
AcDbLine
 10
6134.3327836048
 20
5190.1677346084
 30
0.0
 11
6134.3327836048
 21
5186.1677346084
 31
0.0
  0
LINE
  5
AB
330
1F
100
AcDbEntity
  8
0
  6
Continuous
 62
     7
370
    25
100
AcDbLine
 10
6134.3327836048
 20
5172.1677346084
 30
0.0
 11
6134.3327836048
 21
5169.6677346084
 31
0.0
  0
LINE
  5
AC
330
1F
100
AcDbEntity
  8
0
  6
Continuous
 62
     7
370
    25
100
AcDbLine
 10
6166.3327836048
 20
5169.6677346084
 30
0.0
 11
6166.3327836048
 21
5172.1677346084
 31
0.0
  0
LINE
  5
AD
330
1F
100
AcDbEntity
  8
0
  6
Continuous
 62
     7
370
    25
100
AcDbLine
 10
6166.3327836048
 20
5186.1677346084
 30
0.0
 11
6166.3327836048
 21
5190.1677346084
 31
0.0
  0
LINE
  5
AE
330
1F
100
AcDbEntity
  8
0
  6
Continuous
 62
     7
370
    25
100
AcDbLine
 10
6116.3327836048
 20
5109.6677346084
 30
0.0
 11
6123.2265693247
 21
5042.362058747
 31
0.0
  0
LINE
  5
AF
330
1F
100
AcDbEntity
  8
0
  6
Continuous
 62
     7
370
    25
100
AcDbLine
 10
6177.4389978849
 20
5042.362058747
 30
0.0
 11
6184.3327836048
 21
5109.6677346084
 31
0.0
  0
LINE
  5
B0
330
1F
100
AcDbEntity
  8
0
  6
Continuous
 62
     7
370
    25
100
AcDbLine
 10
6184.3327836048
 20
5109.6677346084
 30
0.0
 11
6177.64222536
 21
5167.0153767071
 31
0.0
  0
LINE
  5
B1
330
1F
100
AcDbEntity
  8
0
  6
Continuous
 62
     7
370
    25
100
AcDbLine
 10
6118.2038852399
 20
5125.7057486234
 30
0.0
 11
6116.3327836048
 21
5109.6677346084
 31
0.0
  0
LINE
  5
B2
330
1F
100
AcDbEntity
  8
0
  6
Continuous
 62
     7
370
    25
100
AcDbLine
 10
6106.3327836048
 20
5175.1677346084
 30
0.0
 11
6102.3327836048
 21
5173.6677346084
 31
0.0
  0
LINE
  5
B3
330
1F
100
AcDbEntity
  8
0
  6
Continuous
 62
     7
370
    25
100
AcDbLine
 10
6102.3327836048
 20
5121.6677346084
 30
0.0
 11
6106.3327836048
 21
5120.1677346084
 31
0.0
  0
ARC
  5
B4
330
1F
100
AcDbEntity
  8
0
  6
Continuous
 62
     7
370
    25
100
AcDbCircle
 10
6174.6624359427
 20
5166.6677346084
 30
0.0
 40
3.0
100
AcDbArc
 50
6.654425046
 51
90.0
  0
ARC
  5
B5
330
1F
100
AcDbEntity
  8
0
  6
Continuous
 62
     7
370
    25
100
AcDbCircle
 10
6126.2109557386
 20
5042.6677346084
 30
0.0
 40
3.000000000000332
100
AcDbArc
 50
185.8481280261
 51
270.0
  0
ARC
  5
B6
330
1F
100
AcDbEntity
  8
0
  6
Continuous
 62
     7
370
    25
100
AcDbCircle
 10
6174.454611471
 20
5042.6677346084
 30
0.0
 40
3.0
100
AcDbArc
 50
270.0
 51
354.1518719739
  0
ARC
  5
B7
330
1F
100
AcDbEntity
  8
0
  6
Continuous
 62
     7
370
    25
100
AcDbCircle
 10
6093.3327836048
 20
5170.6677346084
 30
0.0
 40
3.0
100
AcDbArc
 50
90.0
 51
180.0
  0
ARC
  5
B8
330
1F
100
AcDbEntity
  8
0
  6
Continuous
 62
     7
370
    25
100
AcDbCircle
 10
6093.3327836048
 20
5124.6677346084
 30
0.0
 40
3.0
100
AcDbArc
 50
180.0
 51
270.0
  0
LINE
  5
B9
330
1F
100
AcDbEntity
  8
0
  6
Continuous
 62
     7
370
    25
100
AcDbLine
 10
6102.3327836048
 20
5173.6677346084
 30
0.0
 11
6093.3327836048
 21
5173.6677346084
 31
0.0
  0
LINE
  5
BA
330
1F
100
AcDbEntity
  8
0
  6
Continuous
 62
     7
370
    25
100
AcDbLine
 10
6093.3327836048
 20
5121.6677346084
 30
0.0
 11
6102.3327836048
 21
5121.6677346084
 31
0.0
  0
LINE
  5
BB
330
1F
100
AcDbEntity
  8
0
  6
Continuous
 62
     7
370
    25
100
AcDbLine
 10
6175.3327836048
 20
5172.1677346084
 30
0.0
 11
6173.3327836048
 21
5176.1677346084
 31
0.0
  0
LINE
  5
BC
330
1F
100
AcDbEntity
  8
0
  6
Continuous
 62
     7
370
    25
100
AcDbLine
 10
6127.3327836048
 20
5176.1677346084
 30
0.0
 11
6125.3327836048
 21
5172.1677346084
 31
0.0
  0
ARC
  5
BD
330
1F
100
AcDbEntity
  8
0
  6
Continuous
 62
     7
370
    25
100
AcDbCircle
 10
6130.3327836048
 20
5183.1677346084
 30
0.0
 40
3.000000000000909
100
AcDbArc
 50
90.0
 51
180.0
  0
ARC
  5
BE
330
1F
100
AcDbEntity
  8
0
  6
Continuous
 62
     7
370
    25
100
AcDbCircle
 10
6170.3327836048
 20
5183.1677346084
 30
0.0
 40
3.000000000000909
100
AcDbArc
 50
0.0
 51
90.0
  0
LINE
  5
BF
330
1F
100
AcDbEntity
  8
0
  6
Continuous
 62
     7
370
    25
100
AcDbLine
 10
6127.3327836048
 20
5183.1677346084
 30
0.0
 11
6127.3327836048
 21
5176.1677346084
 31
0.0
  0
LINE
  5
C0
330
1F
100
AcDbEntity
  8
0
  6
Continuous
 62
     7
370
    25
100
AcDbLine
 10
6173.3327836048
 20
5176.1677346084
 30
0.0
 11
6173.3327836048
 21
5183.1677346084
 31
0.0
  0
LINE
  5
C1
330
1F
100
AcDbEntity
  8
0
  6
Continuous
 62
     7
370
    25
100
AcDbLine
 10
6106.3327836048
 20
5125.6677346084
 30
0.0
 11
6118.2276287666
 21
5125.6677346084
 31
0.0
  0
LINE
  5
C2
330
1F
100
AcDbEntity
  8
0
  6
Continuous
 62
     7
370
    25
100
AcDbLine
 10
6123.3327836048
 20
5169.6677346084
 30
0.0
 11
6106.3327836048
 21
5169.6677346084
 31
0.0
  0
LINE
  5
C3
330
1F
100
AcDbEntity
  8
0
  6
Continuous
 62
     7
370
    25
100
AcDbLine
 10
6134.3327836048
 20
5172.1677346084
 30
0.0
 11
6134.3327836048
 21
5169.6677346084
 31
0.0
  0
LINE
  5
C4
330
1F
100
AcDbEntity
  8
0
  6
Continuous
 62
     7
370
    25
100
AcDbLine
 10
6166.3327836048
 20
5169.6677346084
 30
0.0
 11
6166.3327836048
 21
5172.1677346084
 31
0.0
  0
LINE
  5
C5
330
1F
100
AcDbEntity
  8
0
  6
Continuous
 62
     7
370
    25
100
AcDbLine
 10
6150.3327836048
 20
5244.1677346084
 30
0.0
 11
6185.3327836048
 21
5244.1677346084
 31
0.0
  0
LINE
  5
C6
330
1F
100
AcDbEntity
  8
0
  6
Continuous
 62
     7
370
    25
100
AcDbLine
 10
6115.3327836048
 20
5244.1677346084
 30
0.0
 11
6150.3327836048
 21
5244.1677346084
 31
0.0
  0
LINE
  5
C7
330
1F
100
AcDbEntity
  8
0
  6
Continuous
 62
     7
370
    25
100
AcDbLine
 10
6150.3327836048
 20
5237.1677346084
 30
0.0
 11
6182.3327836048
 21
5237.1677346084
 31
0.0
  0
LINE
  5
C8
330
1F
100
AcDbEntity
  8
0
  6
Continuous
 62
     7
370
    25
100
AcDbLine
 10
6118.3327836048
 20
5237.1677346084
 30
0.0
 11
6150.3327836048
 21
5237.1677346084
 31
0.0
  0
SPLINE
  5
C9
330
1F
100
AcDbEntity
  8
0
  6
Continuous
 62
     7
370
    25
100
AcDbSpline
210
0.0
220
0.0
230
1.0
 70
     8
 71
     3
 72
    10
 73
     6
 74
     0
 42
0.000000001
 43
0.00000001
 40
0.0
 40
0.0
 40
0.0
 40
0.0
 40
0.4575030543493545
 40
0.9222007526202891
 40
1.0
 40
1.0
 40
1.0
 40
1.0
 10
6122.845776042576
 20
5232.658805195129
 30
0.0
 10
6122.908336689016
 20
5232.615781455315
 30
0.0
 10
6123.034441803907
 20
5232.529057388974
 30
0.0
 10
6123.757748819056
 20
5232.032257261842
 30
0.0
 10
6124.222850318035
 20
5231.71345403793
 30
0.0
 10
6124.28955031859
 20
5231.66773460839
 30
0.0
  0
LINE
  5
CA
330
1F
100
AcDbEntity
  8
0
  6
Continuous
 62
     7
370
    25
100
AcDbLine
 10
6124.2895503186
 20
5231.6677346084
 30
0.0
 11
6176.8327836048
 21
5231.6677346084
 31
0.0
  0
LINE
  5
CB
330
1F
100
AcDbEntity
  8
0
  6
Continuous
 62
     7
370
    25
100
AcDbLine
 10
6150.3327836048
 20
5207.1677346084
 30
0.0
 11
6179.8327836048
 21
5207.1677346084
 31
0.0
  0
LINE
  5
CC
330
1F
100
AcDbEntity
  8
0
  6
Continuous
 62
     7
370
    25
100
AcDbLine
 10
6120.8327836048
 20
5207.1677346084
 30
0.0
 11
6150.3327836048
 21
5207.1677346084
 31
0.0
  0
SPLINE
  5
CD
330
1F
100
AcDbEntity
  8
0
  6
Continuous
 62
     7
370
    25
100
AcDbSpline
210
0.0
220
0.0
230
1.0
 70
     8
 71
     3
 72
    14
 73
    10
 74
     0
 42
0.000000001
 43
0.00000001
 40
0.0
 40
0.0
 40
0.0
 40
0.0
 40
0.1533532004492793
 40
0.3112237015158252
 40
0.4645392318064772
 40
0.6224054285958048
 40
0.772938480168078
 40
0.9287239189072575
 40
0.9999999999999999
 40
0.9999999999999999
 40
0.9999999999999999
 40
0.9999999999999999
 10
6126.3327836048
 20
5214.690509033338
 30
0.0
 10
6126.176567361154
 20
5214.06769572361
 30
0.0
 10
6125.859533237041
 20
5212.803722992432
 30
0.0
 10
6125.311841756
 20
5211.190331951361
 30
0.0
 10
6124.78296132182
 20
5209.811922057931
 30
0.0
 10
6124.328414353676
 20
5208.747364108921
 30
0.0
 10
6124.001379871648
 20
5208.025818942692
 30
0.0
 10
6123.837853581271
 20
5207.678478190038
 30
0.0
 10
6123.847608527996
 20
5207.699196659368
 30
0.0
 10
6123.850670668928
 20
5207.705700321023
 30
0.0
  0
SPLINE
  5
CE
330
1F
100
AcDbEntity
  8
0
  6
Continuous
 62
     7
370
    25
100
AcDbSpline
210
0.0
220
0.0
230
1.0
 70
     8
 71
     3
 72
    10
 73
     6
 74
     0
 42
0.000000001
 43
0.00000001
 40
0.0
 40
0.0
 40
0.0
 40
0.0
 40
0.1883898901716111
 40
0.6332747442565548
 40
1.0
 40
1.0
 40
1.0
 40
1.0
 10
6124.28955031859
 20
5231.66773460839
 30
0.0
 10
6124.394981312149
 20
5231.424538611323
 30
0.0
 10
6124.749388788166
 20
5230.607032519531
 30
0.0
 10
6125.534579498126
 20
5228.671771239405
 30
0.0
 10
6126.084364000579
 20
5226.586973884309
 30
0.0
 10
6126.3327836048
 20
5225.644960183442
 30
0.0
  0
LINE
  5
CF
330
1F
100
AcDbEntity
  8
0
  6
Continuous
 62
     7
370
    25
100
AcDbLine
 10
5997.1835145427
 20
5341.1112208938
 30
0.0
 11
5987.8038066238
 21
5378.731174577
 31
0.0
  0
LINE
  5
D0
330
1F
100
AcDbEntity
  8
0
  6
Continuous
 62
     7
370
    25
100
AcDbLine
 10
6000.0944017216
 20
5341.8369865806
 30
0.0
 11
5997.9723668967
 21
5350.3480033966
 31
0.0
  0
LINE
  5
D1
330
1F
100
AcDbEntity
  8
0
  6
Continuous
 62
     7
370
    25
100
AcDbLine
 10
5995.0023052665
 20
5343.6592252293
 30
0.0
 11
5986.2931170249
 21
5378.5898713752
 31
0.0
  0
LWPOLYLINE
  5
D2
330
1F
100
AcDbEntity
  8
0
  6
Continuous
 62
     7
370
    25
100
AcDbPolyline
 90
       16
 70
   128
 43
0.0
 10
5992.5765659508
 20
5343.0544204903
 10
5992.0303188258
 20
5343.2096403473
 10
5990.5091220005
 20
5343.5956784282
 10
5988.0410172801
 20
5344.0509964043
 10
5986.412543547
 20
5344.2099784291
 10
5984.583524767
 20
5344.2251189295
 10
5981.6817744143
 20
5343.8208605061
 10
5978.9036005277
 20
5342.8517193692
 10
5976.5262107282
 20
5341.5253732665
 10
5974.3467769291
 20
5339.9093272014
 10
5973.4373954231
 20
5339.1286429416
 10
5972.7427187398
 20
5338.4929368054
 10
5972.3520664856
 20
5338.1211412096
 10
5972.2009269131
 20
5337.9746172494
 10
5972.200355699
 20
5337.9740606827
 10
5972.200355699
 20
5337.9740606827
  0
LINE
  5
D3
330
1F
100
AcDbEntity
  8
0
  6
Continuous
 62
     7
370
    25
100
AcDbLine
 10
5972.200355699
 20
5337.9740606827
 30
0.0
 11
5983.8673777092
 21
5377.9850666362
 31
0.0
  0
LINE
  5
D4
330
1F
100
AcDbEntity
  8
0
  6
Continuous
 62
     7
370
    25
100
AcDbLine
 10
5975.5820459497
 20
5316.1437109134
 30
0.0
 11
5999.8394391066
 21
5322.1917583034
 31
0.0
  0
LINE
  5
D5
330
1F
100
AcDbEntity
  8
0
  6
Continuous
 62
     7
370
    25
100
AcDbLine
 10
6126.3327836048
 20
5214.6905090333
 30
0.0
 11
6126.3327836048
 21
5225.6449601834
 31
0.0
  0
LINE
  5
D6
330
1F
100
AcDbEntity
  8
0
  6
Continuous
 62
     7
370
    25
100
AcDbLine
 10
6335.3327836048
 20
5378.731174577
 30
0.0
 11
5965.3327836048
 21
5378.731174577
 31
0.0
  0
LINE
  5
D7
330
1F
100
AcDbEntity
  8
0
  6
Continuous
 62
     7
370
    25
100
AcDbLine
 10
6333.3327836048
 20
5387.731174577
 30
0.0
 11
5967.3327836048
 21
5387.731174577
 31
0.0
  0
LINE
  5
D8
330
1F
100
AcDbEntity
  8
0
  6
Continuous
 62
     7
370
    25
100
AcDbLine
 10
5950.753118027
 20
5355.1485399977
 30
0.0
 11
5952.2126616335
 21
5349.3287691723
 31
0.0
  0
LINE
  5
D9
330
1F
100
AcDbEntity
  8
0
  6
Continuous
 62
     7
370
    25
100
AcDbLine
 10
5922.7047270674
 20
5187.6677346084
 30
0.0
 11
5922.7047270674
 21
5107.6677346084
 31
0.0
  0
LINE
  5
DA
330
1F
100
AcDbEntity
  8
0
  6
Continuous
 62
     7
370
    25
100
AcDbLine
 10
5957.7047270674
 20
5167.6677346084
 30
0.0
 11
5957.7047270674
 21
5127.6677346084
 31
0.0
  0
LINE
  5
DB
330
1F
100
AcDbEntity
  8
0
  6
Continuous
 62
     7
370
    25
100
AcDbLine
 10
5912.7047270674
 20
5167.6677346084
 30
0.0
 11
5912.7047270674
 21
5127.6677346084
 31
0.0
  0
LINE
  5
DC
330
1F
100
AcDbEntity
  8
0
  6
Continuous
 62
     7
370
    25
100
AcDbLine
 10
6150.3327836048
 20
5200.1677346084
 30
0.0
 11
6178.3327836048
 21
5200.1677346084
 31
0.0
  0
LINE
  5
DD
330
1F
100
AcDbEntity
  8
0
  6
Continuous
 62
     7
370
    25
100
AcDbLine
 10
6122.3327836048
 20
5200.1677346084
 30
0.0
 11
6150.3327836048
 21
5200.1677346084
 31
0.0
  0
LINE
  5
DE
330
1F
100
AcDbEntity
  8
0
  6
Continuous
 62
     7
370
    25
100
AcDbLine
 10
6150.3327836048
 20
5204.1677346084
 30
0.0
 11
6180.3327836048
 21
5204.1677346084
 31
0.0
  0
LINE
  5
DF
330
1F
100
AcDbEntity
  8
0
  6
Continuous
 62
     7
370
    25
100
AcDbLine
 10
6120.3327836048
 20
5204.1677346084
 30
0.0
 11
6150.3327836048
 21
5204.1677346084
 31
0.0
  0
LINE
  5
E0
330
1F
100
AcDbEntity
  8
0
  6
Continuous
 62
     7
370
    25
100
AcDbLine
 10
6150.3327836048
 20
5190.1677346084
 30
0.0
 11
6175.3327836048
 21
5190.1677346084
 31
0.0
  0
LINE
  5
E1
330
1F
100
AcDbEntity
  8
0
  6
Continuous
 62
     7
370
    25
100
AcDbLine
 10
6125.3327836048
 20
5190.1677346084
 30
0.0
 11
6150.3327836048
 21
5190.1677346084
 31
0.0
  0
LINE
  5
E2
330
1F
100
AcDbEntity
  8
0
  6
Continuous
 62
     7
370
    25
100
AcDbLine
 10
6116.3327836048
 20
5109.6677346084
 30
0.0
 11
6184.3327836048
 21
5109.6677346084
 31
0.0
  0
SPLINE
  5
E3
330
1F
100
AcDbEntity
  8
0
  6
Continuous
 62
     7
370
    25
100
AcDbSpline
210
0.0
220
0.0
230
1.0
 70
     8
 71
     3
 72
    26
 73
    22
 74
     0
 42
0.000000001
 43
0.00000001
 40
0.0
 40
0.0
 40
0.0
 40
0.0
 40
0.0518150172945308
 40
0.1113808078124133
 40
0.1722817355657413
 40
0.2246887683321156
 40
0.2783592031179694
 40
0.3194181051080695
 40
0.3616214636267116
 40
0.4027069642412919
 40
0.4449491661733344
 40
0.5015057252198594
 40
0.5596412612698725
 40
0.6344161126990256
 40
0.7113477101488601
 40
0.7733911371889508
 40
0.837063086983506
 40
0.8877153279750318
 40
0.9397479072163278
 40
0.990452047006796
 40
1.0
 40
1.0
 40
1.0
 40
1.0
 10
6125.111029824448
 20
5167.01537670707
 30
0.0
 10
6125.438143315852
 20
5166.497356789543
 30
0.0
 10
6126.141301720914
 20
5165.383828706572
 30
0.0
 10
6127.400878982801
 20
5163.189733495404
 30
0.0
 10
6128.66278192259
 20
5160.653931607237
 30
0.0
 10
6129.762205584832
 20
5157.881265483796
 30
0.0
 10
6130.504428957616
 20
5155.183431916507
 30
0.0
 10
6130.880445675321
 20
5152.496537536381
 30
0.0
 10
6130.904186549626
 20
5149.965879583683
 30
0.0
 10
6130.584239547381
 20
5147.400689450428
 30
0.0
 10
6129.884835170549
 20
5144.612501073106
 30
0.0
 10
6128.749091662118
 20
5141.643667710361
 30
0.0
 10
6127.08820043135
 20
5138.329645461587
 30
0.0
 10
6125.074847621359
 20
5135.000111259235
 30
0.0
 10
6123.03465683405
 20
5132.018676109686
 30
0.0
 10
6121.262117350921
 20
5129.599676954212
 30
0.0
 10
6119.945861618592
 20
5127.878661563451
 30
0.0
 10
6118.979286178287
 20
5126.645829707855
 30
0.0
 10
6118.414907865696
 20
5125.936470985732
 30
0.0
 10
6118.16249322684
 20
5125.621565947638
 30
0.0
 10
6118.21874743126
 20
5125.691838778606
 30
0.0
 10
6118.2276618519
 20
5125.702974685358
 30
0.0
  0
LINE
  5
E4
330
1F
100
AcDbEntity
  8
0
  6
Continuous
 62
     7
370
    25
100
AcDbLine
 10
6102.3327836048
 20
5173.6677346084
 30
0.0
 11
6102.3327836048
 21
5121.6677346084
 31
0.0
  0
LINE
  5
E5
330
1F
100
AcDbEntity
  8
0
  6
Continuous
 62
     7
370
    25
100
AcDbLine
 10
6106.3327836048
 20
5175.1677346084
 30
0.0
 11
6106.3327836048
 21
5120.1677346084
 31
0.0
  0
ARC
  5
E6
330
1F
100
AcDbEntity
  8
0
  6
Continuous
 62
     7
370
    25
100
AcDbCircle
 10
6127.9640384885
 20
5166.8090597652
 30
0.0
 40
2.860458899833104
100
AcDbArc
 50
92.0237024967
 51
175.8638232391
  0
LINE
  5
E7
330
1F
100
AcDbEntity
  8
0
  6
Continuous
 62
     7
370
    25
100
AcDbLine
 10
6127.8630273084
 20
5169.6677346084
 30
0.0
 11
6174.6624359427
 21
5169.6677346084
 31
0.0
  0
LINE
  5
E8
330
1F
100
AcDbEntity
  8
0
  6
Continuous
 62
     7
370
    25
100
AcDbLine
 10
6126.2109557386
 20
5039.6677346084
 30
0.0
 11
6174.4546114568
 21
5039.6677346084
 31
0.0
  0
LINE
  5
E9
330
1F
100
AcDbEntity
  8
0
  6
Continuous
 62
     7
370
    25
100
AcDbLine
 10
6090.3327836048
 20
5170.6677346084
 30
0.0
 11
6090.3327836048
 21
5124.6677346084
 31
0.0
  0
LINE
  5
EA
330
1F
100
AcDbEntity
  8
0
  6
Continuous
 62
     7
370
    25
100
AcDbLine
 10
6127.3327836048
 20
5176.1677346084
 30
0.0
 11
6173.3327836048
 21
5176.1677346084
 31
0.0
  0
LINE
  5
EB
330
1F
100
AcDbEntity
  8
0
  6
Continuous
 62
     7
370
    25
100
AcDbLine
 10
6125.3327836048
 20
5172.1677346084
 30
0.0
 11
6175.3327836048
 21
5172.1677346084
 31
0.0
  0
LINE
  5
EC
330
1F
100
AcDbEntity
  8
0
  6
Continuous
 62
     7
370
    25
100
AcDbLine
 10
6130.3327836048
 20
5186.1677346084
 30
0.0
 11
6170.3327834309
 21
5186.1677346084
 31
0.0
  0
SPLINE
  5
ED
330
1F
100
AcDbEntity
  8
0
  6
Continuous
 62
     7
370
    25
100
AcDbSpline
210
0.0
220
0.0
230
1.0
 70
     8
 71
     3
 72
    11
 73
     7
 74
     0
 42
0.000000001
 43
0.00000001
 40
0.0
 40
0.0
 40
0.0
 40
0.0
 40
0.1561474091523022
 40
0.4307960512583157
 40
0.7130079383195165
 40
1.0
 40
1.0
 40
1.0
 40
1.0
 10
6123.3327836048
 20
5169.66773460839
 30
0.0
 10
6123.342250320978
 20
5169.654217893936
 30
0.0
 10
6123.36836810269
 20
5169.61692654697
 30
0.0
 10
6123.652189308534
 20
5169.208145274014
 30
0.0
 10
6124.235437890436
 20
5168.359643162516
 30
0.0
 10
6124.817536358845
 20
5167.465967222327
 30
0.0
 10
6125.111029824448
 20
5167.01537670707
 30
0.0
  0
SPLINE
  5
EE
330
1F
100
AcDbEntity
  8
0
  6
Continuous
 62
     7
370
    25
100
AcDbSpline
210
0.0
220
0.0
230
1.0
 70
    24
 71
     3
 72
    12
 73
     8
 74
     0
 42
0.000000001
 43
0.00000001
 40
0.0
 40
0.0
 40
0.0
 40
0.0
 40
0.0026572740835311
 40
0.0516700043743781
 40
0.3670805910300619
 40
0.7311420885359103
 40
1.0
 40
1.0
 40
1.0
 40
1.0
 10
6123.3327836048
 20
5169.66773460839
 30
0.0
 10
6123.336179626331
 20
5169.66773460839
 30
0.0
 10
6123.402214382932
 20
5169.66773460839
 30
0.0
 10
6123.882559712379
 20
5169.66773460839
 30
0.0
 10
6124.969942981819
 20
5169.667734608391
 30
0.0
 10
6126.563167750372
 20
5169.66773460839
 30
0.0
 10
6127.475484266428
 20
5169.66773460839
 30
0.0
 10
6127.863027308441
 20
5169.66773460839
 30
0.0
  0
LINE
  5
EF
330
1F
100
AcDbEntity
  8
0
  6
Continuous
 62
     8
370
    25
100
AcDbLine
 10
5994.5952152381
 20
5239.8860540454
 30
0.0
 11
6018.852608395
 21
5245.9341014354
 31
0.0
  0
LINE
  5
F0
330
1F
100
AcDbEntity
  8
0
  6
Continuous
 62
     8
370
    25
100
AcDbLine
 10
6035.8327836048
 20
5207.6677346084
 30
0.0
 11
6035.8327836048
 21
5232.6677346084
 31
0.0
  0
LINE
  5
F1
330
1F
100
AcDbEntity
  8
0
  6
Continuous
 62
     8
370
    25
100
AcDbLine
 10
6335.3327836048
 20
5385.731174577
 30
0.0
 11
5965.3327836048
 21
5385.731174577
 31
0.0
  0
LINE
  5
F2
330
1F
100
AcDbEntity
  8
0
  6
Continuous
 62
     8
370
    25
100
AcDbLine
 10
5937.7047270674
 20
5187.6677346084
 30
0.0
 11
5937.7047270674
 21
5107.6677346084
 31
0.0
  0
LINE
  5
F3
330
1F
100
AcDbEntity
  8
0
  6
Continuous
 62
     8
370
    25
100
AcDbLine
 10
6150.3327836048
 20
5193.1677346084
 30
0.0
 11
6178.3327836048
 21
5193.1677346084
 31
0.0
  0
LINE
  5
F4
330
1F
100
AcDbEntity
  8
0
  6
Continuous
 62
     8
370
    25
100
AcDbLine
 10
6122.3327836048
 20
5193.1677346084
 30
0.0
 11
6150.3327836048
 21
5193.1677346084
 31
0.0
  0
LINE
  5
F5
330
1F
100
AcDbEntity
  8
0
  6
Continuous
 62
     8
370
    25
100
AcDbLine
 10
6123.2265693247
 20
5042.362058747
 30
0.0
 11
6177.4389978849
 21
5042.362058747
 31
0.0
  0
LINE
  5
F6
330
1F
100
AcDbEntity
  8
0
  6
Continuous
 62
     8
370
    25
100
AcDbLine
 10
6177.64222536
 20
5167.0153767071
 30
0.0
 11
6125.1110298244
 21
5167.0153767071
 31
0.0
  0
LINE
  5
F7
330
1F
100
AcDbEntity
  8
0
  6
Continuous
 62
     8
370
    25
100
AcDbLine
 10
6093.3327836048
 20
5173.6677346084
 30
0.0
 11
6093.3327836048
 21
5121.6677346084
 31
0.0
  0
LINE
  5
F8
330
1F
100
AcDbEntity
  8
0
  6
Continuous
 62
     8
370
    25
100
AcDbLine
 10
6127.3327836048
 20
5183.1677346084
 30
0.0
 11
6173.3327836048
 21
5183.1677346084
 31
0.0
  0
LINE
  5
F9
330
1F
100
AcDbEntity
  8
0
  6
Continuous
 62
     7
370
    25
100
AcDbLine
 10
5325.3171724881
 20
5244.1185581603
 30
0.0
 11
5328.2960968675
 21
5237.1677346084
 31
0.0
  0
LINE
  5
FA
330
1F
100
AcDbEntity
  8
0
  6
Continuous
 62
     7
370
    25
100
AcDbLine
 10
5392.2960968675
 20
5237.1677346084
 30
0.0
 11
5395.2750212468
 21
5244.1185581603
 31
0.0
  0
LINE
  5
FB
330
1F
100
AcDbEntity
  8
0
  6
Continuous
 62
     7
370
    25
100
AcDbLine
 10
5328.2960968675
 20
5237.1677346084
 30
0.0
 11
5333.7960968675
 21
5231.6677346084
 31
0.0
  0
LINE
  5
FC
330
1F
100
AcDbEntity
  8
0
  6
Continuous
 62
     7
370
    25
100
AcDbLine
 10
5386.7960968675
 20
5231.6677346084
 30
0.0
 11
5392.2960968675
 21
5237.1677346084
 31
0.0
  0
LINE
  5
FD
330
1F
100
AcDbEntity
  8
0
  6
Continuous
 62
     7
370
    25
100
AcDbLine
 10
5330.7960968675
 20
5207.1677346084
 30
0.0
 11
5330.7960968675
 21
5204.1677346084
 31
0.0
  0
LINE
  5
FE
330
1F
100
AcDbEntity
  8
0
  6
Continuous
 62
     7
370
    25
100
AcDbLine
 10
5389.7960968675
 20
5204.1677346084
 30
0.0
 11
5389.7960968675
 21
5207.1677346084
 31
0.0
  0
LINE
  5
FF
330
1F
100
AcDbEntity
  8
0
  6
Continuous
 62
     7
370
    25
100
AcDbLine
 10
5333.7960968675
 20
5231.6677346084
 30
0.0
 11
5333.7960968675
 21
5207.1677346084
 31
0.0
  0
LINE
  5
100
330
1F
100
AcDbEntity
  8
0
  6
Continuous
 62
     7
370
    25
100
AcDbLine
 10
5386.7960968675
 20
5207.1677346084
 30
0.0
 11
5386.7960968675
 21
5231.6677346084
 31
0.0
  0
LINE
  5
101
330
1F
100
AcDbEntity
  8
0
  6
Continuous
 62
     7
370
    25
100
AcDbLine
 10
5545.2960968675
 20
5378.731174577
 30
0.0
 11
5545.2960968675
 21
5385.731174577
 31
0.0
  0
LINE
  5
102
330
1F
100
AcDbEntity
  8
0
  6
Continuous
 62
     7
370
    25
100
AcDbLine
 10
5175.2960968675
 20
5385.731174577
 30
0.0
 11
5175.2960968675
 21
5378.731174577
 31
0.0
  0
ARC
  5
103
330
1F
100
AcDbEntity
  8
0
  6
Continuous
 62
     7
370
    25
100
AcDbCircle
 10
5543.2960968675
 20
5385.731174577
 30
0.0
 40
2.0
100
AcDbArc
 50
0.0
 51
90.0
  0
ARC
  5
104
330
1F
100
AcDbEntity
  8
0
  6
Continuous
 62
     7
370
    25
100
AcDbCircle
 10
5177.2960968675
 20
5385.731174577
 30
0.0
 40
2.000000000000909
100
AcDbArc
 50
90.0
 51
180.0
  0
ARC
  5
105
330
1F
100
AcDbEntity
  8
0
  6
Continuous
 62
     7
370
    25
100
AcDbCircle
 10
5360.2960968675
 20
5402.1083315574
 30
0.0
 40
161.8156162081376
100
AcDbArc
 50
282.4839030133
 51
351.6935342118
  0
ARC
  5
106
330
1F
100
AcDbEntity
  8
0
  6
Continuous
 62
     7
370
    25
100
AcDbCircle
 10
5360.2960968675
 20
5402.1083315574
 30
0.0
 40
161.8156162081385
100
AcDbArc
 50
188.3064657882
 51
257.5160969867
  0
LINE
  5
107
330
1F
100
AcDbEntity
  8
0
  6
Continuous
 62
     7
370
    25
100
AcDbLine
 10
5330.2960968675
 20
5204.1677346084
 30
0.0
 11
5332.2960968675
 21
5200.1677346084
 31
0.0
  0
LINE
  5
108
330
1F
100
AcDbEntity
  8
0
  6
Continuous
 62
     7
370
    25
100
AcDbLine
 10
5388.2960968675
 20
5200.1677346084
 30
0.0
 11
5390.2960968675
 21
5204.1677346084
 31
0.0
  0
LINE
  5
109
330
1F
100
AcDbEntity
  8
0
  6
Continuous
 62
     7
370
    25
100
AcDbLine
 10
5332.2960968675
 20
5200.1677346084
 30
0.0
 11
5332.2960968675
 21
5193.1677346084
 31
0.0
  0
LINE
  5
10A
330
1F
100
AcDbEntity
  8
0
  6
Continuous
 62
     7
370
    25
100
AcDbLine
 10
5388.2960968675
 20
5193.1677346084
 30
0.0
 11
5388.2960968675
 21
5200.1677346084
 31
0.0
  0
ARC
  5
10B
330
1F
100
AcDbEntity
  8
0
  6
Continuous
 62
     7
370
    25
100
AcDbCircle
 10
5335.2960968675
 20
5193.1677346084
 30
0.0
 40
3.000000000000909
100
AcDbArc
 50
180.0
 51
270.0
  0
ARC
  5
10C
330
1F
100
AcDbEntity
  8
0
  6
Continuous
 62
     7
370
    25
100
AcDbCircle
 10
5385.2960968675
 20
5193.1677346084
 30
0.0
 40
3.0
100
AcDbArc
 50
270.0
 51
0.0
  0
LINE
  5
10D
330
1F
100
AcDbEntity
  8
0
  6
Continuous
 62
     7
370
    25
100
AcDbLine
 10
5344.2960968675
 20
5190.1677346084
 30
0.0
 11
5344.2960968675
 21
5186.1677346084
 31
0.0
  0
LINE
  5
10E
330
1F
100
AcDbEntity
  8
0
  6
Continuous
 62
     7
370
    25
100
AcDbLine
 10
5344.2960968675
 20
5172.1677346084
 30
0.0
 11
5344.2960968675
 21
5169.6677346084
 31
0.0
  0
LINE
  5
10F
330
1F
100
AcDbEntity
  8
0
  6
Continuous
 62
     7
370
    25
100
AcDbLine
 10
5376.2960968675
 20
5169.6677346084
 30
0.0
 11
5376.2960968675
 21
5172.1677346084
 31
0.0
  0
LINE
  5
110
330
1F
100
AcDbEntity
  8
0
  6
Continuous
 62
     7
370
    25
100
AcDbLine
 10
5376.2960968675
 20
5186.1677346084
 30
0.0
 11
5376.2960968675
 21
5190.1677346084
 31
0.0
  0
LINE
  5
111
330
1F
100
AcDbEntity
  8
0
  6
Continuous
 62
     7
370
    25
100
AcDbLine
 10
5326.2960968675
 20
5109.6677346084
 30
0.0
 11
5333.1898825873
 21
5042.362058747
 31
0.0
  0
LINE
  5
112
330
1F
100
AcDbEntity
  8
0
  6
Continuous
 62
     7
370
    25
100
AcDbLine
 10
5387.4023111476
 20
5042.362058747
 30
0.0
 11
5394.2960968675
 21
5109.6677346084
 31
0.0
  0
LINE
  5
113
330
1F
100
AcDbEntity
  8
0
  6
Continuous
 62
     7
370
    25
100
AcDbLine
 10
5394.2960968675
 20
5109.6677346084
 30
0.0
 11
5387.6055386226
 21
5167.0153767071
 31
0.0
  0
LINE
  5
114
330
1F
100
AcDbEntity
  8
0
  6
Continuous
 62
     7
370
    25
100
AcDbLine
 10
5332.9866551123
 20
5167.0153767071
 30
0.0
 11
5326.2960968675
 21
5109.6677346084
 31
0.0
  0
ARC
  5
115
330
1F
100
AcDbEntity
  8
0
  6
Continuous
 62
     7
370
    25
100
AcDbCircle
 10
5335.9664445296
 20
5166.6677346084
 30
0.0
 40
3.0
100
AcDbArc
 50
90.0
 51
173.345574954
  0
ARC
  5
116
330
1F
100
AcDbEntity
  8
0
  6
Continuous
 62
     7
370
    25
100
AcDbCircle
 10
5384.6257492054
 20
5166.6677346084
 30
0.0
 40
3.0
100
AcDbArc
 50
6.654425046
 51
90.0
  0
ARC
  5
117
330
1F
100
AcDbEntity
  8
0
  6
Continuous
 62
     7
370
    25
100
AcDbCircle
 10
5336.1742690013
 20
5042.6677346084
 30
0.0
 40
3.000000000000332
100
AcDbArc
 50
185.8481280261
 51
270.0
  0
ARC
  5
118
330
1F
100
AcDbEntity
  8
0
  6
Continuous
 62
     7
370
    25
100
AcDbCircle
 10
5384.4179247337
 20
5042.6677346084
 30
0.0
 40
3.000000000000332
100
AcDbArc
 50
270.0
 51
354.1518719739
  0
LINE
  5
119
330
1F
100
AcDbEntity
  8
0
  6
Continuous
 62
     7
370
    25
100
AcDbLine
 10
5385.2960968675
 20
5172.1677346084
 30
0.0
 11
5383.2960968675
 21
5176.1677346084
 31
0.0
  0
LINE
  5
11A
330
1F
100
AcDbEntity
  8
0
  6
Continuous
 62
     7
370
    25
100
AcDbLine
 10
5337.2960968675
 20
5176.1677346084
 30
0.0
 11
5335.2960968675
 21
5172.1677346084
 31
0.0
  0
ARC
  5
11B
330
1F
100
AcDbEntity
  8
0
  6
Continuous
 62
     7
370
    25
100
AcDbCircle
 10
5340.2960968675
 20
5183.1677346084
 30
0.0
 40
3.000000000000909
100
AcDbArc
 50
90.0
 51
180.0
  0
ARC
  5
11C
330
1F
100
AcDbEntity
  8
0
  6
Continuous
 62
     7
370
    25
100
AcDbCircle
 10
5380.2960968675
 20
5183.1677346084
 30
0.0
 40
3.000000000000909
100
AcDbArc
 50
0.0
 51
90.0
  0
LINE
  5
11D
330
1F
100
AcDbEntity
  8
0
  6
Continuous
 62
     7
370
    25
100
AcDbLine
 10
5337.2960968675
 20
5183.1677346084
 30
0.0
 11
5337.2960968675
 21
5176.1677346084
 31
0.0
  0
LINE
  5
11E
330
1F
100
AcDbEntity
  8
0
  6
Continuous
 62
     7
370
    25
100
AcDbLine
 10
5383.2960968675
 20
5176.1677346084
 30
0.0
 11
5383.2960968675
 21
5183.1677346084
 31
0.0
  0
LINE
  5
11F
330
1F
100
AcDbEntity
  8
0
  6
Continuous
 62
     7
370
    25
100
AcDbLine
 10
5344.2960968675
 20
5172.1677346084
 30
0.0
 11
5344.2960968675
 21
5169.6677346084
 31
0.0
  0
LINE
  5
120
330
1F
100
AcDbEntity
  8
0
  6
Continuous
 62
     7
370
    25
100
AcDbLine
 10
5376.2960968675
 20
5169.6677346084
 30
0.0
 11
5376.2960968675
 21
5172.1677346084
 31
0.0
  0
LINE
  5
121
330
1F
100
AcDbEntity
  8
0
  6
Continuous
 62
     7
370
    25
100
AcDbLine
 10
5325.2960968675
 20
5244.1677346084
 30
0.0
 11
5395.2960968675
 21
5244.1677346084
 31
0.0
  0
LINE
  5
122
330
1F
100
AcDbEntity
  8
0
  6
Continuous
 62
     7
370
    25
100
AcDbLine
 10
5328.2960968675
 20
5237.1677346084
 30
0.0
 11
5392.2960968675
 21
5237.1677346084
 31
0.0
  0
LINE
  5
123
330
1F
100
AcDbEntity
  8
0
  6
Continuous
 62
     7
370
    25
100
AcDbLine
 10
5333.7960968675
 20
5231.6677346084
 30
0.0
 11
5386.7960968675
 21
5231.6677346084
 31
0.0
  0
LINE
  5
124
330
1F
100
AcDbEntity
  8
0
  6
Continuous
 62
     7
370
    25
100
AcDbLine
 10
5330.7960968675
 20
5207.1677346084
 30
0.0
 11
5389.7960968675
 21
5207.1677346084
 31
0.0
  0
LINE
  5
125
330
1F
100
AcDbEntity
  8
0
  6
Continuous
 62
     7
370
    25
100
AcDbLine
 10
5545.2960968675
 20
5378.731174577
 30
0.0
 11
5175.2960968675
 21
5378.731174577
 31
0.0
  0
LINE
  5
126
330
1F
100
AcDbEntity
  8
0
  6
Continuous
 62
     7
370
    25
100
AcDbLine
 10
5543.2960968675
 20
5387.731174577
 30
0.0
 11
5177.2960968687
 21
5387.731174577
 31
0.0
  0
ARC
  5
127
330
1F
100
AcDbEntity
  8
0
  6
Continuous
 62
     7
370
    25
100
AcDbCircle
 10
5360.2960968675
 20
5147.6677346084
 30
0.0
 40
40.0
100
AcDbArc
 50
0.0
 51
54.9003678046
  0
ARC
  5
128
330
1F
100
AcDbEntity
  8
0
  6
Continuous
 62
     7
370
    25
100
AcDbCircle
 10
5360.2960968675
 20
5147.6677346084
 30
0.0
 40
40.00000000000083
100
AcDbArc
 50
125.0996321954
 51
216.1070114058
  0
ARC
  5
129
330
1F
100
AcDbEntity
  8
0
  6
Continuous
 62
     7
370
    25
100
AcDbCircle
 10
5360.2960968675
 20
5147.6677346084
 30
0.0
 40
40.00000000000043
100
AcDbArc
 50
323.8929885942
 51
0.0
  0
LINE
  5
12A
330
1F
100
AcDbEntity
  8
0
  6
Continuous
 62
     7
370
    25
100
AcDbLine
 10
5330.2960968675
 20
5204.1677346084
 30
0.0
 11
5390.2960968675
 21
5204.1677346084
 31
0.0
  0
LINE
  5
12B
330
1F
100
AcDbEntity
  8
0
  6
Continuous
 62
     7
370
    25
100
AcDbLine
 10
5332.2960968675
 20
5200.1677346084
 30
0.0
 11
5388.2960968675
 21
5200.1677346084
 31
0.0
  0
LINE
  5
12C
330
1F
100
AcDbEntity
  8
0
  6
Continuous
 62
     7
370
    25
100
AcDbLine
 10
5335.2960968675
 20
5190.1677346084
 30
0.0
 11
5385.2960967403
 21
5190.1677346084
 31
0.0
  0
LINE
  5
12D
330
1F
100
AcDbEntity
  8
0
  6
Continuous
 62
     7
370
    25
100
AcDbLine
 10
5326.2960968675
 20
5109.6677346084
 30
0.0
 11
5394.2960968675
 21
5109.6677346084
 31
0.0
  0
LINE
  5
12E
330
1F
100
AcDbEntity
  8
0
  6
Continuous
 62
     7
370
    25
100
AcDbLine
 10
5335.9664445296
 20
5169.6677346084
 30
0.0
 11
5384.6257492054
 21
5169.6677346084
 31
0.0
  0
LINE
  5
12F
330
1F
100
AcDbEntity
  8
0
  6
Continuous
 62
     7
370
    25
100
AcDbLine
 10
5336.1742690013
 20
5039.6677346084
 30
0.0
 11
5384.4179247337
 21
5039.6677346084
 31
0.0
  0
LINE
  5
130
330
1F
100
AcDbEntity
  8
0
  6
Continuous
 62
     7
370
    25
100
AcDbLine
 10
5337.2960968675
 20
5176.1677346084
 30
0.0
 11
5383.2960968675
 21
5176.1677346084
 31
0.0
  0
LINE
  5
131
330
1F
100
AcDbEntity
  8
0
  6
Continuous
 62
     7
370
    25
100
AcDbLine
 10
5335.2960968675
 20
5172.1677346084
 30
0.0
 11
5385.2960968675
 21
5172.1677346084
 31
0.0
  0
LINE
  5
132
330
1F
100
AcDbEntity
  8
0
  6
Continuous
 62
     7
370
    25
100
AcDbLine
 10
5340.2960968675
 20
5186.1677346084
 30
0.0
 11
5380.2960968675
 21
5186.1677346084
 31
0.0
  0
LINE
  5
133
330
1F
100
AcDbEntity
  8
0
  6
Continuous
 62
     7
370
    25
100
AcDbLine
 10
5376.7960968675
 20
5169.6677346084
 30
0.0
 11
5376.2960968675
 21
5170.0340038547
 31
0.0
  0
LINE
  5
134
330
1F
100
AcDbEntity
  8
0
  6
Continuous
 62
     7
370
    25
100
AcDbLine
 10
5344.2960968675
 20
5170.0340038547
 30
0.0
 11
5343.7960968675
 21
5169.6677346084
 31
0.0
  0
LINE
  5
135
330
1F
100
AcDbEntity
  8
0
  6
Continuous
 62
     8
370
    25
100
AcDbLine
 10
5545.2960968675
 20
5385.731174577
 30
0.0
 11
5175.2960968675
 21
5385.731174577
 31
0.0
  0
LINE
  5
136
330
1F
100
AcDbEntity
  8
0
  6
Continuous
 62
     8
370
    25
100
AcDbLine
 10
5332.2960968675
 20
5193.1677346084
 30
0.0
 11
5388.2960968675
 21
5193.1677346084
 31
0.0
  0
LINE
  5
137
330
1F
100
AcDbEntity
  8
0
  6
Continuous
 62
     8
370
    25
100
AcDbLine
 10
5333.1898825873
 20
5042.362058747
 30
0.0
 11
5387.4023111476
 21
5042.362058747
 31
0.0
  0
LINE
  5
138
330
1F
100
AcDbEntity
  8
0
  6
Continuous
 62
     8
370
    25
100
AcDbLine
 10
5387.6055386226
 20
5167.0153767071
 30
0.0
 11
5332.9866551123
 21
5167.0153767071
 31
0.0
  0
LINE
  5
139
330
1F
100
AcDbEntity
  8
0
  6
Continuous
 62
     8
370
    25
100
AcDbLine
 10
5337.2960968675
 20
5183.1677346084
 30
0.0
 11
5383.2960968675
 21
5183.1677346084
 31
0.0
  0
LINE
  5
13A
330
1F
100
AcDbEntity
  8
0
  6
Continuous
 62
     7
370
    25
100
AcDbLine
 10
5360.1062595144
 20
4587.1109569754
 30
0.0
 11
5360.2960968675
 21
4587.1093688788
 31
0.0
  0
LINE
  5
13B
330
1F
100
AcDbEntity
  8
0
  6
Continuous
 62
     7
370
    25
100
AcDbLine
 10
5359.2130395593
 20
4587.1184292647
 30
0.0
 11
5360.1062595144
 21
4587.1109569754
 31
0.0
  0
SPLINE
  5
13C
330
1F
100
AcDbEntity
  8
0
  6
Continuous
 62
     7
370
    25
100
AcDbSpline
210
0.0
220
0.0
230
1.0
 70
     8
 71
     3
 72
    20
 73
    16
 74
     0
 42
0.000000001
 43
0.00000001
 40
0.0
 40
0.0
 40
0.0
 40
0.0
 40
0.0486759104814886
 40
0.1113555418703695
 40
0.1779165354646148
 40
0.2563582696346905
 40
0.350117432000681
 40
0.4480572998989248
 40
0.5427464384704281
 40
0.6352336756085883
 40
0.7264875855457618
 40
0.8170361530137337
 40
0.9071756656761315
 40
0.9970887519505591
 40
1.0
 40
1.0
 40
1.0
 40
1.0
 10
5342.32731312654
 20
4592.59098176863
 30
0.0
 10
5342.336577550943
 20
4592.363592284762
 30
0.0
 10
5342.357771710214
 20
4591.843394944
 30
0.0
 10
5342.737821293139
 20
4591.125555119324
 30
0.0
 10
5343.314188386044
 20
4590.459989406892
 30
0.0
 10
5344.144182124441
 20
4589.845843958184
 30
0.0
 10
5345.281865177086
 20
4589.262476607129
 30
0.0
 10
5346.744444075334
 20
4588.726974083527
 30
0.0
 10
5348.451309763835
 20
4588.264935523372
 30
0.0
 10
5350.337139203684
 20
4587.881603958481
 30
0.0
 10
5352.378192002015
 20
4587.57385576971
 30
0.0
 10
5354.547147709125
 20
4587.340027000959
 30
0.0
 10
5356.811496215922
 20
4587.187208266551
 30
0.0
 10
5358.384730288759
 20
4587.125087891815
 30
0.0
 10
5359.187851288782
 20
4587.118631748644
 30
0.0
 10
5359.213039559312
 20
4587.118429264734
 30
0.0
  0
SPLINE
  5
13D
330
1F
100
AcDbEntity
  8
0
  6
Continuous
 62
     7
370
    25
100
AcDbSpline
210
0.0
220
0.0
230
1.0
 70
     8
 71
     3
 72
    19
 73
    15
 74
     0
 42
0.000000001
 43
0.00000001
 40
0.0
 40
0.0
 40
0.0
 40
0.0
 40
0.0140586489940064
 40
0.1117858445768216
 40
0.2097135264782073
 40
0.3079990164220364
 40
0.4068758434606088
 40
0.5067273931328113
 40
0.6082363106916153
 40
0.7126732137212274
 40
0.8088421619976304
 40
0.8855134183312278
 40
0.9536859556645167
 40
1.0
 40
1.0
 40
1.0
 40
1.0
 10
5363.49610789709
 20
4587.188807395563
 30
0.0
 10
5363.607120892496
 20
4587.192448391278
 30
0.0
 10
5364.489828857946
 20
4587.221399379478
 30
0.0
 10
5366.092159443489
 20
4587.34998166064
 30
0.0
 10
5368.249761296636
 20
4587.577114873562
 30
0.0
 10
5370.266181570732
 20
4587.884436289774
 30
0.0
 10
5372.116639464914
 20
4588.260059346323
 30
0.0
 10
5373.774889996913
 20
4588.706162906126
 30
0.0
 10
5375.226708961035
 20
4589.227720600305
 30
0.0
 10
5376.414590642307
 20
4589.820968115387
 30
0.0
 10
5377.303553547251
 20
4590.473093738705
 30
0.0
 10
5377.90577240627
 20
4591.197819049757
 30
0.0
 10
5378.256426974774
 20
4591.927664391575
 30
0.0
 10
5378.263493292174
 20
4592.419659389549
 30
0.0
 10
5378.266351878154
 20
4592.618689510083
 30
0.0
  0
SPLINE
  5
13E
330
1F
100
AcDbEntity
  8
0
  6
Continuous
 62
     7
370
    25
100
AcDbSpline
210
0.0
220
0.0
230
1.0
 70
     8
 71
     3
 72
     9
 73
     5
 74
     0
 42
0.000000001
 43
0.00000001
 40
0.0
 40
0.0
 40
0.0
 40
0.0
 40
0.3803232787575598
 40
1.0
 40
1.0
 40
1.0
 40
1.0
 10
5360.296096867465
 20
4587.109368878795
 30
0.0
 10
5360.704748697022
 20
4587.110990273835
 30
0.0
 10
5361.779234147642
 20
4587.115253476042
 30
0.0
 10
5362.839244288512
 20
4587.160666192392
 30
0.0
 10
5363.49610789709
 20
4587.188807395563
 30
0.0
  0
LINE
  5
13F
330
1F
100
AcDbEntity
  8
0
  6
Continuous
 62
     7
370
    25
100
AcDbLine
 10
5360.336119398
 20
4592.1678208884
 30
0.0
 11
5361.0086602877
 21
4592.1602623427
 31
0.0
  0
LINE
  5
140
330
1F
100
AcDbEntity
  8
0
  6
Continuous
 62
     7
370
    25
100
AcDbLine
 10
5360.2969239944
 20
4592.1682613973
 30
0.0
 11
5360.336119398
 21
4592.1678208884
 31
0.0
  0
SPLINE
  5
141
330
1F
100
AcDbEntity
  8
0
  6
Continuous
 62
     7
370
    25
100
AcDbSpline
210
0.0
220
0.0
230
1.0
 70
     8
 71
     3
 72
     9
 73
     5
 74
     0
 42
0.000000001
 43
0.00000001
 40
0.0
 40
0.0
 40
0.0
 40
0.0
 40
0.3437582458596717
 40
1.0
 40
1.0
 40
1.0
 40
1.0
 10
5359.734752048537
 20
4592.161772946038
 30
0.0
 10
5359.797763143496
 20
4592.166067366923
 30
0.0
 10
5359.981063750003
 20
4592.178559928007
 30
0.0
 10
5360.171772771535
 20
4592.172341916266
 30
0.0
 10
5360.296923994356
 20
4592.168261397334
 30
0.0
  0
LINE
  5
142
330
1F
100
AcDbEntity
  8
0
  6
Continuous
 62
     7
370
    25
100
AcDbLine
 10
5365.5460968675
 20
4589.9254713954
 30
0.0
 11
5365.5460968675
 21
4590.6044446584
 31
0.0
  0
LINE
  5
143
330
1F
100
AcDbEntity
  8
0
  6
Continuous
 62
     7
370
    25
100
AcDbLine
 10
5355.0460968675
 20
4590.6044446584
 30
0.0
 11
5355.0460968675
 21
4589.9254713954
 31
0.0
  0
LINE
  5
144
330
1F
100
AcDbEntity
  8
0
  6
Continuous
 62
     7
370
    25
100
AcDbLine
 10
5365.0249227998
 20
4591.1591941936
 30
0.0
 11
5364.1182127743
 21
4591.6165523701
 31
0.0
  0
LINE
  5
145
330
1F
100
AcDbEntity
  8
0
  6
Continuous
 62
     7
370
    25
100
AcDbLine
 10
5356.4739809606
 20
4591.6165523701
 30
0.0
 11
5355.5672709351
 21
4591.1591941936
 31
0.0
  0
LINE
  5
146
330
1F
100
AcDbEntity
  8
0
  6
Continuous
 62
     7
370
    25
100
AcDbLine
 10
5363.2960968675
 20
4622.8024776608
 30
0.0
 11
5363.2960968675
 21
4636.676697359
 31
0.0
  0
LINE
  5
147
330
1F
100
AcDbEntity
  8
0
  6
Continuous
 62
     7
370
    25
100
AcDbLine
 10
5357.2960968675
 20
4636.676697359
 30
0.0
 11
5357.2960968675
 21
4622.8024776608
 31
0.0
  0
ARC
  5
148
330
1F
100
AcDbEntity
  8
0
  6
Continuous
 62
     7
370
    25
100
AcDbCircle
 10
5360.2960968675
 20
4596.4743429617
 30
0.0
 40
8.552641741589506
100
AcDbArc
 50
234.4761315509
 51
305.5238684491
  0
LINE
  5
149
330
1F
100
AcDbEntity
  8
0
  6
Continuous
 62
     7
370
    25
100
AcDbLine
 10
5400.2960968675
 20
4650.4548601218
 30
0.0
 11
5400.2960968675
 21
4665.4548601218
 31
0.0
  0
LINE
  5
14A
330
1F
100
AcDbEntity
  8
0
  6
Continuous
 62
     7
370
    25
100
AcDbLine
 10
5320.2960968675
 20
4665.4548601218
 30
0.0
 11
5320.2960968675
 21
4650.4548601218
 31
0.0
  0
ARC
  5
14B
330
1F
100
AcDbEntity
  8
0
  6
Continuous
 62
     7
370
    25
100
AcDbCircle
 10
5380.2960968675
 20
4650.4548601218
 30
0.0
 40
20.00000000000091
100
AcDbArc
 50
270.0
 51
0.0
  0
ARC
  5
14C
330
1F
100
AcDbEntity
  8
0
  6
Continuous
 62
     7
370
    25
100
AcDbCircle
 10
5340.2960968675
 20
4650.4548601218
 30
0.0
 40
19.99999999999909
100
AcDbArc
 50
180.0
 51
270.0
  0
LINE
  5
14D
330
1F
100
AcDbEntity
  8
0
  6
Continuous
 62
     7
370
    25
100
AcDbLine
 10
5380.2960968675
 20
4665.4548601218
 30
0.0
 11
5380.2960968675
 21
4675.4548601218
 31
0.0
  0
LINE
  5
14E
330
1F
100
AcDbEntity
  8
0
  6
Continuous
 62
     7
370
    25
100
AcDbLine
 10
5340.2960968675
 20
4675.4548601218
 30
0.0
 11
5340.2960968675
 21
4665.4548601218
 31
0.0
  0
LINE
  5
14F
330
1F
100
AcDbEntity
  8
0
  6
Continuous
 62
     7
370
    25
100
AcDbLine
 10
5380.2960968675
 20
4621.7425451619
 30
0.0
 11
5380.2960968675
 21
4630.4548601218
 31
0.0
  0
LINE
  5
150
330
1F
100
AcDbEntity
  8
0
  6
Continuous
 62
     7
370
    25
100
AcDbLine
 10
5340.2960968675
 20
4630.4548601218
 30
0.0
 11
5340.2960968675
 21
4621.7425451619
 31
0.0
  0
CIRCLE
  5
151
330
1F
100
AcDbEntity
  8
0
  6
Continuous
 62
     7
370
    25
100
AcDbCircle
 10
5360.2960968675
 20
4437.8268035844
 30
0.0
 40
161.9898565048916
  0
CIRCLE
  5
152
330
1F
100
AcDbEntity
  8
0
  6
Continuous
 62
     7
370
    25
100
AcDbCircle
 10
5360.2960968675
 20
4437.8268035844
 30
0.0
 40
183.0
  0
CIRCLE
  5
153
330
1F
100
AcDbEntity
  8
0
  6
Continuous
 62
     7
370
    25
100
AcDbCircle
 10
5360.2960968675
 20
4437.8268035844
 30
0.0
 40
185.0
  0
CIRCLE
  5
154
330
1F
100
AcDbEntity
  8
0
  6
Continuous
 62
     7
370
    25
100
AcDbCircle
 10
5360.2960968675
 20
4437.8268035844
 30
0.0
 40
160.0
  0
ARC
  5
155
330
1F
100
AcDbEntity
  8
0
  6
Continuous
 62
     7
370
    25
100
AcDbCircle
 10
5360.3531893538
 20
4538.380022366
 30
0.0
 40
56.84407778899423
100
AcDbArc
 50
78.9508125212
 51
102.038051194
  0
LWPOLYLINE
  5
156
330
1F
100
AcDbEntity
  8
0
  6
Continuous
 62
     7
370
    25
100
AcDbPolyline
 90
       24
 70
   128
 43
0.0
 10
5378.2960937138
 20
4592.6205218512
 10
5378.1974909841
 20
4593.0808053475
 10
5377.7614199404
 20
4593.6824004648
 10
5376.9854062497
 20
4594.2633777719
 10
5375.8845541356
 20
4594.8124292066
 10
5374.4802904324
 20
4595.3188681071
 10
5372.7999475357
 20
4595.7728372163
 10
5370.8762314087
 20
4596.1655005419
 10
5368.7465849976
 20
4596.4892153389
 10
5366.4524594473
 20
4596.7376808671
 10
5364.0385073022
 20
4596.9060610274
 10
5361.5517133949
 20
4596.9910784917
 10
5359.0404803401
 20
4596.9910784917
 10
5356.5536864327
 20
4596.9060610274
 10
5354.1397342876
 20
4596.7376808671
 10
5351.8456087373
 20
4596.4892153389
 10
5349.7159623262
 20
4596.1655005419
 10
5347.7922461992
 20
4595.7728372163
 10
5346.1119033025
 20
4595.3188681071
 10
5344.7076395993
 20
4594.8124292066
 10
5343.6067874853
 20
4594.2633777719
 10
5342.8307737945
 20
4593.6824004648
 10
5342.3947027508
 20
4593.0808053475
 10
5342.296202806
 20
4592.6080912517
  0
LWPOLYLINE
  5
157
330
1F
100
AcDbEntity
  8
0
  6
Continuous
 62
     7
370
    25
100
AcDbPolyline
 90
       16
 70
   128
 43
0.0
 10
5372.2584621999
 20
4592.050354083
 10
5371.4713994144
 20
4592.5304685411
 10
5370.3614207804
 20
4592.9712187461
 10
5368.960599675
 20
4593.3598690047
 10
5367.3094135111
 20
4593.6851890771
 10
5365.4555741227
 20
4593.9377786802
 10
5363.4526491084
 20
4594.1103391135
 10
5361.3585139689
 20
4594.1978841587
 10
5359.2336797661
 20
4594.1978841587
 10
5357.1395446265
 20
4594.1103391135
 10
5355.1366196122
 20
4593.9377786802
 10
5353.2827802239
 20
4593.6851890771
 10
5351.6315940599
 20
4593.3598690047
 10
5350.2307729545
 20
4592.9712187461
 10
5349.1207943205
 20
4592.5304685411
 10
5348.333731535
 20
4592.050354083
  0
LWPOLYLINE
  5
158
330
1F
100
AcDbEntity
  8
0
  6
Continuous
 62
     7
370
    25
100
AcDbPolyline
 90
        9
 70
   128
 43
0.0
 10
5348.333731535
 20
4592.050354083
 10
5348.3122691478
 20
4592.0134716623
 10
5348.3377006307
 20
4591.9767388553
 10
5348.4076406171
 20
4591.9436010453
 10
5348.5155290297
 20
4591.91716642
 10
5348.6512463878
 20
4591.8999144364
 10
5348.8020629724
 20
4591.8934632581
 10
5348.9538328202
 20
4591.8984179787
 10
5349.0923205561
 20
4591.9143138661
  0
ARC
  5
159
330
1F
100
AcDbEntity
  8
0
  6
Continuous
 62
     7
370
    25
100
AcDbCircle
 10
5360.2960968675
 20
4518.3012248665
 30
0.0
 40
74.46080496272208
100
AcDbArc
 50
81.3461007019
 51
98.6538992981
  0
LWPOLYLINE
  5
15A
330
1F
100
AcDbEntity
  8
0
  6
Continuous
 62
     7
370
    25
100
AcDbPolyline
 90
        9
 70
   128
 43
0.0
 10
5371.4998731788
 20
4591.9143138661
 10
5371.6383609147
 20
4591.8984179787
 10
5371.7901307625
 20
4591.8934632581
 10
5371.9409473471
 20
4591.8999144364
 10
5372.0766647052
 20
4591.91716642
 10
5372.1845531178
 20
4591.9436010453
 10
5372.2544931043
 20
4591.9767388553
 10
5372.2799245871
 20
4592.0134716623
 10
5372.2584621999
 20
4592.050354083
  0
LWPOLYLINE
  5
15B
330
1F
100
AcDbEntity
  8
0
  6
Continuous
 62
     7
370
    25
100
AcDbPolyline
 90
        9
 70
   128
 43
0.0
 10
5349.0923205561
 20
4590.4220283147
 10
5348.9538328202
 20
4590.4379242021
 10
5348.8020629724
 20
4590.4428789227
 10
5348.6512463878
 20
4590.4364277444
 10
5348.5155290297
 20
4590.4191757608
 10
5348.4076406171
 20
4590.3927411355
 10
5348.3377006307
 20
4590.3596033255
 10
5348.3122691478
 20
4590.3228705185
 10
5348.333731535
 20
4590.2859880978
  0
LWPOLYLINE
  5
15C
330
1F
100
AcDbEntity
  8
0
  6
Continuous
 62
     7
370
    25
100
AcDbPolyline
 90
        8
 70
   128
 43
0.0
 10
5348.333731535
 20
4590.2859880978
 10
5349.1207943205
 20
4589.8058736397
 10
5350.2307729545
 20
4589.3651234347
 10
5351.6315940599
 20
4588.976473176
 10
5353.2827802239
 20
4588.6511531037
 10
5355.1366196122
 20
4588.3985635006
 10
5357.1395446265
 20
4588.2260030673
 10
5358.2577281539
 20
4588.1681564873
  0
LWPOLYLINE
  5
15D
330
1F
100
AcDbEntity
  8
0
  6
Continuous
 62
     7
370
    25
100
AcDbPolyline
 90
        8
 70
   128
 43
0.0
 10
5362.334465581
 20
4588.1681564873
 10
5363.4526491084
 20
4588.2260030673
 10
5365.4555741227
 20
4588.3985635006
 10
5367.3094135111
 20
4588.6511531037
 10
5368.960599675
 20
4588.976473176
 10
5370.3614207804
 20
4589.3651234347
 10
5371.4713994144
 20
4589.8058736397
 10
5372.2584621999
 20
4590.2859880978
  0
LWPOLYLINE
  5
15E
330
1F
100
AcDbEntity
  8
0
  6
Continuous
 62
     7
370
    25
100
AcDbPolyline
 90
        9
 70
   128
 43
0.0
 10
5372.2584621999
 20
4590.2859880978
 10
5372.2799245871
 20
4590.3228705185
 10
5372.2544931043
 20
4590.3596033255
 10
5372.1845531178
 20
4590.3927411355
 10
5372.0766647052
 20
4590.4191757608
 10
5371.9409473471
 20
4590.4364277444
 10
5371.7901307625
 20
4590.4428789227
 10
5371.6383609147
 20
4590.4379242021
 10
5371.4998731788
 20
4590.4220283147
  0
ARC
  5
15F
330
1F
100
AcDbEntity
  8
0
  6
Continuous
 62
     7
370
    25
100
AcDbCircle
 10
5361.4381225999
 20
4653.5680423719
 30
0.0
 40
63.94261424139723
100
AcDbArc
 50
273.641052751
 51
279.0534590715
  0
ARC
  5
160
330
1F
100
AcDbEntity
  8
0
  6
Continuous
 62
     7
370
    25
100
AcDbCircle
 10
5359.154071135
 20
4653.5680423713
 30
0.0
 40
63.94261424075286
100
AcDbArc
 50
260.9465409285
 51
266.3589472491
  0
LWPOLYLINE
  5
161
330
1F
100
AcDbEntity
  8
0
  6
Continuous
 62
     7
370
    25
100
AcDbPolyline
 90
       12
 70
   128
 43
0.0
 10
5365.5454749334
 20
4589.94512851
 10
5365.3489307448
 20
4590.2721765681
 10
5364.8139388916
 20
4590.5760017063
 10
5363.9763340654
 20
4590.8362531847
 10
5362.8922205047
 20
4591.0354989034
 10
5361.634214035
 20
4591.1603930351
 10
5360.2865781333
 20
4591.202569952
 10
5358.9395798131
 20
4591.1592045704
 10
5357.6834433816
 20
4591.0332015796
 10
5356.6023070573
 20
4590.8330008805
 10
5355.7685872451
 20
4590.5720122667
 10
5355.2381279587
 20
4590.2677172128
  0
ARC
  5
162
330
1F
100
AcDbEntity
  8
0
  6
Continuous
 62
     7
370
    25
100
AcDbCircle
 10
5360.6073516663
 20
4596.9936786496
 30
0.0
 40
8.606225680994429
100
AcDbArc
 50
231.4002121086
 51
305.0145898601
  0
LWPOLYLINE
  5
163
330
1F
100
AcDbEntity
  8
0
  6
Continuous
 62
     7
370
    25
100
AcDbPolyline
 90
        8
 70
   128
 43
0.0
 10
5360.9660289176
 20
4591.8711049206
 10
5359.5955098414
 20
4591.8701231819
 10
5358.2727346133
 20
4591.7828875434
 10
5357.0878481791
 20
4591.6153429698
 10
5356.121598591
 20
4591.3789073469
 10
5355.4398341619
 20
4591.0896933716
 10
5355.0890160108
 20
4590.7674104985
 10
5355.0460968675
 20
4590.6044446584
  0
LWPOLYLINE
  5
164
330
1F
100
AcDbEntity
  8
0
  6
Continuous
 62
     7
370
    25
100
AcDbPolyline
 90
        7
 70
   128
 43
0.0
 10
5365.5460968675
 20
4590.6044446584
 10
5365.49914192
 20
4590.7748675442
 10
5365.140527194
 20
4591.096642232
 10
5364.451772547
 20
4591.3848744686
 10
5363.47981547
 20
4591.6199217033
 10
5362.2908932316
 20
4591.7857658556
 10
5360.9660289176
 20
4591.8711049206
  0
LWPOLYLINE
  5
165
330
1F
100
AcDbEntity
  8
0
  6
Continuous
 62
     7
370
    25
100
AcDbPolyline
 90
        3
 70
   128
 43
0.0
 10
5355.0467188015
 20
4589.9058142808
 10
5355.2432629902
 20
4589.5787662227
 10
5355.3266523598
 20
4589.5135741791
  0
LINE
  5
166
330
1F
100
AcDbEntity
  8
0
  6
Continuous
 62
     7
370
    25
100
AcDbLine
 10
5365.2655413752
 20
4589.5135741791
 30
0.0
 11
5365.3540657763
 21
4589.583225578
 31
0.0
  0
ARC
  5
167
330
1F
100
AcDbEntity
  8
0
  6
Continuous
 62
     7
370
    25
100
AcDbCircle
 10
5365.0861025291
 20
4589.9565196471
 30
0.0
 40
0.4595136166790457
100
AcDbArc
 50
305.6720780895
 51
358.5795177335
  0
ARC
  5
168
330
1F
100
AcDbEntity
  8
0
  6
Continuous
 62
     7
370
    25
100
AcDbCircle
 10
5355.5060912059
 20
4589.8944231437
 30
0.0
 40
0.4595136166760105
100
AcDbArc
 50
125.6720780894
 51
178.5795177338
  0
LWPOLYLINE
  5
169
330
1F
100
AcDbEntity
  8
0
  6
Continuous
 62
     7
370
    25
100
AcDbPolyline
 90
        6
 70
   128
 43
0.0
 10
5360.6789151818
 20
4637.4005032231
 10
5359.6381561035
 20
4637.3887024455
 10
5358.6767543914
 20
4637.2910233464
 10
5357.9106692809
 20
4637.1192474668
 10
5357.4323019426
 20
4636.8940935127
 10
5357.2960968675
 20
4636.676697359
  0
LWPOLYLINE
  5
16A
330
1F
100
AcDbEntity
  8
0
  6
Continuous
 62
     7
370
    25
100
AcDbPolyline
 90
        6
 70
   128
 43
0.0
 10
5363.2960968675
 20
4636.676697359
 10
5363.2928431977
 20
4636.7106763438
 10
5363.0643427683
 20
4636.9579531154
 10
5362.5019510284
 20
4637.1713062918
 10
5361.6735007216
 20
4637.3250023313
 10
5360.6789151818
 20
4637.4005032231
  0
LINE
  5
16B
330
1F
100
AcDbEntity
  8
0
  6
Continuous
 62
     7
370
    25
100
AcDbLine
 10
5365.3540657763
 20
4589.583225578
 30
0.0
 11
5365.0157163848
 21
4589.5938148879
 31
0.0
  0
LINE
  5
16C
330
1F
100
AcDbEntity
  8
0
  6
Continuous
 62
     7
370
    25
100
AcDbLine
 10
5355.7678865073
 20
4589.8832439185
 30
0.0
 11
5355.0467188015
 21
4589.9058142808
 31
0.0
  0
ARC
  5
16D
330
1F
100
AcDbEntity
  8
0
  6
Continuous
 62
     7
370
    25
100
AcDbCircle
 10
5360.4159425091
 20
4596.6317757176
 30
0.0
 40
8.606225680994434
100
AcDbArc
 50
231.4002121086
 51
305.0145898601
  0
ARC
  5
16E
330
1F
100
AcDbEntity
  8
0
  6
Continuous
 62
     7
370
    25
100
AcDbCircle
 10
5360.2960968675
 20
4437.8268035844
 30
0.0
 40
5.250000000000419
100
AcDbArc
 50
4.6489969208
 51
168.2225755173
  0
LINE
  5
16F
330
1F
100
AcDbEntity
  8
0
  6
Continuous
 62
     7
370
    25
100
AcDbLine
 10
5365.5288240067
 20
4438.2523228985
 30
0.0
 11
5355.1566204569
 21
4438.8983828982
 31
0.0
  0
ARC
  5
170
330
1F
100
AcDbEntity
  8
0
  6
Continuous
 62
     7
370
    25
100
AcDbCircle
 10
5360.2960968675
 20
4437.8268035844
 30
0.0
 40
5.250000000000055
100
AcDbArc
 50
184.6489969208
 51
348.2225755173
  0
LINE
  5
171
330
1F
100
AcDbEntity
  8
0
  6
Continuous
 62
     7
370
    25
100
AcDbLine
 10
5355.0633697283
 20
4437.4012842703
 30
0.0
 11
5365.435573278
 21
4436.7552242707
 31
0.0
  0
ARC
  5
172
330
1F
100
AcDbEntity
  8
0
  6
Continuous
 62
     7
370
    25
100
AcDbCircle
 10
5360.2960968675
 20
4437.8268035844
 30
0.0
 40
5.250000000000129
100
AcDbArc
 50
348.2225755173
 51
4.6489969208
  0
ARC
  5
173
330
1F
100
AcDbEntity
  8
0
  6
Continuous
 62
     7
370
    25
100
AcDbCircle
 10
5360.2960968675
 20
4437.8268035844
 30
0.0
 40
5.250000000000419
100
AcDbArc
 50
168.2225755173
 51
184.6489969208
  0
LINE
  5
174
330
1F
100
AcDbEntity
  8
0
  6
Continuous
 62
     7
370
    25
100
AcDbLine
 10
5400.2960968675
 20
4665.4548601218
 30
0.0
 11
5320.2960968675
 21
4665.4548601218
 31
0.0
  0
LINE
  5
175
330
1F
100
AcDbEntity
  8
0
  6
Continuous
 62
     7
370
    25
100
AcDbLine
 10
5380.2960968675
 20
4630.4548601218
 30
0.0
 11
5363.2960968675
 21
4630.4548601218
 31
0.0
  0
LINE
  5
176
330
1F
100
AcDbEntity
  8
0
  6
Continuous
 62
     7
370
    25
100
AcDbLine
 10
5357.2960968675
 20
4630.4548601218
 30
0.0
 11
5340.2960970413
 21
4630.4548601218
 31
0.0
  0
LINE
  5
177
330
1F
100
AcDbEntity
  8
0
  6
Continuous
 62
     7
370
    25
100
AcDbLine
 10
5380.2960968675
 20
4675.4548601218
 30
0.0
 11
5340.2960968675
 21
4675.4548601218
 31
0.0
  0
ARC
  5
178
330
1F
100
AcDbEntity
  8
0
  6
Continuous
 62
     7
370
    25
100
AcDbCircle
 10
5360.2960968675
 20
4437.8268035844
 30
0.0
 40
15.00000000000043
100
AcDbArc
 50
180.0
 51
199.4629509463
  0
ARC
  5
179
330
1F
100
AcDbEntity
  8
0
  6
Continuous
 62
     7
370
    25
100
AcDbCircle
 10
5360.2960968675
 20
4437.8268035844
 30
0.0
 40
15.00000000000116
100
AcDbArc
 50
220.5370490537
 51
259.4629509463
  0
ARC
  5
17A
330
1F
100
AcDbEntity
  8
0
  6
Continuous
 62
     7
370
    25
100
AcDbCircle
 10
5360.2960968675
 20
4437.8268035844
 30
0.0
 40
15.00000000000099
100
AcDbArc
 50
280.5370490537
 51
319.4629509463
  0
ARC
  5
17B
330
1F
100
AcDbEntity
  8
0
  6
Continuous
 62
     7
370
    25
100
AcDbCircle
 10
5360.2960968675
 20
4437.8268035844
 30
0.0
 40
15.00000000000013
100
AcDbArc
 50
340.5370490537
 51
19.4629509463
  0
ARC
  5
17C
330
1F
100
AcDbEntity
  8
0
  6
Continuous
 62
     7
370
    25
100
AcDbCircle
 10
5360.2960968675
 20
4437.8268035844
 30
0.0
 40
14.99999999999988
100
AcDbArc
 50
40.5370490537
 51
79.4629509463
  0
ARC
  5
17D
330
1F
100
AcDbEntity
  8
0
  6
Continuous
 62
     7
370
    25
100
AcDbCircle
 10
5360.2960968675
 20
4437.8268035844
 30
0.0
 40
15.00000000000067
100
AcDbArc
 50
100.5370490537
 51
139.4629509463
  0
ARC
  5
17E
330
1F
100
AcDbEntity
  8
0
  6
Continuous
 62
     7
370
    25
100
AcDbCircle
 10
5360.2960968675
 20
4437.8268035844
 30
0.0
 40
15.00000000000038
100
AcDbArc
 50
160.5370490537
 51
180.0
  0
CIRCLE
  5
17F
330
1F
100
AcDbEntity
  8
0
  6
Continuous
 62
     7
370
    25
100
AcDbCircle
 10
5360.2960968675
 20
4437.8268035844
 30
0.0
 40
35.0
  0
CIRCLE
  5
180
330
1F
100
AcDbEntity
  8
0
  6
Continuous
 62
     7
370
    25
100
AcDbCircle
 10
5360.2960968675
 20
4437.8268035844
 30
0.0
 40
35.16921944985916
  0
CIRCLE
  5
181
330
1F
100
AcDbEntity
  8
0
  6
Continuous
 62
     7
370
    25
100
AcDbCircle
 10
5360.2960968675
 20
4437.8268035844
 30
0.0
 40
24.96512544439429
  0
CIRCLE
  5
182
330
1F
100
AcDbEntity
  8
0
  6
Continuous
 62
     7
370
    25
100
AcDbCircle
 10
5360.2960968675
 20
4437.8268035844
 30
0.0
 40
22.0
  0
CIRCLE
  5
183
330
1F
100
AcDbEntity
  8
0
  6
Continuous
 62
     7
370
    25
100
AcDbCircle
 10
5360.2960968675
 20
4437.8268035844
 30
0.0
 40
20.5
  0
CIRCLE
  5
184
330
1F
100
AcDbEntity
  8
0
  6
Continuous
 62
     7
370
    25
100
AcDbCircle
 10
5360.2960968675
 20
4437.8268035844
 30
0.0
 40
19.48700763430497
  0
CIRCLE
  5
185
330
1F
100
AcDbEntity
  8
0
  6
Continuous
 62
     7
370
    25
100
AcDbCircle
 10
5360.2960968675
 20
4437.8268035844
 30
0.0
 40
5.699999999999818
  0
CIRCLE
  5
186
330
1F
100
AcDbEntity
  8
0
  6
Continuous
 62
     7
370
    25
100
AcDbCircle
 10
5374.2960968675
 20
4437.8268035844
 30
0.0
 40
5.0
  0
CIRCLE
  5
187
330
1F
100
AcDbEntity
  8
0
  6
Continuous
 62
     7
370
    25
100
AcDbCircle
 10
5367.2960968675
 20
4425.7024479315
 30
0.0
 40
5.0
  0
CIRCLE
  5
188
330
1F
100
AcDbEntity
  8
0
  6
Continuous
 62
     7
370
    25
100
AcDbCircle
 10
5353.2960968675
 20
4425.7024479315
 30
0.0
 40
5.0
  0
CIRCLE
  5
189
330
1F
100
AcDbEntity
  8
0
  6
Continuous
 62
     7
370
    25
100
AcDbCircle
 10
5346.2960968675
 20
4437.8268035844
 30
0.0
 40
5.0
  0
CIRCLE
  5
18A
330
1F
100
AcDbEntity
  8
0
  6
Continuous
 62
     7
370
    25
100
AcDbCircle
 10
5353.2960968675
 20
4449.9511592374
 30
0.0
 40
5.0
  0
CIRCLE
  5
18B
330
1F
100
AcDbEntity
  8
0
  6
Continuous
 62
     7
370
    25
100
AcDbCircle
 10
5367.2960968675
 20
4449.9511592374
 30
0.0
 40
5.0
  0
LWPOLYLINE
  5
18C
330
1F
100
AcDbEntity
  8
0
  6
Continuous
 62
     8
370
    25
100
AcDbPolyline
 90
       18
 70
   128
 43
0.0
 10
5360.2960968675
 20
4587.1544261724
 10
5362.6985161351
 20
4587.1971991747
 10
5365.049732007
 20
4587.3246065491
 10
5367.2996323989
 20
4587.5339328287
 10
5369.4002645902
 20
4587.8207165873
 10
5371.3068572526
 20
4588.1788455269
 10
5372.9787746738
 20
4588.600686751
 10
5374.3803828366
 20
4589.0772494462
 10
5375.4818088964
 20
4589.5983765061
 10
5376.2595778689
 20
4590.1529610122
 10
5376.6971129589
 20
4590.7291829586
 10
5376.7850888656
 20
4591.3147611748
 10
5376.5216305352
 20
4591.8972150779
 10
5375.9123531246
 20
4592.4641306742
 10
5374.970242324
 20
4593.0034251418
 10
5373.7153775896
 20
4593.5036043557
 10
5372.1745041845
 20
4593.9540078642
 10
5371.2474498395
 20
4594.170382359
  0
LWPOLYLINE
  5
18D
330
1F
100
AcDbEntity
  8
0
  6
Continuous
 62
     8
370
    25
100
AcDbPolyline
 90
       18
 70
   128
 43
0.0
 10
5348.4977173808
 20
4593.9740594921
 10
5348.4176895505
 20
4593.9540078642
 10
5346.8768161453
 20
4593.5036043557
 10
5345.6219514109
 20
4593.0034251418
 10
5344.6798406104
 20
4592.4641306742
 10
5344.0705631998
 20
4591.8972150779
 10
5343.8071048694
 20
4591.3147611748
 10
5343.895080776
 20
4590.7291829586
 10
5344.332615866
 20
4590.1529610122
 10
5345.1103848386
 20
4589.5983765061
 10
5346.2118108983
 20
4589.0772494462
 10
5347.6134190611
 20
4588.600686751
 10
5349.2853364823
 20
4588.1788455269
 10
5351.1919291448
 20
4587.8207165873
 10
5353.292561336
 20
4587.5339328287
 10
5355.5424617279
 20
4587.3246065491
 10
5357.8936775998
 20
4587.1971991747
 10
5360.2960968675
 20
4587.1544261724
  0
LWPOLYLINE
  5
18E
330
1F
100
AcDbEntity
  8
0
  6
Continuous
 62
     8
370
    25
100
AcDbPolyline
 90
        3
 70
   128
 43
0.0
 10
5359.722555406
 20
4592.1820257588
 10
5360.9231335962
 20
4592.1801497548
 10
5361.1773048779
 20
4592.1688789793
  0
LINE
  5
18F
330
1F
100
AcDbEntity
  8
0
  6
Continuous
 62
     8
370
    25
100
AcDbLine
 10
5349.0923205561
 20
4592.5165581362
 30
0.0
 11
5349.0923205561
 21
4591.9143138661
 31
0.0
  0
LINE
  5
190
330
1F
100
AcDbEntity
  8
0
  6
Continuous
 62
     8
370
    25
100
AcDbLine
 10
5371.4998731788
 20
4592.5165581362
 30
0.0
 11
5371.4998731788
 21
4591.9143138661
 31
0.0
  0
LINE
  5
191
330
1F
100
AcDbEntity
  8
0
  6
Continuous
 62
     8
370
    25
100
AcDbLine
 10
5348.333731535
 20
4590.3565627372
 30
0.0
 11
5348.333731535
 21
4590.2859880978
 31
0.0
  0
LINE
  5
192
330
1F
100
AcDbEntity
  8
0
  6
Continuous
 62
     8
370
    25
100
AcDbLine
 10
5372.2584621999
 20
4590.3565627372
 30
0.0
 11
5372.2584621999
 21
4590.2859880978
 31
0.0
  0
LINE
  5
193
330
1F
100
AcDbEntity
  8
0
  6
Continuous
 62
     8
370
    25
100
AcDbLine
 10
5400.2960968675
 20
4650.4548601218
 30
0.0
 11
5320.2960968675
 21
4650.4548601218
 31
0.0
  0
ENDSEC
  0
SECTION
  2
OBJECTS
  0
DICTIONARY
  5
C
330
0
100
AcDbDictionary
281
     1
  3
ACAD_GROUP
350
D
  3
ACAD_LAYOUT
350
1A
  3
ACAD_MLINESTYLE
350
17
  3
ACAD_PLOTSETTINGS
350
19
  3
ACAD_PLOTSTYLENAME
350
E
  3
ACAD_SCALELIST
350
47
  0
DICTIONARY
  5
D
102
{ACAD_REACTORS
330
C
102
}
330
C
100
AcDbDictionary
281
     1
  0
DICTIONARY
  5
1A
102
{ACAD_REACTORS
330
C
102
}
330
C
100
AcDbDictionary
281
     1
  3
Layout1
350
1E
  3
Layout2
350
26
  3
Model
350
22
  0
DICTIONARY
  5
17
102
{ACAD_REACTORS
330
C
102
}
330
C
100
AcDbDictionary
281
     1
  3
Standard
350
18
  0
DICTIONARY
  5
19
102
{ACAD_REACTORS
330
C
102
}
330
C
100
AcDbDictionary
281
     1
  0
ACDBDICTIONARYWDFLT
  5
E
102
{ACAD_REACTORS
330
C
102
}
330
C
100
AcDbDictionary
281
     1
  3
Normal
350
F
100
AcDbDictionaryWithDefault
340
F
  0
DICTIONARY
  5
47
102
{ACAD_REACTORS
330
C
102
}
330
C
100
AcDbDictionary
281
     1
  3
A0
350
48
  3
A1
350
49
  3
A2
350
4A
  3
A3
350
4B
  3
A4
350
4C
  3
A5
350
4D
  3
A6
350
4E
  3
A7
350
4F
  3
A8
350
50
  3
A9
350
51
  3
B0
350
52
  3
B1
350
53
  3
B2
350
54
  3
B3
350
55
  3
B4
350
56
  3
B5
350
57
  3
B6
350
58
  3
B7
350
59
  3
B8
350
5A
  3
B9
350
5B
  3
C0
350
5C
  3
C1
350
5D
  3
C2
350
5E
  3
C3
350
5F
  3
C4
350
60
  3
C5
350
61
  3
C6
350
62
  3
C7
350
63
  3
C8
350
64
  3
C9
350
65
  3
D0
350
66
  3
D1
350
67
  3
D2
350
68
  0
LAYOUT
  5
1E
102
{ACAD_REACTORS
330
1A
102
}
330
1A
100
AcDbPlotSettings
  1

  2
none_device
  4

  6

 40
0.0
 41
0.0
 42
0.0
 43
0.0
 44
0.0
 45
0.0
 46
0.0
 47
0.0
 48
0.0
 49
0.0
140
0.0
141
0.0
142
1.0
143
1.0
 70
   688
 72
     1
 73
     0
 74
     5
  7

 75
    16
147
1.0
148
0.0
149
0.0
100
AcDbLayout
  1
Layout1
 70
     1
 71
     1
 10
0.0
 20
0.0
 11
420.0
 21
297.0
 12
0.0
 22
0.0
 32
0.0
 14
1.0000000000E+20
 24
1.0000000000E+20
 34
1.0000000000E+20
 15
-1.0000000000E+20
 25
-1.0000000000E+20
 35
-1.0000000000E+20
146
0.0
 13
0.0
 23
0.0
 33
0.0
 16
1.0
 26
0.0
 36
0.0
 17
0.0
 27
1.0
 37
0.0
 76
     0
330
1B
  0
LAYOUT
  5
26
102
{ACAD_REACTORS
330
1A
102
}
330
1A
100
AcDbPlotSettings
  1

  2
none_device
  4

  6

 40
0.0
 41
0.0
 42
0.0
 43
0.0
 44
0.0
 45
0.0
 46
0.0
 47
0.0
 48
0.0
 49
0.0
140
0.0
141
0.0
142
1.0
143
1.0
 70
   688
 72
     1
 73
     0
 74
     5
  7

 75
    16
147
1.0
148
0.0
149
0.0
100
AcDbLayout
  1
Layout2
 70
     1
 71
     2
 10
0.0
 20
0.0
 11
0.0
 21
0.0
 12
0.0
 22
0.0
 32
0.0
 14
0.0
 24
0.0
 34
0.0
 15
0.0
 25
0.0
 35
0.0
146
0.0
 13
0.0
 23
0.0
 33
0.0
 16
1.0
 26
0.0
 36
0.0
 17
0.0
 27
1.0
 37
0.0
 76
     0
330
23
  0
LAYOUT
  5
22
102
{ACAD_REACTORS
330
1A
102
}
330
1A
100
AcDbPlotSettings
  1

  2
none_device
  4
Letter_(8.50_x_11.00_Inches)
  6

 40
6.35
 41
6.35
 42
6.35000508
 43
6.35000508
 44
215.9
 45
279.4
 46
0.0
 47
0.0
 48
0.0
 49
0.0
140
0.0
141
0.0
142
1.0
143
1.0
 70
  1712
 72
     1
 73
     0
 74
     0
  7

 75
     0
147
1.0
148
0.0
149
0.0
100
AcDbLayout
  1
Model
 70
     1
 71
     0
 10
0.0
 20
0.0
 11
20000.0
 21
10000.0
 12
0.0
 22
0.0
 32
0.0
 14
0.0
 24
0.0
 34
0.0
 15
20000.0
 25
10000.0
 35
0.0
146
0.0
 13
0.0
 23
0.0
 33
0.0
 16
1.0
 26
0.0
 36
0.0
 17
0.0
 27
1.0
 37
0.0
 76
     0
330
1F
331
29
  0
MLINESTYLE
  5
18
102
{ACAD_REACTORS
330
17
102
}
330
17
100
AcDbMlineStyle
  2
Standard
 70
     0
  3

 62
   256
 51
90.0
 52
90.0
 71
     2
 49
0.5
 62
   256
  6
BYLAYER
 49
-0.5
 62
   256
  6
BYLAYER
  0
ACDBPLACEHOLDER
  5
F
102
{ACAD_REACTORS
330
E
102
}
330
E
  0
SCALE
  5
48
102
{ACAD_REACTORS
330
47
102
}
330
47
100
AcDbScale
 70
     0
300
1:1
140
1.0
141
1.0
290
     1
  0
SCALE
  5
49
102
{ACAD_REACTORS
330
47
102
}
330
47
100
AcDbScale
 70
     0
300
1:2
140
1.0
141
2.0
290
     0
  0
SCALE
  5
4A
102
{ACAD_REACTORS
330
47
102
}
330
47
100
AcDbScale
 70
     0
300
1:4
140
1.0
141
4.0
290
     0
  0
SCALE
  5
4B
102
{ACAD_REACTORS
330
47
102
}
330
47
100
AcDbScale
 70
     0
300
1:5
140
1.0
141
5.0
290
     0
  0
SCALE
  5
4C
102
{ACAD_REACTORS
330
47
102
}
330
47
100
AcDbScale
 70
     0
300
1:8
140
1.0
141
8.0
290
     0
  0
SCALE
  5
4D
102
{ACAD_REACTORS
330
47
102
}
330
47
100
AcDbScale
 70
     0
300
1:10
140
1.0
141
10.0
290
     0
  0
SCALE
  5
4E
102
{ACAD_REACTORS
330
47
102
}
330
47
100
AcDbScale
 70
     0
300
1:16
140
1.0
141
16.0
290
     0
  0
SCALE
  5
4F
102
{ACAD_REACTORS
330
47
102
}
330
47
100
AcDbScale
 70
     0
300
1:20
140
1.0
141
20.0
290
     0
  0
SCALE
  5
50
102
{ACAD_REACTORS
330
47
102
}
330
47
100
AcDbScale
 70
     0
300
1:30
140
1.0
141
30.0
290
     0
  0
SCALE
  5
51
102
{ACAD_REACTORS
330
47
102
}
330
47
100
AcDbScale
 70
     0
300
1:40
140
1.0
141
40.0
290
     0
  0
SCALE
  5
52
102
{ACAD_REACTORS
330
47
102
}
330
47
100
AcDbScale
 70
     0
300
1:50
140
1.0
141
50.0
290
     0
  0
SCALE
  5
53
102
{ACAD_REACTORS
330
47
102
}
330
47
100
AcDbScale
 70
     0
300
1:100
140
1.0
141
100.0
290
     0
  0
SCALE
  5
54
102
{ACAD_REACTORS
330
47
102
}
330
47
100
AcDbScale
 70
     0
300
2:1
140
2.0
141
1.0
290
     0
  0
SCALE
  5
55
102
{ACAD_REACTORS
330
47
102
}
330
47
100
AcDbScale
 70
     0
300
4:1
140
4.0
141
1.0
290
     0
  0
SCALE
  5
56
102
{ACAD_REACTORS
330
47
102
}
330
47
100
AcDbScale
 70
     0
300
8:1
140
8.0
141
1.0
290
     0
  0
SCALE
  5
57
102
{ACAD_REACTORS
330
47
102
}
330
47
100
AcDbScale
 70
     0
300
10:1
140
10.0
141
1.0
290
     0
  0
SCALE
  5
58
102
{ACAD_REACTORS
330
47
102
}
330
47
100
AcDbScale
 70
     0
300
100:1
140
100.0
141
1.0
290
     0
  0
SCALE
  5
59
102
{ACAD_REACTORS
330
47
102
}
330
47
100
AcDbScale
 70
     0
300
1/128" = 1'-0"
140
0.0078125
141
12.0
290
     0
  0
SCALE
  5
5A
102
{ACAD_REACTORS
330
47
102
}
330
47
100
AcDbScale
 70
     0
300
1/64" = 1'-0"
140
0.015625
141
12.0
290
     0
  0
SCALE
  5
5B
102
{ACAD_REACTORS
330
47
102
}
330
47
100
AcDbScale
 70
     0
300
1/32" = 1'-0"
140
0.03125
141
12.0
290
     0
  0
SCALE
  5
5C
102
{ACAD_REACTORS
330
47
102
}
330
47
100
AcDbScale
 70
     0
300
1/16" = 1'-0"
140
0.0625
141
12.0
290
     0
  0
SCALE
  5
5D
102
{ACAD_REACTORS
330
47
102
}
330
47
100
AcDbScale
 70
     0
300
3/32" = 1'-0"
140
0.09375
141
12.0
290
     0
  0
SCALE
  5
5E
102
{ACAD_REACTORS
330
47
102
}
330
47
100
AcDbScale
 70
     0
300
1/8" = 1'-0"
140
0.125
141
12.0
290
     0
  0
SCALE
  5
5F
102
{ACAD_REACTORS
330
47
102
}
330
47
100
AcDbScale
 70
     0
300
3/16" = 1'-0"
140
0.1875
141
12.0
290
     0
  0
SCALE
  5
60
102
{ACAD_REACTORS
330
47
102
}
330
47
100
AcDbScale
 70
     0
300
1/4" = 1'-0"
140
0.25
141
12.0
290
     0
  0
SCALE
  5
61
102
{ACAD_REACTORS
330
47
102
}
330
47
100
AcDbScale
 70
     0
300
3/8" = 1'-0"
140
0.375
141
12.0
290
     0
  0
SCALE
  5
62
102
{ACAD_REACTORS
330
47
102
}
330
47
100
AcDbScale
 70
     0
300
1/2" = 1'-0"
140
0.5
141
12.0
290
     0
  0
SCALE
  5
63
102
{ACAD_REACTORS
330
47
102
}
330
47
100
AcDbScale
 70
     0
300
3/4" = 1'-0"
140
0.75
141
12.0
290
     0
  0
SCALE
  5
64
102
{ACAD_REACTORS
330
47
102
}
330
47
100
AcDbScale
 70
     0
300
1" = 1'-0"
140
1.0
141
12.0
290
     0
  0
SCALE
  5
65
102
{ACAD_REACTORS
330
47
102
}
330
47
100
AcDbScale
 70
     0
300
1-1/2" = 1'-0"
140
1.5
141
12.0
290
     0
  0
SCALE
  5
66
102
{ACAD_REACTORS
330
47
102
}
330
47
100
AcDbScale
 70
     0
300
3" = 1'-0"
140
3.0
141
12.0
290
     0
  0
SCALE
  5
67
102
{ACAD_REACTORS
330
47
102
}
330
47
100
AcDbScale
 70
     0
300
6" = 1'-0"
140
6.0
141
12.0
290
     0
  0
SCALE
  5
68
102
{ACAD_REACTORS
330
47
102
}
330
47
100
AcDbScale
 70
     0
300
1'-0" = 1'-0"
140
12.0
141
12.0
290
     0
  0
ENDSEC
  0
EOF
