  0
SECTION
  2
HEADER
  9
$ACADVER
  1
AC1015
  9
$ACADMAINTVER
 70
     6
  9
$DWGCODEPAGE
  3
ANSI_1250
  9
$INSBASE
 10
0.0
 20
0.0
 30
0.0
  9
$EXTMIN
 10
0.0
 20
0.0
 30
0.0
  9
$EXTMAX
 10
20000.0
 20
10000.0
 30
0.0
  9
$LIMMIN
 10
0.0
 20
0.0
  9
$LIMMAX
 10
20000.0
 20
10000.0
  9
$ORTHOMODE
 70
     0
  9
$REGENMODE
 70
     1
  9
$FILLMODE
 70
     1
  9
$QTEXTMODE
 70
     0
  9
$MIRRTEXT
 70
     1
  9
$LTSCALE
 40
1.0
  9
$ATTMODE
 70
     1
  9
$TEXTSIZE
 40
2.0
  9
$TRACEWID
 40
1.0
  9
$TEXTSTYLE
  7
Standard
  9
$CLAYER
  8
0
  9
$CELTYPE
  6
ByLayer
  9
$CECOLOR
 62
   256
  9
$CELTSCALE
 40
1.0
  9
$DISPSILH
 70
     0
  9
$DIMSCALE
 40
1.0
  9
$DIMASZ
 40
2.0
  9
$DIMEXO
 40
1.0
  9
$DIMDLI
 40
3.75
  9
$DIMRND
 40
0.0
  9
$DIMDLE
 40
0.0
  9
$DIMEXE
 40
1.0
  9
$DIMTP
 40
0.0
  9
$DIMTM
 40
0.0
  9
$DIMTXT
 40
2.0
  9
$DIMCEN
 40
2.5
  9
$DIMTSZ
 40
0.0
  9
$DIMTOL
 70
     0
  9
$DIMLIM
 70
     0
  9
$DIMTIH
 70
     1
  9
$DIMTOH
 70
     1
  9
$DIMSE1
 70
     0
  9
$DIMSE2
 70
     0
  9
$DIMTAD
 70
     1
  9
$DIMZIN
 70
     0
  9
$DIMBLK
  1

  9
$DIMASO
 70
     1
  9
$DIMSHO
 70
     1
  9
$DIMPOST
  1

  9
$DIMAPOST
  1

  9
$DIMALT
 70
     0
  9
$DIMALTD
 70
     3
  9
$DIMALTF
 40
0.0393700787
  9
$DIMLFAC
 40
1.0
  9
$DIMTOFL
 70
     1
  9
$DIMTVP
 40
0.0
  9
$DIMTIX
 70
     0
  9
$DIMSOXD
 70
     0
  9
$DIMSAH
 70
     0
  9
$DIMBLK1
  1

  9
$DIMBLK2
  1

  9
$DIMSTYLE
  2
ISO-25
  9
$DIMCLRD
 70
     0
  9
$DIMCLRE
 70
     0
  9
$DIMCLRT
 70
     0
  9
$DIMTFAC
 40
1.0
  9
$DIMGAP
 40
1.524
  9
$DIMJUST
 70
     0
  9
$DIMSD1
 70
     0
  9
$DIMSD2
 70
     0
  9
$DIMTOLJ
 70
     0
  9
$DIMTZIN
 70
     0
  9
$DIMALTZ
 70
     0
  9
$DIMALTTZ
 70
     0
  9
$DIMUPT
 70
     0
  9
$DIMDEC
 70
     2
  9
$DIMTDEC
 70
     0
  9
$DIMALTU
 70
     2
  9
$DIMALTTD
 70
     3
  9
$DIMTXSTY
  7
Standard
  9
$DIMAUNIT
 70
     0
  9
$DIMADEC
 70
     2
  9
$DIMALTRND
 40
0.0
  9
$DIMAZIN
 70
     0
  9
$DIMDSEP
 70
    44
  9
$DIMATFIT
 70
     3
  9
$DIMFRAC
 70
     0
  9
$DIMLDRBLK
  1

  9
$DIMLUNIT
 70
     2
  9
$DIMLWD
 70
    -2
  9
$DIMLWE
 70
    -2
  9
$DIMTMOVE
 70
     0
  9
$LUNITS
 70
     2
  9
$LUPREC
 70
     3
  9
$SKETCHINC
 40
1.0
  9
$FILLETRAD
 40
10.0
  9
$AUNITS
 70
     0
  9
$AUPREC
 70
     2
  9
$MENU
  1
.
  9
$ELEVATION
 40
0.0
  9
$PELEVATION
 40
0.0
  9
$THICKNESS
 40
0.0
  9
$LIMCHECK
 70
     0
  9
$CHAMFERA
 40
0.0
  9
$CHAMFERB
 40
0.0
  9
$CHAMFERC
 40
0.0
  9
$CHAMFERD
 40
0.0
  9
$SKPOLY
 70
     0
  9
$TDCREATE
 40
2458694.490175694
  9
$TDUCREATE
 40
2458694.406842361
  9
$TDUPDATE
 40
2458694.490176158
  9
$TDUUPDATE
 40
2458694.406842824
  9
$TDINDWG
 40
0.0000000116
  9
$TDUSRTIMER
 40
0.0000000116
  9
$USRTIMER
 70
     1
  9
$ANGBASE
 50
0.0
  9
$ANGDIR
 70
     0
  9
$PDMODE
 70
     0
  9
$PDSIZE
 40
-1.0
  9
$PLINEWID
 40
0.0
  9
$SPLFRAME
 70
     0
  9
$SPLINETYPE
 70
     6
  9
$SPLINESEGS
 70
     8
  9
$HANDSEED
  5
38E
  9
$SURFTAB1
 70
     6
  9
$SURFTAB2
 70
     6
  9
$SURFTYPE
 70
     6
  9
$SURFU
 70
     6
  9
$SURFV
 70
     6
  9
$UCSBASE
  2

  9
$UCSNAME
  2

  9
$UCSORG
 10
0.0
 20
0.0
 30
0.0
  9
$UCSXDIR
 10
1.0
 20
0.0
 30
0.0
  9
$UCSYDIR
 10
0.0
 20
1.0
 30
0.0
  9
$UCSORTHOREF
  2

  9
$UCSORTHOVIEW
 70
     0
  9
$UCSORGTOP
 10
0.0
 20
0.0
 30
0.0
  9
$UCSORGBOTTOM
 10
0.0
 20
0.0
 30
0.0
  9
$UCSORGLEFT
 10
0.0
 20
0.0
 30
0.0
  9
$UCSORGRIGHT
 10
0.0
 20
0.0
 30
0.0
  9
$UCSORGFRONT
 10
0.0
 20
0.0
 30
0.0
  9
$UCSORGBACK
 10
0.0
 20
0.0
 30
0.0
  9
$PUCSBASE
  2

  9
$PUCSNAME
  2

  9
$PUCSORG
 10
0.0
 20
0.0
 30
0.0
  9
$PUCSXDIR
 10
1.0
 20
0.0
 30
0.0
  9
$PUCSYDIR
 10
0.0
 20
1.0
 30
0.0
  9
$PUCSORTHOREF
  2

  9
$PUCSORTHOVIEW
 70
     0
  9
$PUCSORGTOP
 10
0.0
 20
0.0
 30
0.0
  9
$PUCSORGBOTTOM
 10
0.0
 20
0.0
 30
0.0
  9
$PUCSORGLEFT
 10
0.0
 20
0.0
 30
0.0
  9
$PUCSORGRIGHT
 10
0.0
 20
0.0
 30
0.0
  9
$PUCSORGFRONT
 10
0.0
 20
0.0
 30
0.0
  9
$PUCSORGBACK
 10
0.0
 20
0.0
 30
0.0
  9
$USERI1
 70
     0
  9
$USERI2
 70
     0
  9
$USERI3
 70
     0
  9
$USERI4
 70
     0
  9
$USERI5
 70
     0
  9
$USERR1
 40
0.0
  9
$USERR2
 40
0.0
  9
$USERR3
 40
0.0
  9
$USERR4
 40
0.0
  9
$USERR5
 40
0.0
  9
$WORLDVIEW
 70
     1
  9
$SHADEDGE
 70
     3
  9
$SHADEDIF
 70
    70
  9
$TILEMODE
 70
     1
  9
$MAXACTVP
 70
    64
  9
$PINSBASE
 10
0.0
 20
0.0
 30
0.0
  9
$PLIMCHECK
 70
     0
  9
$PEXTMIN
 10
1.0000000000E+20
 20
1.0000000000E+20
 30
1.0000000000E+20
  9
$PEXTMAX
 10
-1.0000000000E+20
 20
-1.0000000000E+20
 30
-1.0000000000E+20
  9
$PLIMMIN
 10
0.0
 20
0.0
  9
$PLIMMAX
 10
420.0
 20
297.0
  9
$UNITMODE
 70
     0
  9
$VISRETAIN
 70
     1
  9
$PLINEGEN
 70
     0
  9
$PSLTSCALE
 70
     1
  9
$TREEDEPTH
 70
  3020
  9
$CMLSTYLE
  2
Standard
  9
$CMLJUST
 70
     0
  9
$CMLSCALE
 40
20.0
  9
$PROXYGRAPHICS
 70
     1
  9
$MEASUREMENT
 70
     1
  9
$CELWEIGHT
370
    -1
  9
$ENDCAPS
280
     0
  9
$JOINSTYLE
280
     0
  9
$LWDISPLAY
290
     1
  9
$INSUNITS
 70
     4
  9
$HYPERLINKBASE
  1

  9
$STYLESHEET
  1

  9
$XEDIT
290
     1
  9
$CEPSNTYPE
380
     0
  9
$PSTYLEMODE
290
     1
  9
$FINGERPRINTGUID
  2
{EB6D5CDD-0D5C-492A-A0A0-0A20FDC88984}
  9
$VERSIONGUID
  2
{FAEB1C32-E019-11D5-929B-00C0DF256EC4}
  9
$EXTNAMES
290
     1
  9
$PSVPSCALE
 40
0.0
  9
$OLESTARTUP
290
     0
  0
ENDSEC
  0
SECTION
  2
CLASSES
  0
CLASS
  1
ACDBDICTIONARYWDFLT
  2
AcDbDictionaryWithDefault
  3
ObjectDBX Classes
 90
        0
280
     0
281
     0
  0
CLASS
  1
VISUALSTYLE
  2
AcDbVisualStyle
  3
ObjectDBX Classes
 90
     4095
280
     0
281
     0
  0
CLASS
  1
MATERIAL
  2
AcDbMaterial
  3
ObjectDBX Classes
 90
     1153
280
     0
281
     0
  0
CLASS
  1
SCALE
  2
AcDbScale
  3
ObjectDBX Classes
 90
     1153
280
     0
281
     0
  0
CLASS
  1
TABLESTYLE
  2
AcDbTableStyle
  3
ObjectDBX Classes
 90
     4095
280
     0
281
     0
  0
CLASS
  1
MLEADERSTYLE
  2
AcDbMLeaderStyle
  3
ACDB_MLEADERSTYLE_CLASS
 90
     4095
280
     0
281
     0
  0
CLASS
  1
SUN
  2
AcDbSun
  3
SCENEOE
 90
     1153
280
     0
281
     0
  0
CLASS
  1
ACDBPLACEHOLDER
  2
AcDbPlaceHolder
  3
ObjectDBX Classes
 90
        0
280
     0
281
     0
  0
CLASS
  1
LAYOUT
  2
AcDbLayout
  3
ObjectDBX Classes
 90
        0
280
     0
281
     0
  0
ENDSEC
  0
SECTION
  2
TABLES
  0
TABLE
  2
VPORT
  5
8
330
0
100
AcDbSymbolTable
 70
     1
  0
VPORT
  5
29
330
8
100
AcDbSymbolTableRecord
100
AcDbViewportTableRecord
  2
*Active
 70
     0
 10
0.0
 20
0.0
 11
1.0
 21
1.0
 12
10000.0
 22
5000.0
 13
0.0
 23
0.0
 14
10.0
 24
10.0
 15
10.0
 25
10.0
 16
0.0
 26
0.0
 36
1.0
 17
0.0
 27
0.0
 37
0.0
 40
10000.0
 41
2.0
 42
50.0
 43
0.0
 44
0.0
 50
0.0
 51
0.0
 71
     0
 72
  2000
 73
     1
 74
     3
 75
     0
 76
     0
 77
     0
 78
     0
281
     0
 65
     1
110
0.0
120
0.0
130
0.0
111
1.0
121
0.0
131
0.0
112
0.0
122
1.0
132
0.0
 79
     0
146
0.0
  0
ENDTAB
  0
TABLE
  2
LTYPE
  5
5
330
0
100
AcDbSymbolTable
 70
     6
  0
LTYPE
  5
14
330
5
100
AcDbSymbolTableRecord
100
AcDbLinetypeTableRecord
  2
ByBlock
 70
     0
  3

 72
    65
 73
     0
 40
0.0
  0
LTYPE
  5
15
330
5
100
AcDbSymbolTableRecord
100
AcDbLinetypeTableRecord
  2
ByLayer
 70
     0
  3

 72
    65
 73
     0
 40
0.0
  0
LTYPE
  5
16
330
5
100
AcDbSymbolTableRecord
100
AcDbLinetypeTableRecord
  2
Continuous
 70
     0
  3
Solid line
 72
    65
 73
     0
 40
0.0
  0
LTYPE
  5
6E
330
5
100
AcDbSymbolTableRecord
100
AcDbLinetypeTableRecord
  2
HIDDEN
 70
     0
  3
Hidden __ __ __ __ __ __ __ __ __ __ __ __ __ __
 72
    65
 73
     2
 40
1.905
 49
1.27
 74
     0
 49
-0.635
 74
     0
  0
LTYPE
  5
6F
330
5
100
AcDbSymbolTableRecord
100
AcDbLinetypeTableRecord
  2
PHANTOM
 70
     0
  3
Phantom ______  __  __  ______  __  __  ______
 72
    65
 73
     6
 40
12.7
 49
6.35
 74
     0
 49
-1.27
 74
     0
 49
1.27
 74
     0
 49
-1.27
 74
     0
 49
1.27
 74
     0
 49
-1.27
 74
     0
  0
LTYPE
  5
70
330
5
100
AcDbSymbolTableRecord
100
AcDbLinetypeTableRecord
  2
CENTER
 70
     0
  3
Center ____ _ ____ _ ____ _ ____ _ ____ _ ____
 72
    65
 73
     4
 40
10.16
 49
6.35
 74
     0
 49
-1.27
 74
     0
 49
1.27
 74
     0
 49
-1.27
 74
     0
  0
LTYPE
  5
71
330
5
100
AcDbSymbolTableRecord
100
AcDbLinetypeTableRecord
  2
CENTERX2
 70
     0
  3
Center (2x) ________  __  ________  __  _____
 72
    65
 73
     4
 40
20.32
 49
12.7
 74
     0
 49
-2.54
 74
     0
 49
2.54
 74
     0
 49
-2.54
 74
     0
  0
LTYPE
  5
72
330
5
100
AcDbSymbolTableRecord
100
AcDbLinetypeTableRecord
  2
DOT2
 70
     0
  3
Dot (.5x) ........................................
 72
    65
 73
     2
 40
0.635
 49
0.0
 74
     0
 49
-0.635
 74
     0
  0
ENDTAB
  0
TABLE
  2
LAYER
  5
2
330
0
100
AcDbSymbolTable
 70
    13
  0
LAYER
  5
10
330
2
100
AcDbSymbolTableRecord
100
AcDbLayerTableRecord
  2
0
 70
     0
 62
     7
  6
Continuous
370
    -3
390
F
  0
LAYER
  5
73
330
2
100
AcDbSymbolTableRecord
100
AcDbLayerTableRecord
  2
FORMAT
 70
     0
 62
     7
  6
Continuous
370
    -3
390
F
  0
LAYER
  5
74
330
2
100
AcDbSymbolTableRecord
100
AcDbLayerTableRecord
  2
OSA
 70
     0
 62
     7
  6
CENTER
370
    -3
390
F
  0
LAYER
  5
75
330
2
100
AcDbSymbolTableRecord
100
AcDbLayerTableRecord
  2
0_35
 70
     0
 62
     7
  6
Continuous
370
    35
390
F
  0
LAYER
  5
76
330
2
100
AcDbSymbolTableRecord
100
AcDbLayerTableRecord
  2
0_5
 70
     0
 62
     7
  6
Continuous
370
    50
390
F
  0
LAYER
  5
77
330
2
100
AcDbSymbolTableRecord
100
AcDbLayerTableRecord
  2
0_25
 70
     0
 62
     7
  6
Continuous
370
    25
390
F
  0
LAYER
  5
78
330
2
100
AcDbSymbolTableRecord
100
AcDbLayerTableRecord
  2
0_18
 70
     0
 62
     7
  6
Continuous
370
    -3
390
F
  0
LAYER
  5
79
330
2
100
AcDbSymbolTableRecord
100
AcDbLayerTableRecord
  2
SLD-0
 70
     0
 62
   179
  6
Continuous
370
    -3
390
F
  0
LAYER
  5
7A
330
2
100
AcDbSymbolTableRecord
100
AcDbLayerTableRecord
  2
KOTY
 70
     0
 62
     7
  6
Continuous
370
    -3
390
F
  0
LAYER
  5
7B
330
2
100
AcDbSymbolTableRecord
100
AcDbLayerTableRecord
  2
SILNA
 70
     0
 62
   179
  6
Continuous
370
    -3
390
F
  0
LAYER
  5
7C
330
2
100
AcDbSymbolTableRecord
100
AcDbLayerTableRecord
  2
0_18_1
 70
     0
 62
   179
  6
Continuous
370
    -3
390
F
  0
LAYER
  5
7D
330
2
100
AcDbSymbolTableRecord
100
AcDbLayerTableRecord
  2
0_35_1
 70
     0
 62
   179
  6
Continuous
370
    35
390
F
  0
LAYER
  5
7E
330
2
100
AcDbSymbolTableRecord
100
AcDbLayerTableRecord
  2
0_5_1
 70
     0
 62
   179
  6
Continuous
370
    50
390
F
  0
ENDTAB
  0
TABLE
  2
STYLE
  5
3
330
0
100
AcDbSymbolTable
 70
     1
  0
STYLE
  5
11
330
3
100
AcDbSymbolTableRecord
100
AcDbTextStyleTableRecord
  2
Standard
 70
     0
 40
0.0
 41
1.0
 50
0.0
 71
     0
 42
2.0
  3
txt
  4

  0
ENDTAB
  0
TABLE
  2
VIEW
  5
6
330
0
100
AcDbSymbolTable
 70
     0
  0
ENDTAB
  0
TABLE
  2
UCS
  5
7
330
0
100
AcDbSymbolTable
 70
     0
  0
ENDTAB
  0
TABLE
  2
APPID
  5
9
330
0
100
AcDbSymbolTable
 70
     1
  0
APPID
  5
12
330
9
100
AcDbSymbolTableRecord
100
AcDbRegAppTableRecord
  2
ACAD
 70
     0
  0
ENDTAB
  0
TABLE
  2
DIMSTYLE
  5
A
330
0
100
AcDbSymbolTable
 70
     1
100
AcDbDimStyleTable
  0
DIMSTYLE
105
27
330
A
100
AcDbSymbolTableRecord
100
AcDbDimStyleTableRecord
  2
ISO-25
 70
     0
 41
2.5
 42
0.625
 43
3.75
 44
1.25
 73
     0
 74
     0
 77
     1
 78
     8
140
2.5
141
2.5
143
0.0393700787
147
0.625
171
     3
172
     1
178
     0
271
     2
272
     2
274
     3
278
    44
283
     0
284
     8
340
11
  0
ENDTAB
  0
TABLE
  2
BLOCK_RECORD
  5
1
330
0
100
AcDbSymbolTable
 70
     1
  0
BLOCK_RECORD
  5
1F
330
1
100
AcDbSymbolTableRecord
100
AcDbBlockTableRecord
  2
*Model_Space
340
22
  0
BLOCK_RECORD
  5
1B
330
1
100
AcDbSymbolTableRecord
100
AcDbBlockTableRecord
  2
*Paper_Space
340
1E
  0
BLOCK_RECORD
  5
23
330
1
100
AcDbSymbolTableRecord
100
AcDbBlockTableRecord
  2
*Paper_Space0
340
26
  0
ENDTAB
  0
ENDSEC
  0
SECTION
  2
BLOCKS
  0
BLOCK
  5
20
330
1F
100
AcDbEntity
  8
0
100
AcDbBlockBegin
  2
*Model_Space
 70
     0
 10
0.0
 20
0.0
 30
0.0
  3
*Model_Space
  1

  0
ENDBLK
  5
21
330
1F
100
AcDbEntity
  8
0
100
AcDbBlockEnd
  0
BLOCK
  5
1C
330
1B
100
AcDbEntity
 67
     1
  8
0
100
AcDbBlockBegin
  2
*Paper_Space
 70
     0
 10
0.0
 20
0.0
 30
0.0
  3
*Paper_Space
  1

  0
ENDBLK
  5
1D
330
1B
100
AcDbEntity
 67
     1
  8
0
100
AcDbBlockEnd
  0
BLOCK
  5
24
330
23
100
AcDbEntity
  8
0
100
AcDbBlockBegin
  2
*Paper_Space0
 70
     0
 10
0.0
 20
0.0
 30
0.0
  3
*Paper_Space0
  1

  0
ENDBLK
  5
25
330
23
100
AcDbEntity
  8
0
100
AcDbBlockEnd
  0
ENDSEC
  0
SECTION
  2
ENTITIES
  0
LINE
  5
7F
330
1F
100
AcDbEntity
  8
0
  6
Continuous
 62
     7
370
    25
100
AcDbLine
 10
6133.2687569454
 20
5293.3661275377
 30
0.0
 11
6135.268753548
 21
5291.6994624605
 31
0.0
  0
LINE
  5
80
330
1F
100
AcDbEntity
  8
0
  6
Continuous
 62
     7
370
    25
100
AcDbLine
 10
6182.7687529519
 20
5291.6994624605
 30
0.0
 11
6184.768757005
 21
5293.3661275377
 31
0.0
  0
LINE
  5
81
330
1F
100
AcDbEntity
  8
0
  6
Continuous
 62
     7
370
    25
100
AcDbLine
 10
6184.768757005
 20
5293.3661275377
 30
0.0
 11
6184.768757005
 21
5298.6994617453
 31
0.0
  0
LINE
  5
82
330
1F
100
AcDbEntity
  8
0
  6
Continuous
 62
     7
370
    25
100
AcDbLine
 10
6133.2687569454
 20
5298.6994617453
 30
0.0
 11
6133.2687569454
 21
5293.3661275377
 31
0.0
  0
SPLINE
  5
83
330
1F
100
AcDbEntity
  8
0
  6
Continuous
 62
     7
370
    25
100
AcDbSpline
210
0.0
220
0.0
230
1.0
 70
     8
 71
     3
 72
     9
 73
     5
 74
     0
 42
0.000000001
 43
0.00000001
 40
0.0
 40
0.0
 40
0.0
 40
0.0
 40
0.4997481873696838
 40
1.0
 40
1.0
 40
1.0
 40
1.0
 10
6181.90871753245
 20
5280.765437411323
 30
0.0
 10
6182.051594660868
 20
5280.847742322779
 30
0.0
 10
6182.337492903279
 20
5281.012435089129
 30
0.0
 10
6182.622319248644
 20
5281.17687921297
 30
0.0
 10
6182.764804144198
 20
5281.259142683997
 30
0.0
  0
SPLINE
  5
84
330
1F
100
AcDbEntity
  8
0
  6
Continuous
 62
     7
370
    25
100
AcDbSpline
210
0.0
220
0.0
230
1.0
 70
     8
 71
     3
 72
     9
 73
     5
 74
     0
 42
0.000000001
 43
0.00000001
 40
0.0
 40
0.0
 40
0.0
 40
0.0
 40
0.4997552816390288
 40
1.0
 40
1.0
 40
1.0
 40
1.0
 10
6181.90871753245
 20
5282.35294752027
 30
0.0
 10
6182.051593652172
 20
5282.435254329022
 30
0.0
 10
6182.337485817739
 20
5282.599948553925
 30
0.0
 10
6182.622318232897
 20
5282.764371353538
 30
0.0
 10
6182.764804144198
 20
5282.846622990623
 30
0.0
  0
SPLINE
  5
85
330
1F
100
AcDbEntity
  8
0
  6
Continuous
 62
     7
370
    25
100
AcDbSpline
210
0.0
220
0.0
230
1.0
 70
     8
 71
     3
 72
     9
 73
     5
 74
     0
 42
0.000000001
 43
0.00000001
 40
0.0
 40
0.0
 40
0.0
 40
0.0
 40
0.4997481873696838
 40
1.0
 40
1.0
 40
1.0
 40
1.0
 10
6181.90871753245
 20
5283.940427826896
 30
0.0
 10
6182.051594660868
 20
5284.022732738352
 30
0.0
 10
6182.337492903279
 20
5284.187425504702
 30
0.0
 10
6182.622319248644
 20
5284.351869628543
 30
0.0
 10
6182.764804144198
 20
5284.43413309957
 30
0.0
  0
SPLINE
  5
86
330
1F
100
AcDbEntity
  8
0
  6
Continuous
 62
     7
370
    25
100
AcDbSpline
210
0.0
220
0.0
230
1.0
 70
     8
 71
     3
 72
     9
 73
     5
 74
     0
 42
0.000000001
 43
0.00000001
 40
0.0
 40
0.0
 40
0.0
 40
0.0
 40
0.4997481873696838
 40
1.0
 40
1.0
 40
1.0
 40
1.0
 10
6181.90871753245
 20
5285.527937935844
 30
0.0
 10
6182.051594660868
 20
5285.6102428473
 30
0.0
 10
6182.337492903279
 20
5285.77493561365
 30
0.0
 10
6182.622319248644
 20
5285.939379737491
 30
0.0
 10
6182.764804144198
 20
5286.021643208518
 30
0.0
  0
SPLINE
  5
87
330
1F
100
AcDbEntity
  8
0
  6
Continuous
 62
     7
370
    25
100
AcDbSpline
210
0.0
220
0.0
230
1.0
 70
     8
 71
     3
 72
     9
 73
     5
 74
     0
 42
0.000000001
 43
0.00000001
 40
0.0
 40
0.0
 40
0.0
 40
0.0
 40
0.4997552816390288
 40
1.0
 40
1.0
 40
1.0
 40
1.0
 10
6181.90871753245
 20
5287.115448044791
 30
0.0
 10
6182.051593652172
 20
5287.197754853542
 30
0.0
 10
6182.337485817739
 20
5287.362449078446
 30
0.0
 10
6182.622318232897
 20
5287.526871878059
 30
0.0
 10
6182.764804144198
 20
5287.609123515143
 30
0.0
  0
SPLINE
  5
88
330
1F
100
AcDbEntity
  8
0
  6
Continuous
 62
     7
370
    25
100
AcDbSpline
210
0.0
220
0.0
230
1.0
 70
     8
 71
     3
 72
     9
 73
     5
 74
     0
 42
0.000000001
 43
0.00000001
 40
0.0
 40
0.0
 40
0.0
 40
0.0
 40
0.4997481873696838
 40
1.0
 40
1.0
 40
1.0
 40
1.0
 10
6181.90871753245
 20
5288.702928351417
 30
0.0
 10
6182.051594660868
 20
5288.785233262873
 30
0.0
 10
6182.337492903279
 20
5288.949926029223
 30
0.0
 10
6182.622319248644
 20
5289.114370153064
 30
0.0
 10
6182.764804144198
 20
5289.196633624091
 30
0.0
  0
SPLINE
  5
89
330
1F
100
AcDbEntity
  8
0
  6
Continuous
 62
     7
370
    25
100
AcDbSpline
210
0.0
220
0.0
230
1.0
 70
     8
 71
     3
 72
     9
 73
     5
 74
     0
 42
0.000000001
 43
0.00000001
 40
0.0
 40
0.0
 40
0.0
 40
0.0
 40
0.4269237792319198
 40
1.0
 40
1.0
 40
1.0
 40
1.0
 10
6182.017645020777
 20
5290.353202151313
 30
0.0
 10
6182.124180393545
 20
5290.414578758173
 30
0.0
 10
6182.373722297626
 20
5290.558343546752
 30
0.0
 10
6182.622331895438
 20
5290.701884071556
 30
0.0
 10
6182.764804144198
 20
5290.784143733039
 30
0.0
  0
SPLINE
  5
8A
330
1F
100
AcDbEntity
  8
0
  6
Continuous
 62
     7
370
    25
100
AcDbSpline
210
0.0
220
0.0
230
1.0
 70
     8
 71
     3
 72
     9
 73
     5
 74
     0
 42
0.000000001
 43
0.00000001
 40
0.0
 40
0.0
 40
0.0
 40
0.0
 40
0.5141222942673305
 40
1.0
 40
1.0
 40
1.0
 40
1.0
 10
6135.272702355677
 20
5280.465387629523
 30
0.0
 10
6135.418137480988
 20
5280.381660747864
 30
0.0
 10
6135.701017890829
 20
5280.218806729292
 30
0.0
 10
6135.990242858251
 20
5280.05473770033
 30
0.0
 10
6136.130770821864
 20
5279.975020216956
 30
0.0
  0
SPLINE
  5
8B
330
1F
100
AcDbEntity
  8
0
  6
Continuous
 62
     7
370
    25
100
AcDbSpline
210
0.0
220
0.0
230
1.0
 70
     8
 71
     3
 72
     9
 73
     5
 74
     0
 42
0.000000001
 43
0.00000001
 40
0.0
 40
0.0
 40
0.0
 40
0.0
 40
0.5141222942673305
 40
1.0
 40
1.0
 40
1.0
 40
1.0
 10
6135.272702355677
 20
5282.052897738471
 30
0.0
 10
6135.418137480988
 20
5281.969170856812
 30
0.0
 10
6135.701017890829
 20
5281.80631683824
 30
0.0
 10
6135.990242858251
 20
5281.642247809278
 30
0.0
 10
6136.130770821864
 20
5281.562530325904
 30
0.0
  0
SPLINE
  5
8C
330
1F
100
AcDbEntity
  8
0
  6
Continuous
 62
     7
370
    25
100
AcDbSpline
210
0.0
220
0.0
230
1.0
 70
     8
 71
     3
 72
     9
 73
     5
 74
     0
 42
0.000000001
 43
0.00000001
 40
0.0
 40
0.0
 40
0.0
 40
0.0
 40
0.5141278205515593
 40
1.0
 40
1.0
 40
1.0
 40
1.0
 10
6135.272702355677
 20
5283.640378045096
 30
0.0
 10
6135.418136632339
 20
5283.556648941513
 30
0.0
 10
6135.701012350882
 20
5283.393792351699
 30
0.0
 10
6135.99024212241
 20
5283.229745995479
 30
0.0
 10
6136.130770821864
 20
5283.150040434852
 30
0.0
  0
SPLINE
  5
8D
330
1F
100
AcDbEntity
  8
0
  6
Continuous
 62
     7
370
    25
100
AcDbSpline
210
0.0
220
0.0
230
1.0
 70
     8
 71
     3
 72
     9
 73
     5
 74
     0
 42
0.000000001
 43
0.00000001
 40
0.0
 40
0.0
 40
0.0
 40
0.0
 40
0.5141222942673305
 40
1.0
 40
1.0
 40
1.0
 40
1.0
 10
6135.272702355677
 20
5285.227888154044
 30
0.0
 10
6135.418137480988
 20
5285.144161272385
 30
0.0
 10
6135.701017890829
 20
5284.981307253813
 30
0.0
 10
6135.990242858251
 20
5284.817238224851
 30
0.0
 10
6136.130770821864
 20
5284.737520741477
 30
0.0
  0
SPLINE
  5
8E
330
1F
100
AcDbEntity
  8
0
  6
Continuous
 62
     7
370
    25
100
AcDbSpline
210
0.0
220
0.0
230
1.0
 70
     8
 71
     3
 72
     9
 73
     5
 74
     0
 42
0.000000001
 43
0.00000001
 40
0.0
 40
0.0
 40
0.0
 40
0.0
 40
0.5141222942673305
 40
1.0
 40
1.0
 40
1.0
 40
1.0
 10
6135.272702355677
 20
5286.815398262992
 30
0.0
 10
6135.418137480988
 20
5286.731671381332
 30
0.0
 10
6135.701017890829
 20
5286.56881736276
 30
0.0
 10
6135.990242858251
 20
5286.404748333799
 30
0.0
 10
6136.130770821864
 20
5286.325030850425
 30
0.0
  0
SPLINE
  5
8F
330
1F
100
AcDbEntity
  8
0
  6
Continuous
 62
     7
370
    25
100
AcDbSpline
210
0.0
220
0.0
230
1.0
 70
     8
 71
     3
 72
     9
 73
     5
 74
     0
 42
0.000000001
 43
0.00000001
 40
0.0
 40
0.0
 40
0.0
 40
0.0
 40
0.5141278205515593
 40
1.0
 40
1.0
 40
1.0
 40
1.0
 10
6135.272702355677
 20
5288.402878569617
 30
0.0
 10
6135.418136632339
 20
5288.319149466034
 30
0.0
 10
6135.701012350882
 20
5288.15629287622
 30
0.0
 10
6135.99024212241
 20
5287.99224652
 30
0.0
 10
6136.130770821864
 20
5287.912540959373
 30
0.0
  0
SPLINE
  5
90
330
1F
100
AcDbEntity
  8
0
  6
Continuous
 62
     7
370
    25
100
AcDbSpline
210
0.0
220
0.0
230
1.0
 70
     8
 71
     3
 72
     9
 73
     5
 74
     0
 42
0.000000001
 43
0.00000001
 40
0.0
 40
0.0
 40
0.0
 40
0.0
 40
0.5906443264183234
 40
1.0
 40
1.0
 40
1.0
 40
1.0
 10
6135.272702355677
 20
5289.990388678565
 30
0.0
 10
6135.418054018294
 20
5289.906678407199
 30
0.0
 10
6135.664144018851
 20
5289.764951368401
 30
0.0
 10
6135.915758838989
 20
5289.622160912285
 30
0.0
 10
6136.01875879317
 20
5289.56370882894
 30
0.0
  0
LINE
  5
91
330
1F
100
AcDbEntity
  8
0
  6
Continuous
 62
     7
370
    25
100
AcDbLine
 10
6135.2727023557
 20
5278.8778775206
 30
0.0
 11
6135.6460211471
 21
5278.6635094156
 31
0.0
  0
SPLINE
  5
92
330
1F
100
AcDbEntity
  8
0
  6
Continuous
 62
     7
370
    25
100
AcDbSpline
210
0.0
220
0.0
230
1.0
 70
     8
 71
     3
 72
     9
 73
     5
 74
     0
 42
0.000000001
 43
0.00000001
 40
0.0
 40
0.0
 40
0.0
 40
0.0
 40
0.4997481873696838
 40
1.0
 40
1.0
 40
1.0
 40
1.0
 10
6181.90871753245
 20
5279.177927302375
 30
0.0
 10
6182.051594660868
 20
5279.260232213831
 30
0.0
 10
6182.337492903279
 20
5279.424924980181
 30
0.0
 10
6182.622319248644
 20
5279.589369104022
 30
0.0
 10
6182.764804144198
 20
5279.671632575049
 30
0.0
  0
SPLINE
  5
93
330
1F
100
AcDbEntity
  8
0
  6
Continuous
 62
     7
370
    25
100
AcDbSpline
210
0.0
220
0.0
230
1.0
 70
     8
 71
     3
 72
     9
 73
     5
 74
     0
 42
0.000000001
 43
0.00000001
 40
0.0
 40
0.0
 40
0.0
 40
0.0
 40
0.4999892469000062
 40
1.0
 40
1.0
 40
1.0
 40
1.0
 10
6136.131784100825
 20
5289.106153773322
 30
0.0
 10
6135.987691427083
 20
5289.02295721209
 30
0.0
 10
6135.699499881694
 20
5288.856560511066
 30
0.0
 10
6135.411319479078
 20
5288.690144744016
 30
0.0
 10
6135.267226178938
 20
5288.606935071006
 30
0.0
  0
SPLINE
  5
94
330
1F
100
AcDbEntity
  8
0
  6
Continuous
 62
     7
370
    25
100
AcDbSpline
210
0.0
220
0.0
230
1.0
 70
     8
 71
     3
 72
     9
 73
     5
 74
     0
 42
0.000000001
 43
0.00000001
 40
0.0
 40
0.0
 40
0.0
 40
0.0
 40
0.4999974815840588
 40
1.0
 40
1.0
 40
1.0
 40
1.0
 10
6136.135017652804
 20
5287.520252989783
 30
0.0
 10
6135.990926165579
 20
5287.437044696127
 30
0.0
 10
6135.702741739594
 20
5287.270627270595
 30
0.0
 10
6135.41455421766
 20
5287.104212359696
 30
0.0
 10
6135.270459730918
 20
5287.021004485145
 30
0.0
  0
SPLINE
  5
95
330
1F
100
AcDbEntity
  8
0
  6
Continuous
 62
     7
370
    25
100
AcDbSpline
210
0.0
220
0.0
230
1.0
 70
     8
 71
     3
 72
     9
 73
     5
 74
     0
 42
0.000000001
 43
0.00000001
 40
0.0
 40
0.0
 40
0.0
 40
0.0
 40
0.5000050303752377
 40
1.0
 40
1.0
 40
1.0
 40
1.0
 10
6136.134794135386
 20
5285.932653473868
 30
0.0
 10
6135.990708702948
 20
5285.849443324737
 30
0.0
 10
6135.702540737257
 20
5285.683024700769
 30
0.0
 10
6135.414356623184
 20
5285.516630856609
 30
0.0
 10
6135.270266015822
 20
5285.433434771552
 30
0.0
  0
SPLINE
  5
96
330
1F
100
AcDbEntity
  8
0
  6
Continuous
 62
     7
370
    25
100
AcDbSpline
210
0.0
220
0.0
230
1.0
 70
    24
 71
     3
 72
     9
 73
     5
 74
     0
 42
0.000000001
 43
0.00000001
 40
0.0
 40
0.0
 40
0.0
 40
0.0
 40
0.4999993503703883
 40
1.0
 40
1.0
 40
1.0
 40
1.0
 10
6136.129802246386
 20
5284.342312144294
 30
0.0
 10
6135.985712891091
 20
5284.259104006133
 30
0.0
 10
6135.697533806081
 20
5284.092687513593
 30
0.0
 10
6135.409355844327
 20
5283.926271669708
 30
0.0
 10
6135.265266676241
 20
5283.843063639655
 30
0.0
  0
SPLINE
  5
97
330
1F
100
AcDbEntity
  8
0
  6
Continuous
 62
     7
370
    25
100
AcDbSpline
210
0.0
220
0.0
230
1.0
 70
     8
 71
     3
 72
     9
 73
     5
 74
     0
 42
0.000000001
 43
0.00000001
 40
0.0
 40
0.0
 40
0.0
 40
0.0
 40
0.4999959149641213
 40
1.0
 40
1.0
 40
1.0
 40
1.0
 10
6136.129988510901
 20
5282.754951046958
 30
0.0
 10
6135.98589679794
 20
5282.671742622949
 30
0.0
 10
6135.697711017518
 20
5282.505324415282
 30
0.0
 10
6135.409524850016
 20
5282.338910286512
 30
0.0
 10
6135.265430589015
 20
5282.255702542319
 30
0.0
  0
SPLINE
  5
98
330
1F
100
AcDbEntity
  8
0
  6
Continuous
 62
     7
370
    25
100
AcDbSpline
210
0.0
220
0.0
230
1.0
 70
     8
 71
     3
 72
     9
 73
     5
 74
     0
 42
0.000000001
 43
0.00000001
 40
0.0
 40
0.0
 40
0.0
 40
0.0
 40
0.5000032504093038
 40
1.0
 40
1.0
 40
1.0
 40
1.0
 10
6136.131992717082
 20
5281.168782042518
 30
0.0
 10
6135.987898335815
 20
5281.085574228875
 30
0.0
 10
6135.699711446731
 20
5280.919159683421
 30
0.0
 10
6135.411526387895
 20
5280.752741892442
 30
0.0
 10
6135.267434795195
 20
5280.669533537879
 30
0.0
  0
SPLINE
  5
99
330
1F
100
AcDbEntity
  8
0
  6
Continuous
 62
     7
370
    25
100
AcDbSpline
210
0.0
220
0.0
230
1.0
 70
     8
 71
     3
 72
     9
 73
     5
 74
     0
 42
0.000000001
 43
0.00000001
 40
0.0
 40
0.0
 40
0.0
 40
0.0
 40
0.4999902898284538
 40
1.0
 40
1.0
 40
1.0
 40
1.0
 10
6136.135859568411
 20
5279.583089875236
 30
0.0
 10
6135.991769528488
 20
5279.499893400782
 30
0.0
 10
6135.70358385198
 20
5279.333497220403
 30
0.0
 10
6135.415407514612
 20
5279.167080932701
 30
0.0
 10
6135.271316547686
 20
5279.083871172919
 30
0.0
  0
SPLINE
  5
9A
330
1F
100
AcDbEntity
  8
0
  6
Continuous
 62
     7
370
    25
100
AcDbSpline
210
0.0
220
0.0
230
1.0
 70
     8
 71
     3
 72
     9
 73
     5
 74
     0
 42
0.000000001
 43
0.00000001
 40
0.0
 40
0.0
 40
0.0
 40
0.0
 40
0.5009125166987841
 40
1.0
 40
1.0
 40
1.0
 40
1.0
 10
6182.772493143374
 20
5279.874109553351
 30
0.0
 10
6182.628399783065
 20
5279.957318842924
 30
0.0
 10
6182.340738054711
 20
5280.123434255894
 30
0.0
 10
6182.053065943054
 20
5280.289535255919
 30
0.0
 10
6181.909492392832
 20
5280.372434185996
 30
0.0
  0
SPLINE
  5
9B
330
1F
100
AcDbEntity
  8
0
  6
Continuous
 62
     7
370
    25
100
AcDbSpline
210
0.0
220
0.0
230
1.0
 70
     8
 71
     3
 72
     9
 73
     5
 74
     0
 42
0.000000001
 43
0.00000001
 40
0.0
 40
0.0
 40
0.0
 40
0.0
 40
0.503392723152699
 40
1.0
 40
1.0
 40
1.0
 40
1.0
 10
6182.76820160895
 20
5281.464242266669
 30
0.0
 10
6182.624112378619
 20
5281.547450594866
 30
0.0
 10
6182.337876158462
 20
5281.712745650535
 30
0.0
 10
6182.051639567035
 20
5281.878037816469
 30
0.0
 10
6181.909492392832
 20
5281.960123108878
 30
0.0
  0
SPLINE
  5
9C
330
1F
100
AcDbEntity
  8
0
  6
Continuous
 62
     7
370
    25
100
AcDbSpline
210
0.0
220
0.0
230
1.0
 70
     8
 71
     3
 72
     9
 73
     5
 74
     0
 42
0.000000001
 43
0.00000001
 40
0.0
 40
0.0
 40
0.0
 40
0.0
 40
0.5043907570414473
 40
1.0
 40
1.0
 40
1.0
 40
1.0
 10
6182.766532678897
 20
5283.052467631354
 30
0.0
 10
6182.622438537077
 20
5283.135676155699
 30
0.0
 10
6182.336758952732
 20
5283.300644532266
 30
0.0
 10
6182.051078343366
 20
5283.46560771755
 30
0.0
 10
6181.909492392832
 20
5283.547364996924
 30
0.0
  0
SPLINE
  5
9D
330
1F
100
AcDbEntity
  8
0
  6
Continuous
 62
     7
370
    25
100
AcDbSpline
210
0.0
220
0.0
230
1.0
 70
     8
 71
     3
 72
     9
 73
     5
 74
     0
 42
0.000000001
 43
0.00000001
 40
0.0
 40
0.0
 40
0.0
 40
0.0
 40
0.5022371467197078
 40
1.0
 40
1.0
 40
1.0
 40
1.0
 10
6182.770213265711
 20
5284.638219403281
 30
0.0
 10
6182.626119593438
 20
5284.721428445145
 30
0.0
 10
6182.339215940025
 20
5284.887105242265
 30
0.0
 10
6182.052305668314
 20
5285.052770648463
 30
0.0
 10
6181.909492392832
 20
5285.135232733741
 30
0.0
  0
SPLINE
  5
9E
330
1F
100
AcDbEntity
  8
0
  6
Continuous
 62
     7
370
    25
100
AcDbSpline
210
0.0
220
0.0
230
1.0
 70
     8
 71
     3
 72
     9
 73
     5
 74
     0
 42
0.000000001
 43
0.00000001
 40
0.0
 40
0.0
 40
0.0
 40
0.0
 40
0.5009924550196346
 40
1.0
 40
1.0
 40
1.0
 40
1.0
 10
6182.772344131762
 20
5286.22423939611
 30
0.0
 10
6182.628249823497
 20
5286.307447017163
 30
0.0
 10
6182.340632102271
 20
5286.473532594341
 30
0.0
 10
6182.053015331507
 20
5286.639623706159
 30
0.0
 10
6181.909492392832
 20
5286.72250442411
 30
0.0
  0
SPLINE
  5
9F
330
1F
100
AcDbEntity
  8
0
  6
Continuous
 62
     7
370
    25
100
AcDbSpline
210
0.0
220
0.0
230
1.0
 70
     8
 71
     3
 72
     9
 73
     5
 74
     0
 42
0.000000001
 43
0.00000001
 40
0.0
 40
0.0
 40
0.0
 40
0.0
 40
0.501288661121037
 40
0.9999999999999999
 40
0.9999999999999999
 40
0.9999999999999999
 40
0.9999999999999999
 10
6182.77182259112
 20
5287.812166737571
 30
0.0
 10
6182.627734764385
 20
5287.895377163513
 30
0.0
 10
6182.340299923127
 20
5288.061370197861
 30
0.0
 10
6182.052847950809
 20
5288.227335274464
 30
0.0
 10
6181.909492392832
 20
5288.310103940024
 30
0.0
  0
SPLINE
  5
A0
330
1F
100
AcDbEntity
  8
0
  6
Continuous
 62
     7
370
    25
100
AcDbSpline
210
0.0
220
0.0
230
1.0
 70
     8
 71
     3
 72
     9
 73
     5
 74
     0
 42
0.000000001
 43
0.00000001
 40
0.0
 40
0.0
 40
0.0
 40
0.0
 40
0.5780448757527097
 40
1.0
 40
1.0
 40
1.0
 40
1.0
 10
6182.766562481219
 20
5289.402478264823
 30
0.0
 10
6182.622471872396
 20
5289.485674426523
 30
0.0
 10
6182.373199515063
 20
5289.62960124811
 30
0.0
 10
6182.1239392528
 20
5289.773545921396
 30
0.0
 10
6182.018762607867
 20
5289.834284113898
 30
0.0
  0
LINE
  5
A1
330
1F
100
AcDbEntity
  8
0
  6
Continuous
 62
     7
370
    25
100
AcDbLine
 10
6182.7687529519
 20
5290.7883458605
 30
0.0
 11
6182.7687529519
 21
5291.6994624605
 31
0.0
  0
LINE
  5
A2
330
1F
100
AcDbEntity
  8
0
  6
Continuous
 62
     7
370
    25
100
AcDbLine
 10
6182.7687529519
 20
5289.2008357515
 30
0.0
 11
6182.7687529519
 21
5289.3993788233
 31
0.0
  0
LINE
  5
A3
330
1F
100
AcDbEntity
  8
0
  6
Continuous
 62
     7
370
    25
100
AcDbLine
 10
6182.7687529519
 20
5287.6133554449
 30
0.0
 11
6182.7687529519
 21
5287.8118985167
 31
0.0
  0
LINE
  5
A4
330
1F
100
AcDbEntity
  8
0
  6
Continuous
 62
     7
370
    25
100
AcDbLine
 10
6182.7687529519
 20
5286.025845336
 30
0.0
 11
6182.7687529519
 21
5286.2243884077
 31
0.0
  0
LINE
  5
A5
330
1F
100
AcDbEntity
  8
0
  6
Continuous
 62
     7
370
    25
100
AcDbLine
 10
6182.7687529519
 20
5284.438335227
 30
0.0
 11
6182.7687529519
 21
5284.6368782988
 31
0.0
  0
LINE
  5
A6
330
1F
100
AcDbEntity
  8
0
  6
Continuous
 62
     7
370
    25
100
AcDbLine
 10
6182.7687529519
 20
5282.8508549204
 30
0.0
 11
6182.7687529519
 21
5283.0493979921
 31
0.0
  0
LINE
  5
A7
330
1F
100
AcDbEntity
  8
0
  6
Continuous
 62
     7
370
    25
100
AcDbLine
 10
6182.7687529519
 20
5281.2633448115
 30
0.0
 11
6182.7687529519
 21
5281.4618878832
 31
0.0
  0
LINE
  5
A8
330
1F
100
AcDbEntity
  8
0
  6
Continuous
 62
     7
370
    25
100
AcDbLine
 10
6182.7687529519
 20
5279.6758347025
 30
0.0
 11
6182.7687529519
 21
5279.8743777743
 31
0.0
  0
LINE
  5
A9
330
1F
100
AcDbEntity
  8
0
  6
Continuous
 62
     7
370
    25
100
AcDbLine
 10
6135.268753548
 20
5279.0805631151
 30
0.0
 11
6135.268753548
 21
5278.8821392527
 31
0.0
  0
LINE
  5
AA
330
1F
100
AcDbEntity
  8
0
  6
Continuous
 62
     7
370
    25
100
AcDbLine
 10
6135.268753548
 20
5280.6680732241
 30
0.0
 11
6135.268753548
 21
5280.4696195593
 31
0.0
  0
LINE
  5
AB
330
1F
100
AcDbEntity
  8
0
  6
Continuous
 62
     7
370
    25
100
AcDbLine
 10
6135.268753548
 20
5282.2555535307
 30
0.0
 11
6135.268753548
 21
5282.0571296683
 31
0.0
  0
LINE
  5
AC
330
1F
100
AcDbEntity
  8
0
  6
Continuous
 62
     7
370
    25
100
AcDbLine
 10
6135.268753548
 20
5283.8430636397
 30
0.0
 11
6135.268753548
 21
5283.6446397772
 31
0.0
  0
LINE
  5
AD
330
1F
100
AcDbEntity
  8
0
  6
Continuous
 62
     7
370
    25
100
AcDbLine
 10
6135.268753548
 20
5285.4305737486
 30
0.0
 11
6135.268753548
 21
5285.2321200838
 31
0.0
  0
LINE
  5
AE
330
1F
100
AcDbEntity
  8
0
  6
Continuous
 62
     7
370
    25
100
AcDbLine
 10
6135.268753548
 20
5287.0180540552
 30
0.0
 11
6135.268753548
 21
5286.8196301928
 31
0.0
  0
LINE
  5
AF
330
1F
100
AcDbEntity
  8
0
  6
Continuous
 62
     7
370
    25
100
AcDbLine
 10
6135.268753548
 20
5288.6055641642
 30
0.0
 11
6135.268753548
 21
5288.4071403017
 31
0.0
  0
LINE
  5
B0
330
1F
100
AcDbEntity
  8
0
  6
Continuous
 62
     7
370
    25
100
AcDbLine
 10
6135.268753548
 20
5291.6994624605
 30
0.0
 11
6135.268753548
 21
5289.9946206083
 31
0.0
  0
LINE
  5
B1
330
1F
100
AcDbEntity
  8
0
  6
Continuous
 62
     7
370
    25
100
AcDbLine
 10
6181.9094923928
 20
5280.3706162443
 30
0.0
 11
6181.9094923928
 21
5280.7658844462
 31
0.0
  0
LINE
  5
B2
330
1F
100
AcDbEntity
  8
0
  6
Continuous
 62
     7
370
    25
100
AcDbLine
 10
6181.9094923928
 20
5281.9581263533
 30
0.0
 11
6181.9094923928
 21
5282.3533945551
 31
0.0
  0
LINE
  5
B3
330
1F
100
AcDbEntity
  8
0
  6
Continuous
 62
     7
370
    25
100
AcDbLine
 10
6181.9094923928
 20
5283.5456066599
 30
0.0
 11
6181.9094923928
 21
5283.9408748617
 31
0.0
  0
LINE
  5
B4
330
1F
100
AcDbEntity
  8
0
  6
Continuous
 62
     7
370
    25
100
AcDbLine
 10
6181.9094923928
 20
5285.1331167689
 30
0.0
 11
6181.9094923928
 21
5285.5283849707
 31
0.0
  0
LINE
  5
B5
330
1F
100
AcDbEntity
  8
0
  6
Continuous
 62
     7
370
    25
100
AcDbLine
 10
6181.9094923928
 20
5286.7206268778
 30
0.0
 11
6181.9094923928
 21
5287.1158950796
 31
0.0
  0
LINE
  5
B6
330
1F
100
AcDbEntity
  8
0
  6
Continuous
 62
     7
370
    25
100
AcDbLine
 10
6181.9094923928
 20
5288.3081071844
 30
0.0
 11
6181.9094923928
 21
5288.7033753863
 31
0.0
  0
LINE
  5
B7
330
1F
100
AcDbEntity
  8
0
  6
Continuous
 62
     7
370
    25
100
AcDbLine
 10
6136.128014107
 20
5281.561248826
 30
0.0
 11
6136.128014107
 21
5281.1664872637
 31
0.0
  0
LINE
  5
B8
330
1F
100
AcDbEntity
  8
0
  6
Continuous
 62
     7
370
    25
100
AcDbLine
 10
6136.128014107
 20
5283.1487291327
 30
0.0
 11
6136.128014107
 21
5282.7538185587
 31
0.0
  0
LINE
  5
B9
330
1F
100
AcDbEntity
  8
0
  6
Continuous
 62
     7
370
    25
100
AcDbLine
 10
6136.128014107
 20
5284.7362392416
 30
0.0
 11
6136.128014107
 21
5284.341269063
 31
0.0
  0
LINE
  5
BA
330
1F
100
AcDbEntity
  8
0
  6
Continuous
 62
     7
370
    25
100
AcDbLine
 10
6136.128014107
 20
5286.3237493506
 30
0.0
 11
6136.128014107
 21
5285.9287493696
 31
0.0
  0
LINE
  5
BB
330
1F
100
AcDbEntity
  8
0
  6
Continuous
 62
     7
370
    25
100
AcDbLine
 10
6136.128014107
 20
5287.9112296572
 30
0.0
 11
6136.128014107
 21
5287.5161998739
 31
0.0
  0
LINE
  5
BC
330
1F
100
AcDbEntity
  8
0
  6
Continuous
 62
     7
370
    25
100
AcDbLine
 10
6136.128014107
 20
5279.9737387171
 30
0.0
 11
6136.128014107
 21
5279.5785599222
 31
0.0
  0
LINE
  5
BD
330
1F
100
AcDbEntity
  8
0
  6
Continuous
 62
     7
370
    25
100
AcDbLine
 10
6181.9094923928
 20
5278.7831061354
 30
0.0
 11
6181.9094923928
 21
5279.1783743372
 31
0.0
  0
LINE
  5
BE
330
1F
100
AcDbEntity
  8
0
  6
Continuous
 62
     7
370
    25
100
AcDbLine
 10
6181.2687573627
 20
5276.6994469633
 30
0.0
 11
6181.2687573627
 21
5278.6994510164
 31
0.0
  0
LINE
  5
BF
330
1F
100
AcDbEntity
  8
0
  6
Continuous
 62
     7
370
    25
100
AcDbLine
 10
6136.7687565878
 20
5278.6994510164
 30
0.0
 11
6136.7687565878
 21
5276.6994469633
 31
0.0
  0
LINE
  5
C0
330
1F
100
AcDbEntity
  8
0
  6
Continuous
 62
     7
370
    25
100
AcDbLine
 10
6363.2687536672
 20
5293.3661275377
 30
0.0
 11
6365.2687577203
 21
5291.6994624605
 31
0.0
  0
LINE
  5
C1
330
1F
100
AcDbEntity
  8
0
  6
Continuous
 62
     7
370
    25
100
AcDbLine
 10
6412.7687422231
 20
5291.6994624605
 30
0.0
 11
6414.7687462762
 21
5293.3661275377
 31
0.0
  0
LINE
  5
C2
330
1F
100
AcDbEntity
  8
0
  6
Continuous
 62
     7
370
    25
100
AcDbLine
 10
6414.7687462762
 20
5293.3661275377
 30
0.0
 11
6414.7687462762
 21
5298.6994617453
 31
0.0
  0
LINE
  5
C3
330
1F
100
AcDbEntity
  8
0
  6
Continuous
 62
     7
370
    25
100
AcDbLine
 10
6363.2687536672
 20
5298.6994617453
 30
0.0
 11
6363.2687536672
 21
5293.3661275377
 31
0.0
  0
SPLINE
  5
C4
330
1F
100
AcDbEntity
  8
0
  6
Continuous
 62
     7
370
    25
100
AcDbSpline
210
0.0
220
0.0
230
1.0
 70
     8
 71
     3
 72
     9
 73
     5
 74
     0
 42
0.000000001
 43
0.00000001
 40
0.0
 40
0.0
 40
0.0
 40
0.0
 40
0.4997543552816645
 40
1.0
 40
1.0
 40
1.0
 40
1.0
 10
6411.908706803614
 20
5280.765437411323
 30
0.0
 10
6412.05158926326
 20
5280.847741816267
 30
0.0
 10
6412.337494644845
 20
5281.012431536474
 30
0.0
 10
6412.622323781448
 20
5281.176878704438
 30
0.0
 10
6412.764808316523
 20
5281.259142683997
 30
0.0
  0
SPLINE
  5
C5
330
1F
100
AcDbEntity
  8
0
  6
Continuous
 62
     7
370
    25
100
AcDbSpline
210
0.0
220
0.0
230
1.0
 70
     8
 71
     3
 72
     9
 73
     5
 74
     0
 42
0.000000001
 43
0.00000001
 40
0.0
 40
0.0
 40
0.0
 40
0.0
 40
0.4997614495510953
 40
1.0
 40
1.0
 40
1.0
 40
1.0
 10
6411.908706803614
 20
5282.35294752027
 30
0.0
 10
6412.051588254532
 20
5282.435253822571
 30
0.0
 10
6412.337487559184
 20
5282.599945001484
 30
0.0
 10
6412.622322765699
 20
5282.764370845004
 30
0.0
 10
6412.764808316523
 20
5282.846622990623
 30
0.0
  0
SPLINE
  5
C6
330
1F
100
AcDbEntity
  8
0
  6
Continuous
 62
     7
370
    25
100
AcDbSpline
210
0.0
220
0.0
230
1.0
 70
     8
 71
     3
 72
     9
 73
     5
 74
     0
 42
0.000000001
 43
0.00000001
 40
0.0
 40
0.0
 40
0.0
 40
0.0
 40
0.4997543552816645
 40
1.0
 40
1.0
 40
1.0
 40
1.0
 10
6411.908706803614
 20
5283.940427826896
 30
0.0
 10
6412.05158926326
 20
5284.02273223184
 30
0.0
 10
6412.337494644845
 20
5284.187421952047
 30
0.0
 10
6412.622323781448
 20
5284.351869120011
 30
0.0
 10
6412.764808316523
 20
5284.43413309957
 30
0.0
  0
SPLINE
  5
C7
330
1F
100
AcDbEntity
  8
0
  6
Continuous
 62
     7
370
    25
100
AcDbSpline
210
0.0
220
0.0
230
1.0
 70
     8
 71
     3
 72
     9
 73
     5
 74
     0
 42
0.000000001
 43
0.00000001
 40
0.0
 40
0.0
 40
0.0
 40
0.0
 40
0.4997543552816645
 40
1.0
 40
1.0
 40
1.0
 40
1.0
 10
6411.908706803614
 20
5285.527937935844
 30
0.0
 10
6412.05158926326
 20
5285.610242340787
 30
0.0
 10
6412.337494644845
 20
5285.774932060995
 30
0.0
 10
6412.622323781448
 20
5285.939379228958
 30
0.0
 10
6412.764808316523
 20
5286.021643208518
 30
0.0
  0
SPLINE
  5
C8
330
1F
100
AcDbEntity
  8
0
  6
Continuous
 62
     7
370
    25
100
AcDbSpline
210
0.0
220
0.0
230
1.0
 70
     8
 71
     3
 72
     9
 73
     5
 74
     0
 42
0.000000001
 43
0.00000001
 40
0.0
 40
0.0
 40
0.0
 40
0.0
 40
0.4997614495510953
 40
1.0
 40
1.0
 40
1.0
 40
1.0
 10
6411.908706803614
 20
5287.115448044791
 30
0.0
 10
6412.051588254532
 20
5287.197754347092
 30
0.0
 10
6412.337487559184
 20
5287.362445526005
 30
0.0
 10
6412.622322765699
 20
5287.526871369525
 30
0.0
 10
6412.764808316523
 20
5287.609123515143
 30
0.0
  0
SPLINE
  5
C9
330
1F
100
AcDbEntity
  8
0
  6
Continuous
 62
     7
370
    25
100
AcDbSpline
210
0.0
220
0.0
230
1.0
 70
     8
 71
     3
 72
     9
 73
     5
 74
     0
 42
0.000000001
 43
0.00000001
 40
0.0
 40
0.0
 40
0.0
 40
0.0
 40
0.4997543552816645
 40
1.0
 40
1.0
 40
1.0
 40
1.0
 10
6411.908706803614
 20
5288.702928351417
 30
0.0
 10
6412.05158926326
 20
5288.785232756361
 30
0.0
 10
6412.337494644845
 20
5288.949922476568
 30
0.0
 10
6412.622323781448
 20
5289.114369644532
 30
0.0
 10
6412.764808316523
 20
5289.196633624091
 30
0.0
  0
SPLINE
  5
CA
330
1F
100
AcDbEntity
  8
0
  6
Continuous
 62
     7
370
    25
100
AcDbSpline
210
0.0
220
0.0
230
1.0
 70
     8
 71
     3
 72
     9
 73
     5
 74
     0
 42
0.000000001
 43
0.00000001
 40
0.0
 40
0.0
 40
0.0
 40
0.0
 40
0.4269156847691904
 40
1.0
 40
1.0
 40
1.0
 40
1.0
 10
6412.017664094264
 20
5290.353202151313
 30
0.0
 10
6412.124194188731
 20
5290.414579190814
 30
0.0
 10
6412.373728460412
 20
5290.558347718629
 30
0.0
 10
6412.622335513654
 20
5290.701884852795
 30
0.0
 10
6412.764808316523
 20
5290.784143733039
 30
0.0
  0
SPLINE
  5
CB
330
1F
100
AcDbEntity
  8
0
  6
Continuous
 62
     7
370
    25
100
AcDbSpline
210
0.0
220
0.0
230
1.0
 70
     8
 71
     3
 72
     9
 73
     5
 74
     0
 42
0.000000001
 43
0.00000001
 40
0.0
 40
0.0
 40
0.0
 40
0.0
 40
0.514136371658879
 40
1.0
 40
1.0
 40
1.0
 40
1.0
 10
6365.272691626841
 20
5280.465387629523
 30
0.0
 10
6365.418135982918
 20
5280.381661971363
 30
0.0
 10
6365.701026601233
 20
5280.218814791555
 30
0.0
 10
6365.990241226046
 20
5280.05473878219
 30
0.0
 10
6366.130760093028
 20
5279.975020216956
 30
0.0
  0
SPLINE
  5
CC
330
1F
100
AcDbEntity
  8
0
  6
Continuous
 62
     7
370
    25
100
AcDbSpline
210
0.0
220
0.0
230
1.0
 70
     8
 71
     3
 72
     9
 73
     5
 74
     0
 42
0.000000001
 43
0.00000001
 40
0.0
 40
0.0
 40
0.0
 40
0.0
 40
0.514136371658879
 40
1.0
 40
1.0
 40
1.0
 40
1.0
 10
6365.272691626841
 20
5282.052897738471
 30
0.0
 10
6365.418135982918
 20
5281.96917208031
 30
0.0
 10
6365.701026601233
 20
5281.806324900503
 30
0.0
 10
6365.990241226046
 20
5281.642248891138
 30
0.0
 10
6366.130760093028
 20
5281.562530325904
 30
0.0
  0
SPLINE
  5
CD
330
1F
100
AcDbEntity
  8
0
  6
Continuous
 62
     7
370
    25
100
AcDbSpline
210
0.0
220
0.0
230
1.0
 70
     8
 71
     3
 72
     9
 73
     5
 74
     0
 42
0.000000001
 43
0.00000001
 40
0.0
 40
0.0
 40
0.0
 40
0.0
 40
0.5141418982568496
 40
1.0
 40
1.0
 40
1.0
 40
1.0
 10
6365.272691626841
 20
5283.640378045096
 30
0.0
 10
6365.418135134213
 20
5283.556650164865
 30
0.0
 10
6365.701021060968
 20
5283.393800413632
 30
0.0
 10
6365.990240490169
 20
5283.229747077386
 30
0.0
 10
6366.130760093028
 20
5283.150040434852
 30
0.0
  0
SPLINE
  5
CE
330
1F
100
AcDbEntity
  8
0
  6
Continuous
 62
     7
370
    25
100
AcDbSpline
210
0.0
220
0.0
230
1.0
 70
     8
 71
     3
 72
     9
 73
     5
 74
     0
 42
0.000000001
 43
0.00000001
 40
0.0
 40
0.0
 40
0.0
 40
0.0
 40
0.514136371658879
 40
1.0
 40
1.0
 40
1.0
 40
1.0
 10
6365.272691626841
 20
5285.227888154044
 30
0.0
 10
6365.418135982918
 20
5285.144162495883
 30
0.0
 10
6365.701026601233
 20
5284.981315316076
 30
0.0
 10
6365.990241226046
 20
5284.817239306711
 30
0.0
 10
6366.130760093028
 20
5284.737520741477
 30
0.0
  0
SPLINE
  5
CF
330
1F
100
AcDbEntity
  8
0
  6
Continuous
 62
     7
370
    25
100
AcDbSpline
210
0.0
220
0.0
230
1.0
 70
     8
 71
     3
 72
     9
 73
     5
 74
     0
 42
0.000000001
 43
0.00000001
 40
0.0
 40
0.0
 40
0.0
 40
0.0
 40
0.514136371658879
 40
1.0
 40
1.0
 40
1.0
 40
1.0
 10
6365.272691626841
 20
5286.815398262992
 30
0.0
 10
6365.418135982918
 20
5286.73167260483
 30
0.0
 10
6365.701026601233
 20
5286.568825425024
 30
0.0
 10
6365.990241226046
 20
5286.404749415658
 30
0.0
 10
6366.130760093028
 20
5286.325030850425
 30
0.0
  0
SPLINE
  5
D0
330
1F
100
AcDbEntity
  8
0
  6
Continuous
 62
     7
370
    25
100
AcDbSpline
210
0.0
220
0.0
230
1.0
 70
     8
 71
     3
 72
     9
 73
     5
 74
     0
 42
0.000000001
 43
0.00000001
 40
0.0
 40
0.0
 40
0.0
 40
0.0
 40
0.5141418982568496
 40
1.0
 40
1.0
 40
1.0
 40
1.0
 10
6365.272691626841
 20
5288.402878569617
 30
0.0
 10
6365.418135134213
 20
5288.319150689386
 30
0.0
 10
6365.701021060968
 20
5288.156300938153
 30
0.0
 10
6365.990240490169
 20
5287.992247601906
 30
0.0
 10
6366.130760093028
 20
5287.912540959373
 30
0.0
  0
SPLINE
  5
D1
330
1F
100
AcDbEntity
  8
0
  6
Continuous
 62
     7
370
    25
100
AcDbSpline
210
0.0
220
0.0
230
1.0
 70
     8
 71
     3
 72
     9
 73
     5
 74
     0
 42
0.000000001
 43
0.00000001
 40
0.0
 40
0.0
 40
0.0
 40
0.0
 40
0.5906541034273715
 40
1.0
 40
1.0
 40
1.0
 40
1.0
 10
6365.272691626841
 20
5289.990388678565
 30
0.0
 10
6365.418052218572
 20
5289.906679415427
 30
0.0
 10
6365.664153262968
 20
5289.764956429586
 30
0.0
 10
6365.91576622994
 20
5289.622161391735
 30
0.0
 10
6366.018762965495
 20
5289.56370882894
 30
0.0
  0
LINE
  5
D2
330
1F
100
AcDbEntity
  8
0
  6
Continuous
 62
     7
370
    25
100
AcDbLine
 10
6365.2726916268
 20
5278.8778775206
 30
0.0
 11
6365.6460253194
 21
5278.6635094156
 31
0.0
  0
SPLINE
  5
D3
330
1F
100
AcDbEntity
  8
0
  6
Continuous
 62
     7
370
    25
100
AcDbSpline
210
0.0
220
0.0
230
1.0
 70
     8
 71
     3
 72
     9
 73
     5
 74
     0
 42
0.000000001
 43
0.00000001
 40
0.0
 40
0.0
 40
0.0
 40
0.0
 40
0.4997543552816645
 40
1.0
 40
1.0
 40
1.0
 40
1.0
 10
6411.908706803614
 20
5279.177927302375
 30
0.0
 10
6412.05158926326
 20
5279.260231707319
 30
0.0
 10
6412.337494644845
 20
5279.424921427526
 30
0.0
 10
6412.622323781448
 20
5279.58936859549
 30
0.0
 10
6412.764808316523
 20
5279.671632575049
 30
0.0
  0
LINE
  5
D4
330
1F
100
AcDbEntity
  8
0
  6
Continuous
 62
     7
370
    25
100
AcDbLine
 10
6412.7687422231
 20
5290.7883458605
 30
0.0
 11
6412.7687422231
 21
5291.6994624605
 31
0.0
  0
LINE
  5
D5
330
1F
100
AcDbEntity
  8
0
  6
Continuous
 62
     7
370
    25
100
AcDbLine
 10
6412.7687422231
 20
5289.2008357515
 30
0.0
 11
6412.7687422231
 21
5289.3993788233
 31
0.0
  0
LINE
  5
D6
330
1F
100
AcDbEntity
  8
0
  6
Continuous
 62
     7
370
    25
100
AcDbLine
 10
6412.7687422231
 20
5287.6133554449
 30
0.0
 11
6412.7687422231
 21
5287.8118985167
 31
0.0
  0
LINE
  5
D7
330
1F
100
AcDbEntity
  8
0
  6
Continuous
 62
     7
370
    25
100
AcDbLine
 10
6412.7687422231
 20
5286.025845336
 30
0.0
 11
6412.7687422231
 21
5286.2243884077
 31
0.0
  0
LINE
  5
D8
330
1F
100
AcDbEntity
  8
0
  6
Continuous
 62
     7
370
    25
100
AcDbLine
 10
6412.7687422231
 20
5284.438335227
 30
0.0
 11
6412.7687422231
 21
5284.6368782988
 31
0.0
  0
LINE
  5
D9
330
1F
100
AcDbEntity
  8
0
  6
Continuous
 62
     7
370
    25
100
AcDbLine
 10
6412.7687422231
 20
5282.8508549204
 30
0.0
 11
6412.7687422231
 21
5283.0493979921
 31
0.0
  0
LINE
  5
DA
330
1F
100
AcDbEntity
  8
0
  6
Continuous
 62
     7
370
    25
100
AcDbLine
 10
6412.7687422231
 20
5281.2633448115
 30
0.0
 11
6412.7687422231
 21
5281.4618878832
 31
0.0
  0
LINE
  5
DB
330
1F
100
AcDbEntity
  8
0
  6
Continuous
 62
     7
370
    25
100
AcDbLine
 10
6412.7687422231
 20
5279.6758347025
 30
0.0
 11
6412.7687422231
 21
5279.8743777743
 31
0.0
  0
LINE
  5
DC
330
1F
100
AcDbEntity
  8
0
  6
Continuous
 62
     7
370
    25
100
AcDbLine
 10
6365.2687577203
 20
5279.0805631151
 30
0.0
 11
6365.2687577203
 21
5278.8821392527
 31
0.0
  0
LINE
  5
DD
330
1F
100
AcDbEntity
  8
0
  6
Continuous
 62
     7
370
    25
100
AcDbLine
 10
6365.2687577203
 20
5280.6680732241
 30
0.0
 11
6365.2687577203
 21
5280.4696195593
 31
0.0
  0
LINE
  5
DE
330
1F
100
AcDbEntity
  8
0
  6
Continuous
 62
     7
370
    25
100
AcDbLine
 10
6365.2687577203
 20
5282.2555535307
 30
0.0
 11
6365.2687577203
 21
5282.0571296683
 31
0.0
  0
LINE
  5
DF
330
1F
100
AcDbEntity
  8
0
  6
Continuous
 62
     7
370
    25
100
AcDbLine
 10
6365.2687577203
 20
5283.8430636397
 30
0.0
 11
6365.2687577203
 21
5283.6446397772
 31
0.0
  0
LINE
  5
E0
330
1F
100
AcDbEntity
  8
0
  6
Continuous
 62
     7
370
    25
100
AcDbLine
 10
6365.2687577203
 20
5285.4305737486
 30
0.0
 11
6365.2687577203
 21
5285.2321200838
 31
0.0
  0
LINE
  5
E1
330
1F
100
AcDbEntity
  8
0
  6
Continuous
 62
     7
370
    25
100
AcDbLine
 10
6365.2687577203
 20
5287.0180540552
 30
0.0
 11
6365.2687577203
 21
5286.8196301928
 31
0.0
  0
LINE
  5
E2
330
1F
100
AcDbEntity
  8
0
  6
Continuous
 62
     7
370
    25
100
AcDbLine
 10
6365.2687577203
 20
5288.6055641642
 30
0.0
 11
6365.2687577203
 21
5288.4071403017
 31
0.0
  0
LINE
  5
E3
330
1F
100
AcDbEntity
  8
0
  6
Continuous
 62
     7
370
    25
100
AcDbLine
 10
6365.2687577203
 20
5291.6994624605
 30
0.0
 11
6365.2687577203
 21
5289.9946206083
 31
0.0
  0
SPLINE
  5
E4
330
1F
100
AcDbEntity
  8
0
  6
Continuous
 62
     7
370
    25
100
AcDbSpline
210
0.0
220
0.0
230
1.0
 70
     8
 71
     3
 72
     9
 73
     5
 74
     0
 42
0.000000001
 43
0.00000001
 40
0.0
 40
0.0
 40
0.0
 40
0.0
 40
0.4999795520677681
 40
1.0
 40
1.0
 40
1.0
 40
1.0
 10
6366.131773371989
 20
5289.106153773322
 30
0.0
 10
6365.987688614589
 20
5289.022956405454
 30
0.0
 10
6365.699507314366
 20
5288.856554864584
 30
0.0
 10
6365.41133156775
 20
5288.690143937371
 30
0.0
 10
6365.267237801844
 20
5288.606935071006
 30
0.0
  0
SPLINE
  5
E5
330
1F
100
AcDbEntity
  8
0
  6
Continuous
 62
     7
370
    25
100
AcDbSpline
210
0.0
220
0.0
230
1.0
 70
    24
 71
     3
 72
     9
 73
     5
 74
     0
 42
0.000000001
 43
0.00000001
 40
0.0
 40
0.0
 40
0.0
 40
0.0
 40
0.5000007128629772
 40
1.0
 40
1.0
 40
1.0
 40
1.0
 10
6366.135021825129
 20
5287.520252989783
 30
0.0
 10
6365.990927699104
 20
5287.437044964993
 30
0.0
 10
6365.702739857932
 20
5287.270629152677
 30
0.0
 10
6365.414550784125
 20
5287.104212628567
 30
0.0
 10
6365.270456452662
 20
5287.021004485145
 30
0.0
  0
SPLINE
  5
E6
330
1F
100
AcDbEntity
  8
0
  6
Continuous
 62
     7
370
    25
100
AcDbSpline
210
0.0
220
0.0
230
1.0
 70
     8
 71
     3
 72
     9
 73
     5
 74
     0
 42
0.000000001
 43
0.00000001
 40
0.0
 40
0.0
 40
0.0
 40
0.0
 40
0.5000082621073206
 40
1.0
 40
1.0
 40
1.0
 40
1.0
 10
6366.13478340655
 20
5285.932653473868
 30
0.0
 10
6365.990700302392
 20
5285.849443593609
 30
0.0
 10
6365.702538855718
 20
5285.683026582999
 30
0.0
 10
6365.414363123765
 20
5285.516631125517
 30
0.0
 10
6365.270277638728
 20
5285.433434771552
 30
0.0
  0
SPLINE
  5
E7
330
1F
100
AcDbEntity
  8
0
  6
Continuous
 62
     7
370
    25
100
AcDbSpline
210
0.0
220
0.0
230
1.0
 70
     8
 71
     3
 72
     9
 73
     5
 74
     0
 42
0.000000001
 43
0.00000001
 40
0.0
 40
0.0
 40
0.0
 40
0.0
 40
0.5000122756827355
 40
1.0
 40
1.0
 40
1.0
 40
1.0
 10
6366.129806418711
 20
5284.342312144294
 30
0.0
 10
6365.985711475199
 20
5284.259105081674
 30
0.0
 10
6365.697528663455
 20
5284.092695042027
 30
0.0
 10
6365.409354428506
 20
5283.926272745148
 30
0.0
 10
6365.265270848567
 20
5283.843063639655
 30
0.0
  0
SPLINE
  5
E8
330
1F
100
AcDbEntity
  8
0
  6
Continuous
 62
     7
370
    25
100
AcDbSpline
210
0.0
220
0.0
230
1.0
 70
    24
 71
     3
 72
     9
 73
     5
 74
     0
 42
0.000000001
 43
0.00000001
 40
0.0
 40
0.0
 40
0.0
 40
0.0
 40
0.4999991462410704
 40
1.0
 40
1.0
 40
1.0
 40
1.0
 10
6366.129985232646
 20
5282.754951046958
 30
0.0
 10
6365.985890880879
 20
5282.671742891812
 30
0.0
 10
6365.69770168526
 20
5282.505326297362
 30
0.0
 10
6365.4095139659
 20
5282.338910555386
 30
0.0
 10
6365.265419860179
 20
5282.255702542319
 30
0.0
  0
SPLINE
  5
E9
330
1F
100
AcDbEntity
  8
0
  6
Continuous
 62
     7
370
    25
100
AcDbSpline
210
0.0
220
0.0
230
1.0
 70
     8
 71
     3
 72
     9
 73
     5
 74
     0
 42
0.000000001
 43
0.00000001
 40
0.0
 40
0.0
 40
0.0
 40
0.0
 40
0.5000129446625221
 40
1.0
 40
1.0
 40
1.0
 40
1.0
 10
6366.131981988246
 20
5281.168782042518
 30
0.0
 10
6365.987887141129
 20
5281.085575035568
 30
0.0
 10
6365.69970490774
 20
5280.919165329902
 30
0.0
 10
6365.41153009443
 20
5280.75274269903
 30
0.0
 10
6365.267446418101
 20
5280.669533537879
 30
0.0
  0
SPLINE
  5
EA
330
1F
100
AcDbEntity
  8
0
  6
Continuous
 62
     7
370
    25
100
AcDbSpline
210
0.0
220
0.0
230
1.0
 70
     8
 71
     3
 72
     9
 73
     5
 74
     0
 42
0.000000001
 43
0.00000001
 40
0.0
 40
0.0
 40
0.0
 40
0.0
 40
0.4999805956134291
 40
1.0
 40
1.0
 40
1.0
 40
1.0
 10
6366.135856290156
 20
5279.583089875236
 30
0.0
 10
6365.991771683106
 20
5279.49989259419
 30
0.0
 10
6365.70359128508
 20
5279.333491574281
 30
0.0
 10
6365.415414636294
 20
5279.167080126115
 30
0.0
 10
6365.271320720011
 20
5279.083871172919
 30
0.0
  0
SPLINE
  5
EB
330
1F
100
AcDbEntity
  8
0
  6
Continuous
 62
     7
370
    25
100
AcDbSpline
210
0.0
220
0.0
230
1.0
 70
     8
 71
     3
 72
     9
 73
     5
 74
     0
 42
0.000000001
 43
0.00000001
 40
0.0
 40
0.0
 40
0.0
 40
0.0
 40
0.5009060305414651
 40
1.0
 40
1.0
 40
1.0
 40
1.0
 10
6412.772497315699
 20
5279.874109553351
 30
0.0
 10
6412.628404267585
 20
5279.957319383551
 30
0.0
 10
6412.3407394376
 20
5280.123438026822
 30
0.0
 10
6412.053060491256
 20
5280.289535792705
 30
0.0
 10
6411.909481663996
 20
5280.372434185996
 30
0.0
  0
SPLINE
  5
EC
330
1F
100
AcDbEntity
  8
0
  6
Continuous
 62
     7
370
    25
100
AcDbSpline
210
0.0
220
0.0
230
1.0
 70
     8
 71
     3
 72
     9
 73
     5
 74
     0
 42
0.000000001
 43
0.00000001
 40
0.0
 40
0.0
 40
0.0
 40
0.0
 40
0.5033991854938078
 40
1.0
 40
1.0
 40
1.0
 40
1.0
 10
6412.768205781275
 20
5281.464242266669
 30
0.0
 10
6412.624111271226
 20
5281.547450053469
 30
0.0
 10
6412.337868237465
 20
5281.712741911694
 30
0.0
 10
6412.051628533921
 20
5281.878037289584
 30
0.0
 10
6411.909481663996
 20
5281.960123108878
 30
0.0
  0
SPLINE
  5
ED
330
1F
100
AcDbEntity
  8
0
  6
Continuous
 62
     7
370
    25
100
AcDbSpline
210
0.0
220
0.0
230
1.0
 70
     8
 71
     3
 72
     9
 73
     5
 74
     0
 42
0.000000001
 43
0.00000001
 40
0.0
 40
0.0
 40
0.0
 40
0.0
 40
0.5043841805710676
 40
1.0
 40
1.0
 40
1.0
 40
1.0
 10
6412.766536851222
 20
5283.052467631354
 30
0.0
 10
6412.62244302821
 20
5283.13567670773
 30
0.0
 10
6412.336760351073
 20
5283.300648329723
 30
0.0
 10
6412.051072889409
 20
5283.465608250577
 30
0.0
 10
6411.909481663996
 20
5283.547364996924
 30
0.0
  0
SPLINE
  5
EE
330
1F
100
AcDbEntity
  8
0
  6
Continuous
 62
     7
370
    25
100
AcDbSpline
210
0.0
220
0.0
230
1.0
 70
     8
 71
     3
 72
     9
 73
     5
 74
     0
 42
0.000000001
 43
0.00000001
 40
0.0
 40
0.0
 40
0.0
 40
0.0
 40
0.5022111800720022
 40
1.0
 40
1.0
 40
1.0
 40
1.0
 10
6412.770202536875
 20
5284.638219403281
 30
0.0
 10
6412.626120051735
 20
5284.721430615116
 30
0.0
 10
6412.339223839825
 20
5284.88712029933
 30
0.0
 10
6412.052306104753
 20
5285.052772780581
 30
0.0
 10
6411.909481663996
 20
5285.135232733741
 30
0.0
  0
SPLINE
  5
EF
330
1F
100
AcDbEntity
  8
0
  6
Continuous
 62
     7
370
    25
100
AcDbSpline
210
0.0
220
0.0
230
1.0
 70
     8
 71
     3
 72
     9
 73
     5
 74
     0
 42
0.000000001
 43
0.00000001
 40
0.0
 40
0.0
 40
0.0
 40
0.0
 40
0.5009859669844877
 40
1.0
 40
1.0
 40
1.0
 40
1.0
 10
6412.772348304087
 20
5286.22423939611
 30
0.0
 10
6412.628254308231
 20
5286.307447558098
 30
0.0
 10
6412.340633485789
 20
5286.473536365913
 30
0.0
 10
6412.053009879674
 20
5286.639624242819
 30
0.0
 10
6411.909481663996
 20
5286.72250442411
 30
0.0
  0
SPLINE
  5
F0
330
1F
100
AcDbEntity
  8
0
  6
Continuous
 62
     7
370
    25
100
AcDbSpline
210
0.0
220
0.0
230
1.0
 70
     8
 71
     3
 72
     9
 73
     5
 74
     0
 42
0.000000001
 43
0.00000001
 40
0.0
 40
0.0
 40
0.0
 40
0.0
 40
0.5012757020971429
 40
1.0
 40
1.0
 40
1.0
 40
1.0
 10
6412.771811862284
 20
5287.812166737571
 30
0.0
 10
6412.62772962674
 20
5287.895378244358
 30
0.0
 10
6412.340298508612
 20
5288.061377726158
 30
0.0
 10
6412.052842806974
 20
5288.227336344574
 30
0.0
 10
6411.909481663996
 20
5288.310103940024
 30
0.0
  0
SPLINE
  5
F1
330
1F
100
AcDbEntity
  8
0
  6
Continuous
 62
     7
370
    25
100
AcDbSpline
210
0.0
220
0.0
230
1.0
 70
     8
 71
     3
 72
     9
 73
     5
 74
     0
 42
0.000000001
 43
0.00000001
 40
0.0
 40
0.0
 40
0.0
 40
0.0
 40
0.5780299324930925
 40
1.0
 40
1.0
 40
1.0
 40
1.0
 10
6412.766566653544
 20
5289.402478264823
 30
0.0
 10
6412.622481862661
 20
5289.485675899811
 30
0.0
 10
6412.373213126245
 20
5289.629608991007
 30
0.0
 10
6412.123948845546
 20
5289.773546706412
 30
0.0
 10
6412.018766780192
 20
5289.834284113898
 30
0.0
  0
LINE
  5
F2
330
1F
100
AcDbEntity
  8
0
  6
Continuous
 62
     7
370
    25
100
AcDbLine
 10
6411.909481664
 20
5280.3706162443
 30
0.0
 11
6411.909481664
 21
5280.7658844462
 31
0.0
  0
LINE
  5
F3
330
1F
100
AcDbEntity
  8
0
  6
Continuous
 62
     7
370
    25
100
AcDbLine
 10
6411.909481664
 20
5281.9581263533
 30
0.0
 11
6411.909481664
 21
5282.3533945551
 31
0.0
  0
LINE
  5
F4
330
1F
100
AcDbEntity
  8
0
  6
Continuous
 62
     7
370
    25
100
AcDbLine
 10
6411.909481664
 20
5283.5456066599
 30
0.0
 11
6411.909481664
 21
5283.9408748617
 31
0.0
  0
LINE
  5
F5
330
1F
100
AcDbEntity
  8
0
  6
Continuous
 62
     7
370
    25
100
AcDbLine
 10
6411.909481664
 20
5285.1331167689
 30
0.0
 11
6411.909481664
 21
5285.5283849707
 31
0.0
  0
LINE
  5
F6
330
1F
100
AcDbEntity
  8
0
  6
Continuous
 62
     7
370
    25
100
AcDbLine
 10
6411.909481664
 20
5286.7206268778
 30
0.0
 11
6411.909481664
 21
5287.1158950796
 31
0.0
  0
LINE
  5
F7
330
1F
100
AcDbEntity
  8
0
  6
Continuous
 62
     7
370
    25
100
AcDbLine
 10
6411.909481664
 20
5288.3081071844
 30
0.0
 11
6411.909481664
 21
5288.7033753863
 31
0.0
  0
LINE
  5
F8
330
1F
100
AcDbEntity
  8
0
  6
Continuous
 62
     7
370
    25
100
AcDbLine
 10
6366.1280182794
 20
5281.561248826
 30
0.0
 11
6366.1280182794
 21
5281.1664872637
 31
0.0
  0
LINE
  5
F9
330
1F
100
AcDbEntity
  8
0
  6
Continuous
 62
     7
370
    25
100
AcDbLine
 10
6366.1280182794
 20
5283.1487291327
 30
0.0
 11
6366.1280182794
 21
5282.7538185587
 31
0.0
  0
LINE
  5
FA
330
1F
100
AcDbEntity
  8
0
  6
Continuous
 62
     7
370
    25
100
AcDbLine
 10
6366.1280182794
 20
5284.7362392416
 30
0.0
 11
6366.1280182794
 21
5284.341269063
 31
0.0
  0
LINE
  5
FB
330
1F
100
AcDbEntity
  8
0
  6
Continuous
 62
     7
370
    25
100
AcDbLine
 10
6366.1280182794
 20
5286.3237493506
 30
0.0
 11
6366.1280182794
 21
5285.9287493696
 31
0.0
  0
LINE
  5
FC
330
1F
100
AcDbEntity
  8
0
  6
Continuous
 62
     7
370
    25
100
AcDbLine
 10
6366.1280182794
 20
5287.9112296572
 30
0.0
 11
6366.1280182794
 21
5287.5161998739
 31
0.0
  0
LINE
  5
FD
330
1F
100
AcDbEntity
  8
0
  6
Continuous
 62
     7
370
    25
100
AcDbLine
 10
6366.1280182794
 20
5279.9737387171
 30
0.0
 11
6366.1280182794
 21
5279.5785599222
 31
0.0
  0
LINE
  5
FE
330
1F
100
AcDbEntity
  8
0
  6
Continuous
 62
     7
370
    25
100
AcDbLine
 10
6411.909481664
 20
5278.7831061354
 30
0.0
 11
6411.909481664
 21
5279.1783743372
 31
0.0
  0
LINE
  5
FF
330
1F
100
AcDbEntity
  8
0
  6
Continuous
 62
     7
370
    25
100
AcDbLine
 10
6411.268761535
 20
5276.6994469633
 30
0.0
 11
6411.268761535
 21
5278.6994510164
 31
0.0
  0
LINE
  5
100
330
1F
100
AcDbEntity
  8
0
  6
Continuous
 62
     7
370
    25
100
AcDbLine
 10
6366.7687682107
 20
5278.6994510164
 30
0.0
 11
6366.7687682107
 21
5276.6994469633
 31
0.0
  0
LINE
  5
101
330
1F
100
AcDbEntity
  8
0
  6
Continuous
 62
     7
370
    25
100
AcDbLine
 10
6366.0187629655
 20
5289.230548667
 30
0.0
 11
6366.0241869882
 21
5289.0502446165
 31
0.0
  0
LWPOLYLINE
  5
102
330
1F
100
AcDbEntity
  8
0
  6
Continuous
 62
     7
370
    25
100
AcDbPolyline
 90
        3
 70
   128
 43
0.0
 10
6411.8790236905
 20
5288.32563095
 10
6411.9610992864
 20
5288.6452608576
 10
6411.9792489007
 20
5288.7451880446
  0
LINE
  5
103
330
1F
100
AcDbEntity
  8
0
  6
Continuous
 62
     7
370
    25
100
AcDbLine
 10
6366.0187629655
 20
5289.5617418757
 30
0.0
 11
6366.0187629655
 21
5289.230548667
 31
0.0
  0
LINE
  5
104
330
1F
100
AcDbEntity
  8
0
  6
Continuous
 62
     7
370
    25
100
AcDbLine
 10
6412.0187667802
 20
5289.8324661722
 30
0.0
 11
6412.0187667802
 21
5290.3554969301
 31
0.0
  0
LINE
  5
105
330
1F
100
AcDbEntity
  8
0
  6
Continuous
 62
     7
370
    25
100
AcDbLine
 10
6315.0187639192
 20
5243.2305448523
 30
0.0
 11
6369.018754144
 21
5243.2305448523
 31
0.0
  0
LINE
  5
106
330
1F
100
AcDbEntity
  8
0
  6
Continuous
 62
     7
370
    25
100
AcDbLine
 10
6369.018754144
 20
5275.2305202952
 30
0.0
 11
6315.0187639192
 21
5275.2305202952
 31
0.0
  0
ARC
  5
107
330
1F
100
AcDbEntity
  8
0
  6
Continuous
 62
     7
370
    25
100
AcDbCircle
 10
6369.0187553361
 20
5279.2305344664
 30
0.0
 40
4.000000000000909
100
AcDbArc
 50
270.0
 51
320.7452172613
  0
ARC
  5
108
330
1F
100
AcDbEntity
  8
0
  6
Continuous
 62
     7
370
    25
100
AcDbCircle
 10
6369.0187553361
 20
5279.2305344664
 30
0.0
 40
36.00000000000091
100
AcDbArc
 50
270.0
 51
355.9683350605
  0
LINE
  5
109
330
1F
100
AcDbEntity
  8
0
  6
Continuous
 62
     7
370
    25
100
AcDbLine
 10
6136.0187587932
 20
5289.230548667
 30
0.0
 11
6136.0241753653
 21
5289.0502446165
 31
0.0
  0
LWPOLYLINE
  5
10A
330
1F
100
AcDbEntity
  8
0
  6
Continuous
 62
     7
370
    25
100
AcDbPolyline
 90
        3
 70
   128
 43
0.0
 10
6181.8790344194
 20
5288.32563095
 10
6181.9611100152
 20
5288.6452608576
 10
6181.9792298272
 20
5288.7451880446
  0
LINE
  5
10B
330
1F
100
AcDbEntity
  8
0
  6
Continuous
 62
     7
370
    25
100
AcDbLine
 10
6136.0187587932
 20
5289.5617418757
 30
0.0
 11
6136.0187587932
 21
5289.230548667
 31
0.0
  0
LINE
  5
10C
330
1F
100
AcDbEntity
  8
0
  6
Continuous
 62
     7
370
    25
100
AcDbLine
 10
6182.0187626079
 20
5289.8324661722
 30
0.0
 11
6182.0187626079
 21
5290.3554969301
 31
0.0
  0
ARC
  5
10D
330
1F
100
AcDbEntity
  8
0
  6
Continuous
 62
     7
370
    25
100
AcDbCircle
 10
6179.0187553361
 20
5279.2305344664
 30
0.0
 40
4.000000000000909
100
AcDbArc
 50
219.2547827387
 51
270.0
  0
ARC
  5
10E
330
1F
100
AcDbEntity
  8
0
  6
Continuous
 62
     7
370
    25
100
AcDbCircle
 10
6179.0187553361
 20
5279.2305344664
 30
0.0
 40
36.00000000000091
100
AcDbArc
 50
184.0316649395
 51
270.0
  0
LINE
  5
10F
330
1F
100
AcDbEntity
  8
0
  6
Continuous
 62
     7
370
    25
100
AcDbLine
 10
6233.0187616542
 20
5275.2305202952
 30
0.0
 11
6179.0187565282
 21
5275.2305202952
 31
0.0
  0
LINE
  5
110
330
1F
100
AcDbEntity
  8
0
  6
Continuous
 62
     7
370
    25
100
AcDbLine
 10
6179.0187565282
 20
5243.2305448523
 30
0.0
 11
6233.0187616542
 21
5243.2305448523
 31
0.0
  0
LINE
  5
111
330
1F
100
AcDbEntity
  8
0
  6
Continuous
 62
     7
370
    25
100
AcDbLine
 10
6315.0187639192
 20
5284.230523633
 30
0.0
 11
6311.0187558129
 21
5282.2305195799
 31
0.0
  0
LINE
  5
112
330
1F
100
AcDbEntity
  8
0
  6
Continuous
 62
     7
370
    25
100
AcDbLine
 10
6311.0187558129
 20
5236.2305455675
 30
0.0
 11
6315.0187639192
 21
5234.2305415144
 31
0.0
  0
LINE
  5
113
330
1F
100
AcDbEntity
  8
0
  6
Continuous
 62
     7
370
    25
100
AcDbLine
 10
6233.0187616542
 20
5234.2305415144
 30
0.0
 11
6237.0187548593
 21
5236.2305455675
 31
0.0
  0
LINE
  5
114
330
1F
100
AcDbEntity
  8
0
  6
Continuous
 62
     7
370
    25
100
AcDbLine
 10
6237.0187548593
 20
5282.2305195799
 30
0.0
 11
6233.0187616542
 21
5284.230523633
 31
0.0
  0
LINE
  5
115
330
1F
100
AcDbEntity
  8
0
  6
Continuous
 62
     7
370
    25
100
AcDbLine
 10
6311.0187558129
 20
5282.2305195799
 30
0.0
 11
6304.0187565282
 21
5282.2305195799
 31
0.0
  0
LINE
  5
116
330
1F
100
AcDbEntity
  8
0
  6
Continuous
 62
     7
370
    25
100
AcDbLine
 10
6304.0187565282
 20
5236.2305455675
 30
0.0
 11
6311.0187558129
 21
5236.2305455675
 31
0.0
  0
ARC
  5
117
330
1F
100
AcDbEntity
  8
0
  6
Continuous
 62
     7
370
    25
100
AcDbCircle
 10
6244.0187553361
 20
5239.2305344664
 30
0.0
 40
3.0
100
AcDbArc
 50
270.0
 51
0.0
  0
ARC
  5
118
330
1F
100
AcDbEntity
  8
0
  6
Continuous
 62
     7
370
    25
100
AcDbCircle
 10
6244.0187553361
 20
5279.2305344664
 30
0.0
 40
3.0
100
AcDbArc
 50
0.0
 51
90.0
  0
LINE
  5
119
330
1F
100
AcDbEntity
  8
0
  6
Continuous
 62
     7
370
    25
100
AcDbLine
 10
6237.0187548593
 20
5236.2305455675
 30
0.0
 11
6244.018754144
 21
5236.2305455675
 31
0.0
  0
LINE
  5
11A
330
1F
100
AcDbEntity
  8
0
  6
Continuous
 62
     7
370
    25
100
AcDbLine
 10
6244.018754144
 20
5282.2305195799
 30
0.0
 11
6237.0187548593
 21
5282.2305195799
 31
0.0
  0
ARC
  5
11B
330
1F
100
AcDbEntity
  8
0
  6
Continuous
 62
     7
370
    25
100
AcDbCircle
 10
6304.0187553361
 20
5279.2305344664
 30
0.0
 40
3.0
100
AcDbArc
 50
90.0
 51
180.0
  0
ARC
  5
11C
330
1F
100
AcDbEntity
  8
0
  6
Continuous
 62
     7
370
    25
100
AcDbCircle
 10
6304.0187553361
 20
5239.2305344664
 30
0.0
 40
3.0
100
AcDbArc
 50
180.0
 51
270.0
  0
ARC
  5
11D
330
1F
100
AcDbEntity
  8
0
  6
Continuous
 62
     7
370
    25
100
AcDbCircle
 10
6294.0187553361
 20
5239.2305344664
 30
0.0
 40
4.000000000000909
100
AcDbArc
 50
90.0
 51
180.0
  0
ARC
  5
11E
330
1F
100
AcDbEntity
  8
0
  6
Continuous
 62
     7
370
    25
100
AcDbCircle
 10
6294.0187553361
 20
5239.2305344664
 30
0.0
 40
36.00000000000124
100
AcDbArc
 50
90.0
 51
123.749538369
  0
ARC
  5
11F
330
1F
100
AcDbEntity
  8
0
  6
Continuous
 62
     7
370
    25
100
AcDbCircle
 10
6254.0187553361
 20
5239.2305344664
 30
0.0
 40
4.0
100
AcDbArc
 50
0.0
 51
90.0
  0
ARC
  5
120
330
1F
100
AcDbEntity
  8
0
  6
Continuous
 62
     7
370
    25
100
AcDbCircle
 10
6254.0187553361
 20
5239.2305344664
 30
0.0
 40
36.00000000000031
100
AcDbArc
 50
56.2536907708
 51
90.0
  0
LINE
  5
121
330
1F
100
AcDbEntity
  8
0
  6
Continuous
 62
     7
370
    25
100
AcDbLine
 10
6247.0187602237
 20
5243.2305448523
 30
0.0
 11
6254.0187595084
 21
5243.2305448523
 31
0.0
  0
LINE
  5
122
330
1F
100
AcDbEntity
  8
0
  6
Continuous
 62
     7
370
    25
100
AcDbLine
 10
6254.0187595084
 20
5275.2305202952
 30
0.0
 11
6247.0187602237
 21
5275.2305202952
 31
0.0
  0
LINE
  5
123
330
1F
100
AcDbEntity
  8
0
  6
Continuous
 62
     7
370
    25
100
AcDbLine
 10
6301.0187653497
 20
5275.2305202952
 30
0.0
 11
6294.0187660649
 21
5275.2305202952
 31
0.0
  0
LINE
  5
124
330
1F
100
AcDbEntity
  8
0
  6
Continuous
 62
     7
370
    25
100
AcDbLine
 10
6294.0187660649
 20
5243.2305448523
 30
0.0
 11
6301.0187653497
 21
5243.2305448523
 31
0.0
  0
LINE
  5
125
330
1F
100
AcDbEntity
  8
0
  6
Continuous
 62
     7
370
    25
100
AcDbLine
 10
6290.0187579587
 20
5210.1994686594
 30
0.0
 11
6290.0187579587
 21
5212.6994662752
 31
0.0
  0
LINE
  5
126
330
1F
100
AcDbEntity
  8
0
  6
Continuous
 62
     7
370
    25
100
AcDbLine
 10
6290.0187579587
 20
5226.6994648447
 30
0.0
 11
6290.0187579587
 21
5239.230536746
 31
0.0
  0
LINE
  5
127
330
1F
100
AcDbEntity
  8
0
  6
Continuous
 62
     7
370
    25
100
AcDbLine
 10
6258.0187527135
 20
5239.230536746
 30
0.0
 11
6258.0187527135
 21
5226.6994648447
 31
0.0
  0
LINE
  5
128
330
1F
100
AcDbEntity
  8
0
  6
Continuous
 62
     7
370
    25
100
AcDbLine
 10
6258.0187527135
 20
5212.6994662752
 30
0.0
 11
6258.0187527135
 21
5210.1994686594
 31
0.0
  0
LINE
  5
129
330
1F
100
AcDbEntity
  8
0
  6
Continuous
 62
     7
370
    25
100
AcDbLine
 10
6308.0187646344
 20
5150.1994662752
 30
0.0
 11
6301.328202863
 21
5207.5470917692
 31
0.0
  0
LINE
  5
12A
330
1F
100
AcDbEntity
  8
0
  6
Continuous
 62
     7
370
    25
100
AcDbLine
 10
6246.7093078092
 20
5207.5470917692
 30
0.0
 11
6240.0187609389
 21
5150.1994662752
 31
0.0
  0
LINE
  5
12B
330
1F
100
AcDbEntity
  8
0
  6
Continuous
 62
     7
370
    25
100
AcDbLine
 10
6240.0187609389
 20
5150.1994662752
 30
0.0
 11
6246.9125447467
 21
5082.8937523832
 31
0.0
  0
LINE
  5
12C
330
1F
100
AcDbEntity
  8
0
  6
Continuous
 62
     7
370
    25
100
AcDbLine
 10
6301.1249808267
 20
5082.8937523832
 30
0.0
 11
6308.0187646344
 21
5150.1994662752
 31
0.0
  0
ARC
  5
12D
330
1F
100
AcDbEntity
  8
0
  6
Continuous
 62
     7
370
    25
100
AcDbCircle
 10
6249.6891029982
 20
5207.1994545927
 30
0.0
 40
3.0
100
AcDbArc
 50
90.0
 51
173.345574954
  0
ARC
  5
12E
330
1F
100
AcDbEntity
  8
0
  6
Continuous
 62
     7
370
    25
100
AcDbCircle
 10
6298.348407674
 20
5207.1994545927
 30
0.0
 40
3.0
100
AcDbArc
 50
6.654425046
 51
90.0
  0
ARC
  5
12F
330
1F
100
AcDbEntity
  8
0
  6
Continuous
 62
     7
370
    25
100
AcDbCircle
 10
6249.8969274699
 20
5083.1994545927
 30
0.0
 40
3.000000000000332
100
AcDbArc
 50
185.8481280261
 51
270.0
  0
ARC
  5
130
330
1F
100
AcDbEntity
  8
0
  6
Continuous
 62
     7
370
    25
100
AcDbCircle
 10
6298.1405832023
 20
5083.1994545927
 30
0.0
 40
3.000000000000332
100
AcDbArc
 50
270.0
 51
354.1518719739
  0
LINE
  5
131
330
1F
100
AcDbEntity
  8
0
  6
Continuous
 62
     7
370
    25
100
AcDbLine
 10
6299.0187612966
 20
5212.6994662752
 30
0.0
 11
6297.0187572434
 21
5216.6994445791
 31
0.0
  0
LINE
  5
132
330
1F
100
AcDbEntity
  8
0
  6
Continuous
 62
     7
370
    25
100
AcDbLine
 10
6251.0187534288
 20
5216.6994445791
 30
0.0
 11
6249.0187493756
 21
5212.6994662752
 31
0.0
  0
LINE
  5
133
330
1F
100
AcDbEntity
  8
0
  6
Continuous
 62
     7
370
    25
100
AcDbLine
 10
6251.0187534288
 20
5223.6994438639
 30
0.0
 11
6251.0187534288
 21
5216.6994445791
 31
0.0
  0
LINE
  5
134
330
1F
100
AcDbEntity
  8
0
  6
Continuous
 62
     7
370
    25
100
AcDbLine
 10
6297.0187572434
 20
5216.6994445791
 30
0.0
 11
6297.0187572434
 21
5223.6994438639
 31
0.0
  0
ARC
  5
135
330
1F
100
AcDbEntity
  8
0
  6
Continuous
 62
     7
370
    25
100
AcDbCircle
 10
6254.0187553361
 20
5223.6994545927
 30
0.0
 40
3.0
100
AcDbArc
 50
90.0
 51
180.0
  0
ARC
  5
136
330
1F
100
AcDbEntity
  8
0
  6
Continuous
 62
     7
370
    25
100
AcDbCircle
 10
6294.0187553361
 20
5223.6994545927
 30
0.0
 40
3.0
100
AcDbArc
 50
0.0
 51
90.0
  0
LINE
  5
137
330
1F
100
AcDbEntity
  8
0
  6
Continuous
 62
     7
370
    25
100
AcDbLine
 10
6258.0187527135
 20
5212.6994662752
 30
0.0
 11
6258.0187527135
 21
5210.1994686594
 31
0.0
  0
LINE
  5
138
330
1F
100
AcDbEntity
  8
0
  6
Continuous
 62
     7
370
    25
100
AcDbLine
 10
6290.0187579587
 20
5210.1994686594
 30
0.0
 11
6290.0187579587
 21
5212.6994662752
 31
0.0
  0
LINE
  5
139
330
1F
100
AcDbEntity
  8
0
  6
Continuous
 62
     7
370
    25
100
AcDbLine
 10
6184.768757005
 20
5293.3661275377
 30
0.0
 11
6133.2687569454
 21
5293.3661275377
 31
0.0
  0
LINE
  5
13A
330
1F
100
AcDbEntity
  8
0
  6
Continuous
 62
     7
370
    25
100
AcDbLine
 10
6182.7687529519
 20
5291.6994624605
 30
0.0
 11
6135.268753548
 21
5291.6994624605
 31
0.0
  0
SPLINE
  5
13B
330
1F
100
AcDbEntity
  8
0
  6
Continuous
 62
     7
370
    25
100
AcDbSpline
210
0.0
220
0.0
230
1.0
 70
     8
 71
     3
 72
    22
 73
    18
 74
     0
 42
0.000000001
 43
0.00000001
 40
0.0
 40
0.0
 40
0.0
 40
0.0
 40
0.0074262989998477
 40
0.0790651611461925
 40
0.1518782835540429
 40
0.2239995390401034
 40
0.2948845779702112
 40
0.367369852092755
 40
0.4400512463788331
 40
0.5111598179308917
 40
0.5829060737325585
 40
0.655729405611739
 40
0.7277627035258925
 40
0.7986861439782676
 40
0.8712287512950255
 40
0.9438679876724267
 40
1.0
 40
1.0
 40
1.0
 40
1.0
 10
6135.324089010054
 20
5278.882139252677
 30
0.0
 10
6135.306068152933
 20
5278.884055957802
 30
0.0
 10
6135.114206503907
 20
5278.904462434773
 30
0.0
 10
6135.884748132326
 20
5278.944039064892
 30
0.0
 10
6137.71042715759
 20
5279.00342688807
 30
0.0
 10
6140.744705978207
 20
5279.061183129726
 30
0.0
 10
6144.66234522008
 20
5279.114999590117
 30
0.0
 10
6149.329559183014
 20
5279.173716750643
 30
0.0
 10
6154.497887799255
 20
5279.232863496504
 30
0.0
 10
6159.875968584713
 20
5279.287474489249
 30
0.0
 10
6165.215148236932
 20
5279.344051418538
 30
0.0
 10
6170.26192627896
 20
5279.403459875763
 30
0.0
 10
6174.710016266014
 20
5279.46090575965
 30
0.0
 10
6178.368841708009
 20
5279.514898040889
 30
0.0
 10
6181.020214447283
 20
5279.573772229031
 30
0.0
 10
6182.565187864028
 20
5279.628704743193
 30
0.0
 10
6182.638837497246
 20
5279.661527223869
 30
0.0
 10
6182.670941729838
 20
5279.675834702506
 30
0.0
  0
SPLINE
  5
13C
330
1F
100
AcDbEntity
  8
0
  6
Continuous
 62
     7
370
    25
100
AcDbSpline
210
0.0
220
0.0
230
1.0
 70
     8
 71
     3
 72
    22
 73
    18
 74
     0
 42
0.000000001
 43
0.00000001
 40
0.0
 40
0.0
 40
0.0
 40
0.0
 40
0.0074263031428001
 40
0.0790651649872411
 40
0.1518782870882392
 40
0.223999537986592
 40
0.2948845807527082
 40
0.3673698545697813
 40
0.4400512485495622
 40
0.5111598156396614
 40
0.5829060753781459
 40
0.6557294025825656
 40
0.7277627044665868
 40
0.7986861404808001
 40
0.8712287474918458
 40
0.9438679879089806
 40
1.0
 40
1.0
 40
1.0
 40
1.0
 10
6135.324089010054
 20
5280.469619559302
 30
0.0
 10
6135.306068151522
 20
5280.471546735307
 30
0.0
 10
6135.114206585185
 20
5280.492064681562
 30
0.0
 10
6135.884748114519
 20
5280.531504805995
 30
0.0
 10
6137.710427035065
 20
5280.590961998068
 30
0.0
 10
6140.744706260433
 20
5280.648638550932
 30
0.0
 10
6144.662345025733
 20
5280.702525596922
 30
0.0
 10
6149.329559250953
 20
5280.761218747627
 30
0.0
 10
6154.497887535839
 20
5280.82038979935
 30
0.0
 10
6159.875969057292
 20
5280.874928965844
 30
0.0
 10
6165.215147743867
 20
5280.931590130559
 30
0.0
 10
6170.2619267341
 20
5280.990911729205
 30
0.0
 10
6174.710015898939
 20
5281.048440665718
 30
0.0
 10
6178.368841873669
 20
5281.102366117258
 30
0.0
 10
6181.020214494662
 20
5281.161245582187
 30
0.0
 10
6182.565187837215
 20
5281.216221651802
 30
0.0
 10
6182.638837489861
 20
5281.24903939736
 30
0.0
 10
6182.670941729838
 20
5281.263344811454
 30
0.0
  0
SPLINE
  5
13D
330
1F
100
AcDbEntity
  8
0
  6
Continuous
 62
     7
370
    25
100
AcDbSpline
210
0.0
220
0.0
230
1.0
 70
     8
 71
     3
 72
    22
 73
    18
 74
     0
 42
0.000000001
 43
0.00000001
 40
0.0
 40
0.0
 40
0.0
 40
0.0
 40
0.0074263031397963
 40
0.0790651607298585
 40
0.1518782828014056
 40
0.2239995379543584
 40
0.2948845765570683
 40
0.367369850344823
 40
0.4400512486473553
 40
0.511159815708693
 40
0.5829060711789841
 40
0.6557294027218141
 40
0.7277627045766997
 40
0.7986861405622263
 40
0.8712287475439304
 40
0.9438679879316846
 40
1.0
 40
1.0
 40
1.0
 40
1.0
 10
6135.324089010054
 20
5282.05712966825
 30
0.0
 10
6135.306068151367
 20
5282.059056907624
 30
0.0
 10
6135.114206593637
 20
5282.079575527449
 30
0.0
 10
6135.88474813855
 20
5282.11897555311
 30
0.0
 10
6137.710427162787
 20
5282.178431957339
 30
0.0
 10
6140.744705986559
 20
5282.236168794934
 30
0.0
 10
6144.662345181995
 20
5282.289994683247
 30
0.0
 10
6149.329559425043
 20
5282.348692893525
 30
0.0
 10
6154.497887363547
 20
5282.407905859124
 30
0.0
 10
6159.875968838474
 20
5282.462450087906
 30
0.0
 10
6165.215148168028
 20
5282.519049295987
 30
0.0
 10
6170.261926501547
 20
5282.578435413454
 30
0.0
 10
6174.71001593627
 20
5282.635947218374
 30
0.0
 10
6178.368841863477
 20
5282.68987719717
 30
0.0
 10
6181.020214497434
 20
5282.748755427099
 30
0.0
 10
6182.565187836703
 20
5282.803731809605
 30
0.0
 10
6182.638837489704
 20
5282.836549521139
 30
0.0
 10
6182.670941729838
 20
5282.850854920402
 30
0.0
  0
SPLINE
  5
13E
330
1F
100
AcDbEntity
  8
0
  6
Continuous
 62
     7
370
    25
100
AcDbSpline
210
0.0
220
0.0
230
1.0
 70
     8
 71
     3
 72
    22
 73
    18
 74
     0
 42
0.000000001
 43
0.00000001
 40
0.0
 40
0.0
 40
0.0
 40
0.0
 40
0.0074262989998477
 40
0.0790651611461925
 40
0.1518782835540429
 40
0.2239995390401034
 40
0.2948845779702112
 40
0.367369852092755
 40
0.4400512463788331
 40
0.5111598179308917
 40
0.5829060737325585
 40
0.655729405611739
 40
0.7277627035258925
 40
0.7986861439782676
 40
0.8712287512950255
 40
0.9438679876724267
 40
1.0
 40
1.0
 40
1.0
 40
1.0
 10
6135.324089010054
 20
5283.644639777198
 30
0.0
 10
6135.306068152933
 20
5283.646556482323
 30
0.0
 10
6135.114206503907
 20
5283.666962959294
 30
0.0
 10
6135.884748132326
 20
5283.706539589412
 30
0.0
 10
6137.71042715759
 20
5283.765927412591
 30
0.0
 10
6140.744705978207
 20
5283.823683654247
 30
0.0
 10
6144.66234522008
 20
5283.877500114638
 30
0.0
 10
6149.329559183014
 20
5283.936217275163
 30
0.0
 10
6154.497887799255
 20
5283.995364021025
 30
0.0
 10
6159.875968584713
 20
5284.04997501377
 30
0.0
 10
6165.215148236932
 20
5284.106551943059
 30
0.0
 10
6170.26192627896
 20
5284.165960400283
 30
0.0
 10
6174.710016266014
 20
5284.223406284171
 30
0.0
 10
6178.368841708009
 20
5284.27739856541
 30
0.0
 10
6181.020214447283
 20
5284.336272753552
 30
0.0
 10
6182.565187864028
 20
5284.391205267714
 30
0.0
 10
6182.638837497246
 20
5284.42402774839
 30
0.0
 10
6182.670941729838
 20
5284.438335227027
 30
0.0
  0
SPLINE
  5
13F
330
1F
100
AcDbEntity
  8
0
  6
Continuous
 62
     7
370
    25
100
AcDbSpline
210
0.0
220
0.0
230
1.0
 70
     8
 71
     3
 72
    22
 73
    18
 74
     0
 42
0.000000001
 43
0.00000001
 40
0.0
 40
0.0
 40
0.0
 40
0.0
 40
0.0074263031428001
 40
0.0790651649872411
 40
0.1518782870882392
 40
0.223999537986592
 40
0.2948845807527082
 40
0.3673698545697813
 40
0.4400512485495622
 40
0.5111598156396614
 40
0.5829060753781459
 40
0.6557294025825656
 40
0.7277627044665868
 40
0.7986861404808001
 40
0.8712287474918458
 40
0.9438679879089806
 40
1.0
 40
1.0
 40
1.0
 40
1.0
 10
6135.324089010054
 20
5285.232120083823
 30
0.0
 10
6135.306068151522
 20
5285.234047259828
 30
0.0
 10
6135.114206585185
 20
5285.254565206083
 30
0.0
 10
6135.884748114519
 20
5285.294005330516
 30
0.0
 10
6137.710427035065
 20
5285.353462522588
 30
0.0
 10
6140.744706260433
 20
5285.411139075452
 30
0.0
 10
6144.662345025733
 20
5285.465026121443
 30
0.0
 10
6149.329559250953
 20
5285.523719272148
 30
0.0
 10
6154.497887535839
 20
5285.582890323871
 30
0.0
 10
6159.875969057292
 20
5285.637429490365
 30
0.0
 10
6165.215147743867
 20
5285.69409065508
 30
0.0
 10
6170.2619267341
 20
5285.753412253726
 30
0.0
 10
6174.710015898939
 20
5285.810941190239
 30
0.0
 10
6178.368841873669
 20
5285.864866641778
 30
0.0
 10
6181.020214494662
 20
5285.923746106708
 30
0.0
 10
6182.565187837215
 20
5285.978722176323
 30
0.0
 10
6182.638837489861
 20
5286.011539921881
 30
0.0
 10
6182.670941729838
 20
5286.025845335975
 30
0.0
  0
SPLINE
  5
140
330
1F
100
AcDbEntity
  8
0
  6
Continuous
 62
     7
370
    25
100
AcDbSpline
210
0.0
220
0.0
230
1.0
 70
     8
 71
     3
 72
    22
 73
    18
 74
     0
 42
0.000000001
 43
0.00000001
 40
0.0
 40
0.0
 40
0.0
 40
0.0
 40
0.0074263031397963
 40
0.0790651607298585
 40
0.1518782828014056
 40
0.2239995379543584
 40
0.2948845765570683
 40
0.367369850344823
 40
0.4400512486473553
 40
0.511159815708693
 40
0.5829060711789841
 40
0.6557294027218141
 40
0.7277627045766997
 40
0.7986861405622263
 40
0.8712287475439304
 40
0.9438679879316846
 40
1.0
 40
1.0
 40
1.0
 40
1.0
 10
6135.324089010054
 20
5286.819630192771
 30
0.0
 10
6135.306068151367
 20
5286.821557432145
 30
0.0
 10
6135.114206593637
 20
5286.84207605197
 30
0.0
 10
6135.88474813855
 20
5286.881476077631
 30
0.0
 10
6137.710427162787
 20
5286.94093248186
 30
0.0
 10
6140.744705986559
 20
5286.998669319455
 30
0.0
 10
6144.662345181995
 20
5287.052495207768
 30
0.0
 10
6149.329559425043
 20
5287.111193418046
 30
0.0
 10
6154.497887363547
 20
5287.170406383645
 30
0.0
 10
6159.875968838474
 20
5287.224950612427
 30
0.0
 10
6165.215148168028
 20
5287.281549820507
 30
0.0
 10
6170.261926501547
 20
5287.340935937975
 30
0.0
 10
6174.71001593627
 20
5287.398447742895
 30
0.0
 10
6178.368841863477
 20
5287.452377721691
 30
0.0
 10
6181.020214497434
 20
5287.51125595162
 30
0.0
 10
6182.565187836703
 20
5287.566232334127
 30
0.0
 10
6182.638837489704
 20
5287.59905004566
 30
0.0
 10
6182.670941729838
 20
5287.613355444922
 30
0.0
  0
SPLINE
  5
141
330
1F
100
AcDbEntity
  8
0
  6
Continuous
 62
     7
370
    25
100
AcDbSpline
210
0.0
220
0.0
230
1.0
 70
     8
 71
     3
 72
    22
 73
    18
 74
     0
 42
0.000000001
 43
0.00000001
 40
0.0
 40
0.0
 40
0.0
 40
0.0
 40
0.0074262990009545
 40
0.079065161157976
 40
0.1518782835766782
 40
0.2239995347897162
 40
0.2948845778651237
 40
0.3673698519984704
 40
0.4400512462953806
 40
0.5111598178580369
 40
0.5829060736703966
 40
0.6557294055604302
 40
0.7277627034853192
 40
0.7986861439482646
 40
0.8712287512758339
 40
0.943867987664061
 40
1.0
 40
1.0
 40
1.0
 40
1.0
 10
6135.324089010054
 20
5288.407140301719
 30
0.0
 10
6135.30606815289
 20
5288.409057013171
 30
0.0
 10
6135.114206503398
 20
5288.429463557509
 30
0.0
 10
6135.884748159492
 20
5288.469036183831
 30
0.0
 10
6137.710427023812
 20
5288.528442064989
 30
0.0
 10
6140.744706260594
 20
5288.586132602967
 30
0.0
 10
6144.662345035943
 20
5288.640014701225
 30
0.0
 10
6149.329559208753
 20
5288.698713981834
 30
0.0
 10
6154.49788779252
 20
5288.757865544726
 30
0.0
 10
6159.875968586517
 20
5288.812475270513
 30
0.0
 10
6165.215148236438
 20
5288.869052540834
 30
0.0
 10
6170.261926279091
 20
5288.928460905281
 30
0.0
 10
6174.710016265979
 20
5288.985906813805
 30
0.0
 10
6178.368841708018
 20
5289.039899088535
 30
0.0
 10
6181.020214447281
 20
5289.098773278452
 30
0.0
 10
6182.565187864028
 20
5289.153705792165
 30
0.0
 10
6182.638837497246
 20
5289.18652827289
 30
0.0
 10
6182.670941729838
 20
5289.200835751548
 30
0.0
  0
SPLINE
  5
142
330
1F
100
AcDbEntity
  8
0
  6
Continuous
 62
     7
370
    25
100
AcDbSpline
210
0.0
220
0.0
230
1.0
 70
     8
 71
     3
 72
    22
 73
    18
 74
     0
 42
0.000000001
 43
0.00000001
 40
0.0
 40
0.0
 40
0.0
 40
0.0
 40
0.0074263031428001
 40
0.0790651649872411
 40
0.1518782870882392
 40
0.223999537986592
 40
0.2948845807527082
 40
0.3673698545697813
 40
0.4400512485495622
 40
0.5111598156396614
 40
0.5829060753781459
 40
0.6557294025825656
 40
0.7277627044665868
 40
0.7986861404808001
 40
0.8712287474918458
 40
0.9438679879089806
 40
1.0
 40
1.0
 40
1.0
 40
1.0
 10
6135.324089010054
 20
5289.994620608344
 30
0.0
 10
6135.306068151522
 20
5289.996547784349
 30
0.0
 10
6135.114206585185
 20
5290.017065730603
 30
0.0
 10
6135.884748114519
 20
5290.056505855037
 30
0.0
 10
6137.710427035065
 20
5290.115963047109
 30
0.0
 10
6140.744706260433
 20
5290.173639599973
 30
0.0
 10
6144.662345025733
 20
5290.227526645964
 30
0.0
 10
6149.329559250953
 20
5290.286219796668
 30
0.0
 10
6154.497887535839
 20
5290.345390848392
 30
0.0
 10
6159.875969057292
 20
5290.399930014886
 30
0.0
 10
6165.215147743867
 20
5290.456591179601
 30
0.0
 10
6170.2619267341
 20
5290.515912778247
 30
0.0
 10
6174.710015898939
 20
5290.57344171476
 30
0.0
 10
6178.368841873669
 20
5290.627367166299
 30
0.0
 10
6181.020214494662
 20
5290.686246631229
 30
0.0
 10
6182.565187837215
 20
5290.741222700844
 30
0.0
 10
6182.638837489861
 20
5290.774040446402
 30
0.0
 10
6182.670941729838
 20
5290.788345860496
 30
0.0
  0
SPLINE
  5
143
330
1F
100
AcDbEntity
  8
0
  6
Continuous
 62
     7
370
    25
100
AcDbSpline
210
0.0
220
0.0
230
1.0
 70
     8
 71
     3
 72
    16
 73
    12
 74
     0
 42
0.000000001
 43
0.00000001
 40
0.0
 40
0.0
 40
0.0
 40
0.0
 40
0.0761691747515628
 40
0.1940623089297218
 40
0.3130128775409899
 40
0.4337490371040824
 40
0.5531754094942539
 40
0.6707614073247662
 40
0.7910324983547081
 40
0.9114632494777427
 40
1.0
 40
1.0
 40
1.0
 40
1.0
 10
6151.549270530039
 20
5278.69945101644
 30
0.0
 10
6152.60410085783
 20
5278.71189915837
 30
0.0
 10
6155.291576593358
 20
5278.74361428687
 30
0.0
 10
6159.849068738142
 20
5278.791314743735
 30
0.0
 10
6164.989830726188
 20
5278.847980881533
 30
0.0
 10
6169.85548845431
 20
5278.907366423638
 30
0.0
 10
6174.14210704149
 20
5278.964813481069
 30
0.0
 10
6177.669246333314
 20
5279.018823410312
 30
0.0
 10
6180.222452489552
 20
5279.077625288021
 30
0.0
 10
6181.698943779751
 20
5279.131897414875
 30
0.0
 10
6181.771714691653
 20
5279.164019555496
 30
0.0
 10
6181.802546758944
 20
5279.177629279151
 30
0.0
  0
SPLINE
  5
144
330
1F
100
AcDbEntity
  8
0
  6
Continuous
 62
     7
370
    25
100
AcDbSpline
210
0.0
220
0.0
230
1.0
 70
     8
 71
     3
 72
    22
 73
    18
 74
     0
 42
0.000000001
 43
0.00000001
 40
0.0
 40
0.0
 40
0.0
 40
0.0
 40
0.022394825799742
 40
0.0946367073651458
 40
0.167664895547228
 40
0.243256970712774
 40
0.31839968543882
 40
0.3951397938946893
 40
0.4412114966149662
 40
0.5125203620232318
 40
0.584468822864173
 40
0.6574973211920294
 40
0.7297335859940458
 40
0.8008566723794598
 40
0.8736038739371621
 40
0.9464476428530942
 40
1.0
 40
1.0
 40
1.0
 40
1.0
 10
6136.250397343928
 20
5279.973589705482
 30
0.0
 10
6136.216095030403
 20
5279.979303086227
 30
0.0
 10
6136.071139314472
 20
5280.003446857045
 30
0.0
 10
6136.997153817752
 20
5280.047986940473
 30
0.0
 10
6139.054099046901
 20
5280.108427259192
 30
0.0
 10
6142.308070588851
 20
5280.166714953924
 30
0.0
 10
6146.523135922336
 20
5280.22451464524
 30
0.0
 10
6150.815804839031
 20
5280.278776789279
 30
0.0
 10
6155.302307000376
 20
5280.331088058803
 30
0.0
 10
6159.84565599396
 20
5280.378845786425
 30
0.0
 10
6164.990764463185
 20
5280.435450964059
 30
0.0
 10
6169.85523985018
 20
5280.494835638267
 30
0.0
 10
6174.14217186584
 20
5280.552347233133
 30
0.0
 10
6177.669228832254
 20
5280.606279257543
 30
0.0
 10
6180.222457203351
 20
5280.665150175001
 30
0.0
 10
6181.698942950947
 20
5280.719404944233
 30
0.0
 10
6181.771714445003
 20
5280.751528896762
 30
0.0
 10
6181.802546758944
 20
5280.765139388099
 30
0.0
  0
SPLINE
  5
145
330
1F
100
AcDbEntity
  8
0
  6
Continuous
 62
     7
370
    25
100
AcDbSpline
210
0.0
220
0.0
230
1.0
 70
     8
 71
     3
 72
    22
 73
    18
 74
     0
 42
0.000000001
 43
0.00000001
 40
0.0
 40
0.0
 40
0.0
 40
0.0
 40
0.0223948258124598
 40
0.0946367074188893
 40
0.1676648956424436
 40
0.2432569708509177
 40
0.3183996856196367
 40
0.395139789410521
 40
0.4412114921569616
 40
0.5125203620989501
 40
0.5844688229807503
 40
0.6574973213500791
 40
0.7297335815799146
 40
0.8008566724741064
 40
0.8736038740731215
 40
0.9464476383390313
 40
1.0
 40
1.0
 40
1.0
 40
1.0
 10
6136.250397343928
 20
5281.561099814429
 30
0.0
 10
6136.216095030379
 20
5281.566813197561
 30
0.0
 10
6136.071139314342
 20
5281.590956978464
 30
0.0
 10
6136.997153819813
 20
5281.635496853265
 30
0.0
 10
6139.054099039246
 20
5281.695938097075
 30
0.0
 10
6142.308070618384
 20
5281.754222250597
 30
0.0
 10
6146.52313572476
 20
5281.812035258764
 30
0.0
 10
6150.815804980511
 20
5281.86625354833
 30
0.0
 10
6155.302307156783
 20
5281.918563684423
 30
0.0
 10
6159.845655760802
 20
5281.966367787547
 30
0.0
 10
6164.990764526438
 20
5282.022954427574
 30
0.0
 10
6169.855239621423
 20
5282.082360345519
 30
0.0
 10
6174.142172207414
 20
5282.139806598466
 30
0.0
 10
6177.66922867105
 20
5282.193799708673
 30
0.0
 10
6180.222457151673
 20
5282.252670960454
 30
0.0
 10
6181.6989430094
 20
5282.306867538697
 30
0.0
 10
6181.771714460549
 20
5282.339024864665
 30
0.0
 10
6181.802546758944
 20
5282.352649497047
 30
0.0
  0
SPLINE
  5
146
330
1F
100
AcDbEntity
  8
0
  6
Continuous
 62
     7
370
    25
100
AcDbSpline
210
0.0
220
0.0
230
1.0
 70
     8
 71
     3
 72
    22
 73
    18
 74
     0
 42
0.000000001
 43
0.00000001
 40
0.0
 40
0.0
 40
0.0
 40
0.0
 40
0.0223948259129548
 40
0.0946367032307196
 40
0.1676648917819823
 40
0.24325696732967
 40
0.3183996869488257
 40
0.3951397910840753
 40
0.4412114940372591
 40
0.5125203598060135
 40
0.5844688255868931
 40
0.6574973242839316
 40
0.7297335848379218
 40
0.800856676051273
 40
0.8736038732981899
 40
0.9464476425823702
 40
1.0
 40
1.0
 40
1.0
 40
1.0
 10
6136.250397343928
 20
5283.148609923377
 30
0.0
 10
6136.216095028612
 20
5283.154323829629
 30
0.0
 10
6136.071139312181
 20
5283.178469819971
 30
0.0
 10
6136.997153888879
 20
5283.222963958816
 30
0.0
 10
6139.054099007868
 20
5283.283424802355
 30
0.0
 10
6142.3080707859
 20
5283.34169033426
 30
0.0
 10
6146.523135525567
 20
5283.399557988349
 30
0.0
 10
6150.815805029334
 20
5283.453758667349
 30
0.0
 10
6155.30230695718
 20
5283.506082777781
 30
0.0
 10
6159.845656221533
 20
5283.553825455723
 30
0.0
 10
6164.990764267824
 20
5283.61047861913
 30
0.0
 10
6169.855239658918
 20
5283.669867690894
 30
0.0
 10
6174.142172212641
 20
5283.727313811033
 30
0.0
 10
6177.669228537647
 20
5283.781323987958
 30
0.0
 10
6180.222457336691
 20
5283.840125798072
 30
0.0
 10
6181.698942933728
 20
5283.894397941922
 30
0.0
 10
6181.771714439878
 20
5283.926520080768
 30
0.0
 10
6181.802546758944
 20
5283.940129803672
 30
0.0
  0
SPLINE
  5
147
330
1F
100
AcDbEntity
  8
0
  6
Continuous
 62
     7
370
    25
100
AcDbSpline
210
0.0
220
0.0
230
1.0
 70
     8
 71
     3
 72
    22
 73
    18
 74
     0
 42
0.000000001
 43
0.00000001
 40
0.0
 40
0.0
 40
0.0
 40
0.0
 40
0.022394825799742
 40
0.0946367073651458
 40
0.167664895547228
 40
0.243256970712774
 40
0.31839968543882
 40
0.3951397938946893
 40
0.4412114966149662
 40
0.5125203620232318
 40
0.584468822864173
 40
0.6574973211920294
 40
0.7297335859940458
 40
0.8008566723794598
 40
0.8736038739371621
 40
0.9464476428530942
 40
1.0
 40
1.0
 40
1.0
 40
1.0
 10
6136.250397343928
 20
5284.736090230002
 30
0.0
 10
6136.216095030403
 20
5284.741803610747
 30
0.0
 10
6136.071139314472
 20
5284.765947381566
 30
0.0
 10
6136.997153817752
 20
5284.810487464993
 30
0.0
 10
6139.054099046901
 20
5284.870927783713
 30
0.0
 10
6142.308070588851
 20
5284.929215478445
 30
0.0
 10
6146.523135922336
 20
5284.987015169761
 30
0.0
 10
6150.815804839031
 20
5285.0412773138
 30
0.0
 10
6155.302307000376
 20
5285.093588583324
 30
0.0
 10
6159.84565599396
 20
5285.141346310946
 30
0.0
 10
6164.990764463185
 20
5285.19795148858
 30
0.0
 10
6169.85523985018
 20
5285.257336162788
 30
0.0
 10
6174.14217186584
 20
5285.314847757654
 30
0.0
 10
6177.669228832254
 20
5285.368779782064
 30
0.0
 10
6180.222457203351
 20
5285.427650699522
 30
0.0
 10
6181.698942950947
 20
5285.481905468754
 30
0.0
 10
6181.771714445003
 20
5285.514029421282
 30
0.0
 10
6181.802546758944
 20
5285.52763991262
 30
0.0
  0
SPLINE
  5
148
330
1F
100
AcDbEntity
  8
0
  6
Continuous
 62
     7
370
    25
100
AcDbSpline
210
0.0
220
0.0
230
1.0
 70
     8
 71
     3
 72
    22
 73
    18
 74
     0
 42
0.000000001
 43
0.00000001
 40
0.0
 40
0.0
 40
0.0
 40
0.0
 40
0.0223948258124598
 40
0.0946367074188893
 40
0.1676648956424436
 40
0.2432569708509177
 40
0.3183996856196367
 40
0.395139789410521
 40
0.4412114921569616
 40
0.5125203620989501
 40
0.5844688229807503
 40
0.6574973213500791
 40
0.7297335815799146
 40
0.8008566724741064
 40
0.8736038740731215
 40
0.9464476383390313
 40
1.0
 40
1.0
 40
1.0
 40
1.0
 10
6136.250397343928
 20
5286.32360033895
 30
0.0
 10
6136.216095030379
 20
5286.329313722082
 30
0.0
 10
6136.071139314342
 20
5286.353457502984
 30
0.0
 10
6136.997153819813
 20
5286.397997377786
 30
0.0
 10
6139.054099039246
 20
5286.458438621596
 30
0.0
 10
6142.308070618384
 20
5286.516722775118
 30
0.0
 10
6146.52313572476
 20
5286.574535783285
 30
0.0
 10
6150.815804980511
 20
5286.628754072851
 30
0.0
 10
6155.302307156783
 20
5286.681064208944
 30
0.0
 10
6159.845655760802
 20
5286.728868312068
 30
0.0
 10
6164.990764526438
 20
5286.785454952095
 30
0.0
 10
6169.855239621423
 20
5286.84486087004
 30
0.0
 10
6174.142172207414
 20
5286.902307122987
 30
0.0
 10
6177.66922867105
 20
5286.956300233194
 30
0.0
 10
6180.222457151673
 20
5287.015171484975
 30
0.0
 10
6181.6989430094
 20
5287.069368063218
 30
0.0
 10
6181.771714460549
 20
5287.101525389186
 30
0.0
 10
6181.802546758944
 20
5287.115150021567
 30
0.0
  0
SPLINE
  5
149
330
1F
100
AcDbEntity
  8
0
  6
Continuous
 62
     7
370
    25
100
AcDbSpline
210
0.0
220
0.0
230
1.0
 70
     8
 71
     3
 72
    22
 73
    18
 74
     0
 42
0.000000001
 43
0.00000001
 40
0.0
 40
0.0
 40
0.0
 40
0.0
 40
0.0223948259129548
 40
0.0946367032307196
 40
0.1676648917819823
 40
0.24325696732967
 40
0.3183996869488257
 40
0.3951397910840753
 40
0.4412114940372591
 40
0.5125203598060135
 40
0.5844688255868931
 40
0.6574973242839316
 40
0.7297335848379218
 40
0.800856676051273
 40
0.8736038732981899
 40
0.9464476425823702
 40
1.0
 40
1.0
 40
1.0
 40
1.0
 10
6136.250397343928
 20
5287.911110447898
 30
0.0
 10
6136.216095028612
 20
5287.91682435415
 30
0.0
 10
6136.071139312181
 20
5287.940970344492
 30
0.0
 10
6136.997153888879
 20
5287.985464483337
 30
0.0
 10
6139.054099007868
 20
5288.045925326875
 30
0.0
 10
6142.3080707859
 20
5288.10419085878
 30
0.0
 10
6146.523135525567
 20
5288.16205851287
 30
0.0
 10
6150.815805029334
 20
5288.21625919187
 30
0.0
 10
6155.30230695718
 20
5288.268583302302
 30
0.0
 10
6159.845656221533
 20
5288.316325980244
 30
0.0
 10
6164.990764267824
 20
5288.372979143651
 30
0.0
 10
6169.855239658918
 20
5288.432368215414
 30
0.0
 10
6174.142172212641
 20
5288.489814335554
 30
0.0
 10
6177.669228537647
 20
5288.543824512479
 30
0.0
 10
6180.222457336691
 20
5288.602626322593
 30
0.0
 10
6181.698942933728
 20
5288.656898466443
 30
0.0
 10
6181.771714439878
 20
5288.689020605289
 30
0.0
 10
6181.802546758944
 20
5288.702630328193
 30
0.0
  0
SPLINE
  5
14A
330
1F
100
AcDbEntity
  8
0
  6
Continuous
 62
     7
370
    25
100
AcDbSpline
210
0.0
220
0.0
230
1.0
 70
     8
 71
     3
 72
    22
 73
    18
 74
     0
 42
0.000000001
 43
0.00000001
 40
0.0
 40
0.0
 40
0.0
 40
0.0
 40
0.022394825799742
 40
0.0946367073651458
 40
0.167664895547228
 40
0.243256970712774
 40
0.31839968543882
 40
0.3951397938946893
 40
0.4412114966149662
 40
0.5125203620232318
 40
0.584468822864173
 40
0.6574973211920294
 40
0.7297335859940458
 40
0.8008566723794598
 40
0.8736038739371621
 40
0.9464476428530942
 40
1.0
 40
1.0
 40
1.0
 40
1.0
 10
6136.250397343928
 20
5289.498590754523
 30
0.0
 10
6136.216095030403
 20
5289.504304135268
 30
0.0
 10
6136.071139314472
 20
5289.528447906087
 30
0.0
 10
6136.997153817752
 20
5289.572987989514
 30
0.0
 10
6139.054099046901
 20
5289.633428308234
 30
0.0
 10
6142.308070588851
 20
5289.691716002966
 30
0.0
 10
6146.523135922336
 20
5289.749515694281
 30
0.0
 10
6150.815804839031
 20
5289.80377783832
 30
0.0
 10
6155.302307000376
 20
5289.856089107845
 30
0.0
 10
6159.84565599396
 20
5289.903846835467
 30
0.0
 10
6164.990764463185
 20
5289.960452013101
 30
0.0
 10
6169.85523985018
 20
5290.019836687309
 30
0.0
 10
6174.14217186584
 20
5290.077348282175
 30
0.0
 10
6177.669228832254
 20
5290.131280306585
 30
0.0
 10
6180.222457203351
 20
5290.190151224043
 30
0.0
 10
6181.698942950947
 20
5290.244405993275
 30
0.0
 10
6181.771714445003
 20
5290.276529945803
 30
0.0
 10
6181.802546758944
 20
5290.290140437141
 30
0.0
  0
SPLINE
  5
14B
330
1F
100
AcDbEntity
  8
0
  6
Continuous
 62
     7
370
    25
100
AcDbSpline
210
0.0
220
0.0
230
1.0
 70
    24
 71
     3
 72
    15
 73
    11
 74
     0
 42
0.000000001
 43
0.00000001
 40
0.0
 40
0.0
 40
0.0
 40
0.0
 40
0.0590083596563677
 40
0.1942429455561741
 40
0.3294777340405401
 40
0.4629223815805747
 40
0.5963670427068659
 40
0.7298661881342647
 40
0.8633569773257245
 40
1.0
 40
1.0
 40
1.0
 40
1.0
 10
6135.667016883189
 20
5278.69945101644
 30
0.0
 10
6135.64021742942
 20
5278.69945101644
 30
0.0
 10
6135.551999338462
 20
5278.69945101644
 30
0.0
 10
6136.127313919167
 20
5278.69945101644
 30
0.0
 10
6137.332189205762
 20
5278.69945101644
 30
0.0
 10
6139.200967983332
 20
5278.69945101644
 30
0.0
 10
6141.595965564916
 20
5278.69945101644
 30
0.0
 10
6144.499244855315
 20
5278.69945101644
 30
0.0
 10
6147.817499377646
 20
5278.69945101644
 30
0.0
 10
6150.295707281364
 20
5278.69945101644
 30
0.0
 10
6151.549270530039
 20
5278.69945101644
 30
0.0
  0
SPLINE
  5
14C
330
1F
100
AcDbEntity
  8
0
  6
Continuous
 62
     7
370
    25
100
AcDbSpline
210
0.0
220
0.0
230
1.0
 70
     8
 71
     3
 72
    22
 73
    18
 74
     0
 42
0.000000001
 43
0.00000001
 40
0.0
 40
0.0
 40
0.0
 40
0.0
 40
0.0141734482676788
 40
0.0868113482674314
 40
0.1602398652909076
 40
0.2325760681131145
 40
0.304280860508874
 40
0.3775690197160708
 40
0.4506533081888948
 40
0.5221257692617194
 40
0.594852070311346
 40
0.6682697362523337
 40
0.740497385400057
 40
0.816013293566756
 40
0.8931333028662526
 40
0.95469660551137
 40
0.9999999999999999
 40
0.9999999999999999
 40
0.9999999999999999
 40
0.9999999999999999
 10
6136.226115901763
 20
5279.583089875236
 30
0.0
 10
6136.206897954372
 20
5279.586687562874
 30
0.0
 10
6136.089189412852
 20
5279.608723140148
 30
0.0
 10
6137.008586446239
 20
5279.651140919003
 30
0.0
 10
6139.017032470903
 20
5279.71050636151
 30
0.0
 10
6142.138506117046
 20
5279.767103757094
 30
0.0
 10
6146.081605764185
 20
5279.821704219015
 30
0.0
 10
6150.706708448551
 20
5279.880850804811
 30
0.0
 10
6155.75170001204
 20
5279.939570937572
 30
0.0
 10
6160.946815143189
 20
5279.993390623318
 30
0.0
 10
6166.054271414584
 20
5280.051139701227
 30
0.0
 10
6170.819518997915
 20
5280.110529582813
 30
0.0
 10
6175.028699457618
 20
5280.16768621307
 30
0.0
 10
6178.465591123893
 20
5280.224607218404
 30
0.0
 10
6180.681216034625
 20
5280.282908029633
 30
0.0
 10
6181.787995748031
 20
5280.332208492002
 30
0.0
 10
6181.82061995115
 20
5280.359097942413
 30
0.0
 10
6181.83445014506
 20
5280.370497035041
 30
0.0
  0
SPLINE
  5
14D
330
1F
100
AcDbEntity
  8
0
  6
Continuous
 62
     7
370
    25
100
AcDbSpline
210
0.0
220
0.0
230
1.0
 70
     8
 71
     3
 72
    22
 73
    18
 74
     0
 42
0.000000001
 43
0.00000001
 40
0.0
 40
0.0
 40
0.0
 40
0.0
 40
0.0165604891302198
 40
0.0890225066371637
 40
0.1622732267995332
 40
0.2344342776463563
 40
0.3059654424319681
 40
0.379076149347173
 40
0.4519834697752759
 40
0.5232828747794899
 40
0.5958330792855572
 40
0.6690729746398134
 40
0.7411257346596593
 40
0.8164587871132009
 40
0.8933920611205005
 40
0.9548062968579183
 40
1.0
 40
1.0
 40
1.0
 40
1.0
 10
6136.233179052168
 20
5281.168752240195
 30
0.0
 10
6136.209801190094
 20
5281.172962894328
 30
0.0
 10
6136.084131237639
 20
5281.195597671746
 30
0.0
 10
6137.005017559197
 20
5281.238649336798
 30
0.0
 10
6139.017977497833
 20
5281.298013152671
 30
0.0
 10
6142.138256937867
 20
5281.354628481291
 30
0.0
 10
6146.08167429574
 20
5281.409159109667
 30
0.0
 10
6150.706689581379
 20
5281.468388809336
 30
0.0
 10
6155.751705289964
 20
5281.527025888071
 30
0.0
 10
6160.946813583173
 20
5281.580915467778
 30
0.0
 10
6166.054271807165
 20
5281.638646499288
 30
0.0
 10
6170.819518910805
 20
5281.698037902063
 30
0.0
 10
6175.028699334503
 20
5281.755206717307
 30
0.0
 10
6178.465591247292
 20
5281.81207505817
 30
0.0
 10
6180.681216019355
 20
5281.870395030635
 30
0.0
 10
6181.787995775034
 20
5281.919677262956
 30
0.0
 10
6181.820619958637
 20
5281.946595743942
 30
0.0
 10
6181.83445014506
 20
5281.958007143989
 30
0.0
  0
SPLINE
  5
14E
330
1F
100
AcDbEntity
  8
0
  6
Continuous
 62
     7
370
    25
100
AcDbSpline
210
0.0
220
0.0
230
1.0
 70
     8
 71
     3
 72
    22
 73
    18
 74
     0
 42
0.000000001
 43
0.00000001
 40
0.0
 40
0.0
 40
0.0
 40
0.0
 40
0.0182968560716727
 40
0.0906309345317623
 40
0.1637523183915034
 40
0.2357859615786591
 40
0.3071908353310249
 40
0.3801724531683656
 40
0.4529510529986344
 40
0.5241245671970763
 40
0.5965466769531914
 40
0.6696572598382987
 40
0.7415828033969237
 40
0.8167828522190058
 40
0.8935802927222642
 40
0.9548860953928994
 40
1.0
 40
1.0
 40
1.0
 40
1.0
 10
6136.238342304522
 20
5282.754891442313
 30
0.0
 10
6136.211800077536
 20
5282.759557413243
 30
0.0
 10
6136.080326843727
 20
5282.782669651994
 30
0.0
 10
6137.002546937329
 20
5282.826157015955
 30
0.0
 10
6139.018631738179
 20
5282.885489978928
 30
0.0
 10
6142.138084772224
 20
5282.942095964117
 30
0.0
 10
6146.081721030048
 20
5282.996694144508
 30
0.0
 10
6150.706677353135
 20
5283.055841352595
 30
0.0
 10
6155.751708125175
 20
5283.114561318652
 30
0.0
 10
6160.946812948291
 20
5283.168381048224
 30
0.0
 10
6166.054272013552
 20
5283.226130114253
 30
0.0
 10
6170.819518839924
 20
5283.285519999058
 30
0.0
 10
6175.02869950179
 20
5283.342676628456
 30
0.0
 10
6178.465591111455
 20
5283.399597634029
 30
0.0
 10
6180.681216037259
 20
5283.457898445195
 30
0.0
 10
6181.787995747615
 20
5283.507198907577
 30
0.0
 10
6181.820619951027
 20
5283.534088357987
 30
0.0
 10
6181.83445014506
 20
5283.545487450614
 30
0.0
  0
SPLINE
  5
14F
330
1F
100
AcDbEntity
  8
0
  6
Continuous
 62
     7
370
    25
100
AcDbSpline
210
0.0
220
0.0
230
1.0
 70
     8
 71
     3
 72
    22
 73
    18
 74
     0
 42
0.000000001
 43
0.00000001
 40
0.0
 40
0.0
 40
0.0
 40
0.0
 40
0.0184947070439084
 40
0.090814207055033
 40
0.1639208585099102
 40
0.2359399837988175
 40
0.3073304663772026
 40
0.3802973752583544
 40
0.4530613070493537
 40
0.524220476702783
 40
0.596627990267815
 40
0.6697238382046921
 40
0.7416348856518247
 40
0.8168197784078137
 40
0.8936017409013861
 40
0.9548951877981658
 40
1.0
 40
1.0
 40
1.0
 40
1.0
 10
6136.238930900389
 20
5284.342222737327
 30
0.0
 10
6136.212021415944
 20
5284.346938006867
 30
0.0
 10
6136.079888288
 20
5284.370091304911
 30
0.0
 10
6137.002271345679
 20
5284.41362834874
 30
0.0
 10
6139.01870462309
 20
5284.47301035335
 30
0.0
 10
6142.138065551145
 20
5284.529603368072
 30
0.0
 10
6146.081726288293
 20
5284.584204993452
 30
0.0
 10
6150.706675934611
 20
5284.643351261913
 30
0.0
 10
6155.751708495283
 20
5284.702071479684
 30
0.0
 10
6160.946812848163
 20
5284.75589114308
 30
0.0
 10
6166.054272040876
 20
5284.813640227047
 30
0.0
 10
6170.819518832716
 20
5284.873030106991
 30
0.0
 10
6175.028699503805
 20
5284.930186737687
 30
0.0
 10
6178.465591110888
 20
5284.987107742897
 30
0.0
 10
6180.68121603738
 20
5285.045408554161
 30
0.0
 10
6181.787995747596
 20
5285.094709016522
 30
0.0
 10
6181.820619951021
 20
5285.121598466933
 30
0.0
 10
6181.83445014506
 20
5285.132997559562
 30
0.0
  0
SPLINE
  5
150
330
1F
100
AcDbEntity
  8
0
  6
Continuous
 62
     7
370
    25
100
AcDbSpline
210
0.0
220
0.0
230
1.0
 70
     8
 71
     3
 72
    22
 73
    18
 74
     0
 42
0.000000001
 43
0.00000001
 40
0.0
 40
0.0
 40
0.0
 40
0.0
 40
0.0147569048052892
 40
0.0873518144356479
 40
0.1607368731670905
 40
0.2330302595812531
 40
0.304692613862579
 40
0.3779374025687772
 40
0.4509784317860845
 40
0.5224085967339933
 40
0.595091855094517
 40
0.6684660691656288
 40
0.7406509707488256
 40
0.8161221806764246
 40
0.893196546893075
 40
0.9547234136125691
 40
1.0
 40
1.0
 40
1.0
 40
1.0
 10
6136.227844436461
 20
5285.932653473868
 30
0.0
 10
6136.207628604374
 20
5285.93639938494
 30
0.0
 10
6136.087963292678
 20
5285.958572878169
 30
0.0
 10
6137.007698477319
 20
5286.001150489888
 30
0.0
 10
6139.017267486711
 20
5286.060526616254
 30
0.0
 10
6142.138444275207
 20
5286.117077762842
 30
0.0
 10
6146.08162293056
 20
5286.171673651035
 30
0.0
 10
6150.706703412378
 20
5286.230885552184
 30
0.0
 10
6155.751701681304
 20
5286.289527399271
 30
0.0
 10
6160.946814559447
 20
5286.343415725366
 30
0.0
 10
6166.054271540749
 20
5286.401147096653
 30
0.0
 10
6170.819518981079
 20
5286.46053840737
 30
0.0
 10
6175.028699314856
 20
5286.517707247201
 30
0.0
 10
6178.465591252824
 20
5286.574575581179
 30
0.0
 10
6180.681216018184
 20
5286.632895555476
 30
0.0
 10
6181.787995775218
 20
5286.682177787427
 30
0.0
 10
6181.820619958691
 20
5286.709096268448
 30
0.0
 10
6181.83445014506
 20
5286.72050766851
 30
0.0
  0
SPLINE
  5
151
330
1F
100
AcDbEntity
  8
0
  6
Continuous
 62
     7
370
    25
100
AcDbSpline
210
0.0
220
0.0
230
1.0
 70
     8
 71
     3
 72
    22
 73
    18
 74
     0
 42
0.000000001
 43
0.00000001
 40
0.0
 40
0.0
 40
0.0
 40
0.0
 40
0.0146312300050259
 40
0.0872353999740917
 40
0.1606298150982871
 40
0.2329324279854743
 40
0.3046039236470507
 40
0.3778580508701311
 40
0.4509084020279594
 40
0.5223476742516396
 40
0.5950402042207951
 40
0.6684237780401058
 40
0.7406178876606375
 40
0.8160987293689198
 40
0.8931829273319067
 40
0.9547176425304238
 40
0.9999999999999999
 40
0.9999999999999999
 40
0.9999999999999999
 40
0.9999999999999999
 10
6136.227471907431
 20
5287.520252989783
 30
0.0
 10
6136.207472191958
 20
5287.523969412946
 30
0.0
 10
6136.088228411496
 20
5287.546127745565
 30
0.0
 10
6137.007888588744
 20
5287.588669967699
 30
0.0
 10
6139.017217341936
 20
5287.647987212891
 30
0.0
 10
6142.138457426564
 20
5287.70459735561
 30
0.0
 10
6146.081619084274
 20
5287.759194431855
 30
0.0
 10
6150.706704855173
 20
5287.818341941098
 30
0.0
 10
6155.751700949591
 20
5287.877061826478
 30
0.0
 10
6160.946814889548
 20
5287.93088157726
 30
0.0
 10
6166.054271483801
 20
5287.988630637543
 30
0.0
 10
6170.819518979657
 20
5288.048020523904
 30
0.0
 10
6175.028699462722
 20
5288.105177152886
 30
0.0
 10
6178.465591122456
 20
5288.162098158577
 30
0.0
 10
6180.68121603493
 20
5288.220398969711
 30
0.0
 10
6181.787995747983
 20
5288.269699432099
 30
0.0
 10
6181.820619951136
 20
5288.296588882507
 30
0.0
 10
6181.83445014506
 20
5288.307987975135
 30
0.0
  0
SPLINE
  5
152
330
1F
100
AcDbEntity
  8
0
  6
Continuous
 62
     7
370
    25
100
AcDbSpline
210
0.0
220
0.0
230
1.0
 70
     8
 71
     3
 72
    22
 73
    18
 74
     0
 42
0.000000001
 43
0.00000001
 40
0.0
 40
0.0
 40
0.0
 40
0.0
 40
0.0167146542872706
 40
0.0891653125573239
 40
0.1624045498447837
 40
0.234554288634628
 40
0.3060742446108881
 40
0.3791734858882372
 40
0.4520693819572673
 40
0.5233576055006866
 40
0.5958964369455585
 40
0.6691248511218156
 40
0.7411663160604886
 40
0.8164875637363832
 40
0.8934087775870065
 40
0.954813385951682
 40
1.0
 40
1.0
 40
1.0
 40
1.0
 10
6136.233640988165
 20
5289.106123971
 30
0.0
 10
6136.209985162082
 20
5289.110374151928
 30
0.0
 10
6136.083791757767
 20
5289.133046993639
 30
0.0
 10
6137.004796427932
 20
5289.176139181837
 30
0.0
 10
6139.018036015873
 20
5289.235508148301
 30
0.0
 10
6142.138241710673
 20
5289.292104611759
 30
0.0
 10
6146.081678096933
 20
5289.346705321233
 30
0.0
 10
6150.706688935255
 20
5289.405851839509
 30
0.0
 10
6155.751705103273
 20
5289.464571990357
 30
0.0
 10
6160.946813765825
 20
5289.518391671347
 30
0.0
 10
6166.054271790454
 20
5289.576140750546
 30
0.0
 10
6170.819518898771
 20
5289.635530631782
 30
0.0
 10
6175.028699485338
 20
5289.692687262132
 30
0.0
 10
6178.465591116088
 20
5289.74960826744
 30
0.0
 10
6180.681216036279
 20
5289.807909078676
 30
0.0
 10
6181.787995747771
 20
5289.857209541044
 30
0.0
 10
6181.820619951073
 20
5289.884098991454
 30
0.0
 10
6181.83445014506
 20
5289.895498084083
 30
0.0
  0
SPLINE
  5
153
330
1F
100
AcDbEntity
  8
0
  6
Continuous
 62
     7
370
    25
100
AcDbSpline
210
0.0
220
0.0
230
1.0
 70
     8
 71
     3
 72
    22
 73
    18
 74
     0
 42
0.000000001
 43
0.00000001
 40
0.0
 40
0.0
 40
0.0
 40
0.0
 40
0.0144546973622785
 40
0.0870817528833552
 40
0.1604994195982572
 40
0.2328249063763223
 40
0.3045192555719554
 40
0.3777964884534001
 40
0.4508700579947062
 40
0.5223321092928054
 40
0.5950474947177113
 40
0.6684541198474933
 40
0.7406713069689854
 40
0.8124550906759768
 40
0.8857692321404769
 40
0.9587790921372803
 40
1.0
 40
1.0
 40
1.0
 40
1.0
 10
6135.371392746264
 20
5279.086791800513
 30
0.0
 10
6135.350959424418
 20
5279.090458474173
 30
0.0
 10
6135.227859684662
 20
5279.112548204695
 30
0.0
 10
6136.181941296039
 20
5279.1550568465
 30
0.0
 10
6138.266331836931
 20
5279.214411941562
 30
0.0
 10
6141.504836991045
 20
5279.271028533905
 30
0.0
 10
6145.595977932088
 20
5279.325562933739
 30
0.0
 10
6150.394694423778
 20
5279.384775343881
 30
0.0
 10
6155.629063936074
 20
5279.443478051902
 30
0.0
 10
6161.019205115513
 20
5279.497301365908
 30
0.0
 10
6166.31831725856
 20
5279.555052394715
 30
0.0
 10
6171.262670536472
 20
5279.614431269079
 30
0.0
 10
6175.555525633974
 20
5279.670668208118
 30
0.0
 10
6179.026665848537
 20
5279.725557402166
 30
0.0
 10
6181.436578293082
 20
5279.784774764631
 30
0.0
 10
6182.69331184794
 20
5279.835208163376
 30
0.0
 10
6182.643334221351
 20
5279.863991222203
 30
0.0
 10
6182.625299473101
 20
5279.874377774253
 30
0.0
  0
SPLINE
  5
154
330
1F
100
AcDbEntity
  8
0
  6
Continuous
 62
     7
370
    25
100
AcDbSpline
210
0.0
220
0.0
230
1.0
 70
     8
 71
     3
 72
    22
 73
    18
 74
     0
 42
0.000000001
 43
0.00000001
 40
0.0
 40
0.0
 40
0.0
 40
0.0
 40
0.0168268842422123
 40
0.0892791279954868
 40
0.1625200799583688
 40
0.2346714765764913
 40
0.3061932631943592
 40
0.3792941149680272
 40
0.4521917979918436
 40
0.5234818458209355
 40
0.5960222068698517
 40
0.6692521394330718
 40
0.7412955055812702
 40
0.8129065072576626
 40
0.8860441831532043
 40
0.9588783099800278
 40
1.0
 40
1.0
 40
1.0
 40
1.0
 10
6135.378679414088
 20
5280.672454165473
 30
0.0
 10
6135.353930857276
 20
5280.676734167421
 30
0.0
 10
6135.222621368274
 20
5280.699442759
 30
0.0
 10
6136.17828596891
 20
5280.742553489228
 30
0.0
 10
6138.267299575246
 20
5280.801939398661
 30
0.0
 10
6141.504582301964
 20
5280.858483767999
 30
0.0
 10
6145.596047320116
 20
5280.913097257626
 30
0.0
 10
6150.394675809413
 20
5280.972243643705
 30
0.0
 10
6155.629069019518
 20
5281.030952051152
 30
0.0
 10
6161.019203613707
 20
5281.084817900151
 30
0.0
 10
6166.318317413923
 20
5281.142573558785
 30
0.0
 10
6171.262670816057
 20
5281.201890455739
 30
0.0
 10
6175.555525468425
 20
5281.258191767032
 30
0.0
 10
6179.026665875244
 20
5281.313063826497
 30
0.0
 10
6181.436578285794
 20
5281.372285879032
 30
0.0
 10
6182.693311848871
 20
5281.422718143805
 30
0.0
 10
6182.643334221599
 20
5281.451501297073
 30
0.0
 10
6182.625299473101
 20
5281.461887883201
 30
0.0
  0
SPLINE
  5
155
330
1F
100
AcDbEntity
  8
0
  6
Continuous
 62
     7
370
    25
100
AcDbSpline
210
0.0
220
0.0
230
1.0
 70
     8
 71
     3
 72
    22
 73
    18
 74
     0
 42
0.000000001
 43
0.00000001
 40
0.0
 40
0.0
 40
0.0
 40
0.0
 40
0.0185642040203927
 40
0.0908884164616081
 40
0.1639999477125275
 40
0.2360238531758589
 40
0.3074192569396425
 40
0.3803909355659377
 40
0.4531598044525191
 40
0.5243238747712412
 40
0.5967360530901222
 40
0.6698365887968942
 40
0.7417526461893145
 40
0.8132371073638028
 40
0.8862455494154509
 40
0.9589509700758736
 40
0.9999999999999999
 40
0.9999999999999999
 40
0.9999999999999999
 40
0.9999999999999999
 10
6135.384036381537
 20
5282.258593367591
 30
0.0
 10
6135.35598761726
 20
5282.26332906174
 30
0.0
 10
6135.218663778006
 20
5282.286514528864
 30
0.0
 10
6136.175734681457
 20
5282.330012660189
 30
0.0
 10
6138.267975244096
 20
5282.389415035786
 30
0.0
 10
6141.504404171586
 20
5282.446002777777
 30
0.0
 10
6145.596096021462
 20
5282.500605601842
 30
0.0
 10
6150.394662698089
 20
5282.559751659435
 30
0.0
 10
6155.629072241122
 20
5282.61847216612
 30
0.0
 10
6161.01920286893
 20
5282.672290709657
 30
0.0
 10
6166.318317870768
 20
5282.73004337573
 30
0.0
 10
6171.262670378226
 20
5282.789420512633
 30
0.0
 10
6175.555525662981
 20
5282.845662663307
 30
0.0
 10
6179.026665958578
 20
5282.900532766563
 30
0.0
 10
6181.436578137446
 20
5282.959822586627
 30
0.0
 10
6182.693311892252
 20
5283.010176827608
 30
0.0
 10
6182.643334234463
 20
5283.0389977689
 30
0.0
 10
6182.625299473101
 20
5283.049397992148
 30
0.0
  0
SPLINE
  5
156
330
1F
100
AcDbEntity
  8
0
  6
Continuous
 62
     7
370
    25
100
AcDbSpline
210
0.0
220
0.0
230
1.0
 70
     8
 71
     3
 72
    22
 73
    18
 74
     0
 42
0.000000001
 43
0.00000001
 40
0.0
 40
0.0
 40
0.0
 40
0.0
 40
0.0187479165599754
 40
0.0910585950781881
 40
0.1641564407403724
 40
0.2361668642052775
 40
0.307548899440802
 40
0.3805069230255065
 40
0.4532621704655765
 40
0.5244129197365455
 40
0.5968115433770478
 40
0.6698983955533168
 40
0.7418009911351569
 40
0.8132720712886238
 40
0.8862668426757102
 40
0.9589586581019388
 40
1.0
 40
1.0
 40
1.0
 40
1.0
 10
6135.384610076243
 20
5283.845954464927
 30
0.0
 10
6135.356203393451
 20
5283.850728342291
 30
0.0
 10
6135.218232189156
 20
5283.873915055573
 30
0.0
 10
6136.175473628905
 20
5283.917547452796
 30
0.0
 10
6138.268044386914
 20
5283.976915092294
 30
0.0
 10
6141.504385780207
 20
5284.03352836649
 30
0.0
 10
6145.596101367943
 20
5284.088063647549
 30
0.0
 10
6150.39466112429
 20
5284.147275817336
 30
0.0
 10
6155.629072624301
 20
5284.205978589747
 30
0.0
 10
6161.019202765021
 20
5284.259801886824
 30
0.0
 10
6166.318317900063
 20
5284.317552920219
 30
0.0
 10
6171.262670366978
 20
5284.376931793341
 30
0.0
 10
6175.555525678747
 20
5284.433168732707
 30
0.0
 10
6179.026665836272
 20
5284.488057926668
 30
0.0
 10
6181.436578296428
 20
5284.547275289156
 30
0.0
 10
6182.693311847512
 20
5284.597708687896
 30
0.0
 10
6182.643334221238
 20
5284.626491746724
 30
0.0
 10
6182.625299473101
 20
5284.636878298774
 30
0.0
  0
SPLINE
  5
157
330
1F
100
AcDbEntity
  8
0
  6
Continuous
 62
     7
370
    25
100
AcDbSpline
210
0.0
220
0.0
230
1.0
 70
     8
 71
     3
 72
    22
 73
    18
 74
     0
 42
0.000000001
 43
0.00000001
 40
0.0
 40
0.0
 40
0.0
 40
0.0
 40
0.0150249640368631
 40
0.0876099953530291
 40
0.1609851803915371
 40
0.2332688131920029
 40
0.3049216820682888
 40
0.378156510147582
 40
0.4511877971174974
 40
0.5226085024834611
 40
0.5952818125931099
 40
0.6686459580360428
 40
0.7408213623726773
 40
0.8125636098172644
 40
0.8858353295082029
 40
0.9588029437978798
 40
0.9999999999999999
 40
0.9999999999999999
 40
0.9999999999999999
 40
0.9999999999999999
 10
6135.373143632704
 20
5285.436355399146
 30
0.0
 10
6135.351693000136
 20
5285.440170622025
 30
0.0
 10
6135.226615175324
 20
5285.462417041908
 30
0.0
 10
6136.181045053405
 20
5285.505058712063
 30
0.0
 10
6138.266569007381
 20
5285.564438679133
 30
0.0
 10
6141.504774786959
 20
5285.620984620294
 30
0.0
 10
6145.595994662808
 20
5285.675597692479
 30
0.0
 10
6150.394690014858
 20
5285.734744192416
 30
0.0
 10
6155.629065313151
 20
5285.793452569362
 30
0.0
 10
6161.019204616418
 20
5285.84731842638
 30
0.0
 10
6166.318317140261
 20
5285.905074082841
 30
0.0
 10
6171.262670888363
 20
5285.964390980383
 30
0.0
 10
6175.555525449325
 20
5286.020692291521
 30
0.0
 10
6179.026665880477
 20
5286.075564351027
 30
0.0
 10
6181.436578284366
 20
5286.134786403552
 30
0.0
 10
6182.693311849053
 20
5286.185218668326
 30
0.0
 10
6182.643334221647
 20
5286.214001821594
 30
0.0
 10
6182.625299473101
 20
5286.224388407722
 30
0.0
  0
SPLINE
  5
158
330
1F
100
AcDbEntity
  8
0
  6
Continuous
 62
     7
370
    25
100
AcDbSpline
210
0.0
220
0.0
230
1.0
 70
     8
 71
     3
 72
    22
 73
    18
 74
     0
 42
0.000000001
 43
0.00000001
 40
0.0
 40
0.0
 40
0.0
 40
0.0
 40
0.0149136271739162
 40
0.0875068628269289
 40
0.1608903415139114
 40
0.2331821488538808
 40
0.304843116704041
 40
0.3780862225671634
 40
0.4511257643145142
 40
0.5225545382460846
 40
0.5952360626707937
 40
0.6686085049143344
 40
0.740792063029076
 40
0.8125424195500595
 40
0.8858224255846688
 40
0.9587982831022903
 40
1.0
 40
1.0
 40
1.0
 40
1.0
 10
6135.372800905997
 20
5287.023925112739
 30
0.0
 10
6135.351550217713
 20
5287.027710544094
 30
0.0
 10
6135.226860157881
 20
5287.049921855835
 30
0.0
 10
6136.181218611295
 20
5287.092544260136
 30
0.0
 10
6138.266523163396
 20
5287.151907331648
 30
0.0
 10
6141.504786755804
 20
5287.208505470328
 30
0.0
 10
6145.595991359514
 20
5287.263105533264
 30
0.0
 10
6150.394690932911
 20
5287.322252343957
 30
0.0
 10
6155.629064874326
 20
5287.380972648894
 30
0.0
 10
6161.019204861925
 20
5287.434791245472
 30
0.0
 10
6166.318317326834
 20
5287.492543897169
 30
0.0
 10
6171.262670521941
 20
5287.551921037968
 30
0.0
 10
6175.555525625018
 20
5287.608163187613
 30
0.0
 10
6179.026665968976
 20
5287.663033291144
 30
0.0
 10
6181.436578134609
 20
5287.722323111131
 30
0.0
 10
6182.693311892615
 20
5287.772677352131
 30
0.0
 10
6182.643334234559
 20
5287.801498293422
 30
0.0
 10
6182.625299473101
 20
5287.811898516669
 30
0.0
  0
SPLINE
  5
159
330
1F
100
AcDbEntity
  8
0
  6
Continuous
 62
     7
370
    25
100
AcDbSpline
210
0.0
220
0.0
230
1.0
 70
     8
 71
     3
 72
    22
 73
    18
 74
     0
 42
0.000000001
 43
0.00000001
 40
0.0
 40
0.0
 40
0.0
 40
0.0
 40
0.0169813508567731
 40
0.0894222115848393
 40
0.1626516566079871
 40
0.2347917217281947
 40
0.3063022673204359
 40
0.379391638541913
 40
0.4522778685572302
 40
0.5235567117966508
 40
0.5960856759761856
 40
0.6693041077216484
 40
0.7413361508343217
 40
0.812935901653666
 40
0.8860620868352521
 40
0.9588847706389372
 40
1.0
 40
1.0
 40
1.0
 40
1.0
 10
6135.379156251246
 20
5288.609825896277
 30
0.0
 10
6135.354118483317
 20
5288.614145374907
 30
0.0
 10
6135.222271929987
 20
5288.636891346958
 30
0.0
 10
6136.178055568704
 20
5288.680048736508
 30
0.0
 10
6138.267360724495
 20
5288.73941541579
 30
0.0
 10
6141.504565906857
 20
5288.796028943975
 30
0.0
 10
6145.596052091451
 20
5288.850564157581
 30
0.0
 10
6150.394674417687
 20
5288.909776345766
 30
0.0
 10
6155.629069155898
 20
5288.968479113249
 30
0.0
 10
6161.019203703354
 20
5289.022302411621
 30
0.0
 10
6166.318317643971
 20
5289.080053444665
 30
0.0
 10
6171.262670434641
 20
5289.139432317881
 30
0.0
 10
6175.555525660873
 20
5289.195669257222
 30
0.0
 10
6179.026665841167
 20
5289.25055845119
 30
0.0
 10
6181.436578295093
 20
5289.309775813677
 30
0.0
 10
6182.693311847684
 20
5289.360209212417
 30
0.0
 10
6182.643334221283
 20
5289.388992271245
 30
0.0
 10
6182.625299473101
 20
5289.399378823295
 30
0.0
  0
SPLINE
  5
15A
330
1F
100
AcDbEntity
  8
0
  6
Continuous
 62
     7
370
    25
100
AcDbSpline
210
0.0
220
0.0
230
1.0
 70
    24
 71
     3
 72
    18
 73
    14
 74
     0
 42
0.000000001
 43
0.00000001
 40
0.0
 40
0.0
 40
0.0
 40
0.0
 40
0.0221018645417516
 40
0.110709658805304
 40
0.2002020973347568
 40
0.2896944930603156
 40
0.3970622513887356
 40
0.5044303111581894
 40
0.6117981422660035
 40
0.719165970659228
 40
0.8265340929554557
 40
0.9339020573746151
 40
1.0
 40
1.0
 40
1.0
 40
1.0
 10
6151.549270530039
 20
5278.69945101644
 30
0.0
 10
6151.800345255778
 20
5278.69945101644
 30
0.0
 10
6153.057994680271
 20
5278.69945101644
 30
0.0
 10
6155.403923011075
 20
5278.69945101644
 30
0.0
 10
6158.604763350848
 20
5278.69945101644
 30
0.0
 10
6162.040193076644
 20
5278.69945101644
 30
0.0
 10
6165.620981086191
 20
5278.69945101644
 30
0.0
 10
6169.228318756637
 20
5278.69945101644
 30
0.0
 10
6172.539361925165
 20
5278.69945101644
 30
0.0
 10
6175.47684605184
 20
5278.69945101644
 30
0.0
 10
6177.928650722709
 20
5278.69945101644
 30
0.0
 10
6179.636778197902
 20
5278.69945101644
 30
0.0
 10
6180.375158733252
 20
5278.69945101644
 30
0.0
 10
6180.656513352686
 20
5278.69945101644
 30
0.0
  0
LINE
  5
15B
330
1F
100
AcDbEntity
  8
0
  6
Continuous
 62
     7
370
    25
100
AcDbLine
 10
6181.2687573627
 20
5276.6994469633
 30
0.0
 11
6136.7687565878
 21
5276.6994469633
 31
0.0
  0
LINE
  5
15C
330
1F
100
AcDbEntity
  8
0
  6
Continuous
 62
     7
370
    25
100
AcDbLine
 10
6414.7687462762
 20
5293.3661275377
 30
0.0
 11
6363.2687536672
 21
5293.3661275377
 31
0.0
  0
LINE
  5
15D
330
1F
100
AcDbEntity
  8
0
  6
Continuous
 62
     7
370
    25
100
AcDbLine
 10
6412.7687422231
 20
5291.6994624605
 30
0.0
 11
6365.2687577203
 21
5291.6994624605
 31
0.0
  0
SPLINE
  5
15E
330
1F
100
AcDbEntity
  8
0
  6
Continuous
 62
     7
370
    25
100
AcDbSpline
210
0.0
220
0.0
230
1.0
 70
     8
 71
     3
 72
    22
 73
    18
 74
     0
 42
0.000000001
 43
0.00000001
 40
0.0
 40
0.0
 40
0.0
 40
0.0
 40
0.0074263173644384
 40
0.0790652132727184
 40
0.1518782358948875
 40
0.2239996652012088
 40
0.2948846378815639
 40
0.367369918726888
 40
0.4400511287206013
 40
0.5111597068677555
 40
0.582905969323661
 40
0.6557293079569757
 40
0.7277627774340248
 40
0.7986862244643252
 40
0.8712287393518986
 40
0.9438679824663597
 40
1.0
 40
1.0
 40
1.0
 40
1.0
 10
6365.32410063296
 20
5278.882139252677
 30
0.0
 10
6365.306074489867
 20
5278.884055957684
 30
0.0
 10
6365.114156911044
 20
5278.904462396396
 30
0.0
 10
6365.884794542868
 20
5278.944038989905
 30
0.0
 10
6367.710399048889
 20
5279.003427047849
 30
0.0
 10
6370.744724332487
 20
5279.061182987556
 30
0.0
 10
6374.6623468724
 20
5279.11499966058
 30
0.0
 10
6379.329560668222
 20
5279.173716632728
 30
0.0
 10
6384.497881032208
 20
5279.232863602803
 30
0.0
 10
6389.875957966717
 20
5279.287474476706
 30
0.0
 10
6395.215137876391
 20
5279.344051410666
 30
0.0
 10
6400.261917786032
 20
5279.40345996583
 30
0.0
 10
6404.71001805269
 20
5279.460905678701
 30
0.0
 10
6408.368847939514
 20
5279.5148979999
 30
0.0
 10
6411.020200589544
 20
5279.57377228192
 30
0.0
 10
6412.565177854968
 20
5279.628704738414
 30
0.0
 10
6412.638826986915
 20
5279.661527222418
 30
0.0
 10
6412.670931001002
 20
5279.675834702506
 30
0.0
  0
SPLINE
  5
15F
330
1F
100
AcDbEntity
  8
0
  6
Continuous
 62
     7
370
    25
100
AcDbSpline
210
0.0
220
0.0
230
1.0
 70
     8
 71
     3
 72
    22
 73
    18
 74
     0
 42
0.000000001
 43
0.00000001
 40
0.0
 40
0.0
 40
0.0
 40
0.0
 40
0.0074263215073812
 40
0.0790652171137577
 40
0.1518782394290753
 40
0.223999664147698
 40
0.2948846406640667
 40
0.3673699212039205
 40
0.4400511308913378
 40
0.5111597045765325
 40
0.5829059709692566
 40
0.6557293049278103
 40
0.7277627783747176
 40
0.7986862209668562
 40
0.8712287355487179
 40
0.9438679827029135
 40
1.0
 40
1.0
 40
1.0
 40
1.0
 10
6365.32410063296
 20
5280.469619559302
 30
0.0
 10
6365.306074488455
 20
5280.47154673519
 30
0.0
 10
6365.114156992348
 20
5280.492064642994
 30
0.0
 10
6365.884794525048
 20
5280.53150473119
 30
0.0
 10
6367.710398926369
 20
5280.590962157799
 30
0.0
 10
6370.744724614711
 20
5280.648638408762
 30
0.0
 10
6374.662346678052
 20
5280.70252566738
 30
0.0
 10
6379.329560736162
 20
5280.761218629727
 30
0.0
 10
6384.497880768794
 20
5280.820389905602
 30
0.0
 10
6389.875958439296
 20
5280.874928953301
 30
0.0
 10
6395.215137383326
 20
5280.931590122676
 30
0.0
 10
6400.261918241171
 20
5280.990911819255
 30
0.0
 10
6404.710017685616
 20
5281.048440584777
 30
0.0
 10
6408.368848105174
 20
5281.102366076302
 30
0.0
 10
6411.020200636924
 20
5281.161245635087
 30
0.0
 10
6412.565177828154
 20
5281.216221647023
 30
0.0
 10
6412.638826979531
 20
5281.24903939591
 30
0.0
 10
6412.670931001002
 20
5281.263344811454
 30
0.0
  0
SPLINE
  5
160
330
1F
100
AcDbEntity
  8
0
  6
Continuous
 62
     7
370
    25
100
AcDbSpline
210
0.0
220
0.0
230
1.0
 70
     8
 71
     3
 72
    22
 73
    18
 74
     0
 42
0.000000001
 43
0.00000001
 40
0.0
 40
0.0
 40
0.0
 40
0.0
 40
0.0074263215043774
 40
0.0790652128563764
 40
0.1518782351422431
 40
0.2239996641154563
 40
0.2948846364684141
 40
0.3673699169789496
 40
0.4400511309891303
 40
0.5111597046455635
 40
0.5829059667700938
 40
0.6557293050670584
 40
0.7277627784848301
 40
0.798686221048282
 40
0.8712287356008025
 40
0.9438679827256173
 40
1.0
 40
1.0
 40
1.0
 40
1.0
 10
6365.32410063296
 20
5282.05712966825
 30
0.0
 10
6365.306074488301
 20
5282.059056907508
 30
0.0
 10
6365.114157000804
 20
5282.079575488883
 30
0.0
 10
6365.88479454908
 20
5282.118975478325
 30
0.0
 10
6367.710399054091
 20
5282.178432117115
 30
0.0
 10
6370.744724340836
 20
5282.236168652767
 30
0.0
 10
6374.662346834315
 20
5282.289994753713
 30
0.0
 10
6379.329560910253
 20
5282.348692775588
 30
0.0
 10
6384.4978805965
 20
5282.407905965416
 30
0.0
 10
6389.87595822048
 20
5282.462450075352
 30
0.0
 10
6395.215137807488
 20
5282.51904928811
 30
0.0
 10
6400.261918008619
 20
5282.578435503539
 30
0.0
 10
6404.710017722946
 20
5282.635947137432
 30
0.0
 10
6408.368848094981
 20
5282.689877156214
 30
0.0
 10
6411.020200639695
 20
5282.74875548
 30
0.0
 10
6412.565177827642
 20
5282.803731804828
 30
0.0
 10
6412.638826979374
 20
5282.836549519689
 30
0.0
 10
6412.670931001002
 20
5282.850854920402
 30
0.0
  0
SPLINE
  5
161
330
1F
100
AcDbEntity
  8
0
  6
Continuous
 62
     7
370
    25
100
AcDbSpline
210
0.0
220
0.0
230
1.0
 70
     8
 71
     3
 72
    22
 73
    18
 74
     0
 42
0.000000001
 43
0.00000001
 40
0.0
 40
0.0
 40
0.0
 40
0.0
 40
0.0074263173644384
 40
0.0790652132727184
 40
0.1518782358948875
 40
0.2239996652012088
 40
0.2948846378815639
 40
0.367369918726888
 40
0.4400511287206013
 40
0.5111597068677555
 40
0.582905969323661
 40
0.6557293079569757
 40
0.7277627774340248
 40
0.7986862244643252
 40
0.8712287393518986
 40
0.9438679824663597
 40
1.0
 40
1.0
 40
1.0
 40
1.0
 10
6365.32410063296
 20
5283.644639777198
 30
0.0
 10
6365.306074489867
 20
5283.646556482205
 30
0.0
 10
6365.114156911044
 20
5283.666962920915
 30
0.0
 10
6365.884794542868
 20
5283.706539514425
 30
0.0
 10
6367.710399048889
 20
5283.76592757237
 30
0.0
 10
6370.744724332487
 20
5283.823683512077
 30
0.0
 10
6374.6623468724
 20
5283.877500185101
 30
0.0
 10
6379.329560668222
 20
5283.936217157249
 30
0.0
 10
6384.497881032208
 20
5283.995364127324
 30
0.0
 10
6389.875957966717
 20
5284.049975001227
 30
0.0
 10
6395.215137876391
 20
5284.106551935187
 30
0.0
 10
6400.261917786032
 20
5284.165960490351
 30
0.0
 10
6404.71001805269
 20
5284.223406203222
 30
0.0
 10
6408.368847939514
 20
5284.277398524421
 30
0.0
 10
6411.020200589544
 20
5284.336272806441
 30
0.0
 10
6412.565177854968
 20
5284.391205262935
 30
0.0
 10
6412.638826986915
 20
5284.424027746939
 30
0.0
 10
6412.670931001002
 20
5284.438335227027
 30
0.0
  0
SPLINE
  5
162
330
1F
100
AcDbEntity
  8
0
  6
Continuous
 62
     7
370
    25
100
AcDbSpline
210
0.0
220
0.0
230
1.0
 70
     8
 71
     3
 72
    22
 73
    18
 74
     0
 42
0.000000001
 43
0.00000001
 40
0.0
 40
0.0
 40
0.0
 40
0.0
 40
0.0139212620788481
 40
0.0850913860669046
 40
0.1574279538247277
 40
0.2290774494789122
 40
0.2994985876728878
 40
0.3715095582450146
 40
0.443715175895477
 40
0.514358448142386
 40
0.5856352403322951
 40
0.6579820522587564
 40
0.7295441721534472
 40
0.8000035247190808
 40
0.8720713548202605
 40
0.9442352845208045
 40
1.0
 40
1.0
 40
1.0
 40
1.0
 10
6365.367403407389
 20
5285.227023886695
 30
0.0
 10
6365.331015064846
 20
5285.230648729269
 30
0.0
 10
6365.108597407155
 20
5285.252804973233
 30
0.0
 10
6365.873282087793
 20
5285.294025817579
 30
0.0
 10
6367.713473656619
 20
5285.353457190678
 30
0.0
 10
6370.743920328044
 20
5285.411140369784
 30
0.0
 10
6374.662565987122
 20
5285.465025800202
 30
0.0
 10
6379.329501198657
 20
5285.523719260586
 30
0.0
 10
6384.497896350558
 20
5285.582890402293
 30
0.0
 10
6389.875954263429
 20
5285.637429485279
 30
0.0
 10
6395.215138525693
 20
5285.694090645157
 30
0.0
 10
6400.261917936721
 20
5285.753412344321
 30
0.0
 10
6404.710017765365
 20
5285.810941109156
 30
0.0
 10
6408.3688480834
 20
5285.864866600862
 30
0.0
 10
6411.020200642844
 20
5285.923746159597
 30
0.0
 10
6412.565177827059
 20
5285.978722171547
 30
0.0
 10
6412.638826979198
 20
5286.011539920431
 30
0.0
 10
6412.670931001002
 20
5286.025845335975
 30
0.0
  0
SPLINE
  5
163
330
1F
100
AcDbEntity
  8
0
  6
Continuous
 62
     7
370
    25
100
AcDbSpline
210
0.0
220
0.0
230
1.0
 70
     8
 71
     3
 72
    22
 73
    18
 74
     0
 42
0.000000001
 43
0.00000001
 40
0.0
 40
0.0
 40
0.0
 40
0.0
 40
0.0074263215043774
 40
0.0790652128563764
 40
0.1518782351422431
 40
0.2239996641154563
 40
0.2948846364684141
 40
0.3673699169789496
 40
0.4400511309891303
 40
0.5111597046455635
 40
0.5829059667700938
 40
0.6557293050670584
 40
0.7277627784848301
 40
0.798686221048282
 40
0.8712287356008025
 40
0.9438679827256173
 40
1.0
 40
1.0
 40
1.0
 40
1.0
 10
6365.32410063296
 20
5286.819630192771
 30
0.0
 10
6365.306074488301
 20
5286.821557432028
 30
0.0
 10
6365.114157000804
 20
5286.842076013404
 30
0.0
 10
6365.88479454908
 20
5286.881476002846
 30
0.0
 10
6367.710399054091
 20
5286.940932641636
 30
0.0
 10
6370.744724340836
 20
5286.998669177288
 30
0.0
 10
6374.662346834315
 20
5287.052495278233
 30
0.0
 10
6379.329560910253
 20
5287.111193300109
 30
0.0
 10
6384.4978805965
 20
5287.170406489937
 30
0.0
 10
6389.87595822048
 20
5287.224950599872
 30
0.0
 10
6395.215137807488
 20
5287.281549812631
 30
0.0
 10
6400.261918008619
 20
5287.34093602806
 30
0.0
 10
6404.710017722946
 20
5287.398447661953
 30
0.0
 10
6408.368848094981
 20
5287.452377680735
 30
0.0
 10
6411.020200639695
 20
5287.511256004521
 30
0.0
 10
6412.565177827642
 20
5287.566232329349
 30
0.0
 10
6412.638826979374
 20
5287.599050044209
 30
0.0
 10
6412.670931001002
 20
5287.613355444922
 30
0.0
  0
SPLINE
  5
164
330
1F
100
AcDbEntity
  8
0
  6
Continuous
 62
     7
370
    25
100
AcDbSpline
210
0.0
220
0.0
230
1.0
 70
     8
 71
     3
 72
    22
 73
    18
 74
     0
 42
0.000000001
 43
0.00000001
 40
0.0
 40
0.0
 40
0.0
 40
0.0
 40
0.0074263173655451
 40
0.0790652132845009
 40
0.1518782359175207
 40
0.2239996609508279
 40
0.2948846377764863
 40
0.3673699186326123
 40
0.4400511286371567
 40
0.5111597067949075
 40
0.582905969261505
 40
0.6557293079056717
 40
0.7277627773934556
 40
0.7986862244343252
 40
0.871228739332709
 40
0.9438679824579949
 40
1.0
 40
1.0
 40
1.0
 40
1.0
 10
6365.32410063296
 20
5288.407140301719
 30
0.0
 10
6365.306074489823
 20
5288.409057013053
 30
0.0
 10
6365.114156910536
 20
5288.429463519132
 30
0.0
 10
6365.884794570035
 20
5288.469036108853
 30
0.0
 10
6367.710398915114
 20
5288.52844222473
 30
0.0
 10
6370.744724614874
 20
5288.58613246079
 30
0.0
 10
6374.662346688262
 20
5288.640014771685
 30
0.0
 10
6379.329560693964
 20
5288.698713863929
 30
0.0
 10
6384.497881025472
 20
5288.757865651025
 30
0.0
 10
6389.875957968522
 20
5288.812475257971
 30
0.0
 10
6395.215137875897
 20
5288.869052532963
 30
0.0
 10
6400.261917786163
 20
5288.92846099535
 30
0.0
 10
6404.710018052655
 20
5288.985906732857
 30
0.0
 10
6408.368847939523
 20
5289.039899047546
 30
0.0
 10
6411.020200589542
 20
5289.098773331341
 30
0.0
 10
6412.565177854968
 20
5289.153705787386
 30
0.0
 10
6412.638826986916
 20
5289.186528271438
 30
0.0
 10
6412.670931001002
 20
5289.200835751548
 30
0.0
  0
SPLINE
  5
165
330
1F
100
AcDbEntity
  8
0
  6
Continuous
 62
     7
370
    25
100
AcDbSpline
210
0.0
220
0.0
230
1.0
 70
     8
 71
     3
 72
    22
 73
    18
 74
     0
 42
0.000000001
 43
0.00000001
 40
0.0
 40
0.0
 40
0.0
 40
0.0
 40
0.0074263215073812
 40
0.0790652171137577
 40
0.1518782394290753
 40
0.223999664147698
 40
0.2948846406640667
 40
0.3673699212039205
 40
0.4400511308913378
 40
0.5111597045765325
 40
0.5829059709692566
 40
0.6557293049278103
 40
0.7277627783747176
 40
0.7986862209668562
 40
0.8712287355487179
 40
0.9438679827029135
 40
1.0
 40
1.0
 40
1.0
 40
1.0
 10
6365.32410063296
 20
5289.994620608344
 30
0.0
 10
6365.306074488455
 20
5289.996547784232
 30
0.0
 10
6365.114156992348
 20
5290.017065692035
 30
0.0
 10
6365.884794525048
 20
5290.056505780231
 30
0.0
 10
6367.710398926369
 20
5290.115963206841
 30
0.0
 10
6370.744724614711
 20
5290.173639457804
 30
0.0
 10
6374.662346678052
 20
5290.227526716421
 30
0.0
 10
6379.329560736162
 20
5290.286219678769
 30
0.0
 10
6384.497880768794
 20
5290.345390954644
 30
0.0
 10
6389.875958439296
 20
5290.399930002342
 30
0.0
 10
6395.215137383326
 20
5290.456591171718
 30
0.0
 10
6400.261918241171
 20
5290.515912868297
 30
0.0
 10
6404.710017685616
 20
5290.573441633819
 30
0.0
 10
6408.368848105174
 20
5290.627367125344
 30
0.0
 10
6411.020200636924
 20
5290.686246684128
 30
0.0
 10
6412.565177828154
 20
5290.741222696065
 30
0.0
 10
6412.638826979531
 20
5290.774040444951
 30
0.0
 10
6412.670931001002
 20
5290.788345860496
 30
0.0
  0
SPLINE
  5
166
330
1F
100
AcDbEntity
  8
0
  6
Continuous
 62
     7
370
    25
100
AcDbSpline
210
0.0
220
0.0
230
1.0
 70
     8
 71
     3
 72
    16
 73
    12
 74
     0
 42
0.000000001
 43
0.00000001
 40
0.0
 40
0.0
 40
0.0
 40
0.0
 40
0.0761694904360016
 40
0.194062255164366
 40
0.3130127973121013
 40
0.4337489300144116
 40
0.5531752758351959
 40
0.6707614805721359
 40
0.7910325448447619
 40
0.91146326917496
 40
1.0
 40
1.0
 40
1.0
 40
1.0
 10
6381.549259801203
 20
5278.69945101644
 30
0.0
 10
6382.604095109196
 20
5278.711899138477
 30
0.0
 10
6385.29157165032
 20
5278.743614076063
 30
0.0
 10
6389.849062806415
 20
5278.79131488137
 30
0.0
 10
6394.989819822667
 20
5278.847980861433
 30
0.0
 10
6399.855478574706
 20
5278.907366418885
 30
0.0
 10
6404.142095947199
 20
5278.964813556711
 30
0.0
 10
6407.669251669194
 20
5279.018823332578
 30
0.0
 10
6410.22245589257
 20
5279.077625298775
 30
0.0
 10
6411.698948086352
 20
5279.131897412999
 30
0.0
 10
6411.771718903938
 20
5279.164019554937
 30
0.0
 10
6411.802550931269
 20
5279.177629279151
 30
0.0
  0
SPLINE
  5
167
330
1F
100
AcDbEntity
  8
0
  6
Continuous
 62
     7
370
    25
100
AcDbSpline
210
0.0
220
0.0
230
1.0
 70
     8
 71
     3
 72
    22
 73
    18
 74
     0
 42
0.000000001
 43
0.00000001
 40
0.0
 40
0.0
 40
0.0
 40
0.0
 40
0.0223948193329766
 40
0.0946367265074863
 40
0.1676649213580214
 40
0.2432569409179802
 40
0.3183995822543611
 40
0.3951396040964901
 40
0.4412115122185531
 40
0.5125201765371733
 40
0.5844686439479738
 40
0.6574971489443115
 40
0.7297334203424676
 40
0.8008566541950032
 40
0.8736038623955008
 40
0.9464476379630459
 40
1.0
 40
1.0
 40
1.0
 40
1.0
 10
6366.250386615092
 20
5279.973589705482
 30
0.0
 10
6366.216089812951
 20
5279.979303086739
 30
0.0
 10
6366.071157316018
 20
5280.003446871576
 30
0.0
 10
6366.997162408286
 20
5280.047986930828
 30
0.0
 10
6369.054112151756
 20
5280.10842722889
 30
0.0
 10
6372.308073594592
 20
5280.166714960465
 30
0.0
 10
6376.523132581505
 20
5280.224514598078
 30
0.0
 10
6380.815799939008
 20
5280.278776992345
 30
0.0
 10
6385.302302230872
 20
5280.331087822812
 30
0.0
 10
6389.845650004122
 20
5280.378845932044
 30
0.0
 10
6394.990753576698
 20
5280.435450941755
 30
0.0
 10
6399.855229966051
 20
5280.494835634111
 30
0.0
 10
6404.142160772883
 20
5280.552347308625
 30
0.0
 10
6407.669234167793
 20
5280.606279179848
 30
0.0
 10
6410.222460606459
 20
5280.665150185733
 30
0.0
 10
6411.698947257531
 20
5280.71940494236
 30
0.0
 10
6411.771718657283
 20
5280.751528896205
 30
0.0
 10
6411.802550931269
 20
5280.765139388099
 30
0.0
  0
SPLINE
  5
168
330
1F
100
AcDbEntity
  8
0
  6
Continuous
 62
     7
370
    25
100
AcDbSpline
210
0.0
220
0.0
230
1.0
 70
     8
 71
     3
 72
    22
 73
    18
 74
     0
 42
0.000000001
 43
0.00000001
 40
0.0
 40
0.0
 40
0.0
 40
0.0
 40
0.0223948193456945
 40
0.0946367265612299
 40
0.1676649214532372
 40
0.2432569410561243
 40
0.3183995824351782
 40
0.3951395996123162
 40
0.4412115077605431
 40
0.5125201766128996
 40
0.5844686440645592
 40
0.6574971491023694
 40
0.7297334159283443
 40
0.8008566542896497
 40
0.8736038625314599
 40
0.9464476334489825
 40
1.0
 40
1.0
 40
1.0
 40
1.0
 10
6366.250386615092
 20
5281.561099814429
 30
0.0
 10
6366.216089812926
 20
5281.566813198072
 30
0.0
 10
6366.071157315887
 20
5281.590956992994
 30
0.0
 10
6366.997162410347
 20
5281.63549684362
 30
0.0
 10
6369.054112144101
 20
5281.695938066772
 30
0.0
 10
6372.308073624125
 20
5281.754222257138
 30
0.0
 10
6376.523132383929
 20
5281.812035211594
 30
0.0
 10
6380.815800080486
 20
5281.866253751371
 30
0.0
 10
6385.302302387282
 20
5281.918563448381
 30
0.0
 10
6389.845649770963
 20
5281.966367933189
 30
0.0
 10
6394.990753639952
 20
5282.022954405264
 30
0.0
 10
6399.855229737293
 20
5282.082360341356
 30
0.0
 10
6404.142161114455
 20
5282.139806673955
 30
0.0
 10
6407.66923400659
 20
5282.193799630951
 30
0.0
 10
6410.22246055478
 20
5282.252670971193
 30
0.0
 10
6411.698947315985
 20
5282.306867536823
 30
0.0
 10
6411.77171867283
 20
5282.339024864106
 30
0.0
 10
6411.802550931269
 20
5282.352649497047
 30
0.0
  0
SPLINE
  5
169
330
1F
100
AcDbEntity
  8
0
  6
Continuous
 62
     7
370
    25
100
AcDbSpline
210
0.0
220
0.0
230
1.0
 70
     8
 71
     3
 72
    22
 73
    18
 74
     0
 42
0.000000001
 43
0.00000001
 40
0.0
 40
0.0
 40
0.0
 40
0.0
 40
0.0223948194461897
 40
0.0946367223730618
 40
0.167664917592778
 40
0.243256937534879
 40
0.3183995837643752
 40
0.3951396012858786
 40
0.44121150964085
 40
0.5125201743199586
 40
0.5844686466706986
 40
0.6574971520362192
 40
0.7297334191863493
 40
0.8008566578668151
 40
0.8736038617565274
 40
0.9464476376923213
 40
1.0
 40
1.0
 40
1.0
 40
1.0
 10
6366.250386615092
 20
5283.148609923377
 30
0.0
 10
6366.21608981116
 20
5283.15432383014
 30
0.0
 10
6366.071157313725
 20
5283.1784698345
 30
0.0
 10
6366.997162479413
 20
5283.222963949172
 30
0.0
 10
6369.054112112723
 20
5283.283424772051
 30
0.0
 10
6372.308073791641
 20
5283.3416903408
 30
0.0
 10
6376.523132184735
 20
5283.399557941177
 30
0.0
 10
6380.81580012931
 20
5283.453758870365
 30
0.0
 10
6385.302302187677
 20
5283.506082541798
 30
0.0
 10
6389.845650231694
 20
5283.553825601373
 30
0.0
 10
6394.990753381338
 20
5283.610478596834
 30
0.0
 10
6399.855229774788
 20
5283.669867686726
 30
0.0
 10
6404.142161119682
 20
5283.727313886521
 30
0.0
 10
6407.669233873186
 20
5283.781323910267
 30
0.0
 10
6410.222460739797
 20
5283.840125808814
 30
0.0
 10
6411.698947240313
 20
5283.894397940047
 30
0.0
 10
6411.771718652159
 20
5283.92652008021
 30
0.0
 10
6411.802550931269
 20
5283.940129803672
 30
0.0
  0
SPLINE
  5
16A
330
1F
100
AcDbEntity
  8
0
  6
Continuous
 62
     7
370
    25
100
AcDbSpline
210
0.0
220
0.0
230
1.0
 70
     8
 71
     3
 72
    22
 73
    18
 74
     0
 42
0.000000001
 43
0.00000001
 40
0.0
 40
0.0
 40
0.0
 40
0.0
 40
0.0223948193329766
 40
0.0946367265074863
 40
0.1676649213580214
 40
0.2432569409179802
 40
0.3183995822543611
 40
0.3951396040964901
 40
0.4412115122185531
 40
0.5125201765371733
 40
0.5844686439479738
 40
0.6574971489443115
 40
0.7297334203424676
 40
0.8008566541950032
 40
0.8736038623955008
 40
0.9464476379630459
 40
1.0
 40
1.0
 40
1.0
 40
1.0
 10
6366.250386615092
 20
5284.736090230002
 30
0.0
 10
6366.216089812951
 20
5284.741803611259
 30
0.0
 10
6366.071157316018
 20
5284.765947396097
 30
0.0
 10
6366.997162408286
 20
5284.810487455349
 30
0.0
 10
6369.054112151756
 20
5284.870927753411
 30
0.0
 10
6372.308073594592
 20
5284.929215484985
 30
0.0
 10
6376.523132581505
 20
5284.987015122599
 30
0.0
 10
6380.815799939008
 20
5285.041277516867
 30
0.0
 10
6385.302302230872
 20
5285.093588347333
 30
0.0
 10
6389.845650004122
 20
5285.141346456565
 30
0.0
 10
6394.990753576698
 20
5285.197951466276
 30
0.0
 10
6399.855229966051
 20
5285.257336158632
 30
0.0
 10
6404.142160772883
 20
5285.314847833146
 30
0.0
 10
6407.669234167793
 20
5285.368779704369
 30
0.0
 10
6410.222460606459
 20
5285.427650710254
 30
0.0
 10
6411.698947257531
 20
5285.481905466881
 30
0.0
 10
6411.771718657283
 20
5285.514029420726
 30
0.0
 10
6411.802550931269
 20
5285.52763991262
 30
0.0
  0
SPLINE
  5
16B
330
1F
100
AcDbEntity
  8
0
  6
Continuous
 62
     7
370
    25
100
AcDbSpline
210
0.0
220
0.0
230
1.0
 70
     8
 71
     3
 72
    22
 73
    18
 74
     0
 42
0.000000001
 43
0.00000001
 40
0.0
 40
0.0
 40
0.0
 40
0.0
 40
0.0223948193456945
 40
0.0946367265612299
 40
0.1676649214532372
 40
0.2432569410561243
 40
0.3183995824351782
 40
0.3951395996123162
 40
0.4412115077605431
 40
0.5125201766128996
 40
0.5844686440645592
 40
0.6574971491023694
 40
0.7297334159283443
 40
0.8008566542896497
 40
0.8736038625314599
 40
0.9464476334489825
 40
1.0
 40
1.0
 40
1.0
 40
1.0
 10
6366.250386615092
 20
5286.32360033895
 30
0.0
 10
6366.216089812926
 20
5286.329313722593
 30
0.0
 10
6366.071157315887
 20
5286.353457517514
 30
0.0
 10
6366.997162410347
 20
5286.397997368141
 30
0.0
 10
6369.054112144101
 20
5286.458438591293
 30
0.0
 10
6372.308073624125
 20
5286.516722781659
 30
0.0
 10
6376.523132383929
 20
5286.574535736115
 30
0.0
 10
6380.815800080486
 20
5286.628754275892
 30
0.0
 10
6385.302302387282
 20
5286.681063972902
 30
0.0
 10
6389.845649770963
 20
5286.72886845771
 30
0.0
 10
6394.990753639952
 20
5286.785454929784
 30
0.0
 10
6399.855229737293
 20
5286.844860865877
 30
0.0
 10
6404.142161114455
 20
5286.902307198476
 30
0.0
 10
6407.66923400659
 20
5286.956300155472
 30
0.0
 10
6410.22246055478
 20
5287.015171495714
 30
0.0
 10
6411.698947315985
 20
5287.069368061344
 30
0.0
 10
6411.77171867283
 20
5287.101525388627
 30
0.0
 10
6411.802550931269
 20
5287.115150021567
 30
0.0
  0
SPLINE
  5
16C
330
1F
100
AcDbEntity
  8
0
  6
Continuous
 62
     7
370
    25
100
AcDbSpline
210
0.0
220
0.0
230
1.0
 70
     8
 71
     3
 72
    22
 73
    18
 74
     0
 42
0.000000001
 43
0.00000001
 40
0.0
 40
0.0
 40
0.0
 40
0.0
 40
0.0223948194461897
 40
0.0946367223730618
 40
0.167664917592778
 40
0.243256937534879
 40
0.3183995837643752
 40
0.3951396012858786
 40
0.44121150964085
 40
0.5125201743199586
 40
0.5844686466706986
 40
0.6574971520362192
 40
0.7297334191863493
 40
0.8008566578668151
 40
0.8736038617565274
 40
0.9464476376923213
 40
1.0
 40
1.0
 40
1.0
 40
1.0
 10
6366.250386615092
 20
5287.911110447898
 30
0.0
 10
6366.21608981116
 20
5287.916824354661
 30
0.0
 10
6366.071157313725
 20
5287.940970359021
 30
0.0
 10
6366.997162479413
 20
5287.985464473693
 30
0.0
 10
6369.054112112723
 20
5288.045925296572
 30
0.0
 10
6372.308073791641
 20
5288.104190865321
 30
0.0
 10
6376.523132184735
 20
5288.162058465698
 30
0.0
 10
6380.81580012931
 20
5288.216259394885
 30
0.0
 10
6385.302302187677
 20
5288.268583066319
 30
0.0
 10
6389.845650231694
 20
5288.316326125894
 30
0.0
 10
6394.990753381338
 20
5288.372979121355
 30
0.0
 10
6399.855229774788
 20
5288.432368211247
 30
0.0
 10
6404.142161119682
 20
5288.489814411042
 30
0.0
 10
6407.669233873186
 20
5288.543824434788
 30
0.0
 10
6410.222460739797
 20
5288.602626333335
 30
0.0
 10
6411.698947240313
 20
5288.656898464568
 30
0.0
 10
6411.771718652159
 20
5288.689020604731
 30
0.0
 10
6411.802550931269
 20
5288.702630328193
 30
0.0
  0
SPLINE
  5
16D
330
1F
100
AcDbEntity
  8
0
  6
Continuous
 62
     7
370
    25
100
AcDbSpline
210
0.0
220
0.0
230
1.0
 70
     8
 71
     3
 72
    22
 73
    18
 74
     0
 42
0.000000001
 43
0.00000001
 40
0.0
 40
0.0
 40
0.0
 40
0.0
 40
0.0223948193329766
 40
0.0946367265074863
 40
0.1676649213580214
 40
0.2432569409179802
 40
0.3183995822543611
 40
0.3951396040964901
 40
0.4412115122185531
 40
0.5125201765371733
 40
0.5844686439479738
 40
0.6574971489443115
 40
0.7297334203424676
 40
0.8008566541950032
 40
0.8736038623955008
 40
0.9464476379630459
 40
1.0
 40
1.0
 40
1.0
 40
1.0
 10
6366.250386615092
 20
5289.498590754523
 30
0.0
 10
6366.216089812951
 20
5289.50430413578
 30
0.0
 10
6366.071157316018
 20
5289.528447920618
 30
0.0
 10
6366.997162408286
 20
5289.57298797987
 30
0.0
 10
6369.054112151756
 20
5289.633428277932
 30
0.0
 10
6372.308073594592
 20
5289.691716009506
 30
0.0
 10
6376.523132581505
 20
5289.74951564712
 30
0.0
 10
6380.815799939008
 20
5289.803778041387
 30
0.0
 10
6385.302302230872
 20
5289.856088871854
 30
0.0
 10
6389.845650004122
 20
5289.903846981086
 30
0.0
 10
6394.990753576698
 20
5289.960451990797
 30
0.0
 10
6399.855229966051
 20
5290.019836683153
 30
0.0
 10
6404.142160772883
 20
5290.077348357667
 30
0.0
 10
6407.669234167793
 20
5290.131280228889
 30
0.0
 10
6410.222460606459
 20
5290.190151234775
 30
0.0
 10
6411.698947257531
 20
5290.244405991401
 30
0.0
 10
6411.771718657283
 20
5290.276529945247
 30
0.0
 10
6411.802550931269
 20
5290.290140437141
 30
0.0
  0
SPLINE
  5
16E
330
1F
100
AcDbEntity
  8
0
  6
Continuous
 62
     7
370
    25
100
AcDbSpline
210
0.0
220
0.0
230
1.0
 70
    24
 71
     3
 72
    15
 73
    11
 74
     0
 42
0.000000001
 43
0.00000001
 40
0.0
 40
0.0
 40
0.0
 40
0.0
 40
0.0590083881931279
 40
0.1942431279847315
 40
0.3294779956134653
 40
0.4629227212502115
 40
0.5963674604732222
 40
0.7298664973614881
 40
0.8633573646766631
 40
1.0
 40
1.0
 40
1.0
 40
1.0
 10
6365.667006154353
 20
5278.69945101644
 30
0.0
 10
6365.640209157624
 20
5278.69945101644
 30
0.0
 10
6365.551999114534
 20
5278.69945101644
 30
0.0
 10
6366.12732938356
 20
5278.69945101644
 30
0.0
 10
6367.332199837544
 20
5278.69945101644
 30
0.0
 10
6369.200979569558
 20
5278.69945101644
 30
0.0
 10
6371.595977204988
 20
5278.69945101644
 30
0.0
 10
6374.499249152658
 20
5278.69945101644
 30
0.0
 10
6377.817500511652
 20
5278.69945101644
 30
0.0
 10
6380.295701944364
 20
5278.69945101644
 30
0.0
 10
6381.549259801203
 20
5278.69945101644
 30
0.0
  0
SPLINE
  5
16F
330
1F
100
AcDbEntity
  8
0
  6
Continuous
 62
     7
370
    25
100
AcDbSpline
210
0.0
220
0.0
230
1.0
 70
     8
 71
     3
 72
    22
 73
    18
 74
     0
 42
0.000000001
 43
0.00000001
 40
0.0
 40
0.0
 40
0.0
 40
0.0
 40
0.0144547053001117
 40
0.0870817592523134
 40
0.1604994243812617
 40
0.2328249095969663
 40
0.3045194104914879
 40
0.3777966417900127
 40
0.4508702097527982
 40
0.5223322595071886
 40
0.5950474454603246
 40
0.6684542529460994
 40
0.7406714385075706
 40
0.8124550912753258
 40
0.8857692311561085
 40
0.9587790895757677
 40
1.0
 40
1.0
 40
1.0
 40
1.0
 10
6365.371396918589
 20
5279.086791800513
 30
0.0
 10
6365.350958161432
 20
5279.090458473949
 30
0.0
 10
6365.227825735467
 20
5279.112548192615
 30
0.0
 10
6366.181939907475
 20
5279.155056853768
 30
0.0
 10
6368.266319177727
 20
5279.214411928752
 30
0.0
 10
6371.504827072324
 20
5279.271028616909
 30
0.0
 10
6375.595981066447
 20
5279.325562850069
 30
0.0
 10
6380.394697997071
 20
5279.384775350377
 30
0.0
 10
6385.629068151273
 20
5279.443478068061
 30
0.0
 10
6391.01920478086
 20
5279.497301247235
 30
0.0
 10
6396.318314617692
 20
5279.555052605901
 30
0.0
 10
6401.262670883601
 20
5279.614431162472
 30
0.0
 10
6405.555530606663
 20
5279.67066815629
 30
0.0
 10
6409.02665286323
 20
5279.725557469168
 30
0.0
 10
6411.436570878975
 20
5279.784774755532
 30
0.0
 10
6412.693293503307
 20
5279.835208166719
 30
0.0
 10
6412.643332423594
 20
5279.863991222682
 30
0.0
 10
6412.625303645426
 20
5279.874377774253
 30
0.0
  0
SPLINE
  5
170
330
1F
100
AcDbEntity
  8
0
  6
Continuous
 62
     7
370
    25
100
AcDbSpline
210
0.0
220
0.0
230
1.0
 70
     8
 71
     3
 72
    22
 73
    18
 74
     0
 42
0.000000001
 43
0.00000001
 40
0.0
 40
0.0
 40
0.0
 40
0.0
 40
0.0168268840180852
 40
0.0892791268063261
 40
0.1625200777936692
 40
0.2346714734507652
 40
0.3061934119947369
 40
0.379294262794732
 40
0.4521919448475816
 40
0.5234819917271198
 40
0.5960221543851838
 40
0.6692522694719886
 40
0.7412956346605993
 40
0.8129065063060203
 40
0.8860441812273986
 40
0.9588783070841019
 40
1.0
 40
1.0
 40
1.0
 40
1.0
 10
6365.378668685252
 20
5280.672454165473
 30
0.0
 10
6365.353920129616
 20
5280.676734167398
 30
0.0
 10
6365.222610646855
 20
5280.699442758851
 30
0.0
 10
6366.17827507801
 20
5280.742553492482
 30
0.0
 10
6368.267289432065
 20
5280.801939386904
 30
0.0
 10
6371.504571719711
 20
5280.858483850716
 30
0.0
 10
6375.596050635892
 20
5280.913097174037
 30
0.0
 10
6380.394679333781
 20
5280.972243650194
 30
0.0
 10
6385.629073247483
 20
5281.030952067306
 30
0.0
 10
6391.019203275605
 20
5281.08481778146
 30
0.0
 10
6396.318314773998
 20
5281.142573769905
 30
0.0
 10
6401.262671162935
 20
5281.201890349119
 30
0.0
 10
6405.555530441179
 20
5281.258191715167
 30
0.0
 10
6409.02665288992
 20
5281.313063893504
 30
0.0
 10
6411.436570871691
 20
5281.372285869934
 30
0.0
 10
6412.693293504238
 20
5281.422718147149
 30
0.0
 10
6412.643332423841
 20
5281.451501297551
 30
0.0
 10
6412.625303645426
 20
5281.461887883201
 30
0.0
  0
SPLINE
  5
171
330
1F
100
AcDbEntity
  8
0
  6
Continuous
 62
     7
370
    25
100
AcDbSpline
210
0.0
220
0.0
230
1.0
 70
     8
 71
     3
 72
    22
 73
    18
 74
     0
 42
0.000000001
 43
0.00000001
 40
0.0
 40
0.0
 40
0.0
 40
0.0
 40
0.0185642078047514
 40
0.0908884189872741
 40
0.1639999489657988
 40
0.2360238531756639
 40
0.3074194083055178
 40
0.3803910856618522
 40
0.4531599532820023
 40
0.5243240223622223
 40
0.5967360023450956
 40
0.6698367199543767
 40
0.7417527760952076
 40
0.813237107176562
 40
0.8862455479576095
 40
0.9589509673527051
 40
1.0
 40
1.0
 40
1.0
 40
1.0
 10
6365.384033103282
 20
5282.258593367591
 30
0.0
 10
6365.355981569971
 20
5282.263329061587
 30
0.0
 10
6365.218644197992
 20
5282.286514523878
 30
0.0
 10
6366.175727285018
 20
5282.33001266491
 30
0.0
 10
6368.267964175585
 20
5282.389415023642
 30
0.0
 10
6371.504393832696
 20
5282.446002860617
 30
0.0
 10
6375.59609927059
 20
5282.500605518225
 30
0.0
 10
6380.39466624045
 20
5282.55975166593
 30
0.0
 10
6385.629076464392
 20
5282.618472182279
 30
0.0
 10
6391.019202532101
 20
5282.672290590986
 30
0.0
 10
6396.318315230495
 20
5282.730043586917
 30
0.0
 10
6401.262670725197
 20
5282.789420406022
 30
0.0
 10
6405.555530635711
 20
5282.845662611477
 30
0.0
 10
6409.026652973259
 20
5282.900532833595
 30
0.0
 10
6411.436570723342
 20
5282.959822577531
 30
0.0
 10
6412.693293547621
 20
5283.010176830951
 30
0.0
 10
6412.643332436706
 20
5283.038997769378
 30
0.0
 10
6412.625303645426
 20
5283.049397992148
 30
0.0
  0
SPLINE
  5
172
330
1F
100
AcDbEntity
  8
0
  6
Continuous
 62
     7
370
    25
100
AcDbSpline
210
0.0
220
0.0
230
1.0
 70
     8
 71
     3
 72
    22
 73
    18
 74
     0
 42
0.000000001
 43
0.00000001
 40
0.0
 40
0.0
 40
0.0
 40
0.0
 40
0.0187479163107489
 40
0.0910585938676956
 40
0.1641564385581496
 40
0.2361668610657801
 40
0.3075490479324253
 40
0.3805070705472581
 40
0.4532623170201522
 40
0.5244130653452748
 40
0.5968114909844472
 40
0.6698985253295571
 40
0.7418011199555561
 40
0.8132720703339806
 40
0.8862668407507072
 40
0.9589586552106031
 40
1.0
 40
1.0
 40
1.0
 40
1.0
 10
6365.384599347407
 20
5283.845954464927
 30
0.0
 10
6365.356192666046
 20
5283.850728342262
 30
0.0
 10
6365.218221468699
 20
5283.873915055405
 30
0.0
 10
6366.175462738447
 20
5283.917547456039
 30
0.0
 10
6368.268034243567
 20
5283.976915080549
 30
0.0
 10
6371.504375197515
 20
5284.033528449212
 30
0.0
 10
6375.596104683759
 20
5284.088063563957
 30
0.0
 10
6380.39466464866
 20
5284.147275823811
 30
0.0
 10
6385.629076852265
 20
5284.205978605911
 30
0.0
 10
6391.019202426924
 20
5284.259801768149
 30
0.0
 10
6396.318315260137
 20
5284.317553131406
 30
0.0
 10
6401.262670713858
 20
5284.376931686733
 30
0.0
 10
6405.5555306515
 20
5284.43316868088
 30
0.0
 10
6409.026652850947
 20
5284.48805799367
 30
0.0
 10
6411.436570882326
 20
5284.547275280059
 30
0.0
 10
6412.693293502879
 20
5284.59770869124
 30
0.0
 10
6412.643332423481
 20
5284.626491747203
 30
0.0
 10
6412.625303645426
 20
5284.636878298774
 30
0.0
  0
SPLINE
  5
173
330
1F
100
AcDbEntity
  8
0
  6
Continuous
 62
     7
370
    25
100
AcDbSpline
210
0.0
220
0.0
230
1.0
 70
     8
 71
     3
 72
    22
 73
    18
 74
     0
 42
0.000000001
 43
0.00000001
 40
0.0
 40
0.0
 40
0.0
 40
0.0
 40
0.0150249760201495
 40
0.0876100054698911
 40
0.1609851886216569
 40
0.2332688195634484
 40
0.3049218397562114
 40
0.3781566659523715
 40
0.4511879510443877
 40
0.5226086545738661
 40
0.595281765028346
 40
0.6686460924201045
 40
0.7408214949008476
 40
0.8125636111869727
 40
0.8858353289938297
 40
0.9588029414072445
 40
0.9999999999999999
 40
0.9999999999999999
 40
0.9999999999999999
 40
0.9999999999999999
 10
6365.37315525561
 20
5285.436355399146
 30
0.0
 10
6365.351696446973
 20
5285.440170621689
 30
0.0
 10
6365.226571033154
 20
5285.462417024435
 30
0.0
 10
6366.181047765109
 20
5285.505058721064
 30
0.0
 10
6368.266555262466
 20
5285.564438665853
 30
0.0
 10
6371.504765154141
 20
5285.620984703412
 30
0.0
 10
6375.59599771893
 20
5285.67559760878
 30
0.0
 10
6380.394693609263
 20
5285.734744198935
 30
0.0
 10
6385.629069522842
 20
5285.793452585509
 30
0.0
 10
6391.019204283257
 20
5285.84731830769
 30
0.0
 10
6396.318314498986
 20
5285.905074293959
 30
0.0
 10
6401.262671235599
 20
5285.964390873763
 30
0.0
 10
6405.555530421985
 20
5286.020692239656
 30
0.0
 10
6409.026652895178
 20
5286.075564418034
 30
0.0
 10
6411.436570870257
 20
5286.134786394452
 30
0.0
 10
6412.693293504421
 20
5286.18521867167
 30
0.0
 10
6412.643332423891
 20
5286.214001822072
 30
0.0
 10
6412.625303645426
 20
5286.224388407722
 30
0.0
  0
SPLINE
  5
174
330
1F
100
AcDbEntity
  8
0
  6
Continuous
 62
     7
370
    25
100
AcDbSpline
210
0.0
220
0.0
230
1.0
 70
     8
 71
     3
 72
    22
 73
    18
 74
     0
 42
0.000000001
 43
0.00000001
 40
0.0
 40
0.0
 40
0.0
 40
0.0
 40
0.0149136310362897
 40
0.0875068654212161
 40
0.1608903428263079
 40
0.2331821489034565
 40
0.3048432686780607
 40
0.3780863732617445
 40
0.4511259137332126
 40
0.522554686417038
 40
0.5952360117632863
 40
0.6686086365811827
 40
0.7407921934349944
 40
0.8125424193742892
 40
0.8858224241288155
 40
0.9587982803716669
 40
1.0
 40
1.0
 40
1.0
 40
1.0
 10
6365.372797627741
 20
5287.023925112739
 30
0.0
 10
6365.351544216197
 20
5287.02771054397
 30
0.0
 10
6365.226838206021
 20
5287.049921849889
 30
0.0
 10
6366.181212295329
 20
5287.092544265328
 30
0.0
 10
6368.266511808888
 20
5287.151907319379
 30
0.0
 10
6371.504776493206
 20
5287.208505553206
 30
0.0
 10
6375.595994587927
 20
5287.263105449637
 30
0.0
 10
6380.394694480834
 20
5287.322252350455
 30
0.0
 10
6385.629069096144
 20
5287.380972665053
 30
0.0
 10
6391.019204525482
 20
5287.434791126801
 30
0.0
 10
6396.318314686455
 20
5287.492544108355
 30
0.0
 10
6401.26267086894
 20
5287.551920931358
 30
0.0
 10
6405.55553059774
 20
5287.608163135782
 30
0.0
 10
6409.02665298366
 20
5287.663033358175
 30
0.0
 10
6411.436570720503
 20
5287.722323102035
 30
0.0
 10
6412.693293547984
 20
5287.772677355475
 30
0.0
 10
6412.643332436803
 20
5287.801498293899
 30
0.0
 10
6412.625303645426
 20
5287.811898516669
 30
0.0
  0
SPLINE
  5
175
330
1F
100
AcDbEntity
  8
0
  6
Continuous
 62
     7
370
    25
100
AcDbSpline
210
0.0
220
0.0
230
1.0
 70
     8
 71
     3
 72
    22
 73
    18
 74
     0
 42
0.000000001
 43
0.00000001
 40
0.0
 40
0.0
 40
0.0
 40
0.0
 40
0.0169813506306242
 40
0.08942221039396
 40
0.1626516544418755
 40
0.2347917186013587
 40
0.3063024160959932
 40
0.3793917863441036
 40
0.4522780153887592
 40
0.5235568576789247
 40
0.5960856234989285
 40
0.6693042377394417
 40
0.7413362798928291
 40
0.8129359007017812
 40
0.8860620849095103
 40
0.9588847677433802
 40
1.0
 40
1.0
 40
1.0
 40
1.0
 10
6365.37914552241
 20
5288.609825896277
 30
0.0
 10
6365.354107755677
 20
5288.614145374882
 30
0.0
 10
6365.222261208644
 20
5288.636891346807
 30
0.0
 10
6366.17804467784
 20
5288.680048739759
 30
0.0
 10
6368.267350581301
 20
5288.739415404044
 30
0.0
 10
6371.504555324568
 20
5288.796029026698
 30
0.0
 10
6375.596055407231
 20
5288.850564073989
 30
0.0
 10
6380.394677942057
 20
5288.909776352241
 30
0.0
 10
6385.629073383861
 20
5288.968479129412
 30
0.0
 10
6391.019203365254
 20
5289.022302292947
 30
0.0
 10
6396.318315004044
 20
5289.080053655852
 30
0.0
 10
6401.262670781521
 20
5289.139432211275
 30
0.0
 10
6405.555530633627
 20
5289.195669205395
 30
0.0
 10
6409.026652855843
 20
5289.250558518193
 30
0.0
 10
6411.436570880991
 20
5289.309775804579
 30
0.0
 10
6412.693293503049
 20
5289.360209215761
 30
0.0
 10
6412.643332423526
 20
5289.388992271724
 30
0.0
 10
6412.625303645426
 20
5289.399378823295
 30
0.0
  0
SPLINE
  5
176
330
1F
100
AcDbEntity
  8
0
  6
Continuous
 62
     7
370
    25
100
AcDbSpline
210
0.0
220
0.0
230
1.0
 70
     8
 71
     3
 72
    22
 73
    18
 74
     0
 42
0.000000001
 43
0.00000001
 40
0.0
 40
0.0
 40
0.0
 40
0.0
 40
0.0141734529126028
 40
0.0868113739000752
 40
0.1602398928149612
 40
0.2325759727625724
 40
0.3042807670053411
 40
0.3775690208388361
 40
0.4506533111942032
 40
0.5221259833724395
 40
0.5948518755790092
 40
0.6682697342839293
 40
0.74049738529213
 40
0.8160132954040068
 40
0.8931333982352366
 40
0.9546966043444217
 40
1.0
 40
1.0
 40
1.0
 40
1.0
 10
6366.226127524668
 20
5279.583089875236
 30
0.0
 10
6366.206906814596
 20
5279.586687562836
 30
0.0
 10
6366.089181355668
 20
5279.608723139165
 30
0.0
 10
6367.00860496621
 20
5279.651140918755
 30
0.0
 10
6369.017044186542
 20
5279.710506295238
 30
0.0
 10
6372.138502156598
 20
5279.767103814742
 30
0.0
 10
6376.081604507853
 20
5279.821704266456
 30
0.0
 10
6380.706710942987
 20
5279.880850729453
 30
0.0
 10
6385.751708751153
 20
5279.939571095395
 30
0.0
 10
6390.94682023064
 20
5279.993390272777
 30
0.0
 10
6396.054273011559
 20
5280.051140054567
 30
0.0
 10
6400.81951977961
 20
5280.110529444425
 30
0.0
 10
6405.028705546043
 20
5280.167686229035
 30
0.0
 10
6408.465588269832
 20
5280.2246072726
 30
0.0
 10
6410.681250509338
 20
5280.282907921586
 30
0.0
 10
6411.787978090369
 20
5280.332208538316
 30
0.0
 10
6411.820607150577
 20
5280.359097948851
 30
0.0
 10
6411.834439416224
 20
5280.370497035041
 30
0.0
  0
SPLINE
  5
177
330
1F
100
AcDbEntity
  8
0
  6
Continuous
 62
     7
370
    25
100
AcDbSpline
210
0.0
220
0.0
230
1.0
 70
     8
 71
     3
 72
    22
 73
    18
 74
     0
 42
0.000000001
 43
0.00000001
 40
0.0
 40
0.0
 40
0.0
 40
0.0
 40
0.0165604938252558
 40
0.0890225322645811
 40
0.1622732543092117
 40
0.2344341825744619
 40
0.3059653491981488
 40
0.3790761505059617
 40
0.4519834728075017
 40
0.5232830884015053
 40
0.5958328850499466
 40
0.6690729726968162
 40
0.7411257345681402
 40
0.8164587889574509
 40
0.8933921562652112
 40
0.9548062956966143
 40
1.0
 40
1.0
 40
1.0
 40
1.0
 10
6366.233190675074
 20
5281.168752240195
 30
0.0
 10
6366.209810003094
 20
5281.172962894298
 30
0.0
 10
6366.084124945168
 20
5281.195597671655
 30
0.0
 10
6367.005035208603
 20
5281.238649336225
 30
0.0
 10
6369.01798944201
 20
5281.298013086488
 30
0.0
 10
6372.138252916922
 20
5281.354628538882
 30
0.0
 10
6376.081673056106
 20
5281.40915915711
 30
0.0
 10
6380.706692071328
 20
5281.46838873397
 30
0.0
 10
6385.751714030263
 20
5281.527026045874
 30
0.0
 10
6390.946818670316
 20
5281.580915117113
 30
0.0
 10
6396.054273404226
 20
5281.638646852635
 30
0.0
 10
6400.819519692478
 20
5281.698037763666
 30
0.0
 10
6405.028705422935
 20
5281.755206733271
 30
0.0
 10
6408.465588393229
 20
5281.81207511235
 30
0.0
 10
6410.681250494068
 20
5281.870394922587
 30
0.0
 10
6411.787978117372
 20
5281.919677309291
 30
0.0
 10
6411.820607158063
 20
5281.946595750378
 30
0.0
 10
6411.834439416224
 20
5281.958007143989
 30
0.0
  0
SPLINE
  5
178
330
1F
100
AcDbEntity
  8
0
  6
Continuous
 62
     7
370
    25
100
AcDbSpline
210
0.0
220
0.0
230
1.0
 70
     8
 71
     3
 72
    22
 73
    18
 74
     0
 42
0.000000001
 43
0.00000001
 40
0.0
 40
0.0
 40
0.0
 40
0.0
 40
0.0182968566189813
 40
0.0906309562794958
 40
0.163752342326496
 40
0.2357858634522431
 40
0.3071907393405225
 40
0.3801724517115497
 40
0.452951053718824
 40
0.5241247784353597
 40
0.5965464813593339
 40
0.6696572565058191
 40
0.7415828022159323
 40
0.8167828532874521
 40
0.8935803872502618
 40
0.9548860940434201
 40
1.0
 40
1.0
 40
1.0
 40
1.0
 10
6366.238346476847
 20
5282.754891442313
 30
0.0
 10
6366.211804172751
 20
5282.759557413349
 30
0.0
 10
6366.080330529368
 20
5282.782669657483
 30
0.0
 10
6367.002560538934
 20
5282.826157013656
 30
0.0
 10
6369.018644752787
 20
5282.885489913213
 30
0.0
 10
6372.13808046905
 20
5282.942096021622
 30
0.0
 10
6376.081719867726
 20
5282.996694191987
 30
0.0
 10
6380.706679822239
 20
5283.055841277225
 30
0.0
 10
6385.751716870923
 20
5283.114561476476
 30
0.0
 10
6390.946818033965
 20
5283.168380697682
 30
0.0
 10
6396.054273611015
 20
5283.226130467594
 30
0.0
 10
6400.819519621491
 20
5283.28551986067
 30
0.0
 10
6405.028705590251
 20
5283.34267664442
 30
0.0
 10
6408.465588257382
 20
5283.399597688225
 30
0.0
 10
6410.681250511974
 20
5283.457898337148
 30
0.0
 10
6411.787978089954
 20
5283.507198953891
 30
0.0
 10
6411.820607150453
 20
5283.534088364424
 30
0.0
 10
6411.834439416224
 20
5283.545487450614
 30
0.0
  0
SPLINE
  5
179
330
1F
100
AcDbEntity
  8
0
  6
Continuous
 62
     7
370
    25
100
AcDbSpline
210
0.0
220
0.0
230
1.0
 70
     8
 71
     3
 72
    22
 73
    18
 74
     0
 42
0.000000001
 43
0.00000001
 40
0.0
 40
0.0
 40
0.0
 40
0.0
 40
0.0184947117795889
 40
0.0908142326782487
 40
0.1639208860079684
 40
0.2359398889527335
 40
0.3073303733619494
 40
0.3802973764463552
 40
0.4530613101034079
 40
0.5242206899288365
 40
0.5966277964347313
 40
0.6697238362823067
 40
0.7416348855736202
 40
0.816819780257749
 40
0.8936018358643764
 40
0.954895186641439
 40
1.0
 40
1.0
 40
1.0
 40
1.0
 10
6366.238942523295
 20
5284.342222737327
 30
0.0
 10
6366.212030190597
 20
5284.346938006846
 30
0.0
 10
6366.079883073479
 20
5284.370091305391
 30
0.0
 10
6367.002288454742
 20
5284.413628347976
 30
0.0
 10
6369.018716708822
 20
5284.473010287208
 30
0.0
 10
6372.138061492684
 20
5284.529603425684
 30
0.0
 10
6376.081725059036
 20
5284.584205040903
 30
0.0
 10
6380.706678421775
 20
5284.643351186551
 30
0.0
 10
6385.751717236321
 20
5284.702071637506
 30
0.0
 10
6390.946817935112
 20
5284.755890792539
 30
0.0
 10
6396.054273637991
 20
5284.813640580387
 30
0.0
 10
6400.819519614375
 20
5284.873029968604
 30
0.0
 10
6405.02870559224
 20
5284.930186753651
 30
0.0
 10
6408.465588256822
 20
5284.987107797093
 30
0.0
 10
6410.681250512092
 20
5285.045408446113
 30
0.0
 10
6411.787978089936
 20
5285.094709062836
 30
0.0
 10
6411.820607150447
 20
5285.121598473371
 30
0.0
 10
6411.834439416224
 20
5285.132997559562
 30
0.0
  0
SPLINE
  5
17A
330
1F
100
AcDbEntity
  8
0
  6
Continuous
 62
     7
370
    25
100
AcDbSpline
210
0.0
220
0.0
230
1.0
 70
     8
 71
     3
 72
    22
 73
    18
 74
     0
 42
0.000000001
 43
0.00000001
 40
0.0
 40
0.0
 40
0.0
 40
0.0
 40
0.0147569094630075
 40
0.0873518400675212
 40
0.1607369006880985
 40
0.2330301642992416
 40
0.3046925204253549
 40
0.3779374037006878
 40
0.4509784347982735
 40
0.5224088107255146
 40
0.5950916604838082
 40
0.6684660672036107
 40
0.7406509706450467
 40
0.8161221825154836
 40
0.8931966422072972
 40
0.9547234124470243
 40
1.0
 40
1.0
 40
1.0
 40
1.0
 10
6366.227856059367
 20
5285.932653473868
 30
0.0
 10
6366.207637453063
 20
5285.936399384904
 30
0.0
 10
6366.087955722372
 20
5285.958572877427
 30
0.0
 10
6367.007716758447
 20
5286.001150489541
 30
0.0
 10
6369.017279265101
 20
5286.060526550026
 30
0.0
 10
6372.138440298157
 20
5286.117077820454
 30
0.0
 10
6376.081621678806
 20
5286.171673698502
 30
0.0
 10
6380.706705905584
 20
5286.230885476814
 30
0.0
 10
6385.751710420742
 20
5286.289527557078
 30
0.0
 10
6390.946819646814
 20
5286.343415374702
 30
0.0
 10
6396.054273137747
 20
5286.401147449999
 30
0.0
 10
6400.819519762768
 20
5286.460538268972
 30
0.0
 10
6405.028705403282
 20
5286.517707263163
 30
0.0
 10
6408.465588398763
 20
5286.574575635358
 30
0.0
 10
6410.681250492897
 20
5286.632895447429
 30
0.0
 10
6411.787978117557
 20
5286.682177833761
 30
0.0
 10
6411.820607158117
 20
5286.709096274884
 30
0.0
 10
6411.834439416224
 20
5286.72050766851
 30
0.0
  0
SPLINE
  5
17B
330
1F
100
AcDbEntity
  8
0
  6
Continuous
 62
     7
370
    25
100
AcDbSpline
210
0.0
220
0.0
230
1.0
 70
     8
 71
     3
 72
    22
 73
    18
 74
     0
 42
0.000000001
 43
0.00000001
 40
0.0
 40
0.0
 40
0.0
 40
0.0
 40
0.0146312262293861
 40
0.0872354177967131
 40
0.1606298354384783
 40
0.2329323261258373
 40
0.3046038242458841
 40
0.3778580466771628
 40
0.450908400340759
 40
0.522347884182159
 40
0.5950400061191458
 40
0.6684237732398248
 40
0.7406178853367535
 40
0.816098729634174
 40
0.8931830217440244
 40
0.9547176409771518
 40
1.0
 40
1.0
 40
1.0
 40
1.0
 10
6366.227468629176
 20
5287.520252989783
 30
0.0
 10
6366.207471582938
 20
5287.523969413124
 30
0.0
 10
6366.088243662055
 20
5287.546127757052
 30
0.0
 10
6367.007897556464
 20
5287.588669963288
 30
0.0
 10
6369.01723158649
 20
5287.647987147742
 30
0.0
 10
6372.138452799762
 20
5287.704597412966
 30
0.0
 10
6376.081618010263
 20
5287.759194479374
 30
0.0
 10
6380.706707300428
 20
5287.818341865717
 30
0.0
 10
6385.75170970154
 20
5287.877061984305
 30
0.0
 10
6390.946819973527
 20
5287.930881226717
 30
0.0
 10
6396.054273081723
 20
5287.988630990882
 30
0.0
 10
6400.819519761104
 20
5288.048020385516
 30
0.0
 10
6405.028705551217
 20
5288.10517716885
 30
0.0
 10
6408.465588268374
 20
5288.162098212772
 30
0.0
 10
6410.681250509647
 20
5288.220398861664
 30
0.0
 10
6411.787978090321
 20
5288.269699478413
 30
0.0
 10
6411.820607150562
 20
5288.296588888946
 30
0.0
 10
6411.834439416224
 20
5288.307987975135
 30
0.0
  0
SPLINE
  5
17C
330
1F
100
AcDbEntity
  8
0
  6
Continuous
 62
     7
370
    25
100
AcDbSpline
210
0.0
220
0.0
230
1.0
 70
     8
 71
     3
 72
    22
 73
    18
 74
     0
 42
0.000000001
 43
0.00000001
 40
0.0
 40
0.0
 40
0.0
 40
0.0
 40
0.0167146505908271
 40
0.0891653304082279
 40
0.1624045702026303
 40
0.2345541870457961
 40
0.3060741454701487
 40
0.3791734817490972
 40
0.4520693803133175
 40
0.5233578150218566
 40
0.5958962392920351
 40
0.6691248463556474
 40
0.7411663137602639
 40
0.8164875640143673
 40
0.8934088718072222
 40
0.9548133844049667
 40
1.0
 40
1.0
 40
1.0
 40
1.0
 10
6366.23363770991
 20
5289.106123971
 30
0.0
 10
6366.209984565952
 20
5289.110374152138
 30
0.0
 10
6366.083805416426
 20
5289.133047004524
 30
0.0
 10
6367.004806069618
 20
5289.176139177766
 30
0.0
 10
6369.018050080258
 20
5289.235508083039
 30
0.0
 10
6372.138237131093
 20
5289.292104669141
 30
0.0
 10
6376.081677010132
 20
5289.346705368746
 30
0.0
 10
6380.706691383975
 20
5289.40585176413
 30
0.0
 10
6385.751713854329
 20
5289.464572148185
 30
0.0
 10
6390.946818850056
 20
5289.518391320805
 30
0.0
 10
6396.054273388309
 20
5289.576141103886
 30
0.0
 10
6400.819519680234
 20
5289.635530493394
 30
0.0
 10
6405.028705573826
 20
5289.692687278097
 30
0.0
 10
6408.465588262007
 20
5289.749608321636
 30
0.0
 10
6410.681250510995
 20
5289.807908970629
 30
0.0
 10
6411.787978090108
 20
5289.857209587358
 30
0.0
 10
6411.820607150499
 20
5289.884098997893
 30
0.0
 10
6411.834439416224
 20
5289.895498084083
 30
0.0
  0
SPLINE
  5
17D
330
1F
100
AcDbEntity
  8
0
  6
Continuous
 62
     7
370
    25
100
AcDbSpline
210
0.0
220
0.0
230
1.0
 70
    24
 71
     3
 72
    18
 73
    14
 74
     0
 42
0.000000001
 43
0.00000001
 40
0.0
 40
0.0
 40
0.0
 40
0.0
 40
0.0221018506690257
 40
0.1107099934216262
 40
0.2002023757791632
 40
0.2896943010366888
 40
0.3970628038914433
 40
0.5044304102373901
 40
0.6117981739534014
 40
0.7191662489352777
 40
0.8265343038395199
 40
0.933901787809967
 40
1.0
 40
1.0
 40
1.0
 40
1.0
 10
6381.549259801203
 20
5278.69945101644
 30
0.0
 10
6381.800334520427
 20
5278.69945101644
 30
0.0
 10
6383.05798850288
 20
5278.69945101644
 30
0.0
 10
6385.403922658351
 20
5278.69945101644
 30
0.0
 10
6388.604762638698
 20
5278.69945101644
 30
0.0
 10
6392.040196401566
 20
5278.69945101644
 30
0.0
 10
6395.620987562806
 20
5278.69945101644
 30
0.0
 10
6399.228326592659
 20
5278.69945101644
 30
0.0
 10
6402.539367969913
 20
5278.69945101644
 30
0.0
 10
6405.476861493898
 20
5278.69945101644
 30
0.0
 10
6407.928678683088
 20
5278.69945101644
 30
0.0
 10
6409.636754998979
 20
5278.69945101644
 30
0.0
 10
6410.375165064815
 20
5278.69945101644
 30
0.0
 10
6410.656532426173
 20
5278.69945101644
 30
0.0
  0
LINE
  5
17E
330
1F
100
AcDbEntity
  8
0
  6
Continuous
 62
     7
370
    25
100
AcDbLine
 10
6411.268761535
 20
5276.6994469633
 30
0.0
 11
6366.7687682107
 21
5276.6994469633
 31
0.0
  0
LINE
  5
17F
330
1F
100
AcDbEntity
  8
0
  6
Continuous
 62
     7
370
    25
100
AcDbLine
 10
6311.0187558129
 20
5236.2305455675
 30
0.0
 11
6311.0187558129
 21
5282.2305195799
 31
0.0
  0
LINE
  5
180
330
1F
100
AcDbEntity
  8
0
  6
Continuous
 62
     7
370
    25
100
AcDbLine
 10
6315.0187639192
 20
5234.2305415144
 30
0.0
 11
6315.0187639192
 21
5284.230523633
 31
0.0
  0
LINE
  5
181
330
1F
100
AcDbEntity
  8
0
  6
Continuous
 62
     7
370
    25
100
AcDbLine
 10
6237.0187548593
 20
5236.2305455675
 30
0.0
 11
6237.0187548593
 21
5282.2305195799
 31
0.0
  0
LINE
  5
182
330
1F
100
AcDbEntity
  8
0
  6
Continuous
 62
     7
370
    25
100
AcDbLine
 10
6233.0187616542
 20
5234.2305415144
 30
0.0
 11
6233.0187616542
 21
5284.230523633
 31
0.0
  0
LINE
  5
183
330
1F
100
AcDbEntity
  8
0
  6
Continuous
 62
     7
370
    25
100
AcDbLine
 10
6247.0187602237
 20
5239.230536746
 30
0.0
 11
6247.0187602237
 21
5279.2305284014
 31
0.0
  0
LINE
  5
184
330
1F
100
AcDbEntity
  8
0
  6
Continuous
 62
     7
370
    25
100
AcDbLine
 10
6301.0187653497
 20
5239.230536746
 30
0.0
 11
6301.0187653497
 21
5279.2305284014
 31
0.0
  0
SPLINE
  5
185
330
1F
100
AcDbEntity
  8
0
  6
Continuous
 62
     7
370
    25
100
AcDbSpline
210
0.0
220
0.0
230
1.0
 70
    24
 71
     3
 72
    19
 73
    15
 74
     0
 42
0.000000001
 43
0.00000001
 40
0.0
 40
0.0
 40
0.0
 40
0.0
 40
0.0597782722072332
 40
0.1214083542598087
 40
0.181188820338319
 40
0.2425939507240995
 40
0.3047096255028711
 40
0.3682505489487558
 40
0.4553095683747249
 40
0.5448671048199475
 40
0.6388482276127665
 40
0.7329501954741193
 40
0.9256697003021831
 40
1.0
 40
1.0
 40
1.0
 40
1.0
 10
6274.0187553361
 20
5269.163721131339
 30
0.0
 10
6274.0187553361
 20
5269.125710743817
 30
0.0
 10
6274.0187553361
 20
5269.048512483922
 30
0.0
 10
6274.0187553361
 20
5268.430665787345
 30
0.0
 10
6274.0187553361
 20
5267.464864394621
 30
0.0
 10
6274.0187553361
 20
5266.156604482482
 30
0.0
 10
6274.0187553361
 20
5264.530201292992
 30
0.0
 10
6274.0187553361
 20
5262.406641924501
 30
0.0
 10
6274.0187553361
 20
5259.724786483699
 30
0.0
 10
6274.0187553361
 20
5256.472964785205
 30
0.0
 10
6274.0187553361
 20
5253.006122820689
 30
0.0
 10
6274.0187553361
 20
5248.178715042575
 30
0.0
 10
6274.0187553361
 20
5243.57577053114
 30
0.0
 10
6274.0187553361
 20
5240.176644985821
 30
0.0
 10
6274.0187553361
 20
5239.230536746039
 30
0.0
  0
LINE
  5
186
330
1F
100
AcDbEntity
  8
0
  6
Continuous
 62
     7
370
    25
100
AcDbLine
 10
6240.0187609389
 20
5150.1994662752
 30
0.0
 11
6308.0187646344
 21
5150.1994662752
 31
0.0
  0
LINE
  5
187
330
1F
100
AcDbEntity
  8
0
  6
Continuous
 62
     7
370
    25
100
AcDbLine
 10
6249.6891079143
 20
5210.1994686594
 30
0.0
 11
6298.3484176591
 21
5210.1994686594
 31
0.0
  0
LINE
  5
188
330
1F
100
AcDbEntity
  8
0
  6
Continuous
 62
     7
370
    25
100
AcDbLine
 10
6249.8969344094
 20
5080.1994436255
 30
0.0
 11
6298.1405762628
 21
5080.1994436255
 31
0.0
  0
LINE
  5
189
330
1F
100
AcDbEntity
  8
0
  6
Continuous
 62
     7
370
    25
100
AcDbLine
 10
6251.0187534288
 20
5216.6994445791
 30
0.0
 11
6297.0187572434
 21
5216.6994445791
 31
0.0
  0
LINE
  5
18A
330
1F
100
AcDbEntity
  8
0
  6
Continuous
 62
     7
370
    25
100
AcDbLine
 10
6249.0187493756
 20
5212.6994662752
 30
0.0
 11
6299.0187612966
 21
5212.6994662752
 31
0.0
  0
LINE
  5
18B
330
1F
100
AcDbEntity
  8
0
  6
Continuous
 62
     7
370
    25
100
AcDbLine
 10
6254.0187595084
 20
5226.6994648447
 30
0.0
 11
6294.0187660649
 21
5226.6994648447
 31
0.0
  0
LINE
  5
18C
330
1F
100
AcDbEntity
  8
0
  6
Continuous
 62
     7
370
    25
100
AcDbLine
 10
6290.5187515214
 20
5210.1994686594
 30
0.0
 11
6290.0187579587
 21
5210.5657093992
 31
0.0
  0
LINE
  5
18D
330
1F
100
AcDbEntity
  8
0
  6
Continuous
 62
     7
370
    25
100
AcDbLine
 10
6258.0187527135
 20
5210.5657093992
 30
0.0
 11
6257.5187591508
 21
5210.1994686594
 31
0.0
  0
ARC
  5
18E
330
1F
100
AcDbEntity
  8
0
  6
Continuous
 62
     7
370
    25
100
AcDbCircle
 10
6274.0187553361
 20
5188.1994545927
 30
0.0
 40
40.0
100
AcDbArc
 50
0.0
 51
54.9003678046
  0
ARC
  5
18F
330
1F
100
AcDbEntity
  8
0
  6
Continuous
 62
     7
370
    25
100
AcDbCircle
 10
6274.0187553361
 20
5188.1994545927
 30
0.0
 40
39.99999999999956
100
AcDbArc
 50
125.0996321954
 51
216.1070114058
  0
ARC
  5
190
330
1F
100
AcDbEntity
  8
0
  6
Continuous
 62
     7
370
    25
100
AcDbCircle
 10
6274.0187553361
 20
5188.1994545927
 30
0.0
 40
40.00000000000009
100
AcDbArc
 50
323.8929885942
 51
0.0
  0
LINE
  5
191
330
1F
100
AcDbEntity
  8
0
  6
Continuous
 62
     7
370
    25
100
AcDbLine
 10
5676.0187653497
 20
5616.6994544977
 30
0.0
 11
5674.0187612966
 21
5616.6994544977
 31
0.0
  0
ARC
  5
192
330
1F
100
AcDbEntity
  8
0
  6
Continuous
 62
     7
370
    25
100
AcDbCircle
 10
5676.0187553361
 20
5616.6994545927
 30
0.0
 40
2.000000000000909
100
AcDbArc
 50
90.0
 51
180.0
  0
LINE
  5
193
330
1F
100
AcDbEntity
  8
0
  6
Continuous
 62
     7
370
    25
100
AcDbLine
 10
5676.0187653497
 20
5616.6994544977
 30
0.0
 11
5676.0187653497
 21
5618.6994545927
 31
0.0
  0
LINE
  5
194
330
1F
100
AcDbEntity
  8
0
  6
Continuous
 62
     7
370
    25
100
AcDbLine
 10
6872.0187453225
 20
5578.6994554868
 30
0.0
 11
6872.0187453225
 21
5580.6994558146
 31
0.0
  0
LINE
  5
195
330
1F
100
AcDbEntity
  8
0
  6
Continuous
 62
     7
370
    25
100
AcDbLine
 10
6874.018779178
 20
5580.6994558146
 30
0.0
 11
6872.0187453225
 21
5580.6994558146
 31
0.0
  0
ARC
  5
196
330
1F
100
AcDbEntity
  8
0
  6
Continuous
 62
     7
370
    25
100
AcDbCircle
 10
6872.0187553361
 20
5580.6994545927
 30
0.0
 40
2.0
100
AcDbArc
 50
270.0
 51
0.0
  0
LINE
  5
197
330
1F
100
AcDbEntity
  8
0
  6
Continuous
 62
     7
370
    25
100
AcDbLine
 10
5676.0187653497
 20
5618.6994545927
 30
0.0
 11
6872.0187453225
 21
5618.6994545927
 31
0.0
  0
LINE
  5
198
330
1F
100
AcDbEntity
  8
0
  6
Continuous
 62
     7
370
    25
100
AcDbLine
 10
6872.0187453225
 20
5616.6994544977
 30
0.0
 11
6872.0187453225
 21
5618.6994545927
 31
0.0
  0
LINE
  5
199
330
1F
100
AcDbEntity
  8
0
  6
Continuous
 62
     7
370
    25
100
AcDbLine
 10
6872.0187453225
 20
5616.6994544977
 30
0.0
 11
5676.0187653497
 21
5616.6994544977
 31
0.0
  0
LINE
  5
19A
330
1F
100
AcDbEntity
  8
0
  6
Continuous
 62
     7
370
    25
100
AcDbLine
 10
5674.0187612966
 20
5580.6994558146
 30
0.0
 11
5676.0187653497
 21
5580.6994558146
 31
0.0
  0
LINE
  5
19B
330
1F
100
AcDbEntity
  8
0
  6
Continuous
 62
     7
370
    25
100
AcDbLine
 10
5676.0187653497
 20
5578.6994554868
 30
0.0
 11
5676.0187653497
 21
5580.6994558146
 31
0.0
  0
ARC
  5
19C
330
1F
100
AcDbEntity
  8
0
  6
Continuous
 62
     7
370
    25
100
AcDbCircle
 10
5676.0187553361
 20
5580.6994545927
 30
0.0
 40
2.000000000000909
100
AcDbArc
 50
180.0
 51
270.0
  0
LINE
  5
19D
330
1F
100
AcDbEntity
  8
0
  6
Continuous
 62
     7
370
    25
100
AcDbLine
 10
5676.0187653497
 20
5580.6994558146
 30
0.0
 11
6872.0187453225
 21
5580.6994558146
 31
0.0
  0
LINE
  5
19E
330
1F
100
AcDbEntity
  8
0
  6
Continuous
 62
     7
370
    25
100
AcDbLine
 10
6872.0187453225
 20
5578.6994554868
 30
0.0
 11
5676.0187653497
 21
5578.6994554868
 31
0.0
  0
LINE
  5
19F
330
1F
100
AcDbEntity
  8
0
  6
Continuous
 62
     7
370
    25
100
AcDbLine
 10
5676.0187653497
 20
5616.6994544977
 30
0.0
 11
5676.0187653497
 21
5580.6994558146
 31
0.0
  0
LINE
  5
1A0
330
1F
100
AcDbEntity
  8
0
  6
Continuous
 62
     7
370
    25
100
AcDbLine
 10
6872.0187453225
 20
5616.6994544977
 30
0.0
 11
6872.0187453225
 21
5580.6994558146
 31
0.0
  0
ARC
  5
1A1
330
1F
100
AcDbEntity
  8
0
  6
Continuous
 62
     7
370
    25
100
AcDbCircle
 10
6872.0187553361
 20
5616.6994545927
 30
0.0
 40
2.0
100
AcDbArc
 50
0.0
 51
90.0
  0
LINE
  5
1A2
330
1F
100
AcDbEntity
  8
0
  6
Continuous
 62
     7
370
    25
100
AcDbLine
 10
6872.0187453225
 20
5616.6994544977
 30
0.0
 11
6874.018779178
 21
5616.6994544977
 31
0.0
  0
LINE
  5
1A3
330
1F
100
AcDbEntity
  8
0
  6
Continuous
 62
     7
370
    25
100
AcDbLine
 10
6874.018779178
 20
5580.6994558146
 30
0.0
 11
6874.018779178
 21
5616.6994544977
 31
0.0
  0
LINE
  5
1A4
330
1F
100
AcDbEntity
  8
0
  6
Continuous
 62
     7
370
    25
100
AcDbLine
 10
5674.0187612966
 20
5580.6994558146
 30
0.0
 11
5674.0187612966
 21
5616.6994544977
 31
0.0
  0
LINE
  5
1A5
330
1F
100
AcDbEntity
  8
0
  6
Continuous
 62
     7
370
    25
100
AcDbLine
 10
5716.018757005
 20
5578.1994544735
 30
0.0
 11
5716.018757005
 21
5298.6994617453
 31
0.0
  0
LINE
  5
1A6
330
1F
100
AcDbEntity
  8
0
  6
Continuous
 62
     7
370
    25
100
AcDbLine
 10
6832.0187834695
 20
5578.1994544735
 30
0.0
 11
5716.018757005
 21
5578.1994544735
 31
0.0
  0
LINE
  5
1A7
330
1F
100
AcDbEntity
  8
0
  6
Continuous
 62
     7
370
    25
100
AcDbLine
 10
6832.0187834695
 20
5578.1994544735
 30
0.0
 11
6832.0187834695
 21
5298.6994617453
 31
0.0
  0
LINE
  5
1A8
330
1F
100
AcDbEntity
  8
0
  6
Continuous
 62
     7
370
    25
100
AcDbLine
 10
6832.0187834695
 20
5298.6994617453
 30
0.0
 11
5716.018757005
 21
5298.6994617453
 31
0.0
  0
LINE
  5
1A9
330
1F
100
AcDbEntity
  8
0
  6
Continuous
 62
     7
370
    25
100
AcDbLine
 10
5716.018757005
 20
5298.6994617453
 30
0.0
 11
5714.0187529519
 21
5298.6994617453
 31
0.0
  0
LINE
  5
1AA
330
1F
100
AcDbEntity
  8
0
  6
Continuous
 62
     7
370
    25
100
AcDbLine
 10
5714.0187529519
 20
5578.1994544735
 30
0.0
 11
5714.0187529519
 21
5298.6994617453
 31
0.0
  0
LINE
  5
1AB
330
1F
100
AcDbEntity
  8
0
  6
Continuous
 62
     7
370
    25
100
AcDbLine
 10
5716.018757005
 20
5578.1994544735
 30
0.0
 11
5714.0187529519
 21
5578.1994544735
 31
0.0
  0
LINE
  5
1AC
330
1F
100
AcDbEntity
  8
0
  6
Continuous
 62
     7
370
    25
100
AcDbLine
 10
6836.0187319711
 20
5578.6994554868
 30
0.0
 11
6836.0187319711
 21
4768.6994307509
 31
0.0
  0
LINE
  5
1AD
330
1F
100
AcDbEntity
  8
0
  6
Continuous
 62
     7
370
    25
100
AcDbLine
 10
6836.0187319711
 20
4768.6994307509
 30
0.0
 11
6834.0187577203
 21
4768.6994307509
 31
0.0
  0
LINE
  5
1AE
330
1F
100
AcDbEntity
  8
0
  6
Continuous
 62
     7
370
    25
100
AcDbLine
 10
6834.0187577203
 20
5298.6994617453
 30
0.0
 11
6834.0187577203
 21
4768.6994307509
 31
0.0
  0
LINE
  5
1AF
330
1F
100
AcDbEntity
  8
0
  6
Continuous
 62
     7
370
    25
100
AcDbLine
 10
6834.0187577203
 20
5578.1994544735
 30
0.0
 11
6834.0187577203
 21
5298.6994617453
 31
0.0
  0
LINE
  5
1B0
330
1F
100
AcDbEntity
  8
0
  6
Continuous
 62
     7
370
    25
100
AcDbLine
 10
6834.0187577203
 20
5578.6994554868
 30
0.0
 11
6834.0187577203
 21
5578.1994544735
 31
0.0
  0
LINE
  5
1B1
330
1F
100
AcDbEntity
  8
0
  6
Continuous
 62
     7
370
    25
100
AcDbLine
 10
6869.0187839463
 20
5578.6994554868
 30
0.0
 11
6869.0187839463
 21
4768.6994307509
 31
0.0
  0
LINE
  5
1B2
330
1F
100
AcDbEntity
  8
0
  6
Continuous
 62
     7
370
    25
100
AcDbLine
 10
6869.0187839463
 20
4768.6994307509
 30
0.0
 11
6867.0187500909
 21
4768.6994307509
 31
0.0
  0
LINE
  5
1B3
330
1F
100
AcDbEntity
  8
0
  6
Continuous
 62
     7
370
    25
100
AcDbLine
 10
6867.0187500909
 20
5578.6994554868
 30
0.0
 11
6867.0187500909
 21
4768.6994307509
 31
0.0
  0
LINE
  5
1B4
330
1F
100
AcDbEntity
  8
0
  6
Continuous
 62
     7
370
    25
100
AcDbLine
 10
5714.0187529519
 20
5298.6994617453
 30
0.0
 11
5714.0187529519
 21
4768.6994307509
 31
0.0
  0
LINE
  5
1B5
330
1F
100
AcDbEntity
  8
0
  6
Continuous
 62
     7
370
    25
100
AcDbLine
 10
5712.0187488988
 20
5578.6994554868
 30
0.0
 11
5712.0187488988
 21
4768.6994307509
 31
0.0
  0
LINE
  5
1B6
330
1F
100
AcDbEntity
  8
0
  6
Continuous
 62
     7
370
    25
100
AcDbLine
 10
5714.0187529519
 20
5578.6994554868
 30
0.0
 11
5714.0187529519
 21
5578.1994544735
 31
0.0
  0
LINE
  5
1B7
330
1F
100
AcDbEntity
  8
0
  6
Continuous
 62
     7
370
    25
100
AcDbLine
 10
5712.0187488988
 20
4768.6994307509
 30
0.0
 11
5714.0187529519
 21
4768.6994307509
 31
0.0
  0
LINE
  5
1B8
330
1F
100
AcDbEntity
  8
0
  6
Continuous
 62
     7
370
    25
100
AcDbLine
 10
6867.0187500909
 20
4768.6994307509
 30
0.0
 11
6836.0187319711
 21
4768.6994307509
 31
0.0
  0
LINE
  5
1B9
330
1F
100
AcDbEntity
  8
0
  6
Continuous
 62
     7
370
    25
100
AcDbLine
 10
5681.0187605813
 20
5578.6994554868
 30
0.0
 11
5681.0187605813
 21
4768.6994307509
 31
0.0
  0
LINE
  5
1BA
330
1F
100
AcDbEntity
  8
0
  6
Continuous
 62
     7
370
    25
100
AcDbLine
 10
5679.0187565282
 20
5578.6994554868
 30
0.0
 11
5679.0187565282
 21
4768.6994307509
 31
0.0
  0
LINE
  5
1BB
330
1F
100
AcDbEntity
  8
0
  6
Continuous
 62
     7
370
    25
100
AcDbLine
 10
5679.0187565282
 20
4768.6994307509
 30
0.0
 11
5681.0187605813
 21
4768.6994307509
 31
0.0
  0
LINE
  5
1BC
330
1F
100
AcDbEntity
  8
0
  6
Continuous
 62
     7
370
    25
100
AcDbLine
 10
6832.0187834695
 20
5298.6994617453
 30
0.0
 11
6834.0187577203
 21
5298.6994617453
 31
0.0
  0
LINE
  5
1BD
330
1F
100
AcDbEntity
  8
0
  6
Continuous
 62
     7
370
    25
100
AcDbLine
 10
6832.0187834695
 20
5578.1994544735
 30
0.0
 11
6834.0187577203
 21
5578.1994544735
 31
0.0
  0
LINE
  5
1BE
330
1F
100
AcDbEntity
  8
0
  6
Continuous
 62
     7
370
    25
100
AcDbLine
 10
5681.0187605813
 20
4768.6994307509
 30
0.0
 11
5712.0187488988
 21
4768.6994307509
 31
0.0
  0
LINE
  5
1BF
330
1F
100
AcDbEntity
  8
0
  6
Continuous
 62
     7
370
    25
100
AcDbLine
 10
6801.0187653497
 20
5578.6994554868
 30
0.0
 11
6801.0187653497
 21
5578.1994544735
 31
0.0
  0
LINE
  5
1C0
330
1F
100
AcDbEntity
  8
0
  6
Continuous
 62
     7
370
    25
100
AcDbLine
 10
5747.0187453225
 20
5578.6994554868
 30
0.0
 11
5747.0187453225
 21
5578.1994544735
 31
0.0
  0
LINE
  5
1C1
330
1F
100
AcDbEntity
  8
0
  6
Continuous
 62
     7
370
    25
100
AcDbLine
 10
6297.0187572434
 20
5578.1994544735
 30
0.0
 11
6297.0187572434
 21
5578.6994554868
 31
0.0
  0
LINE
  5
1C2
330
1F
100
AcDbEntity
  8
0
  6
Continuous
 62
     7
370
    25
100
AcDbLine
 10
6251.0187534288
 20
5578.1994544735
 30
0.0
 11
6251.0187534288
 21
5578.6994554868
 31
0.0
  0
LINE
  5
1C3
330
1F
100
AcDbEntity
  8
0
  6
Continuous
 62
     7
370
    25
100
AcDbLine
 10
5674.0187612966
 20
5658.6994536986
 30
0.0
 11
6874.018779178
 21
5658.6994536986
 31
0.0
  0
LINE
  5
1C4
330
1F
100
AcDbEntity
  8
0
  6
Continuous
 62
     7
370
    25
100
AcDbLine
 10
5674.0187612966
 20
5658.6994536986
 30
0.0
 11
5674.0187612966
 21
5616.6994544977
 31
0.0
  0
LINE
  5
1C5
330
1F
100
AcDbEntity
  8
0
  6
Continuous
 62
     7
370
    25
100
AcDbLine
 10
6874.018779178
 20
5658.6994536986
 30
0.0
 11
6874.018779178
 21
5616.6994544977
 31
0.0
  0
LINE
  5
1C6
330
1F
100
AcDbEntity
  8
0
  6
Continuous
 62
     8
370
    25
100
AcDbLine
 10
6366.0187629655
 20
5289.230548667
 30
0.0
 11
6372.3145035699
 21
5289.230548667
 31
0.0
  0
LINE
  5
1C7
330
1F
100
AcDbEntity
  8
0
  6
Continuous
 62
     8
370
    25
100
AcDbLine
 10
6369.018754144
 20
5243.2305448523
 30
0.0
 11
6369.018754144
 21
5275.2305202952
 31
0.0
  0
LINE
  5
1C8
330
1F
100
AcDbEntity
  8
0
  6
Continuous
 62
     8
370
    25
100
AcDbLine
 10
6136.0187587932
 20
5289.230548667
 30
0.0
 11
6142.314491947
 21
5289.230548667
 31
0.0
  0
LINE
  5
1C9
330
1F
100
AcDbEntity
  8
0
  6
Continuous
 62
     8
370
    25
100
AcDbLine
 10
6179.0187565282
 20
5275.2305202952
 30
0.0
 11
6179.0187565282
 21
5243.2305448523
 31
0.0
  0
LINE
  5
1CA
330
1F
100
AcDbEntity
  8
0
  6
Continuous
 62
     8
370
    25
100
AcDbLine
 10
6304.0187565282
 20
5236.2305455675
 30
0.0
 11
6304.0187565282
 21
5282.2305195799
 31
0.0
  0
LINE
  5
1CB
330
1F
100
AcDbEntity
  8
0
  6
Continuous
 62
     8
370
    25
100
AcDbLine
 10
6244.018754144
 20
5236.2305455675
 30
0.0
 11
6244.018754144
 21
5282.2305195799
 31
0.0
  0
LINE
  5
1CC
330
1F
100
AcDbEntity
  8
0
  6
Continuous
 62
     8
370
    25
100
AcDbLine
 10
6294.0187660649
 20
5275.2305202952
 30
0.0
 11
6294.0187660649
 21
5243.2305448523
 31
0.0
  0
LINE
  5
1CD
330
1F
100
AcDbEntity
  8
0
  6
Continuous
 62
     8
370
    25
100
AcDbLine
 10
6274.0187553361
 20
5239.230536746
 30
0.0
 11
6290.0187579587
 21
5239.230536746
 31
0.0
  0
LINE
  5
1CE
330
1F
100
AcDbEntity
  8
0
  6
Continuous
 62
     8
370
    25
100
AcDbLine
 10
6254.0187595084
 20
5275.2305202952
 30
0.0
 11
6254.0187595084
 21
5243.2305448523
 31
0.0
  0
LINE
  5
1CF
330
1F
100
AcDbEntity
  8
0
  6
Continuous
 62
     8
370
    25
100
AcDbLine
 10
6274.0187553361
 20
5239.230536746
 30
0.0
 11
6258.0187527135
 21
5239.230536746
 31
0.0
  0
LINE
  5
1D0
330
1F
100
AcDbEntity
  8
0
  6
Continuous
 62
     8
370
    25
100
AcDbLine
 10
6301.328202863
 20
5207.5470917692
 30
0.0
 11
6246.7093078092
 21
5207.5470917692
 31
0.0
  0
LINE
  5
1D1
330
1F
100
AcDbEntity
  8
0
  6
Continuous
 62
     8
370
    25
100
AcDbLine
 10
6246.9125447467
 20
5082.8937523832
 30
0.0
 11
6301.1249808267
 21
5082.8937523832
 31
0.0
  0
LINE
  5
1D2
330
1F
100
AcDbEntity
  8
0
  6
Continuous
 62
     8
370
    25
100
AcDbLine
 10
6251.0187534288
 20
5223.6994438639
 30
0.0
 11
6297.0187572434
 21
5223.6994438639
 31
0.0
  0
LINE
  5
1D3
330
1F
100
AcDbEntity
  8
0
  6
Continuous
 62
     8
370
    25
100
AcDbLine
 10
6709.0187577203
 20
5578.1994544735
 30
0.0
 11
6709.0187577203
 21
5578.6994554868
 31
0.0
  0
LINE
  5
1D4
330
1F
100
AcDbEntity
  8
0
  6
Continuous
 62
     8
370
    25
100
AcDbLine
 10
6159.0187607005
 20
5578.6994554868
 30
0.0
 11
6159.0187607005
 21
5578.1994544735
 31
0.0
  0
LINE
  5
1D5
330
1F
100
AcDbEntity
  8
0
  6
Continuous
 62
     8
370
    25
100
AcDbLine
 10
5839.0187529519
 20
5578.1994544735
 30
0.0
 11
5839.0187529519
 21
5578.6994554868
 31
0.0
  0
LINE
  5
1D6
330
1F
100
AcDbEntity
  8
0
  6
Continuous
 62
     8
370
    25
100
AcDbLine
 10
6389.0187648728
 20
5578.6994554868
 30
0.0
 11
6389.0187648728
 21
5578.1994544735
 31
0.0
  0
LINE
  5
1D7
330
1F
100
AcDbEntity
  8
0
  6
Continuous
 62
     7
370
    25
100
AcDbLine
 10
7445.7321022724
 20
5293.3661275377
 30
0.0
 11
7445.7321022724
 21
5298.6994617453
 31
0.0
  0
LINE
  5
1D8
330
1F
100
AcDbEntity
  8
0
  6
Continuous
 62
     7
370
    25
100
AcDbLine
 10
7394.2321096634
 20
5298.6994617453
 30
0.0
 11
7394.2321096634
 21
5293.3661275377
 31
0.0
  0
LINE
  5
1D9
330
1F
100
AcDbEntity
  8
0
  6
Continuous
 62
     7
370
    25
100
AcDbLine
 10
7394.2321096634
 20
5293.3661275377
 30
0.0
 11
7396.2320988154
 21
5291.6994624605
 31
0.0
  0
LINE
  5
1DA
330
1F
100
AcDbEntity
  8
0
  6
Continuous
 62
     7
370
    25
100
AcDbLine
 10
7443.7320982193
 20
5291.6994624605
 30
0.0
 11
7445.7321022724
 21
5293.3661275377
 31
0.0
  0
SPLINE
  5
1DB
330
1F
100
AcDbEntity
  8
0
  6
Continuous
 62
     7
370
    25
100
AcDbSpline
210
0.0
220
0.0
230
1.0
 70
     8
 71
     3
 72
     9
 73
     5
 74
     0
 42
0.000000001
 43
0.00000001
 40
0.0
 40
0.0
 40
0.0
 40
0.0
 40
0.4997516894756297
 40
1.0
 40
1.0
 40
1.0
 40
1.0
 10
7442.872062799844
 20
5280.368559884086
 30
0.0
 10
7443.014939430323
 20
5280.45086450795
 30
0.0
 10
7443.300834672877
 20
5280.615555544714
 30
0.0
 10
7443.585664014605
 20
5280.780001396987
 30
0.0
 10
7443.728149411591
 20
5280.86226515676
 30
0.0
  0
SPLINE
  5
1DC
330
1F
100
AcDbEntity
  8
0
  6
Continuous
 62
     7
370
    25
100
AcDbSpline
210
0.0
220
0.0
230
1.0
 70
     8
 71
     3
 72
     9
 73
     5
 74
     0
 42
0.000000001
 43
0.00000001
 40
0.0
 40
0.0
 40
0.0
 40
0.0
 40
0.4997587838460956
 40
1.0
 40
1.0
 40
1.0
 40
1.0
 10
7442.872062799844
 20
5281.956069993033
 30
0.0
 10
7443.014938421585
 20
5282.03837651422
 30
0.0
 10
7443.300827587237
 20
5282.203069009574
 30
0.0
 10
7443.585662998871
 20
5282.367493537547
 30
0.0
 10
7443.728149411591
 20
5282.449745463386
 30
0.0
  0
SPLINE
  5
1DD
330
1F
100
AcDbEntity
  8
0
  6
Continuous
 62
     7
370
    25
100
AcDbSpline
210
0.0
220
0.0
230
1.0
 70
     8
 71
     3
 72
     9
 73
     5
 74
     0
 42
0.000000001
 43
0.00000001
 40
0.0
 40
0.0
 40
0.0
 40
0.0
 40
0.4997516894756297
 40
1.0
 40
1.0
 40
1.0
 40
1.0
 10
7442.872062799844
 20
5283.543550299659
 30
0.0
 10
7443.014939430323
 20
5283.625854923523
 30
0.0
 10
7443.300834672877
 20
5283.790545960287
 30
0.0
 10
7443.585664014605
 20
5283.95499181256
 30
0.0
 10
7443.728149411591
 20
5284.037255572333
 30
0.0
  0
SPLINE
  5
1DE
330
1F
100
AcDbEntity
  8
0
  6
Continuous
 62
     7
370
    25
100
AcDbSpline
210
0.0
220
0.0
230
1.0
 70
     8
 71
     3
 72
     9
 73
     5
 74
     0
 42
0.000000001
 43
0.00000001
 40
0.0
 40
0.0
 40
0.0
 40
0.0
 40
0.4997516894756297
 40
1.0
 40
1.0
 40
1.0
 40
1.0
 10
7442.872062799844
 20
5285.131060408607
 30
0.0
 10
7443.014939430323
 20
5285.21336503247
 30
0.0
 10
7443.300834672877
 20
5285.378056069235
 30
0.0
 10
7443.585664014605
 20
5285.542501921508
 30
0.0
 10
7443.728149411591
 20
5285.624765681281
 30
0.0
  0
SPLINE
  5
1DF
330
1F
100
AcDbEntity
  8
0
  6
Continuous
 62
     7
370
    25
100
AcDbSpline
210
0.0
220
0.0
230
1.0
 70
     8
 71
     3
 72
     9
 73
     5
 74
     0
 42
0.000000001
 43
0.00000001
 40
0.0
 40
0.0
 40
0.0
 40
0.0
 40
0.4997587838460956
 40
1.0
 40
1.0
 40
1.0
 40
1.0
 10
7442.872062799844
 20
5286.718570517554
 30
0.0
 10
7443.014938421585
 20
5286.800877038741
 30
0.0
 10
7443.300827587237
 20
5286.965569534095
 30
0.0
 10
7443.585662998871
 20
5287.129994062067
 30
0.0
 10
7443.728149411591
 20
5287.212245987906
 30
0.0
  0
SPLINE
  5
1E0
330
1F
100
AcDbEntity
  8
0
  6
Continuous
 62
     7
370
    25
100
AcDbSpline
210
0.0
220
0.0
230
1.0
 70
     8
 71
     3
 72
     9
 73
     5
 74
     0
 42
0.000000001
 43
0.00000001
 40
0.0
 40
0.0
 40
0.0
 40
0.0
 40
0.4997516894756297
 40
1.0
 40
1.0
 40
1.0
 40
1.0
 10
7442.872062799844
 20
5288.30605082418
 30
0.0
 10
7443.014939430323
 20
5288.388355448044
 30
0.0
 10
7443.300834672877
 20
5288.553046484808
 30
0.0
 10
7443.585664014605
 20
5288.717492337081
 30
0.0
 10
7443.728149411591
 20
5288.799756096854
 30
0.0
  0
SPLINE
  5
1E1
330
1F
100
AcDbEntity
  8
0
  6
Continuous
 62
     7
370
    25
100
AcDbSpline
210
0.0
220
0.0
230
1.0
 70
     8
 71
     3
 72
     9
 73
     5
 74
     0
 42
0.000000001
 43
0.00000001
 40
0.0
 40
0.0
 40
0.0
 40
0.0
 40
0.4269255220042524
 40
1.0
 40
1.0
 40
1.0
 40
1.0
 10
7442.980990288171
 20
5289.956324624076
 30
0.0
 10
7443.087525499666
 20
5290.017701137783
 30
0.0
 10
7443.33706600733
 20
5290.161465121299
 30
0.0
 10
7443.58567687079
 20
5290.305006376123
 30
0.0
 10
7443.728149411591
 20
5290.387266205802
 30
0.0
  0
SPLINE
  5
1E2
330
1F
100
AcDbEntity
  8
0
  6
Continuous
 62
     7
370
    25
100
AcDbSpline
210
0.0
220
0.0
230
1.0
 70
     8
 71
     3
 72
     9
 73
     5
 74
     0
 42
0.000000001
 43
0.00000001
 40
0.0
 40
0.0
 40
0.0
 40
0.0
 40
0.4391602636524949
 40
1.0
 40
1.0
 40
1.0
 40
1.0
 10
7396.335974810037
 20
5281.600379275336
 30
0.0
 10
7396.452350414729
 20
5281.533675419121
 30
0.0
 10
7396.717346167588
 20
5281.381785865953
 30
0.0
 10
7397.02247997721
 20
5281.227675765012
 30
0.0
 10
7397.193611142548
 20
5281.141244696631
 30
0.0
  0
LINE
  5
1E3
330
1F
100
AcDbEntity
  8
0
  6
Continuous
 62
     7
370
    25
100
AcDbLine
 10
7396.233082292
 20
5281.6582255831
 30
0.0
 11
7396.33597481
 21
5281.6003792753
 31
0.0
  0
SPLINE
  5
1E4
330
1F
100
AcDbEntity
  8
0
  6
Continuous
 62
     7
370
    25
100
AcDbSpline
210
0.0
220
0.0
230
1.0
 70
     8
 71
     3
 72
     9
 73
     5
 74
     0
 42
0.000000001
 43
0.00000001
 40
0.0
 40
0.0
 40
0.0
 40
0.0
 40
0.4391587244685235
 40
1.0
 40
1.0
 40
1.0
 40
1.0
 10
7396.335974810037
 20
5283.187889384284
 30
0.0
 10
7396.452350603131
 20
5283.121187143005
 30
0.0
 10
7396.717347713763
 20
5282.969300734826
 30
0.0
 10
7397.022480231882
 20
5282.815168642511
 30
0.0
 10
7397.193611142548
 20
5282.728725003257
 30
0.0
  0
LINE
  5
1E5
330
1F
100
AcDbEntity
  8
0
  6
Continuous
 62
     7
370
    25
100
AcDbLine
 10
7396.233082292
 20
5283.2457058897
 30
0.0
 11
7396.33597481
 21
5283.1878893843
 31
0.0
  0
SPLINE
  5
1E6
330
1F
100
AcDbEntity
  8
0
  6
Continuous
 62
     7
370
    25
100
AcDbSpline
210
0.0
220
0.0
230
1.0
 70
     8
 71
     3
 72
     9
 73
     5
 74
     0
 42
0.000000001
 43
0.00000001
 40
0.0
 40
0.0
 40
0.0
 40
0.0
 40
0.4391622104009613
 40
1.0
 40
1.0
 40
1.0
 40
1.0
 10
7396.335974810037
 20
5284.775399493232
 30
0.0
 10
7396.452350176438
 20
5284.708683639346
 30
0.0
 10
7396.717344212002
 20
5284.556767440032
 30
0.0
 10
7397.022479655108
 20
5284.40266281146
 30
0.0
 10
7397.193611142548
 20
5284.316235112205
 30
0.0
  0
LINE
  5
1E7
330
1F
100
AcDbEntity
  8
0
  6
Continuous
 62
     7
370
    25
100
AcDbLine
 10
7396.233082292
 20
5284.8332159987
 30
0.0
 11
7396.33597481
 21
5284.7753994932
 31
0.0
  0
SPLINE
  5
1E8
330
1F
100
AcDbEntity
  8
0
  6
Continuous
 62
     7
370
    25
100
AcDbSpline
210
0.0
220
0.0
230
1.0
 70
     8
 71
     3
 72
     9
 73
     5
 74
     0
 42
0.000000001
 43
0.00000001
 40
0.0
 40
0.0
 40
0.0
 40
0.0
 40
0.4391602636524949
 40
1.0
 40
1.0
 40
1.0
 40
1.0
 10
7396.335974810037
 20
5286.362879799857
 30
0.0
 10
7396.452350414729
 20
5286.296175943642
 30
0.0
 10
7396.717346167588
 20
5286.144286390474
 30
0.0
 10
7397.02247997721
 20
5285.990176289532
 30
0.0
 10
7397.193611142548
 20
5285.903745221152
 30
0.0
  0
LINE
  5
1E9
330
1F
100
AcDbEntity
  8
0
  6
Continuous
 62
     7
370
    25
100
AcDbLine
 10
7396.233082292
 20
5286.4206963053
 30
0.0
 11
7396.33597481
 21
5286.3628797999
 31
0.0
  0
SPLINE
  5
1EA
330
1F
100
AcDbEntity
  8
0
  6
Continuous
 62
     7
370
    25
100
AcDbSpline
210
0.0
220
0.0
230
1.0
 70
     8
 71
     3
 72
     9
 73
     5
 74
     0
 42
0.000000001
 43
0.00000001
 40
0.0
 40
0.0
 40
0.0
 40
0.0
 40
0.4391587244685235
 40
1.0
 40
1.0
 40
1.0
 40
1.0
 10
7396.335974810037
 20
5287.950389908805
 30
0.0
 10
7396.452350603131
 20
5287.883687667526
 30
0.0
 10
7396.717347713763
 20
5287.731801259347
 30
0.0
 10
7397.022480231882
 20
5287.577669167032
 30
0.0
 10
7397.193611142548
 20
5287.491225527778
 30
0.0
  0
LINE
  5
1EB
330
1F
100
AcDbEntity
  8
0
  6
Continuous
 62
     7
370
    25
100
AcDbLine
 10
7396.233082292
 20
5288.0082064142
 30
0.0
 11
7396.33597481
 21
5287.9503899088
 31
0.0
  0
SPLINE
  5
1EC
330
1F
100
AcDbEntity
  8
0
  6
Continuous
 62
     7
370
    25
100
AcDbSpline
210
0.0
220
0.0
230
1.0
 70
     8
 71
     3
 72
     9
 73
     5
 74
     0
 42
0.000000001
 43
0.00000001
 40
0.0
 40
0.0
 40
0.0
 40
0.0
 40
0.5112416718765483
 40
1.0
 40
1.0
 40
1.0
 40
1.0
 10
7396.335974810037
 20
5289.537900017753
 30
0.0
 10
7396.451926340844
 20
5289.471205425371
 30
0.0
 10
7396.678730095674
 20
5289.340749329849
 30
0.0
 10
7396.940019003189
 20
5289.208434351687
 30
0.0
 10
7397.067726132783
 20
5289.143764304175
 30
0.0
  0
LINE
  5
1ED
330
1F
100
AcDbEntity
  8
0
  6
Continuous
 62
     7
370
    25
100
AcDbLine
 10
7396.233082292
 20
5289.5957165232
 30
0.0
 11
7396.33597481
 21
5289.5379000178
 31
0.0
  0
SPLINE
  5
1EE
330
1F
100
AcDbEntity
  8
0
  6
Continuous
 62
     7
370
    25
100
AcDbSpline
210
0.0
220
0.0
230
1.0
 70
     8
 71
     3
 72
     9
 73
     5
 74
     0
 42
0.000000001
 43
0.00000001
 40
0.0
 40
0.0
 40
0.0
 40
0.0
 40
0.4391622104009613
 40
1.0
 40
1.0
 40
1.0
 40
1.0
 10
7396.335974810037
 20
5280.012898968711
 30
0.0
 10
7396.452350176438
 20
5279.946183114825
 30
0.0
 10
7396.717344212002
 20
5279.794266915511
 30
0.0
 10
7397.022479655108
 20
5279.640162286939
 30
0.0
 10
7397.193611142548
 20
5279.553734587684
 30
0.0
  0
LINE
  5
1EF
330
1F
100
AcDbEntity
  8
0
  6
Continuous
 62
     7
370
    25
100
AcDbLine
 10
7396.233082292
 20
5280.0707154741
 30
0.0
 11
7396.33597481
 21
5280.0128989687
 31
0.0
  0
SPLINE
  5
1F0
330
1F
100
AcDbEntity
  8
0
  6
Continuous
 62
     7
370
    25
100
AcDbSpline
210
0.0
220
0.0
230
1.0
 70
     8
 71
     3
 72
     9
 73
     5
 74
     0
 42
0.000000001
 43
0.00000001
 40
0.0
 40
0.0
 40
0.0
 40
0.0
 40
0.4997516894756297
 40
1.0
 40
1.0
 40
1.0
 40
1.0
 10
7442.872062799844
 20
5278.781049775138
 30
0.0
 10
7443.014939430323
 20
5278.863354399002
 30
0.0
 10
7443.300834672877
 20
5279.028045435766
 30
0.0
 10
7443.585664014605
 20
5279.192491288039
 30
0.0
 10
7443.728149411591
 20
5279.274755047813
 30
0.0
  0
SPLINE
  5
1F1
330
1F
100
AcDbEntity
  8
0
  6
Continuous
 62
     7
370
    25
100
AcDbSpline
210
0.0
220
0.0
230
1.0
 70
     8
 71
     3
 72
     9
 73
     5
 74
     0
 42
0.000000001
 43
0.00000001
 40
0.0
 40
0.0
 40
0.0
 40
0.0
 40
0.5000129226855426
 40
1.0
 40
1.0
 40
1.0
 40
1.0
 10
7397.092968699845
 20
5288.707756327643
 30
0.0
 10
7396.948875091422
 20
5288.624546835144
 30
0.0
 10
7396.660695322688
 20
5288.458132151197
 30
0.0
 10
7396.372508110488
 20
5288.29173436708
 30
0.0
 10
7396.228418228539
 20
5288.208537625327
 30
0.0
  0
SPLINE
  5
1F2
330
1F
100
AcDbEntity
  8
0
  6
Continuous
 62
     7
370
    25
100
AcDbSpline
210
0.0
220
0.0
230
1.0
 70
     8
 71
     3
 72
     9
 73
     5
 74
     0
 42
0.000000001
 43
0.00000001
 40
0.0
 40
0.0
 40
0.0
 40
0.0
 40
0.4999860375945122
 40
1.0
 40
1.0
 40
1.0
 40
1.0
 10
7397.095159170541
 20
5287.12179593946
 30
0.0
 10
7396.95106913879
 20
5287.038599111198
 30
0.0
 10
7396.662881027687
 20
5286.872200808034
 30
0.0
 10
7396.374702157833
 20
5286.705786643135
 30
0.0
 10
7396.230608699235
 20
5286.622577237144
 30
0.0
  0
SPLINE
  5
1F3
330
1F
100
AcDbEntity
  8
0
  6
Continuous
 62
     7
370
    25
100
AcDbSpline
210
0.0
220
0.0
230
1.0
 70
     8
 71
     3
 72
     9
 73
     5
 74
     0
 42
0.000000001
 43
0.00000001
 40
0.0
 40
0.0
 40
0.0
 40
0.0
 40
0.4999998202156882
 40
1.0
 40
1.0
 40
1.0
 40
1.0
 10
7397.09864604226
 20
5285.535984562888
 30
0.0
 10
7396.954550545848
 20
5285.452788881455
 30
0.0
 10
7396.666359449398
 20
5285.286397458761
 30
0.0
 10
7396.378183564975
 20
5285.119976413248
 30
0.0
 10
7396.234095570954
 20
5285.036765860572
 30
0.0
  0
SPLINE
  5
1F4
330
1F
100
AcDbEntity
  8
0
  6
Continuous
 62
     7
370
    25
100
AcDbSpline
210
0.0
220
0.0
230
1.0
 70
     8
 71
     3
 72
     9
 73
     5
 74
     0
 42
0.000000001
 43
0.00000001
 40
0.0
 40
0.0
 40
0.0
 40
0.0
 40
0.5000017228576631
 40
1.0
 40
1.0
 40
1.0
 40
1.0
 10
7397.097692367944
 20
5283.948087023749
 30
0.0
 10
7396.953609563321
 20
5283.864876599447
 30
0.0
 10
7396.665444947011
 20
5283.698456324279
 30
0.0
 10
7396.377262450646
 20
5283.532064131268
 30
0.0
 10
7396.23317169896
 20
5283.448868321433
 30
0.0
  0
SPLINE
  5
1F5
330
1F
100
AcDbEntity
  8
0
  6
Continuous
 62
     7
370
    25
100
AcDbSpline
210
0.0
220
0.0
230
1.0
 70
     8
 71
     3
 72
     9
 73
     5
 74
     0
 42
0.000000001
 43
0.00000001
 40
0.0
 40
0.0
 40
0.0
 40
0.0
 40
0.5000066528461489
 40
1.0
 40
1.0
 40
1.0
 40
1.0
 10
7397.093013403329
 20
5282.35780529882
 30
0.0
 10
7396.948925100268
 20
5282.274595284673
 30
0.0
 10
7396.660752328483
 20
5282.108177470683
 30
0.0
 10
7396.372568053454
 20
5281.941782816564
 30
0.0
 10
7396.228477833184
 20
5281.858586596503
 30
0.0
  0
SPLINE
  5
1F6
330
1F
100
AcDbEntity
  8
0
  6
Continuous
 62
     7
370
    25
100
AcDbSpline
210
0.0
220
0.0
230
1.0
 70
    24
 71
     3
 72
     9
 73
     5
 74
     0
 42
0.000000001
 43
0.00000001
 40
0.0
 40
0.0
 40
0.0
 40
0.0
 40
0.4999992514956241
 40
1.0
 40
1.0
 40
1.0
 40
1.0
 10
7397.093505141648
 20
5280.770712422385
 30
0.0
 10
7396.949410805049
 20
5280.687504275998
 30
0.0
 10
7396.661221700429
 20
5280.521087734095
 30
0.0
 10
7396.37303389007
 20
5280.354671939572
 30
0.0
 10
7396.228939769181
 20
5280.271463917747
 30
0.0
  0
SPLINE
  5
1F7
330
1F
100
AcDbEntity
  8
0
  6
Continuous
 62
     7
370
    25
100
AcDbSpline
210
0.0
220
0.0
230
1.0
 70
     8
 71
     3
 72
     9
 73
     5
 74
     0
 42
0.000000001
 43
0.00000001
 40
0.0
 40
0.0
 40
0.0
 40
0.0
 40
0.5000075037230153
 40
1.0
 40
1.0
 40
1.0
 40
1.0
 10
7397.095442292603
 20
5279.184454010978
 30
0.0
 10
7396.951349145134
 20
5279.101244067622
 30
0.0
 10
7396.663167175072
 20
5278.93482667841
 30
0.0
 10
7396.374972230092
 20
5278.768431599523
 30
0.0
 10
7396.230876920136
 20
5278.685235308662
 30
0.0
  0
SPLINE
  5
1F8
330
1F
100
AcDbEntity
  8
0
  6
Continuous
 62
     7
370
    25
100
AcDbSpline
210
0.0
220
0.0
230
1.0
 70
     8
 71
     3
 72
     9
 73
     5
 74
     0
 42
0.000000001
 43
0.00000001
 40
0.0
 40
0.0
 40
0.0
 40
0.0
 40
0.503074969068618
 40
1.0
 40
1.0
 40
1.0
 40
1.0
 10
7443.732098219308
 20
5279.479616211906
 30
0.0
 10
7443.588009749651
 20
5279.562825828908
 30
0.0
 10
7443.301594247955
 20
5279.72822785071
 30
0.0
 10
7443.015169357684
 20
5279.893611701948
 30
0.0
 10
7442.872837660226
 20
5279.975795077338
 30
0.0
  0
SPLINE
  5
1F9
330
1F
100
AcDbEntity
  8
0
  6
Continuous
 62
     7
370
    25
100
AcDbSpline
210
0.0
220
0.0
230
1.0
 70
     8
 71
     3
 72
     9
 73
     5
 74
     0
 42
0.000000001
 43
0.00000001
 40
0.0
 40
0.0
 40
0.0
 40
0.0
 40
0.5044915802564374
 40
1.0
 40
1.0
 40
1.0
 40
1.0
 10
7443.729684231194
 20
5281.068199204459
 30
0.0
 10
7443.585588168866
 20
5281.151394475877
 30
0.0
 10
7443.299961871088
 20
5281.316303613461
 30
0.0
 10
7443.014357186272
 20
5281.481246681666
 30
0.0
 10
7442.872837660226
 20
5281.56297736074
 30
0.0
  0
SPLINE
  5
1FA
330
1F
100
AcDbEntity
  8
0
  6
Continuous
 62
     7
370
    25
100
AcDbSpline
210
0.0
220
0.0
230
1.0
 70
     8
 71
     3
 72
     9
 73
     5
 74
     0
 42
0.000000001
 43
0.00000001
 40
0.0
 40
0.0
 40
0.0
 40
0.0
 40
0.5022501705077217
 40
1.0
 40
1.0
 40
1.0
 40
1.0
 10
7443.733528730782
 20
5282.653861569419
 30
0.0
 10
7443.589434426479
 20
5282.737069522745
 30
0.0
 10
7443.302536954334
 20
5282.902739856401
 30
0.0
 10
7443.01564038079
 20
5283.068411745385
 30
0.0
 10
7442.872837660226
 20
5283.150874899879
 30
0.0
  0
SPLINE
  5
1FB
330
1F
100
AcDbEntity
  8
0
  6
Continuous
 62
     7
370
    25
100
AcDbSpline
210
0.0
220
0.0
230
1.0
 70
     8
 71
     3
 72
     9
 73
     5
 74
     0
 42
0.000000001
 43
0.00000001
 40
0.0
 40
0.0
 40
0.0
 40
0.0
 40
0.5010668007779937
 40
1.0
 40
1.0
 40
1.0
 40
1.0
 10
7443.735570189866
 20
5284.239970969214
 30
0.0
 10
7443.591476620985
 20
5284.323179888152
 30
0.0
 10
7443.303903050639
 20
5284.489243412636
 30
0.0
 10
7443.016321595617
 20
5284.655296961747
 30
0.0
 10
7442.872837660226
 20
5284.738146590247
 30
0.0
  0
SPLINE
  5
1FC
330
1F
100
AcDbEntity
  8
0
  6
Continuous
 62
     7
370
    25
100
AcDbSpline
210
0.0
220
0.0
230
1.0
 70
     8
 71
     3
 72
     9
 73
     5
 74
     0
 42
0.000000001
 43
0.00000001
 40
0.0
 40
0.0
 40
0.0
 40
0.0
 40
0.5011474178472911
 40
1.0
 40
1.0
 40
1.0
 40
1.0
 10
7443.735406277093
 20
5285.827600287452
 30
0.0
 10
7443.591318061858
 20
5285.910809984322
 30
0.0
 10
7443.303801434809
 20
5286.076848347302
 30
0.0
 10
7443.016272307718
 20
5286.24286744563
 30
0.0
 10
7442.872837660226
 20
5286.325686501517
 30
0.0
  0
SPLINE
  5
1FD
330
1F
100
AcDbEntity
  8
0
  6
Continuous
 62
     7
370
    25
100
AcDbSpline
210
0.0
220
0.0
230
1.0
 70
     8
 71
     3
 72
     9
 73
     5
 74
     0
 42
0.000000001
 43
0.00000001
 40
0.0
 40
0.0
 40
0.0
 40
0.0
 40
0.5041658910620631
 40
1.0
 40
1.0
 40
1.0
 40
1.0
 10
7443.730220672997
 20
5287.417971419349
 30
0.0
 10
7443.586130646255
 20
5287.501168540141
 30
0.0
 10
7443.300331806432
 20
5287.666187876569
 30
0.0
 10
7443.014541996151
 20
5287.831219360213
 30
0.0
 10
7442.872837660226
 20
5287.913047598853
 30
0.0
  0
SPLINE
  5
1FE
330
1F
100
AcDbEntity
  8
0
  6
Continuous
 62
     7
370
    25
100
AcDbSpline
210
0.0
220
0.0
230
1.0
 70
     8
 71
     3
 72
     9
 73
     5
 74
     0
 42
0.000000001
 43
0.00000001
 40
0.0
 40
0.0
 40
0.0
 40
0.0
 40
0.5774518876657699
 40
0.9999999999999999
 40
0.9999999999999999
 40
0.9999999999999999
 40
0.9999999999999999
 10
7443.730712411317
 20
5289.005243109717
 30
0.0
 10
7443.586618277375
 20
5289.088451603609
 30
0.0
 10
7443.337083836463
 20
5289.232547580552
 30
0.0
 10
7443.08754854263
 20
5289.376639870733
 30
0.0
 10
7442.98210787526
 20
5289.437525795951
 30
0.0
  0
LINE
  5
1FF
330
1F
100
AcDbEntity
  8
0
  6
Continuous
 62
     7
370
    25
100
AcDbLine
 10
7443.7320982193
 20
5290.3914683333
 30
0.0
 11
7443.7320982193
 21
5291.6994624605
 31
0.0
  0
LINE
  5
200
330
1F
100
AcDbEntity
  8
0
  6
Continuous
 62
     7
370
    25
100
AcDbLine
 10
7443.7320982193
 20
5288.8039880266
 30
0.0
 11
7443.7320982193
 21
5289.0024714937
 31
0.0
  0
LINE
  5
201
330
1F
100
AcDbEntity
  8
0
  6
Continuous
 62
     7
370
    25
100
AcDbLine
 10
7443.7320982193
 20
5287.2164779177
 30
0.0
 11
7443.7320982193
 21
5287.4149613848
 31
0.0
  0
LINE
  5
202
330
1F
100
AcDbEntity
  8
0
  6
Continuous
 62
     7
370
    25
100
AcDbLine
 10
7443.7320982193
 20
5285.6289678087
 30
0.0
 11
7443.7320982193
 21
5285.8274810782
 31
0.0
  0
LINE
  5
203
330
1F
100
AcDbEntity
  8
0
  6
Continuous
 62
     7
370
    25
100
AcDbLine
 10
7443.7320982193
 20
5284.0414875021
 30
0.0
 11
7443.7320982193
 21
5284.2399709692
 31
0.0
  0
LINE
  5
204
330
1F
100
AcDbEntity
  8
0
  6
Continuous
 62
     7
370
    25
100
AcDbLine
 10
7443.7320982193
 20
5282.4539773932
 30
0.0
 11
7443.7320982193
 21
5282.6524608603
 31
0.0
  0
LINE
  5
205
330
1F
100
AcDbEntity
  8
0
  6
Continuous
 62
     7
370
    25
100
AcDbLine
 10
7443.7320982193
 20
5280.8664672842
 30
0.0
 11
7443.7320982193
 21
5281.0649805536
 31
0.0
  0
LINE
  5
206
330
1F
100
AcDbEntity
  8
0
  6
Continuous
 62
     7
370
    25
100
AcDbLine
 10
7443.7320982193
 20
5279.2789869776
 30
0.0
 11
7443.7320982193
 21
5279.4774704447
 31
0.0
  0
LINE
  5
207
330
1F
100
AcDbEntity
  8
0
  6
Continuous
 62
     7
370
    25
100
AcDbLine
 10
7396.2320988154
 20
5280.2711956968
 30
0.0
 11
7396.2320988154
 21
5280.0727420321
 31
0.0
  0
LINE
  5
208
330
1F
100
AcDbEntity
  8
0
  6
Continuous
 62
     7
370
    25
100
AcDbLine
 10
7396.2320988154
 20
5281.8587058058
 30
0.0
 11
7396.2320988154
 21
5281.6602223387
 31
0.0
  0
LINE
  5
209
330
1F
100
AcDbEntity
  8
0
  6
Continuous
 62
     7
370
    25
100
AcDbLine
 10
7396.2320988154
 20
5283.4461861124
 30
0.0
 11
7396.2320988154
 21
5283.2477324476
 31
0.0
  0
LINE
  5
20A
330
1F
100
AcDbEntity
  8
0
  6
Continuous
 62
     7
370
    25
100
AcDbLine
 10
7396.2320988154
 20
5285.0336962214
 30
0.0
 11
7396.2320988154
 21
5284.8352425566
 31
0.0
  0
LINE
  5
20B
330
1F
100
AcDbEntity
  8
0
  6
Continuous
 62
     7
370
    25
100
AcDbLine
 10
7396.2320988154
 20
5286.6212063303
 30
0.0
 11
7396.2320988154
 21
5286.4227228632
 31
0.0
  0
LINE
  5
20C
330
1F
100
AcDbEntity
  8
0
  6
Continuous
 62
     7
370
    25
100
AcDbLine
 10
7396.2320988154
 20
5288.2086866369
 30
0.0
 11
7396.2320988154
 21
5288.0102329722
 31
0.0
  0
LINE
  5
20D
330
1F
100
AcDbEntity
  8
0
  6
Continuous
 62
     7
370
    25
100
AcDbLine
 10
7396.2320988154
 20
5291.6994624605
 30
0.0
 11
7396.2320988154
 21
5289.5977132788
 31
0.0
  0
LINE
  5
20E
330
1F
100
AcDbEntity
  8
0
  6
Continuous
 62
     7
370
    25
100
AcDbLine
 10
7442.8728376602
 20
5279.9737387171
 30
0.0
 11
7442.8728376602
 21
5280.3690069189
 31
0.0
  0
LINE
  5
20F
330
1F
100
AcDbEntity
  8
0
  6
Continuous
 62
     7
370
    25
100
AcDbLine
 10
7442.8728376602
 20
5281.561248826
 30
0.0
 11
7442.8728376602
 21
5281.9565170279
 31
0.0
  0
LINE
  5
210
330
1F
100
AcDbEntity
  8
0
  6
Continuous
 62
     7
370
    25
100
AcDbLine
 10
7442.8728376602
 20
5283.1487291327
 30
0.0
 11
7442.8728376602
 21
5283.5440271368
 31
0.0
  0
LINE
  5
211
330
1F
100
AcDbEntity
  8
0
  6
Continuous
 62
     7
370
    25
100
AcDbLine
 10
7442.8728376602
 20
5284.7362392416
 30
0.0
 11
7442.8728376602
 21
5285.1315074434
 31
0.0
  0
LINE
  5
212
330
1F
100
AcDbEntity
  8
0
  6
Continuous
 62
     7
370
    25
100
AcDbLine
 10
7442.8728376602
 20
5286.3237493506
 30
0.0
 11
7442.8728376602
 21
5286.7190175524
 31
0.0
  0
LINE
  5
213
330
1F
100
AcDbEntity
  8
0
  6
Continuous
 62
     7
370
    25
100
AcDbLine
 10
7442.8728376602
 20
5287.9112296572
 30
0.0
 11
7442.8728376602
 21
5288.3065276613
 31
0.0
  0
LINE
  5
214
330
1F
100
AcDbEntity
  8
0
  6
Continuous
 62
     7
370
    25
100
AcDbLine
 10
7397.0913593744
 20
5281.1643712988
 30
0.0
 11
7397.0913593744
 21
5280.7694607248
 31
0.0
  0
LINE
  5
215
330
1F
100
AcDbEntity
  8
0
  6
Continuous
 62
     7
370
    25
100
AcDbLine
 10
7397.0913593744
 20
5282.7518516054
 30
0.0
 11
7397.0913593744
 21
5282.3568516245
 31
0.0
  0
LINE
  5
216
330
1F
100
AcDbEntity
  8
0
  6
Continuous
 62
     7
370
    25
100
AcDbLine
 10
7397.0913593744
 20
5284.3393617144
 30
0.0
 11
7397.0913593744
 21
5283.9444213381
 31
0.0
  0
LINE
  5
217
330
1F
100
AcDbEntity
  8
0
  6
Continuous
 62
     7
370
    25
100
AcDbLine
 10
7397.0913593744
 20
5285.9268718233
 30
0.0
 11
7397.0913593744
 21
5285.5317824354
 31
0.0
  0
LINE
  5
218
330
1F
100
AcDbEntity
  8
0
  6
Continuous
 62
     7
370
    25
100
AcDbLine
 10
7397.0913593744
 20
5287.51435213
 30
0.0
 11
7397.0913593744
 21
5287.1196203699
 31
0.0
  0
LINE
  5
219
330
1F
100
AcDbEntity
  8
0
  6
Continuous
 62
     7
370
    25
100
AcDbLine
 10
7397.0913593744
 20
5279.5768611899
 30
0.0
 11
7397.0913593744
 21
5279.1820996275
 31
0.0
  0
LINE
  5
21A
330
1F
100
AcDbEntity
  8
0
  6
Continuous
 62
     7
370
    25
100
AcDbLine
 10
7442.2321026301
 20
5276.6994469633
 30
0.0
 11
7442.2321026301
 21
5278.6994510164
 31
0.0
  0
LINE
  5
21B
330
1F
100
AcDbEntity
  8
0
  6
Continuous
 62
     7
370
    25
100
AcDbLine
 10
7397.7321093058
 20
5278.6994510164
 30
0.0
 11
7397.7321093058
 21
5276.6994469633
 31
0.0
  0
LINE
  5
21C
330
1F
100
AcDbEntity
  8
0
  6
Continuous
 62
     7
370
    25
100
AcDbLine
 10
7442.9821078753
 20
5289.435588645
 30
0.0
 11
7442.9821078753
 21
5289.9586194029
 31
0.0
  0
LWPOLYLINE
  5
21D
330
1F
100
AcDbEntity
  8
0
  6
Continuous
 62
     7
370
    25
100
AcDbPolyline
 90
        3
 70
   128
 43
0.0
 10
7396.9821040606
 20
5289.230548667
 10
7397.0397417521
 20
5288.6452608576
 10
7397.041216967
 20
5288.637899684
  0
LINE
  5
21E
330
1F
100
AcDbEntity
  8
0
  6
Continuous
 62
     7
370
    25
100
AcDbLine
 10
7403.9821033453
 20
5276.6994469633
 30
0.0
 11
7403.9821033453
 21
5259.2305474749
 31
0.0
  0
LINE
  5
21F
330
1F
100
AcDbEntity
  8
0
  6
Continuous
 62
     7
370
    25
100
AcDbLine
 10
7435.9821085905
 20
5259.2305474749
 30
0.0
 11
7435.9821085905
 21
5276.6994469633
 31
0.0
  0
LINE
  5
220
330
1F
100
AcDbEntity
  8
0
  6
Continuous
 62
     7
370
    25
100
AcDbLine
 10
7435.9821085905
 20
5239.230536746
 30
0.0
 11
7435.9821085905
 21
5240.0211625567
 31
0.0
  0
LINE
  5
221
330
1F
100
AcDbEntity
  8
0
  6
Continuous
 62
     7
370
    25
100
AcDbLine
 10
7403.9821033453
 20
5240.0211625567
 30
0.0
 11
7403.9821033453
 21
5238.7886875143
 31
0.0
  0
LINE
  5
222
330
1F
100
AcDbEntity
  8
0
  6
Continuous
 62
     7
370
    25
100
AcDbLine
 10
7435.9821085905
 20
5210.1994686594
 30
0.0
 11
7435.9821085905
 21
5212.6994662752
 31
0.0
  0
LINE
  5
223
330
1F
100
AcDbEntity
  8
0
  6
Continuous
 62
     7
370
    25
100
AcDbLine
 10
7435.9821085905
 20
5226.6994648447
 30
0.0
 11
7435.9821085905
 21
5239.230536746
 31
0.0
  0
LINE
  5
224
330
1F
100
AcDbEntity
  8
0
  6
Continuous
 62
     7
370
    25
100
AcDbLine
 10
7403.9821033453
 20
5238.7886875143
 30
0.0
 11
7403.9821033453
 21
5226.6994648447
 31
0.0
  0
LINE
  5
225
330
1F
100
AcDbEntity
  8
0
  6
Continuous
 62
     7
370
    25
100
AcDbLine
 10
7403.9821033453
 20
5212.6994662752
 30
0.0
 11
7403.9821033453
 21
5210.1994686594
 31
0.0
  0
LINE
  5
226
330
1F
100
AcDbEntity
  8
0
  6
Continuous
 62
     7
370
    25
100
AcDbLine
 10
7385.9820966696
 20
5150.1994662752
 30
0.0
 11
7392.8758953785
 21
5082.8937523832
 31
0.0
  0
LINE
  5
227
330
1F
100
AcDbEntity
  8
0
  6
Continuous
 62
     7
370
    25
100
AcDbLine
 10
7447.0883165573
 20
5082.8937523832
 30
0.0
 11
7453.9821003651
 21
5150.1994662752
 31
0.0
  0
LINE
  5
228
330
1F
100
AcDbEntity
  8
0
  6
Continuous
 62
     7
370
    25
100
AcDbLine
 10
7453.9821003651
 20
5150.1994662752
 30
0.0
 11
7447.2915385937
 21
5207.5470917692
 31
0.0
  0
LINE
  5
229
330
1F
100
AcDbEntity
  8
0
  6
Continuous
 62
     7
370
    25
100
AcDbLine
 10
7387.8532056784
 20
5166.2374668589
 30
0.0
 11
7385.9820966696
 21
5150.1994662752
 31
0.0
  0
LINE
  5
22A
330
1F
100
AcDbEntity
  8
0
  6
Continuous
 62
     7
370
    25
100
AcDbLine
 10
7375.9821062063
 20
5215.6994574537
 30
0.0
 11
7371.9820981001
 21
5214.1994469633
 31
0.0
  0
LINE
  5
22B
330
1F
100
AcDbEntity
  8
0
  6
Continuous
 62
     7
370
    25
100
AcDbLine
 10
7371.9820981001
 20
5162.1994607916
 30
0.0
 11
7375.9821062063
 21
5160.6994503012
 31
0.0
  0
ARC
  5
22C
330
1F
100
AcDbEntity
  8
0
  6
Continuous
 62
     7
370
    25
100
AcDbCircle
 10
7444.3117547295
 20
5207.1994545927
 30
0.0
 40
3.0
100
AcDbArc
 50
6.654425046
 51
90.0
  0
ARC
  5
22D
330
1F
100
AcDbEntity
  8
0
  6
Continuous
 62
     7
370
    25
100
AcDbCircle
 10
7395.8602745254
 20
5083.1994545927
 30
0.0
 40
3.000000000000332
100
AcDbArc
 50
185.8481280261
 51
270.0
  0
ARC
  5
22E
330
1F
100
AcDbEntity
  8
0
  6
Continuous
 62
     7
370
    25
100
AcDbCircle
 10
7444.1039302578
 20
5083.1994545927
 30
0.0
 40
3.000000000000332
100
AcDbArc
 50
270.0
 51
354.1518719739
  0
ARC
  5
22F
330
1F
100
AcDbEntity
  8
0
  6
Continuous
 62
     7
370
    25
100
AcDbCircle
 10
7362.9821023916
 20
5211.1994545927
 30
0.0
 40
3.0
100
AcDbArc
 50
90.0
 51
180.0
  0
ARC
  5
230
330
1F
100
AcDbEntity
  8
0
  6
Continuous
 62
     7
370
    25
100
AcDbCircle
 10
7362.9821023916
 20
5165.1994545927
 30
0.0
 40
3.0
100
AcDbArc
 50
180.0
 51
270.0
  0
LINE
  5
231
330
1F
100
AcDbEntity
  8
0
  6
Continuous
 62
     7
370
    25
100
AcDbLine
 10
7371.9820981001
 20
5214.1994469633
 30
0.0
 11
7362.9821096634
 21
5214.1994469633
 31
0.0
  0
LINE
  5
232
330
1F
100
AcDbEntity
  8
0
  6
Continuous
 62
     7
370
    25
100
AcDbLine
 10
7362.9821096634
 20
5162.1994607916
 30
0.0
 11
7371.9820981001
 21
5162.1994607916
 31
0.0
  0
LINE
  5
233
330
1F
100
AcDbEntity
  8
0
  6
Continuous
 62
     7
370
    25
100
AcDbLine
 10
7444.9820970272
 20
5212.6994662752
 30
0.0
 11
7442.9821078753
 21
5216.6994445791
 31
0.0
  0
LINE
  5
234
330
1F
100
AcDbEntity
  8
0
  6
Continuous
 62
     7
370
    25
100
AcDbLine
 10
7396.9821040606
 20
5216.6994445791
 30
0.0
 11
7394.9821000074
 21
5212.6994662752
 31
0.0
  0
ARC
  5
235
330
1F
100
AcDbEntity
  8
0
  6
Continuous
 62
     7
370
    25
100
AcDbCircle
 10
7399.9821023916
 20
5223.6994545927
 30
0.0
 40
3.000000000000909
100
AcDbArc
 50
90.0
 51
180.0
  0
ARC
  5
236
330
1F
100
AcDbEntity
  8
0
  6
Continuous
 62
     7
370
    25
100
AcDbCircle
 10
7439.9821023916
 20
5223.6994545927
 30
0.0
 40
3.0
100
AcDbArc
 50
0.0
 51
90.0
  0
LINE
  5
237
330
1F
100
AcDbEntity
  8
0
  6
Continuous
 62
     7
370
    25
100
AcDbLine
 10
7396.9821040606
 20
5223.6994438639
 30
0.0
 11
7396.9821040606
 21
5216.6994445791
 31
0.0
  0
LINE
  5
238
330
1F
100
AcDbEntity
  8
0
  6
Continuous
 62
     7
370
    25
100
AcDbLine
 10
7442.9821078753
 20
5216.6994445791
 30
0.0
 11
7442.9821078753
 21
5223.6994438639
 31
0.0
  0
LINE
  5
239
330
1F
100
AcDbEntity
  8
0
  6
Continuous
 62
     7
370
    25
100
AcDbLine
 10
7375.9821062063
 20
5166.1994688978
 30
0.0
 11
7387.8769432282
 21
5166.1994688978
 31
0.0
  0
LINE
  5
23A
330
1F
100
AcDbEntity
  8
0
  6
Continuous
 62
     7
370
    25
100
AcDbLine
 10
7392.9820959543
 20
5210.1994686594
 30
0.0
 11
7375.9821062063
 21
5210.1994686594
 31
0.0
  0
LINE
  5
23B
330
1F
100
AcDbEntity
  8
0
  6
Continuous
 62
     7
370
    25
100
AcDbLine
 10
7403.9821033453
 20
5212.6994662752
 30
0.0
 11
7403.9821033453
 21
5210.1994686594
 31
0.0
  0
LINE
  5
23C
330
1F
100
AcDbEntity
  8
0
  6
Continuous
 62
     7
370
    25
100
AcDbLine
 10
7435.9821085905
 20
5210.1994686594
 30
0.0
 11
7435.9821085905
 21
5212.6994662752
 31
0.0
  0
LINE
  5
23D
330
1F
100
AcDbEntity
  8
0
  6
Continuous
 62
     7
370
    25
100
AcDbLine
 10
7259.9821095442
 20
5208.1994646063
 30
0.0
 11
7249.9820892786
 21
5208.1994646063
 31
0.0
  0
LINE
  5
23E
330
1F
100
AcDbEntity
  8
0
  6
Continuous
 62
     7
370
    25
100
AcDbLine
 10
7249.9820892786
 20
5168.1994431486
 30
0.0
 11
7259.9821095442
 21
5168.1994431486
 31
0.0
  0
LINE
  5
23F
330
1F
100
AcDbEntity
  8
0
  6
Continuous
 62
     7
370
    25
100
AcDbLine
 10
7359.9821035837
 20
5208.1994646063
 30
0.0
 11
7294.9821059679
 21
5208.1994646063
 31
0.0
  0
LINE
  5
240
330
1F
100
AcDbEntity
  8
0
  6
Continuous
 62
     7
370
    25
100
AcDbLine
 10
7294.9821059679
 20
5168.1994431486
 30
0.0
 11
7359.9821035837
 21
5168.1994431486
 31
0.0
  0
LINE
  5
241
330
1F
100
AcDbEntity
  8
0
  6
Continuous
 62
     7
370
    25
100
AcDbLine
 10
7445.7321022724
 20
5293.3661275377
 30
0.0
 11
7394.2321096634
 21
5293.3661275377
 31
0.0
  0
LINE
  5
242
330
1F
100
AcDbEntity
  8
0
  6
Continuous
 62
     7
370
    25
100
AcDbLine
 10
7443.7320982193
 20
5291.6994624605
 30
0.0
 11
7396.2320988154
 21
5291.6994624605
 31
0.0
  0
SPLINE
  5
243
330
1F
100
AcDbEntity
  8
0
  6
Continuous
 62
     7
370
    25
100
AcDbSpline
210
0.0
220
0.0
230
1.0
 70
     8
 71
     3
 72
    18
 73
    14
 74
     0
 42
0.000000001
 43
0.00000001
 40
0.0
 40
0.0
 40
0.0
 40
0.0
 40
0.0634335030363484
 40
0.1277221699967148
 40
0.2273789463224099
 40
0.3249499746903646
 40
0.4231274613770149
 40
0.5229142131711306
 40
0.6217527958644556
 40
0.7188972054396215
 40
0.8182346575142612
 40
0.9178408824890768
 40
1.0
 40
1.0
 40
1.0
 40
1.0
 10
7404.30116700879
 20
5278.699421214118
 30
0.0
 10
7405.196748536087
 20
5278.711471930689
 30
0.0
 10
7406.999985163424
 20
5278.735735822746
 30
0.0
 10
7410.641873191468
 20
5278.78063871874
 30
0.0
 10
7415.178733033225
 20
5278.832949043328
 30
0.0
 10
7420.553833224308
 20
5278.887763457707
 30
0.0
 10
7425.900744678464
 20
5278.944061458774
 30
0.0
 10
7430.970542098243
 20
5279.003420770869
 30
0.0
 10
7435.456049432607
 20
5279.061185228761
 30
0.0
 10
7439.160850828554
 20
5279.114997178149
 30
0.0
 10
7441.87092792357
 20
5279.173724478359
 30
0.0
 10
7443.493815295315
 20
5279.229785599191
 30
0.0
 10
7443.604074120231
 20
5279.263670694176
 30
0.0
 10
7443.653911826524
 20
5279.278986977592
 30
0.0
  0
SPLINE
  5
244
330
1F
100
AcDbEntity
  8
0
  6
Continuous
 62
     7
370
    25
100
AcDbSpline
210
0.0
220
0.0
230
1.0
 70
     8
 71
     3
 72
    23
 73
    19
 74
     0
 42
0.000000001
 43
0.00000001
 40
0.0
 40
0.0
 40
0.0
 40
0.0
 40
0.0186505263957671
 40
0.0905803813446971
 40
0.1512738113172318
 40
0.2114955167291528
 40
0.2704787362770423
 40
0.3167548298056457
 40
0.3636547750328089
 40
0.4363565167989237
 40
0.5075366567233968
 40
0.5791592208869617
 40
0.6519557781655012
 40
0.7240606216405469
 40
0.7949295382179418
 40
0.8673983217973076
 40
0.940063180922483
 40
1.0
 40
1.0
 40
1.0
 40
1.0
 10
7396.346271512421
 20
5280.072742032065
 30
0.0
 10
7396.312346813342
 20
5280.077517605769
 30
0.0
 10
7396.147584054669
 20
5280.100711229262
 30
0.0
 10
7396.994727185711
 20
5280.140942606561
 30
0.0
 10
7398.720156687104
 20
5280.193452114068
 30
0.0
 10
7401.159078747465
 20
5280.241966846808
 30
0.0
 10
7403.993253934073
 20
5280.283278644953
 30
0.0
 10
7407.014883822846
 20
5280.323339034293
 30
0.0
 10
7410.635339699213
 20
5280.368058985067
 30
0.0
 10
7415.180744760108
 20
5280.420486556248
 30
0.0
 10
7420.553295549136
 20
5280.475267156385
 30
0.0
 10
7425.900891842536
 20
5280.5315698585
 30
0.0
 10
7430.97050258733
 20
5280.590944465753
 30
0.0
 10
7435.456060044284
 20
5280.648643716216
 30
0.0
 10
7439.160847861704
 20
5280.702522052826
 30
0.0
 10
7441.870928715389
 20
5280.761227920891
 30
0.0
 10
7443.493815105067
 20
5280.817306361794
 30
0.0
 10
7443.604074062313
 20
5280.851163595061
 30
0.0
 10
7443.653911826524
 20
5280.866467284217
 30
0.0
  0
SPLINE
  5
245
330
1F
100
AcDbEntity
  8
0
  6
Continuous
 62
     7
370
    25
100
AcDbSpline
210
0.0
220
0.0
230
1.0
 70
     8
 71
     3
 72
    23
 73
    19
 74
     0
 42
0.000000001
 43
0.00000001
 40
0.0
 40
0.0
 40
0.0
 40
0.0
 40
0.0186505304553311
 40
0.0905803808217655
 40
0.1512738148916818
 40
0.2114955200353162
 40
0.2704787393204364
 40
0.3167548284161061
 40
0.3636547777755956
 40
0.4363565148622658
 40
0.5075366586415935
 40
0.5791592182616396
 40
0.6519557752158716
 40
0.7240606226524878
 40
0.7949295347803683
 40
0.8673983180368869
 40
0.9400631811895005
 40
1.0
 40
1.0
 40
1.0
 40
1.0
 10
7396.346271512421
 20
5281.660222338691
 30
0.0
 10
7396.312346808451
 20
5281.665009522728
 30
0.0
 10
7396.147584062839
 20
5281.688259529166
 30
0.0
 10
7396.994727317049
 20
5281.728386976176
 30
0.0
 10
7398.720156576253
 20
5281.780979808244
 30
0.0
 10
7401.159078806933
 20
5281.829467220279
 30
0.0
 10
7403.993253695728
 20
5281.870807861545
 30
0.0
 10
7407.01488420649
 20
5281.910796606572
 30
0.0
 10
7410.635339203354
 20
5281.955600431138
 30
0.0
 10
7415.180745292534
 20
5282.007934706745
 30
0.0
 10
7420.55329507451
 20
5282.062802938689
 30
0.0
 10
7425.900892073236
 20
5282.119038383721
 30
0.0
 10
7430.970502758233
 20
5282.178415037076
 30
0.0
 10
7435.456059725054
 20
5282.236173731905
 30
0.0
 10
7439.160848015117
 20
5282.28999145293
 30
0.0
 10
7441.870928768634
 20
5282.348701014547
 30
0.0
 10
7443.49381507368
 20
5282.404823866317
 30
0.0
 10
7443.604074053668
 20
5282.438676006582
 30
0.0
 10
7443.653911826524
 20
5282.453977393165
 30
0.0
  0
SPLINE
  5
246
330
1F
100
AcDbEntity
  8
0
  6
Continuous
 62
     7
370
    25
100
AcDbSpline
210
0.0
220
0.0
230
1.0
 70
     8
 71
     3
 72
    23
 73
    19
 74
     0
 42
0.000000001
 43
0.00000001
 40
0.0
 40
0.0
 40
0.0
 40
0.0
 40
0.0186505304591437
 40
0.0905803808402822
 40
0.1512738105548357
 40
0.2114955200117217
 40
0.2704787393088994
 40
0.316754828414029
 40
0.3636547777831058
 40
0.4363565148846379
 40
0.5075366545065554
 40
0.5791592183656842
 40
0.6519557753347974
 40
0.7240606227861536
 40
0.7949295349285211
 40
0.8673983181998541
 40
0.940063177016163
 40
1.0
 40
1.0
 40
1.0
 40
1.0
 10
7396.346271512421
 20
5283.247732447639
 30
0.0
 10
7396.31234680926
 20
5283.252519466004
 30
0.0
 10
7396.147584067573
 20
5283.275768667816
 30
0.0
 10
7396.994727208361
 20
5283.31591434876
 30
0.0
 10
7398.720156781323
 20
5283.368438387855
 30
0.0
 10
7401.159078665766
 20
5283.416990932263
 30
0.0
 10
7403.993253711119
 20
5283.458315052461
 30
0.0
 10
7407.014884197945
 20
5283.498307879752
 30
0.0
 10
7410.635339229679
 20
5283.543107872736
 30
0.0
 10
7415.180745042749
 20
5283.595459227806
 30
0.0
 10
7420.553295510019
 20
5283.650261400582
 30
0.0
 10
7425.900891825196
 20
5283.706562689768
 30
0.0
 10
7430.970502798563
 20
5283.765921106706
 30
0.0
 10
7435.456059712671
 20
5283.823685802638
 30
0.0
 10
7439.160848025252
 20
5283.877497689211
 30
0.0
 10
7441.870928685304
 20
5283.936225006538
 30
0.0
 10
7443.493815143089
 20
5283.992286122981
 30
0.0
 10
7443.604074072843
 20
5284.026171218468
 30
0.0
 10
7443.653911826524
 20
5284.041487502112
 30
0.0
  0
SPLINE
  5
247
330
1F
100
AcDbEntity
  8
0
  6
Continuous
 62
     7
370
    25
100
AcDbSpline
210
0.0
220
0.0
230
1.0
 70
     8
 71
     3
 72
    23
 73
    19
 74
     0
 42
0.000000001
 43
0.00000001
 40
0.0
 40
0.0
 40
0.0
 40
0.0
 40
0.0186505263957671
 40
0.0905803813446971
 40
0.1512738113172318
 40
0.2114955167291528
 40
0.2704787362770423
 40
0.3167548298056457
 40
0.3636547750328089
 40
0.4363565167989237
 40
0.5075366567233968
 40
0.5791592208869617
 40
0.6519557781655012
 40
0.7240606216405469
 40
0.7949295382179418
 40
0.8673983217973076
 40
0.940063180922483
 40
1.0
 40
1.0
 40
1.0
 40
1.0
 10
7396.346271512421
 20
5284.835242556586
 30
0.0
 10
7396.312346813342
 20
5284.84001813029
 30
0.0
 10
7396.147584054669
 20
5284.863211753783
 30
0.0
 10
7396.994727185711
 20
5284.903443131082
 30
0.0
 10
7398.720156687104
 20
5284.955952638589
 30
0.0
 10
7401.159078747465
 20
5285.004467371329
 30
0.0
 10
7403.993253934073
 20
5285.045779169473
 30
0.0
 10
7407.014883822846
 20
5285.085839558814
 30
0.0
 10
7410.635339699213
 20
5285.130559509588
 30
0.0
 10
7415.180744760108
 20
5285.182987080769
 30
0.0
 10
7420.553295549136
 20
5285.237767680906
 30
0.0
 10
7425.900891842536
 20
5285.294070383021
 30
0.0
 10
7430.97050258733
 20
5285.353444990274
 30
0.0
 10
7435.456060044284
 20
5285.411144240737
 30
0.0
 10
7439.160847861704
 20
5285.465022577347
 30
0.0
 10
7441.870928715389
 20
5285.523728445412
 30
0.0
 10
7443.493815105067
 20
5285.579806886315
 30
0.0
 10
7443.604074062313
 20
5285.613664119582
 30
0.0
 10
7443.653911826524
 20
5285.628967808738
 30
0.0
  0
SPLINE
  5
248
330
1F
100
AcDbEntity
  8
0
  6
Continuous
 62
     7
370
    25
100
AcDbSpline
210
0.0
220
0.0
230
1.0
 70
     8
 71
     3
 72
    23
 73
    19
 74
     0
 42
0.000000001
 43
0.00000001
 40
0.0
 40
0.0
 40
0.0
 40
0.0
 40
0.0186505304553311
 40
0.0905803808217655
 40
0.1512738148916818
 40
0.2114955200353162
 40
0.2704787393204364
 40
0.3167548284161061
 40
0.3636547777755956
 40
0.4363565148622658
 40
0.5075366586415935
 40
0.5791592182616396
 40
0.6519557752158716
 40
0.7240606226524878
 40
0.7949295347803683
 40
0.8673983180368869
 40
0.9400631811895005
 40
1.0
 40
1.0
 40
1.0
 40
1.0
 10
7396.346271512421
 20
5286.422722863212
 30
0.0
 10
7396.312346808451
 20
5286.427510047249
 30
0.0
 10
7396.147584062839
 20
5286.450760053687
 30
0.0
 10
7396.994727317049
 20
5286.490887500697
 30
0.0
 10
7398.720156576253
 20
5286.543480332764
 30
0.0
 10
7401.159078806933
 20
5286.5919677448
 30
0.0
 10
7403.993253695728
 20
5286.633308386065
 30
0.0
 10
7407.01488420649
 20
5286.673297131093
 30
0.0
 10
7410.635339203354
 20
5286.718100955659
 30
0.0
 10
7415.180745292534
 20
5286.770435231266
 30
0.0
 10
7420.55329507451
 20
5286.82530346321
 30
0.0
 10
7425.900892073236
 20
5286.881538908242
 30
0.0
 10
7430.970502758233
 20
5286.940915561597
 30
0.0
 10
7435.456059725054
 20
5286.998674256426
 30
0.0
 10
7439.160848015117
 20
5287.052491977451
 30
0.0
 10
7441.870928768634
 20
5287.111201539068
 30
0.0
 10
7443.49381507368
 20
5287.167324390838
 30
0.0
 10
7443.604074053668
 20
5287.201176531103
 30
0.0
 10
7443.653911826524
 20
5287.216477917686
 30
0.0
  0
SPLINE
  5
249
330
1F
100
AcDbEntity
  8
0
  6
Continuous
 62
     7
370
    25
100
AcDbSpline
210
0.0
220
0.0
230
1.0
 70
     8
 71
     3
 72
    23
 73
    19
 74
     0
 42
0.000000001
 43
0.00000001
 40
0.0
 40
0.0
 40
0.0
 40
0.0
 40
0.0186505304619227
 40
0.0905803808537789
 40
0.1512738105773759
 40
0.211495520043235
 40
0.2704787393492013
 40
0.3167548284612262
 40
0.3636547778372912
 40
0.436356514949656
 40
0.5075366545821794
 40
0.5791592184519803
 40
0.6519557754319403
 40
0.7240606186112436
 40
0.7949295348979654
 40
0.8673983181800963
 40
0.9400631770072324
 40
1.0
 40
1.0
 40
1.0
 40
1.0
 10
7396.346271512421
 20
5288.010232972159
 30
0.0
 10
7396.31234680926
 20
5288.015019990525
 30
0.0
 10
7396.147584067573
 20
5288.038269192342
 30
0.0
 10
7396.994727208362
 20
5288.078414873189
 30
0.0
 10
7398.72015678132
 20
5288.130938912652
 30
0.0
 10
7401.159078665775
 20
5288.179491455771
 30
0.0
 10
7403.993253711091
 20
5288.220815580338
 30
0.0
 10
7407.014884198024
 20
5288.26080839465
 30
0.0
 10
7410.63533922931
 20
5288.305608442553
 30
0.0
 10
7415.180745044967
 20
5288.35795947952
 30
0.0
 10
7420.553295502026
 20
5288.412762908254
 30
0.0
 10
7425.900891855429
 20
5288.469059495331
 30
0.0
 10
7430.970502583881
 20
5288.528435702779
 30
0.0
 10
7435.456060045204
 20
5288.586134765844
 30
0.0
 10
7439.160847861386
 20
5288.640012272757
 30
0.0
 10
7441.870928715737
 20
5288.698721710531
 30
0.0
 10
7443.493815137007
 20
5288.754787411
 30
0.0
 10
7443.60407407095
 20
5288.788671980665
 30
0.0
 10
7443.653911826524
 20
5288.803988026633
 30
0.0
  0
SPLINE
  5
24A
330
1F
100
AcDbEntity
  8
0
  6
Continuous
 62
     7
370
    25
100
AcDbSpline
210
0.0
220
0.0
230
1.0
 70
     8
 71
     3
 72
    23
 73
    19
 74
     0
 42
0.000000001
 43
0.00000001
 40
0.0
 40
0.0
 40
0.0
 40
0.0
 40
0.0186505304611563
 40
0.0905803851121059
 40
0.1512738148332089
 40
0.2114955199956524
 40
0.270478739299195
 40
0.3167548326360927
 40
0.3636547776689657
 40
0.4363565191339025
 40
0.507536658763501
 40
0.5791592226303586
 40
0.6519557796073272
 40
0.7240606227836676
 40
0.7949295390674773
 40
0.8673983223466303
 40
0.9400631811707804
 40
1.0
 40
1.0
 40
1.0
 40
1.0
 10
7396.346271512421
 20
5289.597713278785
 30
0.0
 10
7396.312346810245
 20
5289.602499941743
 30
0.0
 10
7396.147584065591
 20
5289.625747418542
 30
0.0
 10
7396.994727174607
 20
5289.665932219206
 30
0.0
 10
7398.720156689841
 20
5289.718455983892
 30
0.0
 10
7401.159078746744
 20
5289.766967153828
 30
0.0
 10
7403.993253934218
 20
5289.808279844129
 30
0.0
 10
7407.014883822811
 20
5289.848340047251
 30
0.0
 10
7410.635339699229
 20
5289.893060049933
 30
0.0
 10
7415.180744760103
 20
5289.945487600417
 30
0.0
 10
7420.553295549137
 20
5290.000268206729
 30
0.0
 10
7425.900891842535
 20
5290.056570907185
 30
0.0
 10
7430.97050258733
 20
5290.11594551489
 30
0.0
 10
7435.456060044284
 20
5290.173644765233
 30
0.0
 10
7439.160847861704
 20
5290.227523101875
 30
0.0
 10
7441.870928715389
 20
5290.28622896993
 30
0.0
 10
7443.493815105066
 20
5290.342307410836
 30
0.0
 10
7443.604074062313
 20
5290.376164644103
 30
0.0
 10
7443.653911826524
 20
5290.391468333259
 30
0.0
  0
SPLINE
  5
24B
330
1F
100
AcDbEntity
  8
0
  6
Continuous
 62
     7
370
    25
100
AcDbSpline
210
0.0
220
0.0
230
1.0
 70
     8
 71
     3
 72
     9
 73
     5
 74
     0
 42
0.000000001
 43
0.00000001
 40
0.0
 40
0.0
 40
0.0
 40
0.0
 40
0.4453898041858606
 40
0.9999999999999999
 40
0.9999999999999999
 40
0.9999999999999999
 40
0.9999999999999999
 10
7441.619873521241
 20
5278.69945101644
 30
0.0
 10
7441.947006093933
 20
5278.711896784463
 30
0.0
 10
7442.68149208714
 20
5278.73984032494
 30
0.0
 10
7442.746421693542
 20
5278.76615652117
 30
0.0
 10
7442.782432315263
 20
5278.780751751914
 30
0.0
  0
SPLINE
  5
24C
330
1F
100
AcDbEntity
  8
0
  6
Continuous
 62
     7
370
    25
100
AcDbSpline
210
0.0
220
0.0
230
1.0
 70
     8
 71
     3
 72
    22
 73
    18
 74
     0
 42
0.000000001
 43
0.00000001
 40
0.0
 40
0.0
 40
0.0
 40
0.0
 40
0.0186212239053303
 40
0.090771518827571
 40
0.1638063018458507
 40
0.2358524760191889
 40
0.3070912857381386
 40
0.3799390545973492
 40
0.4526840975807927
 40
0.523805598185285
 40
0.5960487129047645
 40
0.6690781476630148
 40
0.7446715131697529
 40
0.8198155105665005
 40
0.8965569289602542
 40
0.9426294181150305
 40
1.0
 40
1.0
 40
1.0
 40
1.0
 10
7397.201076624307
 20
5279.576712178245
 30
0.0
 10
7397.16861566606
 20
5279.581468750471
 30
0.0
 10
7397.010380606023
 20
5279.604655265363
 30
0.0
 10
7397.886009545952
 20
5279.648015555498
 30
0.0
 10
7399.844679539488
 20
5279.70737954685
 30
0.0
 10
7402.914509830273
 20
5279.764296572243
 30
0.0
 10
7406.817388530576
 20
5279.818601164934
 30
0.0
 10
7411.411450402387
 20
5279.87768957644
 30
0.0
 10
7416.441657590372
 20
5279.93655731876
 30
0.0
 10
7421.634809564755
 20
5279.990498662918
 30
0.0
 10
7426.753063782417
 20
5280.047988131206
 30
0.0
 10
7431.624743927136
 20
5280.108426859938
 30
0.0
 10
7435.93144010836
 20
5280.166715318339
 30
0.0
 10
7439.427034968808
 20
5280.224513590084
 30
0.0
 10
7441.487986476909
 20
5280.278780064151
 30
0.0
 10
7442.659698335785
 20
5280.327324122776
 30
0.0
 10
7442.738646730571
 20
5280.353657243578
 30
0.0
 10
7442.782432315263
 20
5280.368261860862
 30
0.0
  0
SPLINE
  5
24D
330
1F
100
AcDbEntity
  8
0
  6
Continuous
 62
     7
370
    25
100
AcDbSpline
210
0.0
220
0.0
230
1.0
 70
     8
 71
     3
 72
    22
 73
    18
 74
     0
 42
0.000000001
 43
0.00000001
 40
0.0
 40
0.0
 40
0.0
 40
0.0
 40
0.0186212283034615
 40
0.0907715183248601
 40
0.1638063010406656
 40
0.2358524749156242
 40
0.30709128882273
 40
0.3799390573802411
 40
0.4526841000624106
 40
0.5238056003723527
 40
0.5960487147926369
 40
0.6690781492484352
 40
0.7446715144421029
 40
0.8198155115276412
 40
0.8965569248949244
 40
0.9426294138588914
 40
1.0
 40
1.0
 40
1.0
 40
1.0
 10
7397.201076624307
 20
5281.16419248487
 30
0.0
 10
7397.168615661618
 20
5281.168960510566
 30
0.0
 10
7397.010380618172
 20
5281.19220285123
 30
0.0
 10
7397.886009598767
 20
5281.235468429193
 30
0.0
 10
7399.8446795125
 20
5281.294869929773
 30
0.0
 10
7402.914509988573
 20
5281.351764019601
 30
0.0
 10
7406.817388349961
 20
5281.406122935452
 30
0.0
 10
7411.411450425512
 20
5281.465196537024
 30
0.0
 10
7416.441657584396
 20
5281.524068236808
 30
0.0
 10
7421.634809566152
 20
5281.578008599526
 30
0.0
 10
7426.753063782865
 20
5281.635498110831
 30
0.0
 10
7431.624743923842
 20
5281.69593767948
 30
0.0
 10
7435.931440121544
 20
5281.754222618575
 30
0.0
 10
7439.427034847075
 20
5281.812034207789
 30
0.0
 10
7441.487986542706
 20
5281.866256805681
 30
0.0
 10
7442.659698355344
 20
5281.914799870976
 30
0.0
 10
7442.738646736566
 20
5281.941155093934
 30
0.0
 10
7442.782432315263
 20
5281.95577196981
 30
0.0
  0
SPLINE
  5
24E
330
1F
100
AcDbEntity
  8
0
  6
Continuous
 62
     7
370
    25
100
AcDbSpline
210
0.0
220
0.0
230
1.0
 70
     8
 71
     3
 72
    22
 73
    18
 74
     0
 42
0.000000001
 43
0.00000001
 40
0.0
 40
0.0
 40
0.0
 40
0.0
 40
0.0186212239152976
 40
0.0907715188761578
 40
0.1638063019335303
 40
0.2358524761454323
 40
0.3070912903857057
 40
0.3799390592839091
 40
0.4526840976274463
 40
0.5238056027386472
 40
0.5960487128838725
 40
0.6690781476812127
 40
0.7446715132284133
 40
0.8198155151786994
 40
0.8965569289048848
 40
0.9426294180843221
 40
1.0
 40
1.0
 40
1.0
 40
1.0
 10
7397.201076624307
 20
5282.751702593818
 30
0.0
 10
7397.168615666005
 20
5282.756459172649
 30
0.0
 10
7397.0103806057
 20
5282.779645719736
 30
0.0
 10
7397.886009552219
 20
5282.823005218369
 30
0.0
 10
7399.844679516747
 20
5282.882372694457
 30
0.0
 10
7402.914509976849
 20
5282.939277023491
 30
0.0
 10
7406.817388392587
 20
5282.993628669825
 30
0.0
 10
7411.411450163611
 20
5283.052721574707
 30
0.0
 10
7416.441658066575
 20
5283.111523746469
 30
0.0
 10
7421.63480908338
 20
5283.165543536929
 30
0.0
 10
7426.753064052313
 20
5283.22296281835
 30
0.0
 10
7431.624743860119
 20
5283.283425043463
 30
0.0
 10
7435.931440290833
 20
5283.34169057162
 30
0.0
 10
7439.427034711514
 20
5283.39955679764
 30
0.0
 10
7441.487986555723
 20
5283.453762520742
 30
0.0
 10
7442.659698323553
 20
5283.502316558554
 30
0.0
 10
7442.738646726208
 20
5283.528648379863
 30
0.0
 10
7442.782432315263
 20
5283.543252276435
 30
0.0
  0
SPLINE
  5
24F
330
1F
100
AcDbEntity
  8
0
  6
Continuous
 62
     7
370
    25
100
AcDbSpline
210
0.0
220
0.0
230
1.0
 70
     8
 71
     3
 72
    22
 73
    18
 74
     0
 42
0.000000001
 43
0.00000001
 40
0.0
 40
0.0
 40
0.0
 40
0.0
 40
0.0186212239031843
 40
0.090771514215079
 40
0.1638063019422159
 40
0.2358524761072514
 40
0.3070912858179913
 40
0.3799390546688067
 40
0.4526840976438669
 40
0.5238055982401629
 40
0.5960487129513169
 40
0.669078147701151
 40
0.7446715131991776
 40
0.8198155105872654
 40
0.8965569289721752
 40
0.9426294181216421
 40
0.9999999999999999
 40
0.9999999999999999
 40
0.9999999999999999
 40
0.9999999999999999
 10
7397.201076624307
 20
5284.339212702766
 30
0.0
 10
7397.168615664387
 20
5284.343969745835
 30
0.0
 10
7397.010380604221
 20
5284.36715855474
 30
0.0
 10
7397.886009686335
 20
5284.410462416154
 30
0.0
 10
7399.844679426952
 20
5284.469894310046
 30
0.0
 10
7402.914509842259
 20
5284.526793353292
 30
0.0
 10
7406.817388527299
 20
5284.581102712974
 30
0.0
 10
7411.411450403274
 20
5284.640189824363
 30
0.0
 10
7416.441657590141
 20
5284.699057915472
 30
0.0
 10
7421.634809564818
 20
5284.752999167951
 30
0.0
 10
7426.7530637824
 20
5284.810488661041
 30
0.0
 10
7431.62474392714
 20
5284.870927382972
 30
0.0
 10
7435.931440108358
 20
5284.929215843262
 30
0.0
 10
7439.427034968809
 20
5284.987014114493
 30
0.0
 10
7441.487986476909
 20
5285.041280588689
 30
0.0
 10
7442.659698335785
 20
5285.089824647293
 30
0.0
 10
7442.738646730571
 20
5285.116157768097
 30
0.0
 10
7442.782432315263
 20
5285.130762385383
 30
0.0
  0
SPLINE
  5
250
330
1F
100
AcDbEntity
  8
0
  6
Continuous
 62
     7
370
    25
100
AcDbSpline
210
0.0
220
0.0
230
1.0
 70
     8
 71
     3
 72
    22
 73
    18
 74
     0
 42
0.000000001
 43
0.00000001
 40
0.0
 40
0.0
 40
0.0
 40
0.0
 40
0.0186212283034615
 40
0.0907715183248601
 40
0.1638063010406656
 40
0.2358524749156242
 40
0.30709128882273
 40
0.3799390573802411
 40
0.4526841000624106
 40
0.5238056003723527
 40
0.5960487147926369
 40
0.6690781492484352
 40
0.7446715144421029
 40
0.8198155115276412
 40
0.8965569248949244
 40
0.9426294138588914
 40
1.0
 40
1.0
 40
1.0
 40
1.0
 10
7397.201076624307
 20
5285.926693009391
 30
0.0
 10
7397.168615661618
 20
5285.931461035087
 30
0.0
 10
7397.010380618172
 20
5285.954703375751
 30
0.0
 10
7397.886009598767
 20
5285.997968953715
 30
0.0
 10
7399.8446795125
 20
5286.057370454294
 30
0.0
 10
7402.914509988573
 20
5286.114264544122
 30
0.0
 10
7406.817388349961
 20
5286.168623459973
 30
0.0
 10
7411.411450425512
 20
5286.227697061545
 30
0.0
 10
7416.441657584396
 20
5286.286568761328
 30
0.0
 10
7421.634809566152
 20
5286.340509124047
 30
0.0
 10
7426.753063782865
 20
5286.397998635352
 30
0.0
 10
7431.624743923842
 20
5286.458438204001
 30
0.0
 10
7435.931440121544
 20
5286.516723143096
 30
0.0
 10
7439.427034847075
 20
5286.57453473231
 30
0.0
 10
7441.487986542706
 20
5286.628757330202
 30
0.0
 10
7442.659698355344
 20
5286.677300395497
 30
0.0
 10
7442.738646736566
 20
5286.703655618455
 30
0.0
 10
7442.782432315263
 20
5286.71827249433
 30
0.0
  0
SPLINE
  5
251
330
1F
100
AcDbEntity
  8
0
  6
Continuous
 62
     7
370
    25
100
AcDbSpline
210
0.0
220
0.0
230
1.0
 70
     8
 71
     3
 72
    22
 73
    18
 74
     0
 42
0.000000001
 43
0.00000001
 40
0.0
 40
0.0
 40
0.0
 40
0.0
 40
0.0186212239152976
 40
0.0907715188761578
 40
0.1638063019335303
 40
0.2358524761454323
 40
0.3070912903857057
 40
0.3799390592839091
 40
0.4526840976274463
 40
0.5238056027386472
 40
0.5960487128838725
 40
0.6690781476812127
 40
0.7446715132284133
 40
0.8198155151786994
 40
0.8965569289048848
 40
0.9426294180843221
 40
1.0
 40
1.0
 40
1.0
 40
1.0
 10
7397.201076624307
 20
5287.514203118339
 30
0.0
 10
7397.168615666005
 20
5287.51895969717
 30
0.0
 10
7397.0103806057
 20
5287.542146244256
 30
0.0
 10
7397.886009552219
 20
5287.58550574289
 30
0.0
 10
7399.844679516747
 20
5287.644873218978
 30
0.0
 10
7402.914509976849
 20
5287.701777548012
 30
0.0
 10
7406.817388392587
 20
5287.756129194346
 30
0.0
 10
7411.411450163611
 20
5287.815222099228
 30
0.0
 10
7416.441658066575
 20
5287.87402427099
 30
0.0
 10
7421.63480908338
 20
5287.92804406145
 30
0.0
 10
7426.753064052313
 20
5287.985463342871
 30
0.0
 10
7431.624743860119
 20
5288.045925567983
 30
0.0
 10
7435.931440290833
 20
5288.104191096141
 30
0.0
 10
7439.427034711514
 20
5288.162057322161
 30
0.0
 10
7441.487986555723
 20
5288.216263045263
 30
0.0
 10
7442.659698323553
 20
5288.264817083075
 30
0.0
 10
7442.738646726208
 20
5288.291148904384
 30
0.0
 10
7442.782432315263
 20
5288.305752800956
 30
0.0
  0
SPLINE
  5
252
330
1F
100
AcDbEntity
  8
0
  6
Continuous
 62
     7
370
    25
100
AcDbSpline
210
0.0
220
0.0
230
1.0
 70
     8
 71
     3
 72
    22
 73
    18
 74
     0
 42
0.000000001
 43
0.00000001
 40
0.0
 40
0.0
 40
0.0
 40
0.0
 40
0.0186212239031843
 40
0.090771514215079
 40
0.1638063019422159
 40
0.2358524761072514
 40
0.3070912858179913
 40
0.3799390546688067
 40
0.4526840976438669
 40
0.5238055982401629
 40
0.5960487129513169
 40
0.669078147701151
 40
0.7446715131991776
 40
0.8198155105872654
 40
0.8965569289721752
 40
0.9426294181216421
 40
0.9999999999999999
 40
0.9999999999999999
 40
0.9999999999999999
 40
0.9999999999999999
 10
7397.201076624307
 20
5289.101713227286
 30
0.0
 10
7397.168615664387
 20
5289.106470270356
 30
0.0
 10
7397.010380604221
 20
5289.129659079261
 30
0.0
 10
7397.886009686335
 20
5289.172962940675
 30
0.0
 10
7399.844679426952
 20
5289.232394834567
 30
0.0
 10
7402.914509842259
 20
5289.289293877813
 30
0.0
 10
7406.817388527299
 20
5289.343603237495
 30
0.0
 10
7411.411450403274
 20
5289.402690348884
 30
0.0
 10
7416.441657590141
 20
5289.461558439993
 30
0.0
 10
7421.634809564818
 20
5289.515499692472
 30
0.0
 10
7426.7530637824
 20
5289.572989185562
 30
0.0
 10
7431.62474392714
 20
5289.633427907493
 30
0.0
 10
7435.931440108358
 20
5289.691716367783
 30
0.0
 10
7439.427034968809
 20
5289.749514639014
 30
0.0
 10
7441.487986476909
 20
5289.80378111321
 30
0.0
 10
7442.659698335785
 20
5289.852325171813
 30
0.0
 10
7442.738646730571
 20
5289.878658292618
 30
0.0
 10
7442.782432315263
 20
5289.893262909904
 30
0.0
  0
SPLINE
  5
253
330
1F
100
AcDbEntity
  8
0
  6
Continuous
 62
     7
370
    25
100
AcDbSpline
210
0.0
220
0.0
230
1.0
 70
    24
 71
     3
 72
    19
 73
    15
 74
     0
 42
0.000000001
 43
0.00000001
 40
0.0
 40
0.0
 40
0.0
 40
0.0
 40
0.0462315849916367
 40
0.1333421527303668
 40
0.2204523994178301
 40
0.3075667858009141
 40
0.3946769967342806
 40
0.4816709743347328
 40
0.5686650822541898
 40
0.6545076246907738
 40
0.7403501758671525
 40
0.8262277758148096
 40
0.9121000003461316
 40
0.9999999999999999
 40
0.9999999999999999
 40
0.9999999999999999
 40
0.9999999999999999
 10
7404.304191944512
 20
5278.69945101644
 30
0.0
 10
7404.853100104216
 20
5278.69945101644
 30
0.0
 10
7406.436273073071
 20
5278.69945101644
 30
0.0
 10
7409.363204210611
 20
5278.69945101644
 30
0.0
 10
7413.094286247848
 20
5278.69945101644
 30
0.0
 10
7417.018554518533
 20
5278.69945101644
 30
0.0
 10
7421.010633140161
 20
5278.69945101644
 30
0.0
 10
7424.958605423035
 20
5278.69945101644
 30
0.0
 10
7428.734388788409
 20
5278.69945101644
 30
0.0
 10
7432.223379609901
 20
5278.69945101644
 30
0.0
 10
7435.349027285763
 20
5278.69945101644
 30
0.0
 10
7438.004621772788
 20
5278.69945101644
 30
0.0
 10
7440.201957746353
 20
5278.69945101644
 30
0.0
 10
7441.143572313978
 20
5278.69945101644
 30
0.0
 10
7441.619873521241
 20
5278.69945101644
 30
0.0
  0
SPLINE
  5
254
330
1F
100
AcDbEntity
  8
0
  6
Continuous
 62
     7
370
    25
100
AcDbSpline
210
0.0
220
0.0
230
1.0
 70
     8
 71
     3
 72
    22
 73
    18
 74
     0
 42
0.000000001
 43
0.00000001
 40
0.0
 40
0.0
 40
0.0
 40
0.0
 40
0.0126958817995799
 40
0.0850732746638673
 40
0.1583379396104072
 40
0.23061088399868
 40
0.3020739271955415
 40
0.3751509846372166
 40
0.4481249975725285
 40
0.519470357919243
 40
0.5919408627373703
 40
0.66520016258987
 40
0.7373696654963366
 40
0.8089092130716025
 40
0.8820284785646153
 40
0.9549443431465654
 40
1.0
 40
1.0
 40
1.0
 40
1.0
 10
7397.178560969743
 20
5279.184424208655
 30
0.0
 10
7397.158131079083
 20
5279.187656652546
 30
0.0
 10
7397.021233325397
 20
5279.209316793316
 30
0.0
 10
7397.894777845733
 20
5279.251153641295
 30
0.0
 10
7399.842352708039
 20
5279.310501403528
 30
0.0
 10
7402.915121842653
 20
5279.367406328465
 30
0.0
 10
7406.817220343387
 20
5279.421774976073
 30
0.0
 10
7411.411498024902
 20
5279.480797990105
 30
0.0
 10
7416.441637682794
 20
5279.539684150549
 30
0.0
 10
7421.63484235387
 20
5279.59361744156
 30
0.0
 10
7426.752949913546
 20
5279.651121246452
 30
0.0
 10
7431.544652572999
 20
5279.710511448198
 30
0.0
 10
7435.720358705688
 20
5279.767102863344
 30
0.0
 10
7439.111639019451
 20
5279.821702799552
 30
0.0
 10
7441.493627774039
 20
5279.880857563691
 30
0.0
 10
7442.771170065397
 20
5279.932456959355
 30
0.0
 10
7442.749332416082
 20
5279.962265021686
 30
0.0
 10
7442.740992185983
 20
5279.973649310126
 30
0.0
  0
SPLINE
  5
255
330
1F
100
AcDbEntity
  8
0
  6
Continuous
 62
     7
370
    25
100
AcDbSpline
210
0.0
220
0.0
230
1.0
 70
     8
 71
     3
 72
    22
 73
    18
 74
     0
 42
0.000000001
 43
0.00000001
 40
0.0
 40
0.0
 40
0.0
 40
0.0
 40
0.0143404185166057
 40
0.0865972492170606
 40
0.1597398786974873
 40
0.2318924441046628
 40
0.3032364482703986
 40
0.3761917874381949
 40
0.4490442490405523
 40
0.5202707708678894
 40
0.5926205630363185
 40
0.6657578363592331
 40
0.7378071279887796
 40
0.8092275090913168
 40
0.8822249860121757
 40
0.9550193914401618
 40
1.0
 40
1.0
 40
1.0
 40
1.0
 10
7397.184834358605
 20
5280.770623015418
 30
0.0
 10
7397.161177599475
 20
5280.774292308273
 30
0.0
 10
7397.018321917565
 20
5280.796450006637
 30
0.0
 10
7397.892192998826
 20
5280.838599511968
 30
0.0
 10
7399.843038781411
 20
5280.897977021311
 30
0.0
 10
7402.914941190307
 20
5280.954938366898
 30
0.0
 10
7406.817270037423
 20
5281.009231281104
 30
0.0
 10
7411.411484459866
 20
5281.068322618314
 30
0.0
 10
7416.44164119442
 20
5281.127190540573
 30
0.0
 10
7421.634841407368
 20
5281.181128295476
 30
0.0
 10
7426.75295016621
 20
5281.238632143207
 30
0.0
 10
7431.544652528077
 20
5281.298017625665
 30
0.0
 10
7435.720358550569
 20
5281.3546275934
 30
0.0
 10
7439.111639278108
 20
5281.4091582694
 30
0.0
 10
7441.493627580067
 20
5281.468393186461
 30
0.0
 10
7442.771170099364
 20
5281.519929404455
 30
0.0
 10
7442.74933242571
 20
5281.549743155302
 30
0.0
 10
7442.740992185983
 20
5281.561129616752
 30
0.0
  0
SPLINE
  5
256
330
1F
100
AcDbEntity
  8
0
  6
Continuous
 62
     7
370
    25
100
AcDbSpline
210
0.0
220
0.0
230
1.0
 70
     8
 71
     3
 72
    22
 73
    18
 74
     0
 42
0.000000001
 43
0.00000001
 40
0.0
 40
0.0
 40
0.0
 40
0.0
 40
0.0148689426683212
 40
0.0870870325778737
 40
0.1601904416799881
 40
0.2323043130050733
 40
0.3036100657347726
 40
0.3765262849526522
 40
0.4493396770866319
 40
0.520528010459485
 40
0.5928390073830642
 40
0.6659370584800579
 40
0.737947715998486
 40
0.8093298047201217
 40
0.8822881343935352
 40
0.9550435108421708
 40
1.0
 40
1.0
 40
1.0
 40
1.0
 10
7397.186860916528
 20
5282.357715891852
 30
0.0
 10
7397.162140883506
 20
5282.361512863604
 30
0.0
 10
7397.01735625631
 20
5282.383751634039
 30
0.0
 10
7397.891387930704
 20
5282.426133195767
 30
0.0
 10
7399.843252267976
 20
5282.485493728293
 30
0.0
 10
7402.914885323796
 20
5282.542399794977
 30
0.0
 10
7406.817285234288
 20
5282.596751356525
 30
0.0
 10
7411.411480086858
 20
5282.655842855428
 30
0.0
 10
7416.441642713115
 20
5282.714650713328
 30
0.0
 10
7421.634840888843
 20
5282.768649520951
 30
0.0
 10
7426.752950071666
 20
5282.826148258327
 30
0.0
 10
7431.544652678962
 20
5282.885492175456
 30
0.0
 10
7435.720358701755
 20
5282.942095831983
 30
0.0
 10
7439.111639020528
 20
5282.996692516175
 30
0.0
 10
7441.493627773746
 20
5283.055848169795
 30
0.0
 10
7442.771170065439
 20
5283.107447347846
 30
0.0
 10
7442.749332416094
 20
5283.137255429773
 30
0.0
 10
7442.740992185983
 20
5283.148639725699
 30
0.0
  0
SPLINE
  5
257
330
1F
100
AcDbEntity
  8
0
  6
Continuous
 62
     7
370
    25
100
AcDbSpline
210
0.0
220
0.0
230
1.0
 70
     8
 71
     3
 72
    22
 73
    18
 74
     0
 42
0.000000001
 43
0.00000001
 40
0.0
 40
0.0
 40
0.0
 40
0.0
 40
0.011215319408278
 40
0.0837012494941569
 40
0.1570757822165235
 40
0.229457107195333
 40
0.3010273164539731
 40
0.3742139603350447
 40
0.4472974051840929
 40
0.5187497551152486
 40
0.5913289367857605
 40
0.6646980963685857
 40
0.7369758247446239
 40
0.8086226531077221
 40
0.8818515683353738
 40
0.9548767776317226
 40
1.0
 40
1.0
 40
1.0
 40
1.0
 10
7397.17291342965
 20
5283.948057221427
 30
0.0
 10
7397.155294410045
 20
5283.950913759472
 30
0.0
 10
7397.023801591859
 20
5283.972232439298
 30
0.0
 10
7397.897183072705
 20
5284.013645934051
 30
0.0
 10
7399.841714455682
 20
5284.073004112434
 30
0.0
 10
7402.915289630157
 20
5284.129906278742
 30
0.0
 10
7406.817174467899
 20
5284.184275657601
 30
0.0
 10
7411.411510422429
 20
5284.243298472196
 30
0.0
 10
7416.441634447048
 20
5284.302184686144
 30
0.0
 10
7421.634843227424
 20
5284.356117963091
 30
0.0
 10
7426.752949674955
 20
5284.41362177179
 30
0.0
 10
7431.544652636175
 20
5284.473011972503
 30
0.0
 10
7435.720358689042
 20
5284.529603387922
 30
0.0
 10
7439.111639024009
 20
5284.584203324056
 30
0.0
 10
7441.493627772797
 20
5284.643358088217
 30
0.0
 10
7442.771170065574
 20
5284.694957483875
 30
0.0
 10
7442.749332416131
 20
5284.724765546207
 30
0.0
 10
7442.740992185983
 20
5284.736149834647
 30
0.0
  0
SPLINE
  5
258
330
1F
100
AcDbEntity
  8
0
  6
Continuous
 62
     7
370
    25
100
AcDbSpline
210
0.0
220
0.0
230
1.0
 70
     8
 71
     3
 72
    22
 73
    18
 74
     0
 42
0.000000001
 43
0.00000001
 40
0.0
 40
0.0
 40
0.0
 40
0.0
 40
0.010677268329508
 40
0.0832026376144581
 40
0.1566170977024069
 40
0.2290378141977814
 40
0.3006469644778038
 40
0.3738734381988537
 40
0.4469966520155836
 40
0.5184878833404811
 40
0.5911065595796491
 40
0.6645156436042177
 40
0.7368326979124953
 40
0.8085185134964005
 40
0.8817872815731822
 40
0.9548522234529239
 40
1.0
 40
1.0
 40
1.0
 40
1.0
 10
7397.170871970567
 20
5285.535984562888
 30
0.0
 10
7397.15424750416
 20
5285.538702514594
 30
0.0
 10
7397.024701312069
 20
5285.559882159414
 30
0.0
 10
7397.898085090867
 20
5285.601119303434
 30
0.0
 10
7399.841475252465
 20
5285.660472431843
 30
0.0
 10
7402.915352219833
 20
5285.717440240564
 30
0.0
 10
7406.817157656238
 20
5285.771731419101
 30
0.0
 10
7411.411514829543
 20
5285.830823315002
 30
0.0
 10
7416.441633269961
 20
5285.889690770443
 30
0.0
 10
7421.634843539412
 20
5285.943629811532
 30
0.0
 10
7426.7529496119
 20
5286.00112890682
 30
0.0
 10
7431.544652468748
 20
5286.060532252285
 30
0.0
 10
7435.720358839829
 20
5286.117076565733
 30
0.0
 10
7439.111639127736
 20
5286.171672905759
 30
0.0
 10
7441.493627607607
 20
5286.230889863835
 30
0.0
 10
7442.771170095451
 20
5286.282430475827
 30
0.0
 10
7442.749332424628
 20
5286.312243830955
 30
0.0
 10
7442.740992185983
 20
5286.323630141273
 30
0.0
  0
SPLINE
  5
259
330
1F
100
AcDbEntity
  8
0
  6
Continuous
 62
     7
370
    25
100
AcDbSpline
210
0.0
220
0.0
230
1.0
 70
     8
 71
     3
 72
    22
 73
    18
 74
     0
 42
0.000000001
 43
0.00000001
 40
0.0
 40
0.0
 40
0.0
 40
0.0
 40
0.0128969945855737
 40
0.0852596442700687
 40
0.1585093853006594
 40
0.2307676077851571
 40
0.3022160940540517
 40
0.3752782705002795
 40
0.4482374140324599
 40
0.5195682459048413
 40
0.5920239885763937
 40
0.6652683608766837
 40
0.7374231629502691
 40
0.8089481380137267
 40
0.8820525092084678
 40
0.9549535209246445
 40
1.0
 40
1.0
 40
1.0
 40
1.0
 10
7397.179320928964
 20
5287.121766137137
 30
0.0
 10
7397.158504825386
 20
5287.125047874428
 30
0.0
 10
7397.020893417212
 20
5287.146742832278
 30
0.0
 10
7397.894451571018
 20
5287.188649474135
 30
0.0
 10
7399.84243929869
 20
5287.247990072365
 30
0.0
 10
7402.915099041905
 20
5287.304901418478
 30
0.0
 10
7406.817226800714
 20
5287.359251580569
 30
0.0
 10
7411.411495878117
 20
5287.41834346115
 30
0.0
 10
7416.441638591607
 20
5287.477151216655
 30
0.0
 10
7421.634842001526
 20
5287.531150051193
 30
0.0
 10
7426.752949767762
 20
5287.588648781285
 30
0.0
 10
7431.544652759433
 20
5287.647992700391
 30
0.0
 10
7435.720358680552
 20
5287.704596356395
 30
0.0
 10
7439.111639026332
 20
5287.759193040726
 30
0.0
 10
7441.493627772164
 20
5287.818348694307
 30
0.0
 10
7442.771170065665
 20
5287.869947872367
 30
0.0
 10
7442.749332416156
 20
5287.899755954295
 30
0.0
 10
7442.740992185983
 20
5287.91114025022
 30
0.0
  0
SPLINE
  5
25A
330
1F
100
AcDbEntity
  8
0
  6
Continuous
 62
     7
370
    25
100
AcDbSpline
210
0.0
220
0.0
230
1.0
 70
     8
 71
     3
 72
    22
 73
    18
 74
     0
 42
0.000000001
 43
0.00000001
 40
0.0
 40
0.0
 40
0.0
 40
0.0
 40
0.0149209609892833
 40
0.087135237517177
 40
0.1602347864895121
 40
0.2323448499360644
 40
0.3036468374588748
 40
0.3765592017358393
 40
0.4493687537369991
 40
0.5205533236305362
 40
0.5928605022666235
 40
0.6659546982361866
 40
0.7379615533261515
 40
0.8093398728100765
 40
0.8822943500144397
 40
0.9550458847107045
 40
1.0
 40
1.0
 40
1.0
 40
1.0
 10
7397.187054631623
 20
5288.707666920676
 30
0.0
 10
7397.162231471584
 20
5288.711484324007
 30
0.0
 10
7397.017269498458
 20
5288.733777147247
 30
0.0
 10
7397.89130565667
 20
5288.776131754959
 30
0.0
 10
7399.843274090046
 20
5288.835508538714
 30
0.0
 10
7402.914879624375
 20
5288.892405777546
 30
0.0
 10
7406.817286569308
 20
5288.946776462566
 30
0.0
 10
7411.411480127815
 20
5289.005798920929
 30
0.0
 10
7416.441642353921
 20
5289.064685230445
 30
0.0
 10
7421.634841092808
 20
5289.118618482273
 30
0.0
 10
7426.752950257976
 20
5289.176122297768
 30
0.0
 10
7431.544652481798
 20
5289.235512496637
 30
0.0
 10
7435.720358729719
 20
5289.292103912544
 30
0.0
 10
7439.111639012873
 20
5289.34670384855
 30
0.0
 10
7441.493627775832
 20
5289.405858612745
 30
0.0
 10
7442.771170065142
 20
5289.457458008395
 30
0.0
 10
7442.749332416012
 20
5289.487266070727
 30
0.0
 10
7442.740992185983
 20
5289.498650359168
 30
0.0
  0
SPLINE
  5
25B
330
1F
100
AcDbEntity
  8
0
  6
Continuous
 62
     7
370
    25
100
AcDbSpline
210
0.0
220
0.0
230
1.0
 70
     8
 71
     3
 72
    21
 73
    17
 74
     0
 42
0.000000001
 43
0.00000001
 40
0.0
 40
0.0
 40
0.0
 40
0.0
 40
0.0715970325482245
 40
0.1459487429924221
 40
0.2192938192365333
 40
0.2918171828165279
 40
0.3659783496357897
 40
0.4400349083582945
 40
0.5124387518658846
 40
0.5859842469328058
 40
0.660330351238779
 40
0.7335704639334923
 40
0.8061714576990093
 40
0.8803753522495181
 40
0.9543730079394533
 40
1.0
 40
1.0
 40
1.0
 40
1.0
 10
7396.281362054261
 20
5278.69945101644
 30
0.0
 10
7396.505007229278
 20
5278.717851562739
 30
0.0
 10
7396.960902271408
 20
5278.755360611745
 30
0.0
 10
7399.118987377185
 20
5278.814462262022
 30
0.0
 10
7402.2658812766
 20
5278.871316596355
 30
0.0
 10
7406.325381282375
 20
5278.925637725515
 30
0.0
 10
7411.089144870557
 20
5278.984721392335
 30
0.0
 10
7416.30890458362
 20
5279.043591457594
 30
0.0
 10
7421.696834952937
 20
5279.097528529624
 30
0.0
 10
7427.007116565504
 20
5279.155032609983
 30
0.0
 10
7431.978674967343
 20
5279.214418278792
 30
0.0
 10
7436.311120354917
 20
5279.271027157147
 30
0.0
 10
7439.829737490075
 20
5279.325562218586
 30
0.0
 10
7442.301037802063
 20
5279.384779720278
 30
0.0
 10
7443.626188095566
 20
5279.436347674259
 30
0.0
 10
7443.603681401271
 20
5279.466116195366
 30
0.0
 10
7443.595096943292
 20
5279.477470444694
 30
0.0
  0
SPLINE
  5
25C
330
1F
100
AcDbEntity
  8
0
  6
Continuous
 62
     7
370
    25
100
AcDbSpline
210
0.0
220
0.0
230
1.0
 70
     8
 71
     3
 72
    22
 73
    18
 74
     0
 42
0.000000001
 43
0.00000001
 40
0.0
 40
0.0
 40
0.0
 40
0.0
 40
0.0164528349928363
 40
0.0868718934151883
 40
0.1600003030862912
 40
0.2321386449309353
 40
0.3034687977839359
 40
0.3764098032005759
 40
0.4492479216201602
 40
0.5204605166747056
 40
0.592795979884441
 40
0.6659188800419341
 40
0.7379539810303055
 40
0.809360486841349
 40
0.8823435126270134
 40
0.9551236971358734
 40
1.0
 40
1.0
 40
1.0
 40
1.0
 10
7396.330178258332
 20
5280.274354743018
 30
0.0
 10
7396.306641687977
 20
5280.278546512932
 30
0.0
 10
7396.182367273743
 20
5280.300679293655
 30
0.0
 10
7397.072519467492
 20
5280.34303885922
 30
0.0
 10
7399.089051117887
 20
5280.401892283024
 30
0.0
 10
7402.273751273771
 20
5280.458799916947
 30
0.0
 10
7406.323229383574
 20
5280.513155138554
 30
0.0
 10
7411.089726379862
 20
5280.57222959817
 30
0.0
 10
7416.308752811891
 20
5280.63110180115
 30
0.0
 10
7421.69687591932
 20
5280.685039532459
 30
0.0
 10
7427.007105404317
 20
5280.742538811592
 30
0.0
 10
7431.978677720772
 20
5280.801943178838
 30
0.0
 10
7436.311119905068
 20
5280.858483159821
 30
0.0
 10
7439.829737429173
 20
5280.913095978649
 30
0.0
 10
7442.301037867644
 20
5280.972249526993
 30
0.0
 10
7443.626188113444
 20
5281.023816435748
 30
0.0
 10
7443.603681406563
 20
5281.053614887556
 30
0.0
 10
7443.595096943292
 20
5281.064980553641
 30
0.0
  0
SPLINE
  5
25D
330
1F
100
AcDbEntity
  8
0
  6
Continuous
 62
     7
370
    25
100
AcDbSpline
210
0.0
220
0.0
230
1.0
 70
     8
 71
     3
 72
    22
 73
    18
 74
     0
 42
0.000000001
 43
0.00000001
 40
0.0
 40
0.0
 40
0.0
 40
0.0
 40
0.0169662869017027
 40
0.0873485879795105
 40
0.1604388216326363
 40
0.2325395043151643
 40
0.3038324199137262
 40
0.3767353471450676
 40
0.4495354367408261
 40
0.5207108600652264
 40
0.5930085569189737
 40
0.666093283934681
 40
0.7380907839094404
 40
0.8094600126066811
 40
0.8824049382706972
 40
0.9551471285493438
 40
1.0
 40
1.0
 40
1.0
 40
1.0
 10
7396.331727979096
 20
5281.861447619453
 30
0.0
 10
7396.307257978586
 20
5281.865767146571
 30
0.0
 10
7396.181277556064
 20
5281.888005636153
 30
0.0
 10
7397.071773135974
 20
5281.930567731251
 30
0.0
 10
7399.089251279988
 20
5281.989397095927
 30
0.0
 10
7402.273698643689
 20
5282.046312377767
 30
0.0
 10
7406.32324381123
 20
5282.10066103859
 30
0.0
 10
7411.089722240082
 20
5282.159754525216
 30
0.0
 10
7416.308754289343
 20
5282.218557583038
 30
0.0
 10
7421.696875187487
 20
5282.272573506683
 30
0.0
 10
7427.007105710507
 20
5282.330007187817
 30
0.0
 10
7431.978677846827
 20
5282.389416407259
 30
0.0
 10
7436.311119755552
 20
5282.446002699397
 30
0.0
 10
7439.829737451657
 20
5282.500604568639
 30
0.0
 10
7442.301037859644
 20
5282.55975597932
 30
0.0
 10
7443.626188091707
 20
5282.611340097274
 30
0.0
 10
7443.603681400206
 20
5282.641107165206
 30
0.0
 10
7443.595096943292
 20
5282.652460860267
 30
0.0
  0
SPLINE
  5
25E
330
1F
100
AcDbEntity
  8
0
  6
Continuous
 62
     7
370
    25
100
AcDbSpline
210
0.0
220
0.0
230
1.0
 70
     8
 71
     3
 72
    22
 73
    18
 74
     0
 42
0.000000001
 43
0.00000001
 40
0.0
 40
0.0
 40
0.0
 40
0.0
 40
0.0133285666827066
 40
0.0839713134083282
 40
0.157332022121897
 40
0.2296995136264403
 40
0.3012562447189048
 40
0.3744289494809488
 40
0.4474984404222289
 40
0.5189372444735438
 40
0.5915024835052528
 40
0.6648576608023844
 40
0.7371215877711973
 40
0.8087549143500798
 40
0.8819697773439558
 40
0.9549811503456637
 40
1.0
 40
1.0
 40
1.0
 40
1.0
 10
7396.32079052678
 20
5283.451788949027
 30
0.0
 10
7396.302708587016
 20
5283.455168964281
 30
0.0
 10
7396.18879054413
 20
5283.476463401034
 30
0.0
 10
7397.077273065061
 20
5283.518038206827
 30
0.0
 10
7399.087776117687
 20
5283.576915295287
 30
0.0
 10
7402.274086291291
 20
5283.63382960568
 30
0.0
 10
7406.323137917359
 20
5283.688134836517
 30
0.0
 10
7411.089751123205
 20
5283.747222839334
 30
0.0
 10
7416.308746351893
 20
5283.806091741348
 30
0.0
 10
7421.696877670601
 20
5283.860029119144
 30
0.0
 10
7427.007104898128
 20
5283.917533116752
 30
0.0
 10
7431.978678056717
 20
5283.976918808014
 30
0.0
 10
7436.311119540906
 20
5284.03352768043
 30
0.0
 10
7439.829737712926
 20
5284.088062743445
 30
0.0
 10
7442.30103774131
 20
5284.147280244706
 30
0.0
 10
7443.626188104179
 20
5284.198848198794
 30
0.0
 10
7443.60368140365
 20
5284.228616719891
 30
0.0
 10
7443.595096943292
 20
5284.239970969214
 30
0.0
  0
SPLINE
  5
25F
330
1F
100
AcDbEntity
  8
0
  6
Continuous
 62
     7
370
    25
100
AcDbSpline
210
0.0
220
0.0
230
1.0
 70
     8
 71
     3
 72
    22
 73
    18
 74
     0
 42
0.000000001
 43
0.00000001
 40
0.0
 40
0.0
 40
0.0
 40
0.0
 40
0.0128091103683134
 40
0.0834890486613398
 40
0.1568883754745493
 40
0.2292939665797305
 40
0.3008883746140469
 40
0.3740996029005501
 40
0.4472075630268993
 40
0.5186839777490806
 40
0.5912874204903534
 40
0.6646812173789846
 40
0.7369831851538606
 40
0.8086542290092722
 40
0.8819076333366972
 40
0.9549574449258919
 40
1.0
 40
1.0
 40
1.0
 40
1.0
 10
7396.319225904855
 20
5285.039686488166
 30
0.0
 10
7396.302015679866
 20
5285.042938242652
 30
0.0
 10
7396.189840417864
 20
5285.064132992384
 30
0.0
 10
7397.07809298899
 20
5285.105549627826
 30
0.0
 10
7399.08755627002
 20
5285.164390060027
 30
0.0
 10
7402.274144248936
 20
5285.221301163753
 30
0.0
 10
7406.323121938708
 20
5285.275655465592
 30
0.0
 10
7411.089755416034
 20
5285.334730176059
 30
0.0
 10
7416.308745233459
 20
5285.393602311742
 30
0.0
 10
7421.696877965263
 20
5285.447540060741
 30
0.0
 10
7427.007104845514
 20
5285.505039335085
 30
0.0
 10
7431.978677868737
 20
5285.56444370363
 30
0.0
 10
7436.311119866082
 20
5285.62098368427
 30
0.0
 10
7439.829737439846
 20
5285.675596503191
 30
0.0
 10
7442.301037864734
 20
5285.734750051508
 30
0.0
 10
7443.626188113856
 20
5285.78631696027
 30
0.0
 10
7443.603681406677
 20
5285.816115412077
 30
0.0
 10
7443.595096943292
 20
5285.827481078162
 30
0.0
  0
SPLINE
  5
260
330
1F
100
AcDbEntity
  8
0
  6
Continuous
 62
     7
370
    25
100
AcDbSpline
210
0.0
220
0.0
230
1.0
 70
     8
 71
     3
 72
    22
 73
    18
 74
     0
 42
0.000000001
 43
0.00000001
 40
0.0
 40
0.0
 40
0.0
 40
0.0
 40
0.0150088529473817
 40
0.0855313004867167
 40
0.158767072683792
 40
0.2310113234991732
 40
0.3024461987907274
 40
0.3754942915982148
 40
0.4484393419980317
 40
0.5197564869001738
 40
0.5921981484818213
 40
0.665428403076566
 40
0.7375692657249769
 40
0.8090806060711787
 40
0.8821707809393502
 40
0.9550578167319282
 40
1.0
 40
1.0
 40
1.0
 40
1.0
 10
7396.325827119264
 20
5286.625468062415
 30
0.0
 10
7396.304861805717
 20
5286.629283368216
 30
0.0
 10
7396.185386284236
 20
5286.651025740402
 30
0.0
 10
7397.074667761065
 20
5286.693071419666
 30
0.0
 10
7399.088474925577
 20
5286.75189684013
 30
0.0
 10
7402.273902739289
 20
5286.808812858729
 30
0.0
 10
7406.323187999043
 20
5286.863162499155
 30
0.0
 10
7411.089737359805
 20
5286.92225125098
 30
0.0
 10
7416.308750107049
 20
5286.981072174632
 30
0.0
 10
7421.696876684638
 20
5287.035022474759
 30
0.0
 10
7427.007105172948
 20
5287.092521792341
 30
0.0
 10
7431.978677963196
 20
5287.151913203262
 30
0.0
 10
7436.31111972489
 20
5287.208504206336
 30
0.0
 10
7439.829737460051
 20
5287.263104824204
 30
0.0
 10
7442.301037857356
 20
5287.322256577162
 30
0.0
 10
7443.626188092033
 20
5287.373840611399
 30
0.0
 10
7443.603681400295
 20
5287.403607686857
 30
0.0
 10
7443.595096943292
 20
5287.414961384788
 30
0.0
  0
SPLINE
  5
261
330
1F
100
AcDbEntity
  8
0
  6
Continuous
 62
     7
370
    25
100
AcDbSpline
210
0.0
220
0.0
230
1.0
 70
     8
 71
     3
 72
    22
 73
    18
 74
     0
 42
0.000000001
 43
0.00000001
 40
0.0
 40
0.0
 40
0.0
 40
0.0
 40
0.0170275396184907
 40
0.0874054508584339
 40
0.1604911346073404
 40
0.2325873246598838
 40
0.3038757937932538
 40
0.3767741784063471
 40
0.4495697361411954
 40
0.520740720334929
 40
0.5930339165708366
 40
0.6661140896402594
 40
0.7381071034144009
 40
0.8094718808822338
 40
0.8824122656784374
 40
0.9551499233544368
 40
1.0
 40
1.0
 40
1.0
 40
1.0
 10
7396.331906793031
 20
5288.211398648276
 30
0.0
 10
7396.307327053284
 20
5288.215738807611
 30
0.0
 10
7396.181154788665
 20
5288.238017633087
 30
0.0
 10
7397.071681641684
 20
5288.280518982011
 30
0.0
 10
7399.089275766873
 20
5288.339421116683
 30
0.0
 10
7402.273692053961
 20
5288.396328737725
 30
0.0
 10
7406.323245707323
 20
5288.45063574176
 30
0.0
 10
7411.089721993771
 20
5288.509723260967
 30
0.0
 10
7416.308753954665
 20
5288.568592292722
 30
0.0
 10
7421.696875618088
 20
5288.622529636415
 30
0.0
 10
7427.007105458726
 20
5288.680033643252
 30
0.0
 10
7431.978677908278
 20
5288.739419332011
 30
0.0
 10
7436.311119580017
 20
5288.796028205089
 30
0.0
 10
7439.829737702218
 20
5288.850563267929
 30
0.0
 10
7442.301037744229
 20
5288.909780769238
 30
0.0
 10
7443.626188103765
 20
5288.961348723313
 30
0.0
 10
7443.603681403535
 20
5288.991117244412
 30
0.0
 10
7443.595096943292
 20
5289.002471493735
 30
0.0
  0
LINE
  5
262
330
1F
100
AcDbEntity
  8
0
  6
Continuous
 62
     7
370
    25
100
AcDbLine
 10
7396.2780539965
 20
5278.6994510164
 30
0.0
 11
7396.2813620543
 21
5278.6994510164
 31
0.0
  0
SPLINE
  5
263
330
1F
100
AcDbEntity
  8
0
  6
Continuous
 62
     7
370
    25
100
AcDbSpline
210
0.0
220
0.0
230
1.0
 70
    24
 71
     3
 72
    12
 73
     8
 74
     0
 42
0.000000001
 43
0.00000001
 40
0.0
 40
0.0
 40
0.0
 40
0.0
 40
0.0819051610647535
 40
0.3318806389927464
 40
0.5818557939090105
 40
0.790928208407837
 40
1.0
 40
1.0
 40
1.0
 40
1.0
 10
7404.301092502984
 20
5278.69945101644
 30
0.0
 10
7403.925913083456
 20
5278.69945101644
 30
0.0
 10
7402.405681832201
 20
5278.69945101644
 30
0.0
 10
7400.107826194883
 20
5278.69945101644
 30
0.0
 10
7398.027491080338
 20
5278.69945101644
 30
0.0
 10
7396.71744423149
 20
5278.69945101644
 30
0.0
 10
7396.426722635642
 20
5278.69945101644
 30
0.0
 10
7396.281362054261
 20
5278.69945101644
 30
0.0
  0
SPLINE
  5
264
330
1F
100
AcDbEntity
  8
0
  6
Continuous
 62
     7
370
    25
100
AcDbSpline
210
0.0
220
0.0
230
1.0
 70
    24
 71
     3
 72
    12
 73
     8
 74
     0
 42
0.000000001
 43
0.00000001
 40
0.0
 40
0.0
 40
0.0
 40
0.0
 40
0.0568838228497373
 40
0.284934721563391
 40
0.5152624393938866
 40
0.7455900470595082
 40
1.0
 40
1.0
 40
1.0
 40
1.0
 10
7441.619873521241
 20
5278.69945101644
 30
0.0
 10
7441.703470009174
 20
5278.69945101644
 30
0.0
 10
7442.122210185543
 20
5278.69945101644
 30
0.0
 10
7442.661600584575
 20
5278.69945101644
 30
0.0
 10
7442.936163895846
 20
5278.69945101644
 30
0.0
 10
7442.798058354488
 20
5278.69945101644
 30
0.0
 10
7442.254928562272
 20
5278.69945101644
 30
0.0
 10
7441.969871995362
 20
5278.69945101644
 30
0.0
  0
LINE
  5
265
330
1F
100
AcDbEntity
  8
0
  6
Continuous
 62
     7
370
    25
100
AcDbLine
 10
7442.2321026301
 20
5276.6994469633
 30
0.0
 11
7397.7321093058
 21
5276.6994469633
 31
0.0
  0
ARC
  5
266
330
1F
100
AcDbEntity
  8
0
  6
Continuous
 62
     7
370
    25
100
AcDbCircle
 10
7419.9821023916
 20
5259.2305344664
 30
0.0
 40
16.0
100
AcDbArc
 50
180.0
 51
0.0
  0
ARC
  5
267
330
1F
100
AcDbEntity
  8
0
  6
Continuous
 62
     7
370
    25
100
AcDbCircle
 10
7419.9821023916
 20
5259.2305344664
 30
0.0
 40
25.00000000000088
100
AcDbArc
 50
135.6726528008
 51
44.3273471992
  0
LINE
  5
268
330
1F
100
AcDbEntity
  8
0
  6
Continuous
 62
     7
370
    25
100
AcDbLine
 10
7385.9820966696
 20
5150.1994662752
 30
0.0
 11
7453.9821003651
 21
5150.1994662752
 31
0.0
  0
SPLINE
  5
269
330
1F
100
AcDbEntity
  8
0
  6
Continuous
 62
     7
370
    25
100
AcDbSpline
210
0.0
220
0.0
230
1.0
 70
     8
 71
     3
 72
    26
 73
    22
 74
     0
 42
0.000000001
 43
0.00000001
 40
0.0
 40
0.0
 40
0.0
 40
0.0
 40
0.0518150809729256
 40
0.1113808212314299
 40
0.1722816406723573
 40
0.2246885735620767
 40
0.2783592755171084
 40
0.3194179273453581
 40
0.3616213987326392
 40
0.4027070636088467
 40
0.4449490227616927
 40
0.5015056986187951
 40
0.559641159082234
 40
0.6344162593024105
 40
0.7113477368583563
 40
0.7733911167087363
 40
0.8370629846828452
 40
0.8877154163452122
 40
0.9397479722315757
 40
0.9904519764124203
 40
1.0
 40
1.0
 40
1.0
 40
1.0
 10
7394.760355827721
 20
5207.547091769233
 30
0.0
 10
7395.08746834502
 20
5207.029074227712
 30
0.0
 10
7395.790623876722
 20
5205.915552486485
 30
0.0
 10
7397.050203625846
 20
5203.721451192479
 30
0.0
 10
7398.312095736067
 20
5201.185648121712
 30
0.0
 10
7399.411534128551
 20
5198.412994713717
 30
0.0
 10
7400.153729506609
 20
5195.71514934055
 30
0.0
 10
7400.529775843629
 20
5193.02826012023
 30
0.0
 10
7400.553496174553
 20
5190.497602677259
 30
0.0
 10
7400.233561240531
 20
5187.932410707843
 30
0.0
 10
7399.534158604036
 20
5185.144221636689
 30
0.0
 10
7398.398416700279
 20
5182.175388541285
 30
0.0
 10
7396.737512777043
 20
5178.861377931958
 30
0.0
 10
7394.724165172755
 20
5175.531829580307
 30
0.0
 10
7392.683975022009
 20
5172.550403645545
 30
0.0
 10
7390.91142571617
 20
5170.131416402508
 30
0.0
 10
7389.595191676313
 20
5168.410373254394
 30
0.0
 10
7388.628593796608
 20
5167.177553752779
 30
0.0
 10
7388.064237880961
 20
5166.468175657514
 30
0.0
 10
7387.811805704901
 20
5166.153317787505
 30
0.0
 10
7387.868071585216
 20
5166.223563533843
 30
0.0
 10
7387.876987931641
 20
5166.234695242896
 30
0.0
  0
LINE
  5
26A
330
1F
100
AcDbEntity
  8
0
  6
Continuous
 62
     7
370
    25
100
AcDbLine
 10
7371.9820981001
 20
5214.1994469633
 30
0.0
 11
7371.9820981001
 21
5162.1994607916
 31
0.0
  0
LINE
  5
26B
330
1F
100
AcDbEntity
  8
0
  6
Continuous
 62
     7
370
    25
100
AcDbLine
 10
7375.9821062063
 20
5215.6994574537
 30
0.0
 11
7375.9821062063
 21
5160.6994503012
 31
0.0
  0
ARC
  5
26C
330
1F
100
AcDbEntity
  8
0
  6
Continuous
 62
     7
370
    25
100
AcDbCircle
 10
7397.6133908908
 20
5207.3407681439
 30
0.0
 40
2.860485712141806
100
AcDbArc
 50
92.0243395186
 51
175.8637278561
  0
LINE
  5
26D
330
1F
100
AcDbEntity
  8
0
  6
Continuous
 62
     7
370
    25
100
AcDbLine
 10
7397.5123469805
 20
5210.1994686594
 30
0.0
 11
7444.3117533897
 21
5210.1994686594
 31
0.0
  0
LINE
  5
26E
330
1F
100
AcDbEntity
  8
0
  6
Continuous
 62
     7
370
    25
100
AcDbLine
 10
7395.8602701401
 20
5080.1994436255
 30
0.0
 11
7444.1039268946
 21
5080.1994436255
 31
0.0
  0
LINE
  5
26F
330
1F
100
AcDbEntity
  8
0
  6
Continuous
 62
     7
370
    25
100
AcDbLine
 10
7359.9821035837
 20
5211.1994557848
 30
0.0
 11
7359.9821035837
 21
5165.1994519701
 31
0.0
  0
LINE
  5
270
330
1F
100
AcDbEntity
  8
0
  6
Continuous
 62
     7
370
    25
100
AcDbLine
 10
7396.9821040606
 20
5216.6994445791
 30
0.0
 11
7442.9821078753
 21
5216.6994445791
 31
0.0
  0
LINE
  5
271
330
1F
100
AcDbEntity
  8
0
  6
Continuous
 62
     7
370
    25
100
AcDbLine
 10
7394.9821000074
 20
5212.6994662752
 30
0.0
 11
7444.9820970272
 21
5212.6994662752
 31
0.0
  0
LINE
  5
272
330
1F
100
AcDbEntity
  8
0
  6
Continuous
 62
     7
370
    25
100
AcDbLine
 10
7399.9820952391
 20
5226.6994648447
 30
0.0
 11
7439.9821017956
 21
5226.6994648447
 31
0.0
  0
SPLINE
  5
273
330
1F
100
AcDbEntity
  8
0
  6
Continuous
 62
     7
370
    25
100
AcDbSpline
210
0.0
220
0.0
230
1.0
 70
     8
 71
     3
 72
    11
 73
     7
 74
     0
 42
0.000000001
 43
0.00000001
 40
0.0
 40
0.0
 40
0.0
 40
0.0
 40
0.1561479376111409
 40
0.4307955813403597
 40
0.7130074893558814
 40
0.9999999999999999
 40
0.9999999999999999
 40
0.9999999999999999
 40
0.9999999999999999
 10
7392.982095954331
 20
5210.199468659415
 30
0.0
 10
7392.991565063842
 20
5210.18594052021
 30
0.0
 10
7393.017689331627
 20
5210.148617820453
 30
0.0
 10
7393.301513835892
 20
5209.739856806385
 30
0.0
 10
7393.884745526988
 20
5208.891362305108
 30
0.0
 10
7394.466856061543
 20
5207.997683873539
 30
0.0
 10
7394.760355827721
 20
5207.547091769233
 30
0.0
  0
SPLINE
  5
274
330
1F
100
AcDbEntity
  8
0
  6
Continuous
 62
     7
370
    25
100
AcDbSpline
210
0.0
220
0.0
230
1.0
 70
    24
 71
     3
 72
    12
 73
     8
 74
     0
 42
0.000000001
 43
0.00000001
 40
0.0
 40
0.0
 40
0.0
 40
0.0
 40
0.0026573046095127
 40
0.0516699123023605
 40
0.3670811714857311
 40
0.7311417789133787
 40
1.0
 40
1.0
 40
1.0
 40
1.0
 10
7392.982095954331
 20
5210.199468659415
 30
0.0
 10
7392.985492022991
 20
5210.199468659415
 30
0.0
 10
7393.051526819747
 20
5210.199468659415
 30
0.0
 10
7393.531911170328
 20
5210.199468659413
 30
0.0
 10
7394.61924000603
 20
5210.199468659416
 30
0.0
 10
7396.212502702573
 20
5210.199468659415
 30
0.0
 10
7397.124807931445
 20
5210.199468659415
 30
0.0
 10
7397.512346980485
 20
5210.199468659415
 30
0.0
  0
LINE
  5
275
330
1F
100
AcDbEntity
  8
0
  6
Continuous
 62
     7
370
    25
100
AcDbLine
 10
7249.9820892786
 20
5208.1994646063
 30
0.0
 11
7249.9820892786
 21
5168.1994431486
 31
0.0
  0
LINE
  5
276
330
1F
100
AcDbEntity
  8
0
  6
Continuous
 62
     7
370
    25
100
AcDbLine
 10
7231.9821124052
 20
5618.6994545927
 30
0.0
 11
7927.9820923781
 21
5618.6994545927
 31
0.0
  0
LINE
  5
277
330
1F
100
AcDbEntity
  8
0
  6
Continuous
 62
     7
370
    25
100
AcDbLine
 10
7927.9820923781
 20
5618.6994545927
 30
0.0
 11
7927.9820923781
 21
5616.6994544977
 31
0.0
  0
LINE
  5
278
330
1F
100
AcDbEntity
  8
0
  6
Continuous
 62
     7
370
    25
100
AcDbLine
 10
7927.9820923781
 20
5616.6994544977
 30
0.0
 11
7231.9821124052
 21
5616.6994544977
 31
0.0
  0
LINE
  5
279
330
1F
100
AcDbEntity
  8
0
  6
Continuous
 62
     7
370
    25
100
AcDbLine
 10
7234.9821035837
 20
5578.9674044421
 30
0.0
 11
7229.9821083521
 21
5578.9674044421
 31
0.0
  0
LINE
  5
27A
330
1F
100
AcDbEntity
  8
0
  6
Continuous
 62
     7
370
    25
100
AcDbLine
 10
7229.9821083521
 20
5580.6994558146
 30
0.0
 11
7927.9820923781
 21
5580.6994558146
 31
0.0
  0
LINE
  5
27B
330
1F
100
AcDbEntity
  8
0
  6
Continuous
 62
     7
370
    25
100
AcDbLine
 10
7927.9820923781
 20
5580.6994558146
 30
0.0
 11
7927.9820923781
 21
5578.6994554868
 31
0.0
  0
LINE
  5
27C
330
1F
100
AcDbEntity
  8
0
  6
Continuous
 62
     7
370
    25
100
AcDbLine
 10
7927.9820923781
 20
5578.6994554868
 30
0.0
 11
7234.9821035837
 21
5578.6994554868
 31
0.0
  0
LINE
  5
27D
330
1F
100
AcDbEntity
  8
0
  6
Continuous
 62
     7
370
    25
100
AcDbLine
 10
7234.9821035837
 20
5578.6994554868
 30
0.0
 11
7234.9821035837
 21
5578.9674044421
 31
0.0
  0
LINE
  5
27E
330
1F
100
AcDbEntity
  8
0
  6
Continuous
 62
     7
370
    25
100
AcDbLine
 10
7229.9821083521
 20
5578.9674044421
 30
0.0
 11
7229.9821083521
 21
5580.6994558146
 31
0.0
  0
LINE
  5
27F
330
1F
100
AcDbEntity
  8
0
  6
Continuous
 62
     7
370
    25
100
AcDbLine
 10
7927.9820923781
 20
5580.6994558146
 30
0.0
 11
7927.9820923781
 21
5616.6994544977
 31
0.0
  0
LINE
  5
280
330
1F
100
AcDbEntity
  8
0
  6
Continuous
 62
     7
370
    25
100
AcDbLine
 10
7229.9821083521
 20
5580.6994558146
 30
0.0
 11
7229.9821083521
 21
5658.6994536986
 31
0.0
  0
LINE
  5
281
330
1F
100
AcDbEntity
  8
0
  6
Continuous
 62
     7
370
    25
100
AcDbLine
 10
7229.9821083521
 20
5658.6994536986
 30
0.0
 11
7231.9821124052
 21
5658.6994536986
 31
0.0
  0
LINE
  5
282
330
1F
100
AcDbEntity
  8
0
  6
Continuous
 62
     7
370
    25
100
AcDbLine
 10
7231.9821124052
 20
5658.6994536986
 30
0.0
 11
7231.9821124052
 21
5616.6994544977
 31
0.0
  0
LINE
  5
283
330
1F
100
AcDbEntity
  8
0
  6
Continuous
 62
     7
370
    25
100
AcDbLine
 10
7929.9820964312
 20
5616.6994544977
 30
0.0
 11
7927.9820923781
 21
5616.6994544977
 31
0.0
  0
ARC
  5
284
330
1F
100
AcDbEntity
  8
0
  6
Continuous
 62
     7
370
    25
100
AcDbCircle
 10
7927.9821023916
 20
5616.6994545927
 30
0.0
 40
2.000000000000909
100
AcDbArc
 50
0.0
 51
90.0
  0
LINE
  5
285
330
1F
100
AcDbEntity
  8
0
  6
Continuous
 62
     7
370
    25
100
AcDbLine
 10
7927.9820923781
 20
5580.6994558146
 30
0.0
 11
7929.9820964312
 21
5580.6994558146
 31
0.0
  0
ARC
  5
286
330
1F
100
AcDbEntity
  8
0
  6
Continuous
 62
     7
370
    25
100
AcDbCircle
 10
7927.9821023916
 20
5580.6994545927
 30
0.0
 40
2.000000000000909
100
AcDbArc
 50
270.0
 51
0.0
  0
LINE
  5
287
330
1F
100
AcDbEntity
  8
0
  6
Continuous
 62
     7
370
    25
100
AcDbLine
 10
7929.9820964312
 20
5616.6994544977
 30
0.0
 11
7929.9820964312
 21
5580.6994558146
 31
0.0
  0
LINE
  5
288
330
1F
100
AcDbEntity
  8
0
  6
Continuous
 62
     7
370
    25
100
AcDbLine
 10
7261.9821135973
 20
5578.6994554868
 30
0.0
 11
7261.9821135973
 21
4768.6994307509
 31
0.0
  0
LINE
  5
289
330
1F
100
AcDbEntity
  8
0
  6
Continuous
 62
     7
370
    25
100
AcDbLine
 10
7259.9821095442
 20
5578.6994554868
 30
0.0
 11
7259.9821095442
 21
4768.6994307509
 31
0.0
  0
LINE
  5
28A
330
1F
100
AcDbEntity
  8
0
  6
Continuous
 62
     7
370
    25
100
AcDbLine
 10
7259.9821095442
 20
4768.6994307509
 30
0.0
 11
7261.9821135973
 21
4768.6994307509
 31
0.0
  0
LINE
  5
28B
330
1F
100
AcDbEntity
  8
0
  6
Continuous
 62
     7
370
    25
100
AcDbLine
 10
7292.9821019148
 20
5578.6994554868
 30
0.0
 11
7292.9821019148
 21
4768.6994307509
 31
0.0
  0
LINE
  5
28C
330
1F
100
AcDbEntity
  8
0
  6
Continuous
 62
     7
370
    25
100
AcDbLine
 10
7261.9821135973
 20
4768.6994307509
 30
0.0
 11
7292.9821019148
 21
4768.6994307509
 31
0.0
  0
LINE
  5
28D
330
1F
100
AcDbEntity
  8
0
  6
Continuous
 62
     7
370
    25
100
AcDbLine
 10
7296.982110021
 20
5578.1994544735
 30
0.0
 11
7296.982110021
 21
5298.6994617453
 31
0.0
  0
LINE
  5
28E
330
1F
100
AcDbEntity
  8
0
  6
Continuous
 62
     7
370
    25
100
AcDbLine
 10
7887.9821007227
 20
5578.1994544735
 30
0.0
 11
7296.982110021
 21
5578.1994544735
 31
0.0
  0
LINE
  5
28F
330
1F
100
AcDbEntity
  8
0
  6
Continuous
 62
     7
370
    25
100
AcDbLine
 10
7887.9821007227
 20
5578.1994544735
 30
0.0
 11
7887.9821007227
 21
5298.6994617453
 31
0.0
  0
LINE
  5
290
330
1F
100
AcDbEntity
  8
0
  6
Continuous
 62
     7
370
    25
100
AcDbLine
 10
7887.9821007227
 20
5298.6994617453
 30
0.0
 11
7296.982110021
 21
5298.6994617453
 31
0.0
  0
LINE
  5
291
330
1F
100
AcDbEntity
  8
0
  6
Continuous
 62
     7
370
    25
100
AcDbLine
 10
7294.9821059679
 20
5578.1994544735
 30
0.0
 11
7294.9821059679
 21
5298.6994617453
 31
0.0
  0
LINE
  5
292
330
1F
100
AcDbEntity
  8
0
  6
Continuous
 62
     7
370
    25
100
AcDbLine
 10
7294.9821059679
 20
5298.6994617453
 30
0.0
 11
7294.9821059679
 21
4768.6994307509
 31
0.0
  0
LINE
  5
293
330
1F
100
AcDbEntity
  8
0
  6
Continuous
 62
     7
370
    25
100
AcDbLine
 10
7294.9821059679
 20
5578.6994554868
 30
0.0
 11
7294.9821059679
 21
5578.1994544735
 31
0.0
  0
LINE
  5
294
330
1F
100
AcDbEntity
  8
0
  6
Continuous
 62
     7
370
    25
100
AcDbLine
 10
7292.9821019148
 20
4768.6994307509
 30
0.0
 11
7294.9821059679
 21
4768.6994307509
 31
0.0
  0
LINE
  5
295
330
1F
100
AcDbEntity
  8
0
  6
Continuous
 62
     7
370
    25
100
AcDbLine
 10
7296.982110021
 20
5578.1994544735
 30
0.0
 11
7294.9821059679
 21
5578.1994544735
 31
0.0
  0
LINE
  5
296
330
1F
100
AcDbEntity
  8
0
  6
Continuous
 62
     7
370
    25
100
AcDbLine
 10
7296.982110021
 20
5298.6994617453
 30
0.0
 11
7294.9821059679
 21
5298.6994617453
 31
0.0
  0
LINE
  5
297
330
1F
100
AcDbEntity
  8
0
  6
Continuous
 62
     7
370
    25
100
AcDbLine
 10
7891.9821088289
 20
5578.6994554868
 30
0.0
 11
7891.9821088289
 21
4768.6994307509
 31
0.0
  0
LINE
  5
298
330
1F
100
AcDbEntity
  8
0
  6
Continuous
 62
     7
370
    25
100
AcDbLine
 10
7889.9821047758
 20
5298.6994617453
 30
0.0
 11
7889.9821047758
 21
4768.6994307509
 31
0.0
  0
LINE
  5
299
330
1F
100
AcDbEntity
  8
0
  6
Continuous
 62
     7
370
    25
100
AcDbLine
 10
7889.9821047758
 20
5578.1994544735
 30
0.0
 11
7889.9821047758
 21
5298.6994617453
 31
0.0
  0
LINE
  5
29A
330
1F
100
AcDbEntity
  8
0
  6
Continuous
 62
     7
370
    25
100
AcDbLine
 10
7889.9821047758
 20
5578.6994554868
 30
0.0
 11
7889.9821047758
 21
5578.1994544735
 31
0.0
  0
LINE
  5
29B
330
1F
100
AcDbEntity
  8
0
  6
Continuous
 62
     7
370
    25
100
AcDbLine
 10
7889.9821047758
 20
4768.6994307509
 30
0.0
 11
7891.9821088289
 21
4768.6994307509
 31
0.0
  0
LINE
  5
29C
330
1F
100
AcDbEntity
  8
0
  6
Continuous
 62
     7
370
    25
100
AcDbLine
 10
7889.9821047758
 20
5578.1994544735
 30
0.0
 11
7887.9821007227
 21
5578.1994544735
 31
0.0
  0
LINE
  5
29D
330
1F
100
AcDbEntity
  8
0
  6
Continuous
 62
     7
370
    25
100
AcDbLine
 10
7889.9821047758
 20
5298.6994617453
 30
0.0
 11
7887.9821007227
 21
5298.6994617453
 31
0.0
  0
LINE
  5
29E
330
1F
100
AcDbEntity
  8
0
  6
Continuous
 62
     7
370
    25
100
AcDbLine
 10
7922.9820971464
 20
5578.6994554868
 30
0.0
 11
7922.9820971464
 21
4768.6994307509
 31
0.0
  0
LINE
  5
29F
330
1F
100
AcDbEntity
  8
0
  6
Continuous
 62
     7
370
    25
100
AcDbLine
 10
7891.9821088289
 20
4768.6994307509
 30
0.0
 11
7922.9820971464
 21
4768.6994307509
 31
0.0
  0
LINE
  5
2A0
330
1F
100
AcDbEntity
  8
0
  6
Continuous
 62
     7
370
    25
100
AcDbLine
 10
7924.9821011995
 20
5578.6994554868
 30
0.0
 11
7924.9821011995
 21
4768.6994307509
 31
0.0
  0
LINE
  5
2A1
330
1F
100
AcDbEntity
  8
0
  6
Continuous
 62
     7
370
    25
100
AcDbLine
 10
7922.9820971464
 20
4768.6994307509
 30
0.0
 11
7924.9821011995
 21
4768.6994307509
 31
0.0
  0
LINE
  5
2A2
330
1F
100
AcDbEntity
  8
0
  6
Continuous
 62
     7
370
    25
100
AcDbLine
 10
7327.9820983385
 20
5578.6994554868
 30
0.0
 11
7327.9820983385
 21
5578.1994544735
 31
0.0
  0
LINE
  5
2A3
330
1F
100
AcDbEntity
  8
0
  6
Continuous
 62
     7
370
    25
100
AcDbLine
 10
7831.9821064447
 20
5578.1994544735
 30
0.0
 11
7831.9821064447
 21
5578.6994554868
 31
0.0
  0
LINE
  5
2A4
330
1F
100
AcDbEntity
  8
0
  6
Continuous
 62
     8
370
    25
100
AcDbLine
 10
7419.9821059679
 20
5289.230548667
 30
0.0
 11
7442.9821078753
 21
5289.230548667
 31
0.0
  0
LINE
  5
2A5
330
1F
100
AcDbEntity
  8
0
  6
Continuous
 62
     8
370
    25
100
AcDbLine
 10
7396.9821040606
 20
5289.230548667
 30
0.0
 11
7419.9821059679
 21
5289.230548667
 31
0.0
  0
LINE
  5
2A6
330
1F
100
AcDbEntity
  8
0
  6
Continuous
 62
     8
370
    25
100
AcDbLine
 10
7435.9821085905
 20
5239.230536746
 30
0.0
 11
7434.982106564
 21
5239.230536746
 31
0.0
  0
LINE
  5
2A7
330
1F
100
AcDbEntity
  8
0
  6
Continuous
 62
     8
370
    25
100
AcDbLine
 10
7404.9821053719
 20
5239.230536746
 30
0.0
 11
7403.9821033453
 21
5239.230536746
 31
0.0
  0
LINE
  5
2A8
330
1F
100
AcDbEntity
  8
0
  6
Continuous
 62
     8
370
    25
100
AcDbLine
 10
7392.8758953785
 20
5082.8937523832
 30
0.0
 11
7447.0883165573
 21
5082.8937523832
 31
0.0
  0
LINE
  5
2A9
330
1F
100
AcDbEntity
  8
0
  6
Continuous
 62
     8
370
    25
100
AcDbLine
 10
7447.2915385937
 20
5207.5470917692
 30
0.0
 11
7394.7603558277
 21
5207.5470917692
 31
0.0
  0
LINE
  5
2AA
330
1F
100
AcDbEntity
  8
0
  6
Continuous
 62
     8
370
    25
100
AcDbLine
 10
7362.9821096634
 20
5214.1994469633
 30
0.0
 11
7362.9821096634
 21
5162.1994607916
 31
0.0
  0
LINE
  5
2AB
330
1F
100
AcDbEntity
  8
0
  6
Continuous
 62
     8
370
    25
100
AcDbLine
 10
7396.9821040606
 20
5223.6994438639
 30
0.0
 11
7442.9821078753
 21
5223.6994438639
 31
0.0
  0
LINE
  5
2AC
330
1F
100
AcDbEntity
  8
0
  6
Continuous
 62
     8
370
    25
100
AcDbLine
 10
7419.9821059679
 20
5578.1994544735
 30
0.0
 11
7419.9821059679
 21
5578.6994554868
 31
0.0
  0
LINE
  5
2AD
330
1F
100
AcDbEntity
  8
0
  6
Continuous
 62
     8
370
    25
100
AcDbLine
 10
7739.9820988154
 20
5578.6994554868
 30
0.0
 11
7739.9820988154
 21
5578.1994544735
 31
0.0
  0
CIRCLE
  5
2AE
330
1F
100
AcDbEntity
  8
0
  6
Continuous
 62
     7
370
    25
100
AcDbCircle
 10
6159.0187553361
 20
4210.4483587715
 30
0.0
 40
24.96512544439429
  0
CIRCLE
  5
2AF
330
1F
100
AcDbEntity
  8
0
  6
Continuous
 62
     7
370
    25
100
AcDbCircle
 10
6159.0187553361
 20
4210.4483587715
 30
0.0
 40
35.0
  0
CIRCLE
  5
2B0
330
1F
100
AcDbEntity
  8
0
  6
Continuous
 62
     7
370
    25
100
AcDbCircle
 10
6159.0187553361
 20
4210.4483587715
 30
0.0
 40
35.16921944985916
  0
CIRCLE
  5
2B1
330
1F
100
AcDbEntity
  8
0
  6
Continuous
 62
     7
370
    25
100
AcDbCircle
 10
6159.0187553361
 20
4210.4483587715
 30
0.0
 40
21.99999999999909
  0
CIRCLE
  5
2B2
330
1F
100
AcDbEntity
  8
0
  6
Continuous
 62
     7
370
    25
100
AcDbCircle
 10
6159.0187553361
 20
4210.4483587715
 30
0.0
 40
20.5
  0
CIRCLE
  5
2B3
330
1F
100
AcDbEntity
  8
0
  6
Continuous
 62
     7
370
    25
100
AcDbCircle
 10
6159.0187553361
 20
4210.4483587715
 30
0.0
 40
19.48700763430315
  0
CIRCLE
  5
2B4
330
1F
100
AcDbEntity
  8
0
  6
Continuous
 62
     7
370
    25
100
AcDbCircle
 10
6159.0187553361
 20
4210.4483587715
 30
0.0
 40
5.699999999999818
  0
CIRCLE
  5
2B5
330
1F
100
AcDbEntity
  8
0
  6
Continuous
 62
     7
370
    25
100
AcDbCircle
 10
6159.0187553361
 20
4224.4483587715
 30
0.0
 40
5.0
  0
CIRCLE
  5
2B6
330
1F
100
AcDbEntity
  8
0
  6
Continuous
 62
     7
370
    25
100
AcDbCircle
 10
6171.1431109891
 20
4217.4483587715
 30
0.0
 40
5.000000000000909
  0
CIRCLE
  5
2B7
330
1F
100
AcDbEntity
  8
0
  6
Continuous
 62
     7
370
    25
100
AcDbCircle
 10
6171.1431109891
 20
4203.4483587715
 30
0.0
 40
5.0
  0
CIRCLE
  5
2B8
330
1F
100
AcDbEntity
  8
0
  6
Continuous
 62
     7
370
    25
100
AcDbCircle
 10
6159.0187553361
 20
4196.4483587715
 30
0.0
 40
5.0
  0
CIRCLE
  5
2B9
330
1F
100
AcDbEntity
  8
0
  6
Continuous
 62
     7
370
    25
100
AcDbCircle
 10
6146.8943996831
 20
4203.4483587715
 30
0.0
 40
5.000000000000909
  0
CIRCLE
  5
2BA
330
1F
100
AcDbEntity
  8
0
  6
Continuous
 62
     7
370
    25
100
AcDbCircle
 10
6146.8943996831
 20
4217.4483587715
 30
0.0
 40
5.0
  0
CIRCLE
  5
2BB
330
1F
100
AcDbEntity
  8
0
  6
Continuous
 62
     7
370
    25
100
AcDbCircle
 10
6389.0187553361
 20
4210.4483587715
 30
0.0
 40
35.0
  0
CIRCLE
  5
2BC
330
1F
100
AcDbEntity
  8
0
  6
Continuous
 62
     7
370
    25
100
AcDbCircle
 10
6389.0187553361
 20
4210.4483587715
 30
0.0
 40
35.16921944985916
  0
CIRCLE
  5
2BD
330
1F
100
AcDbEntity
  8
0
  6
Continuous
 62
     7
370
    25
100
AcDbCircle
 10
6389.0187553361
 20
4210.4483587715
 30
0.0
 40
24.96512544439429
  0
CIRCLE
  5
2BE
330
1F
100
AcDbEntity
  8
0
  6
Continuous
 62
     7
370
    25
100
AcDbCircle
 10
6389.0187553361
 20
4210.4483587715
 30
0.0
 40
21.99999999999909
  0
CIRCLE
  5
2BF
330
1F
100
AcDbEntity
  8
0
  6
Continuous
 62
     7
370
    25
100
AcDbCircle
 10
6389.0187553361
 20
4210.4483587715
 30
0.0
 40
20.5
  0
CIRCLE
  5
2C0
330
1F
100
AcDbEntity
  8
0
  6
Continuous
 62
     7
370
    25
100
AcDbCircle
 10
6389.0187553361
 20
4210.4483587715
 30
0.0
 40
19.48700763430315
  0
CIRCLE
  5
2C1
330
1F
100
AcDbEntity
  8
0
  6
Continuous
 62
     7
370
    25
100
AcDbCircle
 10
6389.0187553361
 20
4210.4483587715
 30
0.0
 40
5.699999999999818
  0
CIRCLE
  5
2C2
330
1F
100
AcDbEntity
  8
0
  6
Continuous
 62
     7
370
    25
100
AcDbCircle
 10
6389.0187553361
 20
4224.4483587715
 30
0.0
 40
5.0
  0
CIRCLE
  5
2C3
330
1F
100
AcDbEntity
  8
0
  6
Continuous
 62
     7
370
    25
100
AcDbCircle
 10
6401.1431109891
 20
4217.4483587715
 30
0.0
 40
5.000000000000909
  0
CIRCLE
  5
2C4
330
1F
100
AcDbEntity
  8
0
  6
Continuous
 62
     7
370
    25
100
AcDbCircle
 10
6401.1431109891
 20
4203.4483587715
 30
0.0
 40
5.0
  0
CIRCLE
  5
2C5
330
1F
100
AcDbEntity
  8
0
  6
Continuous
 62
     7
370
    25
100
AcDbCircle
 10
6389.0187553361
 20
4196.4483587715
 30
0.0
 40
5.0
  0
CIRCLE
  5
2C6
330
1F
100
AcDbEntity
  8
0
  6
Continuous
 62
     7
370
    25
100
AcDbCircle
 10
6376.8943996831
 20
4203.4483587715
 30
0.0
 40
5.000000000000909
  0
CIRCLE
  5
2C7
330
1F
100
AcDbEntity
  8
0
  6
Continuous
 62
     7
370
    25
100
AcDbCircle
 10
6376.8943996831
 20
4217.4483587715
 30
0.0
 40
5.0
  0
LINE
  5
2C8
330
1F
100
AcDbEntity
  8
0
  6
Continuous
 62
     7
370
    25
100
AcDbLine
 10
6145.3434882358
 20
4204.2849965068
 30
0.0
 11
6150.2750722364
 21
4207.1322507831
 31
0.0
  0
LINE
  5
2C9
330
1F
100
AcDbEntity
  8
0
  6
Continuous
 62
     7
370
    25
100
AcDbLine
 10
6171.1940226749
 20
4201.6869194481
 30
0.0
 11
6166.2624386743
 21
4204.5341737243
 31
0.0
  0
LINE
  5
2CA
330
1F
100
AcDbEntity
  8
0
  6
Continuous
 62
     7
370
    25
100
AcDbLine
 10
6151.7750827268
 20
4204.5341737243
 30
0.0
 11
6146.8434912756
 21
4201.6869194481
 31
0.0
  0
LINE
  5
2CB
330
1F
100
AcDbEntity
  8
0
  6
Continuous
 62
     7
370
    25
100
AcDbLine
 10
6167.7624342635
 20
4207.1322507831
 30
0.0
 11
6172.6940182641
 21
4204.2849965068
 31
0.0
  0
LINE
  5
2CC
330
1F
100
AcDbEntity
  8
0
  6
Continuous
 62
     7
370
    25
100
AcDbLine
 10
6160.5187562898
 20
4225.3731645319
 30
0.0
 11
6160.5187562898
 21
4219.6786559793
 31
0.0
  0
LINE
  5
2CD
330
1F
100
AcDbEntity
  8
0
  6
Continuous
 62
     7
370
    25
100
AcDbLine
 10
6157.5187502101
 20
4219.6786559793
 30
0.0
 11
6157.5187502101
 21
4225.3731645319
 31
0.0
  0
LINE
  5
2CE
330
1F
100
AcDbEntity
  8
0
  6
Continuous
 62
     7
370
    25
100
AcDbLine
 10
6401.1940268472
 20
4201.6869194481
 30
0.0
 11
6396.2624279454
 21
4204.5341737243
 31
0.0
  0
LINE
  5
2CF
330
1F
100
AcDbEntity
  8
0
  6
Continuous
 62
     7
370
    25
100
AcDbLine
 10
6375.3434924081
 20
4204.2849965068
 30
0.0
 11
6380.2750913098
 21
4207.1322507831
 31
0.0
  0
LINE
  5
2D0
330
1F
100
AcDbEntity
  8
0
  6
Continuous
 62
     7
370
    25
100
AcDbLine
 10
6381.7750719979
 20
4204.5341737243
 30
0.0
 11
6376.8435028985
 21
4201.6869194481
 31
0.0
  0
LINE
  5
2D1
330
1F
100
AcDbEntity
  8
0
  6
Continuous
 62
     7
370
    25
100
AcDbLine
 10
6397.7624384358
 20
4207.1322507831
 30
0.0
 11
6402.6940075353
 21
4204.2849965068
 31
0.0
  0
LINE
  5
2D2
330
1F
100
AcDbEntity
  8
0
  6
Continuous
 62
     7
370
    25
100
AcDbLine
 10
6390.5187455609
 20
4225.3731645319
 30
0.0
 11
6390.5187455609
 21
4219.6786559793
 31
0.0
  0
LINE
  5
2D3
330
1F
100
AcDbEntity
  8
0
  6
Continuous
 62
     7
370
    25
100
AcDbLine
 10
6387.5187543824
 20
4219.6786559793
 30
0.0
 11
6387.5187543824
 21
4225.3731645319
 31
0.0
  0
ARC
  5
2D4
330
1F
100
AcDbEntity
  8
0
  6
Continuous
 62
     7
370
    25
100
AcDbCircle
 10
6389.0187553361
 20
4210.4483587715
 30
0.0
 40
5.250000000000563
100
AcDbArc
 50
278.2132107017
 51
81.7867892983
  0
LINE
  5
2D5
330
1F
100
AcDbEntity
  8
0
  6
Continuous
 62
     7
370
    25
100
AcDbLine
 10
6389.7687701181
 20
4205.2522010776
 30
0.0
 11
6389.7687701181
 21
4215.6445093128
 31
0.0
  0
ARC
  5
2D6
330
1F
100
AcDbEntity
  8
0
  6
Continuous
 62
     7
370
    25
100
AcDbCircle
 10
6389.0187553361
 20
4210.4483587715
 30
0.0
 40
5.250000000000563
100
AcDbArc
 50
98.2132107017
 51
261.7867892983
  0
LINE
  5
2D7
330
1F
100
AcDbEntity
  8
0
  6
Continuous
 62
     7
370
    25
100
AcDbLine
 10
6388.2687596276
 20
4215.6445093128
 30
0.0
 11
6388.2687596276
 21
4205.2522010776
 31
0.0
  0
ARC
  5
2D8
330
1F
100
AcDbEntity
  8
0
  6
Continuous
 62
     7
370
    25
100
AcDbCircle
 10
6389.0187553361
 20
4210.4483587715
 30
0.0
 40
5.250000000000563
100
AcDbArc
 50
81.7867892983
 51
98.2132107017
  0
ARC
  5
2D9
330
1F
100
AcDbEntity
  8
0
  6
Continuous
 62
     7
370
    25
100
AcDbCircle
 10
6389.0187553361
 20
4210.4483587715
 30
0.0
 40
5.249999999999662
100
AcDbArc
 50
261.7867892983
 51
278.2132107017
  0
ARC
  5
2DA
330
1F
100
AcDbEntity
  8
0
  6
Continuous
 62
     7
370
    25
100
AcDbCircle
 10
6159.0187553361
 20
4210.4483587715
 30
0.0
 40
5.250000000000563
100
AcDbArc
 50
278.2132107017
 51
81.7867892983
  0
LINE
  5
2DB
330
1F
100
AcDbEntity
  8
0
  6
Continuous
 62
     7
370
    25
100
AcDbLine
 10
6159.7687510446
 20
4205.2522010776
 30
0.0
 11
6159.7687510446
 21
4215.6445093128
 31
0.0
  0
ARC
  5
2DC
330
1F
100
AcDbEntity
  8
0
  6
Continuous
 62
     7
370
    25
100
AcDbCircle
 10
6159.0187553361
 20
4210.4483587715
 30
0.0
 40
5.250000000000563
100
AcDbArc
 50
98.2132107017
 51
261.7867892983
  0
LINE
  5
2DD
330
1F
100
AcDbEntity
  8
0
  6
Continuous
 62
     7
370
    25
100
AcDbLine
 10
6158.2687554553
 20
4215.6445093128
 30
0.0
 11
6158.2687554553
 21
4205.2522010776
 31
0.0
  0
ARC
  5
2DE
330
1F
100
AcDbEntity
  8
0
  6
Continuous
 62
     7
370
    25
100
AcDbCircle
 10
6159.0187553361
 20
4210.4483587715
 30
0.0
 40
5.250000000000563
100
AcDbArc
 50
81.7867892983
 51
98.2132107017
  0
ARC
  5
2DF
330
1F
100
AcDbEntity
  8
0
  6
Continuous
 62
     7
370
    25
100
AcDbCircle
 10
6159.0187553361
 20
4210.4483587715
 30
0.0
 40
5.249999999999662
100
AcDbArc
 50
261.7867892983
 51
278.2132107017
  0
ARC
  5
2E0
330
1F
100
AcDbEntity
  8
0
  6
Continuous
 62
     7
370
    25
100
AcDbCircle
 10
6389.0187553361
 20
4210.4483587715
 30
0.0
 40
15.00000000000101
100
AcDbArc
 50
10.5370490535
 51
49.4629509465
  0
ARC
  5
2E1
330
1F
100
AcDbEntity
  8
0
  6
Continuous
 62
     7
370
    25
100
AcDbCircle
 10
6389.0187553361
 20
4210.4483587715
 30
0.0
 40
15.00000000000064
100
AcDbArc
 50
70.5370490525
 51
109.4629509474
  0
ARC
  5
2E2
330
1F
100
AcDbEntity
  8
0
  6
Continuous
 62
     7
370
    25
100
AcDbCircle
 10
6389.0187553361
 20
4210.4483587715
 30
0.0
 40
15.00000000000057
100
AcDbArc
 50
130.5370490537
 51
169.4629509463
  0
ARC
  5
2E3
330
1F
100
AcDbEntity
  8
0
  6
Continuous
 62
     7
370
    25
100
AcDbCircle
 10
6389.0187553361
 20
4210.4483587715
 30
0.0
 40
14.99999999999988
100
AcDbArc
 50
190.5370490539
 51
229.4629509461
  0
ARC
  5
2E4
330
1F
100
AcDbEntity
  8
0
  6
Continuous
 62
     7
370
    25
100
AcDbCircle
 10
6389.0187553361
 20
4210.4483587715
 30
0.0
 40
15.0000000000002
100
AcDbArc
 50
250.5370490516
 51
289.4629509485
  0
ARC
  5
2E5
330
1F
100
AcDbEntity
  8
0
  6
Continuous
 62
     7
370
    25
100
AcDbCircle
 10
6389.0187553361
 20
4210.4483587715
 30
0.0
 40
15.00000000000012
100
AcDbArc
 50
310.537049053
 51
349.4629509471
  0
ARC
  5
2E6
330
1F
100
AcDbEntity
  8
0
  6
Continuous
 62
     7
370
    25
100
AcDbCircle
 10
6159.0187553361
 20
4210.4483587715
 30
0.0
 40
15.0
100
AcDbArc
 50
190.5370490545
 51
229.4629509456
  0
ARC
  5
2E7
330
1F
100
AcDbEntity
  8
0
  6
Continuous
 62
     7
370
    25
100
AcDbCircle
 10
6159.0187553361
 20
4210.4483587715
 30
0.0
 40
14.99999999999941
100
AcDbArc
 50
250.5370490538
 51
289.4629509462
  0
ARC
  5
2E8
330
1F
100
AcDbEntity
  8
0
  6
Continuous
 62
     7
370
    25
100
AcDbCircle
 10
6159.0187553361
 20
4210.4483587715
 30
0.0
 40
15.00000000000006
100
AcDbArc
 50
310.5370490541
 51
349.4629509459
  0
ARC
  5
2E9
330
1F
100
AcDbEntity
  8
0
  6
Continuous
 62
     7
370
    25
100
AcDbCircle
 10
6159.0187553361
 20
4210.4483587715
 30
0.0
 40
15.00000000000058
100
AcDbArc
 50
10.5370490537
 51
49.4629509463
  0
ARC
  5
2EA
330
1F
100
AcDbEntity
  8
0
  6
Continuous
 62
     7
370
    25
100
AcDbCircle
 10
6159.0187553361
 20
4210.4483587715
 30
0.0
 40
15.00000000000063
100
AcDbArc
 50
70.5370490537
 51
109.4629509463
  0
ARC
  5
2EB
330
1F
100
AcDbEntity
  8
0
  6
Continuous
 62
     7
370
    25
100
AcDbCircle
 10
6159.0187553361
 20
4210.4483587715
 30
0.0
 40
15.00000000000001
100
AcDbArc
 50
130.5370490543
 51
169.4629509458
  0
LINE
  5
2EC
330
1F
100
AcDbEntity
  8
0
  6
Continuous
 62
     7
370
    25
100
AcDbLine
 10
5674.0187612966
 20
4400.448352811
 30
0.0
 11
5674.0187612966
 21
4398.4483487579
 31
0.0
  0
LINE
  5
2ED
330
1F
100
AcDbEntity
  8
0
  6
Continuous
 62
     7
370
    25
100
AcDbLine
 10
6874.018779178
 20
4400.448352811
 30
0.0
 11
5674.0187612966
 21
4400.448352811
 31
0.0
  0
LINE
  5
2EE
330
1F
100
AcDbEntity
  8
0
  6
Continuous
 62
     7
370
    25
100
AcDbLine
 10
5674.0187612966
 20
4398.4483487579
 30
0.0
 11
6874.018779178
 21
4398.4483487579
 31
0.0
  0
LINE
  5
2EF
330
1F
100
AcDbEntity
  8
0
  6
Continuous
 62
     7
370
    25
100
AcDbLine
 10
6874.018779178
 20
4400.448352811
 30
0.0
 11
6874.018779178
 21
4398.4483487579
 31
0.0
  0
LINE
  5
2F0
330
1F
100
AcDbEntity
  8
0
  6
Continuous
 62
     7
370
    25
100
AcDbLine
 10
5676.0187653497
 20
3702.4483687851
 30
0.0
 11
6872.0187453225
 21
3702.4483687851
 31
0.0
  0
LINE
  5
2F1
330
1F
100
AcDbEntity
  8
0
  6
Continuous
 62
     7
370
    25
100
AcDbLine
 10
5676.0187653497
 20
4398.4483487579
 30
0.0
 11
5676.0187653497
 21
3702.4483687851
 31
0.0
  0
LINE
  5
2F2
330
1F
100
AcDbEntity
  8
0
  6
Continuous
 62
     7
370
    25
100
AcDbLine
 10
6872.0187453225
 20
4398.4483487579
 30
0.0
 11
6872.0187453225
 21
3702.4483687851
 31
0.0
  0
ARC
  5
2F3
330
1F
100
AcDbEntity
  8
0
  6
Continuous
 62
     7
370
    25
100
AcDbCircle
 10
5744.0187553361
 20
4324.4483587715
 30
0.0
 40
51.18033988749903
100
AcDbArc
 50
90.0
 51
180.0
  0
LINE
  5
2F4
330
1F
100
AcDbEntity
  8
0
  6
Continuous
 62
     7
370
    25
100
AcDbLine
 10
5692.8384212449
 20
3770.4483575794
 30
0.0
 11
5692.8384212449
 21
4324.4483478042
 31
0.0
  0
ARC
  5
2F5
330
1F
100
AcDbEntity
  8
0
  6
Continuous
 62
     7
370
    25
100
AcDbCircle
 10
5744.0187553361
 20
3770.4483587715
 30
0.0
 40
51.18033988749903
100
AcDbArc
 50
180.0
 51
270.0
  0
LINE
  5
2F6
330
1F
100
AcDbEntity
  8
0
  6
Continuous
 62
     7
370
    25
100
AcDbLine
 10
6804.0187267259
 20
3719.2680246803
 30
0.0
 11
5744.018754144
 21
3719.2680246803
 31
0.0
  0
ARC
  5
2F7
330
1F
100
AcDbEntity
  8
0
  6
Continuous
 62
     7
370
    25
100
AcDbCircle
 10
6804.0187553361
 20
3770.4483587715
 30
0.0
 40
51.18033988749903
100
AcDbArc
 50
270.0
 51
0.0
  0
LINE
  5
2F8
330
1F
100
AcDbEntity
  8
0
  6
Continuous
 62
     7
370
    25
100
AcDbLine
 10
6855.1990894273
 20
3770.4483575794
 30
0.0
 11
6855.1990894273
 21
4324.4483478042
 31
0.0
  0
ARC
  5
2F9
330
1F
100
AcDbEntity
  8
0
  6
Continuous
 62
     7
370
    25
100
AcDbCircle
 10
6804.0187553361
 20
4324.4483587715
 30
0.0
 40
51.18033988749903
100
AcDbArc
 50
0.0
 51
90.0
  0
LINE
  5
2FA
330
1F
100
AcDbEntity
  8
0
  6
Continuous
 62
     7
370
    25
100
AcDbLine
 10
5744.018754144
 20
4375.6287105056
 30
0.0
 11
6804.0187267259
 21
4375.6287105056
 31
0.0
  0
LINE
  5
2FB
330
1F
100
AcDbEntity
  8
0
  6
Continuous
 62
     7
370
    25
100
AcDbLine
 10
6872.0187453225
 20
3702.4483687851
 30
0.0
 11
6874.018779178
 21
3702.4483687851
 31
0.0
  0
LINE
  5
2FC
330
1F
100
AcDbEntity
  8
0
  6
Continuous
 62
     7
370
    25
100
AcDbLine
 10
6874.018779178
 20
3702.4483687851
 30
0.0
 11
6874.018779178
 21
4398.4483487579
 31
0.0
  0
ARC
  5
2FD
330
1F
100
AcDbEntity
  8
0
  6
Continuous
 62
     7
370
    25
100
AcDbCircle
 10
6804.0187553361
 20
4324.4483587715
 30
0.0
 40
48.94427190999977
100
AcDbArc
 50
0.0
 51
90.0
  0
LINE
  5
2FE
330
1F
100
AcDbEntity
  8
0
  6
Continuous
 62
     7
370
    25
100
AcDbLine
 10
6804.0187267259
 20
4373.3926422569
 30
0.0
 11
6804.0187267259
 21
4375.6287105056
 31
0.0
  0
LINE
  5
2FF
330
1F
100
AcDbEntity
  8
0
  6
Continuous
 62
     7
370
    25
100
AcDbLine
 10
6855.1990894273
 20
4324.4483478042
 30
0.0
 11
6852.9630211785
 21
4324.4483478042
 31
0.0
  0
LINE
  5
300
330
1F
100
AcDbEntity
  8
0
  6
Continuous
 62
     7
370
    25
100
AcDbLine
 10
5744.018754144
 20
4373.3926422569
 30
0.0
 11
5744.018754144
 21
4375.6287105056
 31
0.0
  0
LINE
  5
301
330
1F
100
AcDbEntity
  8
0
  6
Continuous
 62
     7
370
    25
100
AcDbLine
 10
6804.0187267259
 20
4373.3926422569
 30
0.0
 11
5744.018754144
 21
4373.3926422569
 31
0.0
  0
LINE
  5
302
330
1F
100
AcDbEntity
  8
0
  6
Continuous
 62
     7
370
    25
100
AcDbLine
 10
5676.0187653497
 20
3702.4483687851
 30
0.0
 11
5674.0187612966
 21
3702.4483687851
 31
0.0
  0
LINE
  5
303
330
1F
100
AcDbEntity
  8
0
  6
Continuous
 62
     7
370
    25
100
AcDbLine
 10
5674.0187612966
 20
3702.4483687851
 30
0.0
 11
5674.0187612966
 21
4398.4483487579
 31
0.0
  0
ARC
  5
304
330
1F
100
AcDbEntity
  8
0
  6
Continuous
 62
     7
370
    25
100
AcDbCircle
 10
5744.0187553361
 20
4324.4483587715
 30
0.0
 40
48.94427190999977
100
AcDbArc
 50
90.0
 51
180.0
  0
LINE
  5
305
330
1F
100
AcDbEntity
  8
0
  6
Continuous
 62
     7
370
    25
100
AcDbLine
 10
5692.8384212449
 20
4324.4483478042
 30
0.0
 11
5695.0744894937
 21
4324.4483478042
 31
0.0
  0
LINE
  5
306
330
1F
100
AcDbEntity
  8
0
  6
Continuous
 62
     7
370
    25
100
AcDbLine
 10
6852.9630211785
 20
4324.4483478042
 30
0.0
 11
6852.9630211785
 21
3770.4483575794
 31
0.0
  0
LINE
  5
307
330
1F
100
AcDbEntity
  8
0
  6
Continuous
 62
     7
370
    25
100
AcDbLine
 10
6855.1990894273
 20
3770.4483575794
 30
0.0
 11
6852.9630211785
 21
3770.4483575794
 31
0.0
  0
LINE
  5
308
330
1F
100
AcDbEntity
  8
0
  6
Continuous
 62
     7
370
    25
100
AcDbLine
 10
5695.0744894937
 20
4324.4483478042
 30
0.0
 11
5695.0744894937
 21
3770.4483575794
 31
0.0
  0
LINE
  5
309
330
1F
100
AcDbEntity
  8
0
  6
Continuous
 62
     7
370
    25
100
AcDbLine
 10
5692.8384212449
 20
3770.4483575794
 30
0.0
 11
5695.0744894937
 21
3770.4483575794
 31
0.0
  0
ARC
  5
30A
330
1F
100
AcDbEntity
  8
0
  6
Continuous
 62
     7
370
    25
100
AcDbCircle
 10
6804.0187553361
 20
3770.4483587715
 30
0.0
 40
48.94427190999977
100
AcDbArc
 50
270.0
 51
0.0
  0
LINE
  5
30B
330
1F
100
AcDbEntity
  8
0
  6
Continuous
 62
     7
370
    25
100
AcDbLine
 10
6804.0187267259
 20
3719.2680246803
 30
0.0
 11
6804.0187267259
 21
3721.504092929
 31
0.0
  0
ARC
  5
30C
330
1F
100
AcDbEntity
  8
0
  6
Continuous
 62
     7
370
    25
100
AcDbCircle
 10
5744.0187553361
 20
3770.4483587715
 30
0.0
 40
48.94427190999932
100
AcDbArc
 50
180.0
 51
270.0
  0
LINE
  5
30D
330
1F
100
AcDbEntity
  8
0
  6
Continuous
 62
     7
370
    25
100
AcDbLine
 10
5744.018754144
 20
3719.2680246803
 30
0.0
 11
5744.018754144
 21
3721.504092929
 31
0.0
  0
LINE
  5
30E
330
1F
100
AcDbEntity
  8
0
  6
Continuous
 62
     7
370
    25
100
AcDbLine
 10
5744.018754144
 20
3721.504092929
 30
0.0
 11
6804.0187267259
 21
3721.504092929
 31
0.0
  0
LINE
  5
30F
330
1F
100
AcDbEntity
  8
0
  6
Continuous
 62
     7
370
    25
100
AcDbLine
 10
5676.0187653497
 20
3700.4483647319
 30
0.0
 11
5676.0187653497
 21
3702.4483687851
 31
0.0
  0
LINE
  5
310
330
1F
100
AcDbEntity
  8
0
  6
Continuous
 62
     7
370
    25
100
AcDbLine
 10
6872.0187453225
 20
3700.4483647319
 30
0.0
 11
6872.0187453225
 21
3702.4483687851
 31
0.0
  0
LINE
  5
311
330
1F
100
AcDbEntity
  8
0
  6
Continuous
 62
     7
370
    25
100
AcDbLine
 10
6872.0187453225
 20
3700.4483647319
 30
0.0
 11
5676.0187653497
 21
3700.4483647319
 31
0.0
  0
ARC
  5
312
330
1F
100
AcDbEntity
  8
0
  6
Continuous
 62
     7
370
    25
100
AcDbCircle
 10
6872.0187553361
 20
3702.4483587715
 30
0.0
 40
2.0
100
AcDbArc
 50
270.0
 51
0.0
  0
ARC
  5
313
330
1F
100
AcDbEntity
  8
0
  6
Continuous
 62
     7
370
    25
100
AcDbCircle
 10
5676.0187553361
 20
3702.4483587715
 30
0.0
 40
2.000000000000909
100
AcDbArc
 50
180.0
 51
270.0
  0
LINE
  5
314
330
1F
100
AcDbEntity
  8
0
  6
Continuous
 62
     7
370
    25
100
AcDbLine
 10
6845.0744656518
 20
4324.4483478042
 30
0.0
 11
6852.9630211785
 21
4324.4483478042
 31
0.0
  0
ARC
  5
315
330
1F
100
AcDbEntity
  8
0
  6
Continuous
 62
     7
370
    25
100
AcDbCircle
 10
6804.0187553361
 20
4324.4483587715
 30
0.0
 40
41.05572809000114
100
AcDbArc
 50
0.0
 51
90.0
  0
LINE
  5
316
330
1F
100
AcDbEntity
  8
0
  6
Continuous
 62
     7
370
    25
100
AcDbLine
 10
6804.0187267259
 20
4365.5040867302
 30
0.0
 11
6804.0187267259
 21
4373.3926422569
 31
0.0
  0
LINE
  5
317
330
1F
100
AcDbEntity
  8
0
  6
Continuous
 62
     7
370
    25
100
AcDbLine
 10
5744.018754144
 20
4365.5040867302
 30
0.0
 11
5744.018754144
 21
4373.3926422569
 31
0.0
  0
LINE
  5
318
330
1F
100
AcDbEntity
  8
0
  6
Continuous
 62
     7
370
    25
100
AcDbLine
 10
5744.018754144
 20
4365.5040867302
 30
0.0
 11
6804.0187267259
 21
4365.5040867302
 31
0.0
  0
ARC
  5
319
330
1F
100
AcDbEntity
  8
0
  6
Continuous
 62
     7
370
    25
100
AcDbCircle
 10
5744.0187553361
 20
4324.4483587715
 30
0.0
 40
41.05572809000114
100
AcDbArc
 50
90.0
 51
180.0
  0
LINE
  5
31A
330
1F
100
AcDbEntity
  8
0
  6
Continuous
 62
     7
370
    25
100
AcDbLine
 10
5702.9630152181
 20
4324.4483478042
 30
0.0
 11
5695.0744894937
 21
4324.4483478042
 31
0.0
  0
LINE
  5
31B
330
1F
100
AcDbEntity
  8
0
  6
Continuous
 62
     7
370
    25
100
AcDbLine
 10
6845.0744656518
 20
3770.4483575794
 30
0.0
 11
6852.9630211785
 21
3770.4483575794
 31
0.0
  0
LINE
  5
31C
330
1F
100
AcDbEntity
  8
0
  6
Continuous
 62
     7
370
    25
100
AcDbLine
 10
6845.0744656518
 20
3770.4483575794
 30
0.0
 11
6845.0744656518
 21
4324.4483478042
 31
0.0
  0
LINE
  5
31D
330
1F
100
AcDbEntity
  8
0
  6
Continuous
 62
     7
370
    25
100
AcDbLine
 10
5702.9630152181
 20
3770.4483575794
 30
0.0
 11
5702.9630152181
 21
4324.4483478042
 31
0.0
  0
LINE
  5
31E
330
1F
100
AcDbEntity
  8
0
  6
Continuous
 62
     7
370
    25
100
AcDbLine
 10
5702.9630152181
 20
3770.4483575794
 30
0.0
 11
5695.0744894937
 21
3770.4483575794
 31
0.0
  0
LINE
  5
31F
330
1F
100
AcDbEntity
  8
0
  6
Continuous
 62
     7
370
    25
100
AcDbLine
 10
6804.0187267259
 20
3729.3926186535
 30
0.0
 11
6804.0187267259
 21
3721.504092929
 31
0.0
  0
ARC
  5
320
330
1F
100
AcDbEntity
  8
0
  6
Continuous
 62
     7
370
    25
100
AcDbCircle
 10
6804.0187553361
 20
3770.4483587715
 30
0.0
 40
41.05572809000114
100
AcDbArc
 50
270.0
 51
0.0
  0
ARC
  5
321
330
1F
100
AcDbEntity
  8
0
  6
Continuous
 62
     7
370
    25
100
AcDbCircle
 10
5744.0187553361
 20
3770.4483587715
 30
0.0
 40
41.05572809000114
100
AcDbArc
 50
180.0
 51
270.0
  0
LINE
  5
322
330
1F
100
AcDbEntity
  8
0
  6
Continuous
 62
     7
370
    25
100
AcDbLine
 10
5744.018754144
 20
3729.3926186535
 30
0.0
 11
5744.018754144
 21
3721.504092929
 31
0.0
  0
LINE
  5
323
330
1F
100
AcDbEntity
  8
0
  6
Continuous
 62
     7
370
    25
100
AcDbLine
 10
6804.0187267259
 20
3729.3926186535
 30
0.0
 11
5744.018754144
 21
3729.3926186535
 31
0.0
  0
ARC
  5
324
330
1F
100
AcDbEntity
  8
0
  6
Continuous
 62
     7
370
    25
100
AcDbCircle
 10
6804.0187553361
 20
4324.4483587715
 30
0.0
 40
38.81966011250188
100
AcDbArc
 50
0.0
 51
90.0
  0
LINE
  5
325
330
1F
100
AcDbEntity
  8
0
  6
Continuous
 62
     7
370
    25
100
AcDbLine
 10
6804.0187267259
 20
4365.5040867302
 30
0.0
 11
6804.0187267259
 21
4363.2680184814
 31
0.0
  0
LINE
  5
326
330
1F
100
AcDbEntity
  8
0
  6
Continuous
 62
     7
370
    25
100
AcDbLine
 10
6845.0744656518
 20
4324.4483478042
 30
0.0
 11
6842.8383974031
 21
4324.4483478042
 31
0.0
  0
LINE
  5
327
330
1F
100
AcDbEntity
  8
0
  6
Continuous
 62
     7
370
    25
100
AcDbLine
 10
5744.018754144
 20
4365.5040867302
 30
0.0
 11
5744.018754144
 21
4363.2680184814
 31
0.0
  0
LINE
  5
328
330
1F
100
AcDbEntity
  8
0
  6
Continuous
 62
     7
370
    25
100
AcDbLine
 10
6804.0187267259
 20
4363.2680184814
 30
0.0
 11
5744.018754144
 21
4363.2680184814
 31
0.0
  0
ARC
  5
329
330
1F
100
AcDbEntity
  8
0
  6
Continuous
 62
     7
370
    25
100
AcDbCircle
 10
5744.0187553361
 20
4324.4483587715
 30
0.0
 40
38.81966011250188
100
AcDbArc
 50
90.0
 51
180.0
  0
LINE
  5
32A
330
1F
100
AcDbEntity
  8
0
  6
Continuous
 62
     7
370
    25
100
AcDbLine
 10
5702.9630152181
 20
4324.4483478042
 30
0.0
 11
5705.1990834668
 21
4324.4483478042
 31
0.0
  0
LINE
  5
32B
330
1F
100
AcDbEntity
  8
0
  6
Continuous
 62
     7
370
    25
100
AcDbLine
 10
6842.8383974031
 20
4324.4483478042
 30
0.0
 11
6842.8383974031
 21
3770.4483575794
 31
0.0
  0
LINE
  5
32C
330
1F
100
AcDbEntity
  8
0
  6
Continuous
 62
     7
370
    25
100
AcDbLine
 10
6845.0744656518
 20
3770.4483575794
 30
0.0
 11
6842.8383974031
 21
3770.4483575794
 31
0.0
  0
LINE
  5
32D
330
1F
100
AcDbEntity
  8
0
  6
Continuous
 62
     7
370
    25
100
AcDbLine
 10
5705.1990834668
 20
4324.4483478042
 30
0.0
 11
5705.1990834668
 21
3770.4483575794
 31
0.0
  0
LINE
  5
32E
330
1F
100
AcDbEntity
  8
0
  6
Continuous
 62
     7
370
    25
100
AcDbLine
 10
5702.9630152181
 20
3770.4483575794
 30
0.0
 11
5705.1990834668
 21
3770.4483575794
 31
0.0
  0
LINE
  5
32F
330
1F
100
AcDbEntity
  8
0
  6
Continuous
 62
     7
370
    25
100
AcDbLine
 10
6804.0187267259
 20
3731.6286869022
 30
0.0
 11
6804.0187267259
 21
3729.3926186535
 31
0.0
  0
ARC
  5
330
330
1F
100
AcDbEntity
  8
0
  6
Continuous
 62
     7
370
    25
100
AcDbCircle
 10
6804.0187553361
 20
3770.4483587715
 30
0.0
 40
38.81966011250097
100
AcDbArc
 50
270.0
 51
0.0
  0
ARC
  5
331
330
1F
100
AcDbEntity
  8
0
  6
Continuous
 62
     7
370
    25
100
AcDbCircle
 10
5744.0187553361
 20
3770.4483587715
 30
0.0
 40
38.81966011250097
100
AcDbArc
 50
180.0
 51
270.0
  0
LINE
  5
332
330
1F
100
AcDbEntity
  8
0
  6
Continuous
 62
     7
370
    25
100
AcDbLine
 10
5744.018754144
 20
3731.6286869022
 30
0.0
 11
5744.018754144
 21
3729.3926186535
 31
0.0
  0
LINE
  5
333
330
1F
100
AcDbEntity
  8
0
  6
Continuous
 62
     7
370
    25
100
AcDbLine
 10
5744.018754144
 20
3731.6286869022
 30
0.0
 11
6804.0187267259
 21
3731.6286869022
 31
0.0
  0
ARC
  5
334
330
1F
100
AcDbEntity
  8
0
  6
Continuous
 62
     7
370
    25
100
AcDbCircle
 10
6709.0187553361
 20
4210.4483587715
 30
0.0
 40
95.00000000000091
100
AcDbArc
 50
0.0
 51
90.0
  0
LINE
  5
335
330
1F
100
AcDbEntity
  8
0
  6
Continuous
 62
     7
370
    25
100
AcDbLine
 10
6709.0187577203
 20
4305.4483540031
 30
0.0
 11
6389.0187648728
 21
4305.4483540031
 31
0.0
  0
ARC
  5
336
330
1F
100
AcDbEntity
  8
0
  6
Continuous
 62
     7
370
    25
100
AcDbCircle
 10
6389.0187553361
 20
4210.4483587715
 30
0.0
 40
95.00000000000091
100
AcDbArc
 50
90.0
 51
180.0
  0
LINE
  5
337
330
1F
100
AcDbEntity
  8
0
  6
Continuous
 62
     7
370
    25
100
AcDbLine
 10
6294.0187660649
 20
4210.4483551952
 30
0.0
 11
6294.0187660649
 21
3890.4483623478
 31
0.0
  0
ARC
  5
338
330
1F
100
AcDbEntity
  8
0
  6
Continuous
 62
     7
370
    25
100
AcDbCircle
 10
6389.0187553361
 20
3890.4483587715
 30
0.0
 40
95.0
100
AcDbArc
 50
180.0
 51
270.0
  0
LINE
  5
339
330
1F
100
AcDbEntity
  8
0
  6
Continuous
 62
     7
370
    25
100
AcDbLine
 10
6389.0187648728
 20
3795.4483635398
 30
0.0
 11
6709.0187577203
 21
3795.4483635398
 31
0.0
  0
ARC
  5
33A
330
1F
100
AcDbEntity
  8
0
  6
Continuous
 62
     7
370
    25
100
AcDbCircle
 10
6709.0187553361
 20
3890.4483587715
 30
0.0
 40
95.0
100
AcDbArc
 50
270.0
 51
0.0
  0
LINE
  5
33B
330
1F
100
AcDbEntity
  8
0
  6
Continuous
 62
     7
370
    25
100
AcDbLine
 10
6804.0187267259
 20
3890.4483623478
 30
0.0
 11
6804.0187267259
 21
4210.4483551952
 31
0.0
  0
ARC
  5
33C
330
1F
100
AcDbEntity
  8
0
  6
Continuous
 62
     7
370
    25
100
AcDbCircle
 10
5839.0187553361
 20
3890.4483587715
 30
0.0
 40
95.0
100
AcDbArc
 50
180.0
 51
270.0
  0
LINE
  5
33D
330
1F
100
AcDbEntity
  8
0
  6
Continuous
 62
     7
370
    25
100
AcDbLine
 10
6159.0187607005
 20
3795.4483635398
 30
0.0
 11
5839.0187529519
 21
3795.4483635398
 31
0.0
  0
ARC
  5
33E
330
1F
100
AcDbEntity
  8
0
  6
Continuous
 62
     7
370
    25
100
AcDbCircle
 10
6159.0187553361
 20
3890.4483587715
 30
0.0
 40
95.0
100
AcDbArc
 50
270.0
 51
0.0
  0
LINE
  5
33F
330
1F
100
AcDbEntity
  8
0
  6
Continuous
 62
     7
370
    25
100
AcDbLine
 10
6254.0187595084
 20
4210.4483551952
 30
0.0
 11
6254.0187595084
 21
3890.4483623478
 31
0.0
  0
ARC
  5
340
330
1F
100
AcDbEntity
  8
0
  6
Continuous
 62
     7
370
    25
100
AcDbCircle
 10
6159.0187553361
 20
4210.4483587715
 30
0.0
 40
95.00000000000091
100
AcDbArc
 50
0.0
 51
90.0
  0
LINE
  5
341
330
1F
100
AcDbEntity
  8
0
  6
Continuous
 62
     7
370
    25
100
AcDbLine
 10
5839.0187529519
 20
4305.4483540031
 30
0.0
 11
6159.0187607005
 21
4305.4483540031
 31
0.0
  0
ARC
  5
342
330
1F
100
AcDbEntity
  8
0
  6
Continuous
 62
     7
370
    25
100
AcDbCircle
 10
5839.0187553361
 20
4210.4483587715
 30
0.0
 40
95.00000000000091
100
AcDbArc
 50
90.0
 51
180.0
  0
LINE
  5
343
330
1F
100
AcDbEntity
  8
0
  6
Continuous
 62
     7
370
    25
100
AcDbLine
 10
5744.018754144
 20
3890.4483623478
 30
0.0
 11
5744.018754144
 21
4210.4483551952
 31
0.0
  0
ARC
  5
344
330
1F
100
AcDbEntity
  8
0
  6
Continuous
 62
     7
370
    25
100
AcDbCircle
 10
6709.0187553361
 20
4210.4483587715
 30
0.0
 40
90.0
100
AcDbArc
 50
0.0
 51
90.0
  0
LINE
  5
345
330
1F
100
AcDbEntity
  8
0
  6
Continuous
 62
     7
370
    25
100
AcDbLine
 10
6709.0187577203
 20
4300.4483587715
 30
0.0
 11
6709.0187577203
 21
4305.4483540031
 31
0.0
  0
LINE
  5
346
330
1F
100
AcDbEntity
  8
0
  6
Continuous
 62
     7
370
    25
100
AcDbLine
 10
6804.0187267259
 20
4210.4483551952
 30
0.0
 11
6799.0187314942
 21
4210.4483551952
 31
0.0
  0
LINE
  5
347
330
1F
100
AcDbEntity
  8
0
  6
Continuous
 62
     7
370
    25
100
AcDbLine
 10
6389.0187648728
 20
4300.4483587715
 30
0.0
 11
6709.0187577203
 21
4300.4483587715
 31
0.0
  0
LINE
  5
348
330
1F
100
AcDbEntity
  8
0
  6
Continuous
 62
     7
370
    25
100
AcDbLine
 10
6389.0187648728
 20
4300.4483587715
 30
0.0
 11
6389.0187648728
 21
4305.4483540031
 31
0.0
  0
ARC
  5
349
330
1F
100
AcDbEntity
  8
0
  6
Continuous
 62
     7
370
    25
100
AcDbCircle
 10
6389.0187553361
 20
4210.4483587715
 30
0.0
 40
90.00000000000091
100
AcDbArc
 50
90.0
 51
180.0
  0
LINE
  5
34A
330
1F
100
AcDbEntity
  8
0
  6
Continuous
 62
     7
370
    25
100
AcDbLine
 10
6299.0187612966
 20
4210.4483551952
 30
0.0
 11
6294.0187660649
 21
4210.4483551952
 31
0.0
  0
LINE
  5
34B
330
1F
100
AcDbEntity
  8
0
  6
Continuous
 62
     7
370
    25
100
AcDbLine
 10
5839.0187529519
 20
4300.4483587715
 30
0.0
 11
5839.0187529519
 21
4305.4483540031
 31
0.0
  0
ARC
  5
34C
330
1F
100
AcDbEntity
  8
0
  6
Continuous
 62
     7
370
    25
100
AcDbCircle
 10
5839.0187553361
 20
4210.4483587715
 30
0.0
 40
90.0
100
AcDbArc
 50
90.0
 51
180.0
  0
LINE
  5
34D
330
1F
100
AcDbEntity
  8
0
  6
Continuous
 62
     7
370
    25
100
AcDbLine
 10
5744.018754144
 20
4210.4483551952
 30
0.0
 11
5749.0187493756
 21
4210.4483551952
 31
0.0
  0
LINE
  5
34E
330
1F
100
AcDbEntity
  8
0
  6
Continuous
 62
     7
370
    25
100
AcDbLine
 10
6159.0187607005
 20
4300.4483587715
 30
0.0
 11
5839.0187529519
 21
4300.4483587715
 31
0.0
  0
LINE
  5
34F
330
1F
100
AcDbEntity
  8
0
  6
Continuous
 62
     7
370
    25
100
AcDbLine
 10
6159.0187607005
 20
4300.4483587715
 30
0.0
 11
6159.0187607005
 21
4305.4483540031
 31
0.0
  0
ARC
  5
350
330
1F
100
AcDbEntity
  8
0
  6
Continuous
 62
     7
370
    25
100
AcDbCircle
 10
6159.0187553361
 20
4210.4483587715
 30
0.0
 40
90.00000000000091
100
AcDbArc
 50
0.0
 51
90.0
  0
LINE
  5
351
330
1F
100
AcDbEntity
  8
0
  6
Continuous
 62
     7
370
    25
100
AcDbLine
 10
6249.0187493756
 20
4210.4483551952
 30
0.0
 11
6254.0187595084
 21
4210.4483551952
 31
0.0
  0
LINE
  5
352
330
1F
100
AcDbEntity
  8
0
  6
Continuous
 62
     7
370
    25
100
AcDbLine
 10
6799.0187314942
 20
4210.4483551952
 30
0.0
 11
6799.0187314942
 21
3890.4483623478
 31
0.0
  0
LINE
  5
353
330
1F
100
AcDbEntity
  8
0
  6
Continuous
 62
     7
370
    25
100
AcDbLine
 10
6804.0187267259
 20
3890.4483623478
 30
0.0
 11
6799.0187314942
 21
3890.4483623478
 31
0.0
  0
LINE
  5
354
330
1F
100
AcDbEntity
  8
0
  6
Continuous
 62
     7
370
    25
100
AcDbLine
 10
6299.0187612966
 20
3890.4483623478
 30
0.0
 11
6299.0187612966
 21
4210.4483551952
 31
0.0
  0
LINE
  5
355
330
1F
100
AcDbEntity
  8
0
  6
Continuous
 62
     7
370
    25
100
AcDbLine
 10
6299.0187612966
 20
3890.4483623478
 30
0.0
 11
6294.0187660649
 21
3890.4483623478
 31
0.0
  0
LINE
  5
356
330
1F
100
AcDbEntity
  8
0
  6
Continuous
 62
     7
370
    25
100
AcDbLine
 10
6249.0187493756
 20
3890.4483623478
 30
0.0
 11
6249.0187493756
 21
4210.4483551952
 31
0.0
  0
LINE
  5
357
330
1F
100
AcDbEntity
  8
0
  6
Continuous
 62
     7
370
    25
100
AcDbLine
 10
6249.0187493756
 20
3890.4483623478
 30
0.0
 11
6254.0187595084
 21
3890.4483623478
 31
0.0
  0
LINE
  5
358
330
1F
100
AcDbEntity
  8
0
  6
Continuous
 62
     7
370
    25
100
AcDbLine
 10
5749.0187493756
 20
4210.4483551952
 30
0.0
 11
5749.0187493756
 21
3890.4483623478
 31
0.0
  0
LINE
  5
359
330
1F
100
AcDbEntity
  8
0
  6
Continuous
 62
     7
370
    25
100
AcDbLine
 10
5744.018754144
 20
3890.4483623478
 30
0.0
 11
5749.0187493756
 21
3890.4483623478
 31
0.0
  0
ARC
  5
35A
330
1F
100
AcDbEntity
  8
0
  6
Continuous
 62
     7
370
    25
100
AcDbCircle
 10
6709.0187553361
 20
3890.4483587715
 30
0.0
 40
90.0
100
AcDbArc
 50
270.0
 51
0.0
  0
LINE
  5
35B
330
1F
100
AcDbEntity
  8
0
  6
Continuous
 62
     7
370
    25
100
AcDbLine
 10
6709.0187577203
 20
3795.4483635398
 30
0.0
 11
6709.0187577203
 21
3800.4483587715
 31
0.0
  0
ARC
  5
35C
330
1F
100
AcDbEntity
  8
0
  6
Continuous
 62
     7
370
    25
100
AcDbCircle
 10
6389.0187553361
 20
3890.4483587715
 30
0.0
 40
90.0
100
AcDbArc
 50
180.0
 51
270.0
  0
LINE
  5
35D
330
1F
100
AcDbEntity
  8
0
  6
Continuous
 62
     7
370
    25
100
AcDbLine
 10
6389.0187648728
 20
3795.4483635398
 30
0.0
 11
6389.0187648728
 21
3800.4483587715
 31
0.0
  0
ARC
  5
35E
330
1F
100
AcDbEntity
  8
0
  6
Continuous
 62
     7
370
    25
100
AcDbCircle
 10
5839.0187553361
 20
3890.4483587715
 30
0.0
 40
90.0
100
AcDbArc
 50
180.0
 51
270.0
  0
LINE
  5
35F
330
1F
100
AcDbEntity
  8
0
  6
Continuous
 62
     7
370
    25
100
AcDbLine
 10
5839.0187529519
 20
3795.4483635398
 30
0.0
 11
5839.0187529519
 21
3800.4483587715
 31
0.0
  0
LINE
  5
360
330
1F
100
AcDbEntity
  8
0
  6
Continuous
 62
     7
370
    25
100
AcDbLine
 10
6159.0187607005
 20
3795.4483635398
 30
0.0
 11
6159.0187607005
 21
3800.4483587715
 31
0.0
  0
ARC
  5
361
330
1F
100
AcDbEntity
  8
0
  6
Continuous
 62
     7
370
    25
100
AcDbCircle
 10
6159.0187553361
 20
3890.4483587715
 30
0.0
 40
90.0
100
AcDbArc
 50
270.0
 51
0.0
  0
LINE
  5
362
330
1F
100
AcDbEntity
  8
0
  6
Continuous
 62
     7
370
    25
100
AcDbLine
 10
6709.0187577203
 20
3800.4483587715
 30
0.0
 11
6389.0187648728
 21
3800.4483587715
 31
0.0
  0
LINE
  5
363
330
1F
100
AcDbEntity
  8
0
  6
Continuous
 62
     7
370
    25
100
AcDbLine
 10
5839.0187529519
 20
3800.4483587715
 30
0.0
 11
6159.0187607005
 21
3800.4483587715
 31
0.0
  0
LINE
  5
364
330
1F
100
AcDbEntity
  8
0
  6
Continuous
 62
     7
370
    25
100
AcDbLine
 10
6389.0187648728
 20
4260.448352215
 30
0.0
 11
6709.0187577203
 21
4260.448352215
 31
0.0
  0
LINE
  5
365
330
1F
100
AcDbEntity
  8
0
  6
Continuous
 62
     7
370
    25
100
AcDbLine
 10
6389.0187648728
 20
4300.4483587715
 30
0.0
 11
6389.0187648728
 21
4260.448352215
 31
0.0
  0
LINE
  5
366
330
1F
100
AcDbEntity
  8
0
  6
Continuous
 62
     7
370
    25
100
AcDbLine
 10
6709.0187577203
 20
4300.4483587715
 30
0.0
 11
6709.0187577203
 21
4260.448352215
 31
0.0
  0
LINE
  5
367
330
1F
100
AcDbEntity
  8
0
  6
Continuous
 62
     7
370
    25
100
AcDbLine
 10
6759.0187696412
 20
4210.4483551952
 30
0.0
 11
6799.0187314942
 21
4210.4483551952
 31
0.0
  0
ARC
  5
368
330
1F
100
AcDbEntity
  8
0
  6
Continuous
 62
     7
370
    25
100
AcDbCircle
 10
6709.0187553361
 20
4210.4483587715
 30
0.0
 40
50.0
100
AcDbArc
 50
0.0
 51
90.0
  0
ARC
  5
369
330
1F
100
AcDbEntity
  8
0
  6
Continuous
 62
     7
370
    25
100
AcDbCircle
 10
5839.0187553361
 20
4210.4483587715
 30
0.0
 40
50.0
100
AcDbArc
 50
90.0
 51
180.0
  0
LINE
  5
36A
330
1F
100
AcDbEntity
  8
0
  6
Continuous
 62
     7
370
    25
100
AcDbLine
 10
5789.0187559321
 20
4210.4483551952
 30
0.0
 11
5749.0187493756
 21
4210.4483551952
 31
0.0
  0
LINE
  5
36B
330
1F
100
AcDbEntity
  8
0
  6
Continuous
 62
     7
370
    25
100
AcDbLine
 10
5839.0187529519
 20
4300.4483587715
 30
0.0
 11
5839.0187529519
 21
4260.448352215
 31
0.0
  0
LINE
  5
36C
330
1F
100
AcDbEntity
  8
0
  6
Continuous
 62
     7
370
    25
100
AcDbLine
 10
6249.0187493756
 20
4210.4483551952
 30
0.0
 11
6209.0187577203
 21
4210.4483551952
 31
0.0
  0
ARC
  5
36D
330
1F
100
AcDbEntity
  8
0
  6
Continuous
 62
     7
370
    25
100
AcDbCircle
 10
6159.0187553361
 20
4210.4483587715
 30
0.0
 40
50.00000000000091
100
AcDbArc
 50
0.0
 51
90.0
  0
LINE
  5
36E
330
1F
100
AcDbEntity
  8
0
  6
Continuous
 62
     7
370
    25
100
AcDbLine
 10
6159.0187607005
 20
4300.4483587715
 30
0.0
 11
6159.0187607005
 21
4260.448352215
 31
0.0
  0
ARC
  5
36F
330
1F
100
AcDbEntity
  8
0
  6
Continuous
 62
     7
370
    25
100
AcDbCircle
 10
6389.0187553361
 20
4210.4483587715
 30
0.0
 40
50.00000000000091
100
AcDbArc
 50
90.0
 51
180.0
  0
LINE
  5
370
330
1F
100
AcDbEntity
  8
0
  6
Continuous
 62
     7
370
    25
100
AcDbLine
 10
6299.0187612966
 20
4210.4483551952
 30
0.0
 11
6339.0187529519
 21
4210.4483551952
 31
0.0
  0
LINE
  5
371
330
1F
100
AcDbEntity
  8
0
  6
Continuous
 62
     7
370
    25
100
AcDbLine
 10
6159.0187607005
 20
4260.448352215
 30
0.0
 11
5839.0187529519
 21
4260.448352215
 31
0.0
  0
LINE
  5
372
330
1F
100
AcDbEntity
  8
0
  6
Continuous
 62
     7
370
    25
100
AcDbLine
 10
6759.0187696412
 20
3890.4483623478
 30
0.0
 11
6799.0187314942
 21
3890.4483623478
 31
0.0
  0
LINE
  5
373
330
1F
100
AcDbEntity
  8
0
  6
Continuous
 62
     7
370
    25
100
AcDbLine
 10
6759.0187696412
 20
4210.4483551952
 30
0.0
 11
6759.0187696412
 21
3890.4483623478
 31
0.0
  0
LINE
  5
374
330
1F
100
AcDbEntity
  8
0
  6
Continuous
 62
     7
370
    25
100
AcDbLine
 10
5789.0187559321
 20
4210.4483551952
 30
0.0
 11
5789.0187559321
 21
3890.4483623478
 31
0.0
  0
LINE
  5
375
330
1F
100
AcDbEntity
  8
0
  6
Continuous
 62
     7
370
    25
100
AcDbLine
 10
5789.0187559321
 20
3890.4483623478
 30
0.0
 11
5749.0187493756
 21
3890.4483623478
 31
0.0
  0
LINE
  5
376
330
1F
100
AcDbEntity
  8
0
  6
Continuous
 62
     7
370
    25
100
AcDbLine
 10
6339.0187529519
 20
3890.4483623478
 30
0.0
 11
6339.0187529519
 21
4210.4483551952
 31
0.0
  0
LINE
  5
377
330
1F
100
AcDbEntity
  8
0
  6
Continuous
 62
     7
370
    25
100
AcDbLine
 10
6299.0187612966
 20
3890.4483623478
 30
0.0
 11
6339.0187529519
 21
3890.4483623478
 31
0.0
  0
LINE
  5
378
330
1F
100
AcDbEntity
  8
0
  6
Continuous
 62
     7
370
    25
100
AcDbLine
 10
6249.0187493756
 20
3890.4483623478
 30
0.0
 11
6209.0187577203
 21
3890.4483623478
 31
0.0
  0
LINE
  5
379
330
1F
100
AcDbEntity
  8
0
  6
Continuous
 62
     7
370
    25
100
AcDbLine
 10
6209.0187577203
 20
3890.4483623478
 30
0.0
 11
6209.0187577203
 21
4210.4483551952
 31
0.0
  0
LINE
  5
37A
330
1F
100
AcDbEntity
  8
0
  6
Continuous
 62
     7
370
    25
100
AcDbLine
 10
6709.0187577203
 20
3840.448365328
 30
0.0
 11
6709.0187577203
 21
3800.4483587715
 31
0.0
  0
ARC
  5
37B
330
1F
100
AcDbEntity
  8
0
  6
Continuous
 62
     7
370
    25
100
AcDbCircle
 10
6709.0187553361
 20
3890.4483587715
 30
0.0
 40
50.0
100
AcDbArc
 50
270.0
 51
0.0
  0
ARC
  5
37C
330
1F
100
AcDbEntity
  8
0
  6
Continuous
 62
     7
370
    25
100
AcDbCircle
 10
5839.0187553361
 20
3890.4483587715
 30
0.0
 40
50.0
100
AcDbArc
 50
180.0
 51
270.0
  0
LINE
  5
37D
330
1F
100
AcDbEntity
  8
0
  6
Continuous
 62
     7
370
    25
100
AcDbLine
 10
5839.0187529519
 20
3840.448365328
 30
0.0
 11
5839.0187529519
 21
3800.4483587715
 31
0.0
  0
ARC
  5
37E
330
1F
100
AcDbEntity
  8
0
  6
Continuous
 62
     7
370
    25
100
AcDbCircle
 10
6159.0187553361
 20
3890.4483587715
 30
0.0
 40
50.0
100
AcDbArc
 50
270.0
 51
0.0
  0
LINE
  5
37F
330
1F
100
AcDbEntity
  8
0
  6
Continuous
 62
     7
370
    25
100
AcDbLine
 10
6159.0187607005
 20
3840.448365328
 30
0.0
 11
6159.0187607005
 21
3800.4483587715
 31
0.0
  0
ARC
  5
380
330
1F
100
AcDbEntity
  8
0
  6
Continuous
 62
     7
370
    25
100
AcDbCircle
 10
6389.0187553361
 20
3890.4483587715
 30
0.0
 40
50.0
100
AcDbArc
 50
180.0
 51
270.0
  0
LINE
  5
381
330
1F
100
AcDbEntity
  8
0
  6
Continuous
 62
     7
370
    25
100
AcDbLine
 10
6389.0187648728
 20
3840.448365328
 30
0.0
 11
6389.0187648728
 21
3800.4483587715
 31
0.0
  0
LINE
  5
382
330
1F
100
AcDbEntity
  8
0
  6
Continuous
 62
     7
370
    25
100
AcDbLine
 10
6709.0187577203
 20
3840.448365328
 30
0.0
 11
6389.0187648728
 21
3840.448365328
 31
0.0
  0
LINE
  5
383
330
1F
100
AcDbEntity
  8
0
  6
Continuous
 62
     7
370
    25
100
AcDbLine
 10
5839.0187529519
 20
3840.448365328
 30
0.0
 11
6159.0187607005
 21
3840.448365328
 31
0.0
  0
CIRCLE
  5
384
330
1F
100
AcDbEntity
  8
0
  6
Continuous
 62
     7
370
    25
100
AcDbCircle
 10
6389.0187553361
 20
4210.4483587715
 30
0.0
 40
46.5
  0
CIRCLE
  5
385
330
1F
100
AcDbEntity
  8
0
  6
Continuous
 62
     7
370
    25
100
AcDbCircle
 10
6389.0187553361
 20
4210.4483587715
 30
0.0
 40
36.5
  0
CIRCLE
  5
386
330
1F
100
AcDbEntity
  8
0
  6
Continuous
 62
     7
370
    25
100
AcDbCircle
 10
6159.0187553361
 20
4210.4483587715
 30
0.0
 40
46.5
  0
CIRCLE
  5
387
330
1F
100
AcDbEntity
  8
0
  6
Continuous
 62
     7
370
    25
100
AcDbCircle
 10
6159.0187553361
 20
4210.4483587715
 30
0.0
 40
36.5
  0
LINE
  5
388
330
1F
100
AcDbEntity
  8
0
  6
Continuous
 62
     8
370
    25
100
AcDbLine
 10
6146.0283754066
 20
4202.9483623478
 30
0.0
 11
6151.2245295241
 21
4205.9483535263
 31
0.0
  0
LINE
  5
389
330
1F
100
AcDbEntity
  8
0
  6
Continuous
 62
     8
370
    25
100
AcDbLine
 10
6166.8129769757
 20
4205.9483535263
 30
0.0
 11
6172.0091310933
 21
4202.9483623478
 31
0.0
  0
LINE
  5
38A
330
1F
100
AcDbEntity
  8
0
  6
Continuous
 62
     8
370
    25
100
AcDbLine
 10
6159.0187607005
 20
4225.4483557912
 30
0.0
 11
6159.0187607005
 21
4219.4483585331
 31
0.0
  0
LINE
  5
38B
330
1F
100
AcDbEntity
  8
0
  6
Continuous
 62
     8
370
    25
100
AcDbLine
 10
6396.8129960492
 20
4205.9483535263
 30
0.0
 11
6402.0091501668
 21
4202.9483623478
 31
0.0
  0
LINE
  5
38C
330
1F
100
AcDbEntity
  8
0
  6
Continuous
 62
     8
370
    25
100
AcDbLine
 10
6376.0283795789
 20
4202.9483623478
 30
0.0
 11
6381.2245336965
 21
4205.9483535263
 31
0.0
  0
LINE
  5
38D
330
1F
100
AcDbEntity
  8
0
  6
Continuous
 62
     8
370
    25
100
AcDbLine
 10
6389.0187648728
 20
4225.4483557912
 30
0.0
 11
6389.0187648728
 21
4219.4483585331
 31
0.0
  0
ENDSEC
  0
SECTION
  2
OBJECTS
  0
DICTIONARY
  5
C
330
0
100
AcDbDictionary
281
     1
  3
ACAD_GROUP
350
D
  3
ACAD_LAYOUT
350
1A
  3
ACAD_MLINESTYLE
350
17
  3
ACAD_PLOTSETTINGS
350
19
  3
ACAD_PLOTSTYLENAME
350
E
  3
ACAD_SCALELIST
350
47
  0
DICTIONARY
  5
D
102
{ACAD_REACTORS
330
C
102
}
330
C
100
AcDbDictionary
281
     1
  0
DICTIONARY
  5
1A
102
{ACAD_REACTORS
330
C
102
}
330
C
100
AcDbDictionary
281
     1
  3
Layout1
350
1E
  3
Layout2
350
26
  3
Model
350
22
  0
DICTIONARY
  5
17
102
{ACAD_REACTORS
330
C
102
}
330
C
100
AcDbDictionary
281
     1
  3
Standard
350
18
  0
DICTIONARY
  5
19
102
{ACAD_REACTORS
330
C
102
}
330
C
100
AcDbDictionary
281
     1
  0
ACDBDICTIONARYWDFLT
  5
E
102
{ACAD_REACTORS
330
C
102
}
330
C
100
AcDbDictionary
281
     1
  3
Normal
350
F
100
AcDbDictionaryWithDefault
340
F
  0
DICTIONARY
  5
47
102
{ACAD_REACTORS
330
C
102
}
330
C
100
AcDbDictionary
281
     1
  3
A0
350
48
  3
A1
350
49
  3
A2
350
4A
  3
A3
350
4B
  3
A4
350
4C
  3
A5
350
4D
  3
A6
350
4E
  3
A7
350
4F
  3
A8
350
50
  3
A9
350
51
  3
B0
350
52
  3
B1
350
53
  3
B2
350
54
  3
B3
350
55
  3
B4
350
56
  3
B5
350
57
  3
B6
350
58
  3
B7
350
59
  3
B8
350
5A
  3
B9
350
5B
  3
C0
350
5C
  3
C1
350
5D
  3
C2
350
5E
  3
C3
350
5F
  3
C4
350
60
  3
C5
350
61
  3
C6
350
62
  3
C7
350
63
  3
C8
350
64
  3
C9
350
65
  3
D0
350
66
  3
D1
350
67
  3
D2
350
68
  0
LAYOUT
  5
1E
102
{ACAD_REACTORS
330
1A
102
}
330
1A
100
AcDbPlotSettings
  1

  2
none_device
  4

  6

 40
0.0
 41
0.0
 42
0.0
 43
0.0
 44
0.0
 45
0.0
 46
0.0
 47
0.0
 48
0.0
 49
0.0
140
0.0
141
0.0
142
1.0
143
1.0
 70
   688
 72
     1
 73
     0
 74
     5
  7

 75
    16
147
1.0
148
0.0
149
0.0
100
AcDbLayout
  1
Layout1
 70
     1
 71
     1
 10
0.0
 20
0.0
 11
420.0
 21
297.0
 12
0.0
 22
0.0
 32
0.0
 14
1.0000000000E+20
 24
1.0000000000E+20
 34
1.0000000000E+20
 15
-1.0000000000E+20
 25
-1.0000000000E+20
 35
-1.0000000000E+20
146
0.0
 13
0.0
 23
0.0
 33
0.0
 16
1.0
 26
0.0
 36
0.0
 17
0.0
 27
1.0
 37
0.0
 76
     0
330
1B
  0
LAYOUT
  5
26
102
{ACAD_REACTORS
330
1A
102
}
330
1A
100
AcDbPlotSettings
  1

  2
none_device
  4

  6

 40
0.0
 41
0.0
 42
0.0
 43
0.0
 44
0.0
 45
0.0
 46
0.0
 47
0.0
 48
0.0
 49
0.0
140
0.0
141
0.0
142
1.0
143
1.0
 70
   688
 72
     1
 73
     0
 74
     5
  7

 75
    16
147
1.0
148
0.0
149
0.0
100
AcDbLayout
  1
Layout2
 70
     1
 71
     2
 10
0.0
 20
0.0
 11
0.0
 21
0.0
 12
0.0
 22
0.0
 32
0.0
 14
0.0
 24
0.0
 34
0.0
 15
0.0
 25
0.0
 35
0.0
146
0.0
 13
0.0
 23
0.0
 33
0.0
 16
1.0
 26
0.0
 36
0.0
 17
0.0
 27
1.0
 37
0.0
 76
     0
330
23
  0
LAYOUT
  5
22
102
{ACAD_REACTORS
330
1A
102
}
330
1A
100
AcDbPlotSettings
  1

  2
none_device
  4
Letter_(8.50_x_11.00_Inches)
  6

 40
6.35
 41
6.35
 42
6.35000508
 43
6.35000508
 44
215.9
 45
279.4
 46
0.0
 47
0.0
 48
0.0
 49
0.0
140
0.0
141
0.0
142
1.0
143
1.0
 70
  1712
 72
     1
 73
     0
 74
     0
  7

 75
     0
147
1.0
148
0.0
149
0.0
100
AcDbLayout
  1
Model
 70
     1
 71
     0
 10
0.0
 20
0.0
 11
20000.0
 21
10000.0
 12
0.0
 22
0.0
 32
0.0
 14
0.0
 24
0.0
 34
0.0
 15
20000.0
 25
10000.0
 35
0.0
146
0.0
 13
0.0
 23
0.0
 33
0.0
 16
1.0
 26
0.0
 36
0.0
 17
0.0
 27
1.0
 37
0.0
 76
     0
330
1F
331
29
  0
MLINESTYLE
  5
18
102
{ACAD_REACTORS
330
17
102
}
330
17
100
AcDbMlineStyle
  2
Standard
 70
     0
  3

 62
   256
 51
90.0
 52
90.0
 71
     2
 49
0.5
 62
   256
  6
BYLAYER
 49
-0.5
 62
   256
  6
BYLAYER
  0
ACDBPLACEHOLDER
  5
F
102
{ACAD_REACTORS
330
E
102
}
330
E
  0
SCALE
  5
48
102
{ACAD_REACTORS
330
47
102
}
330
47
100
AcDbScale
 70
     0
300
1:1
140
1.0
141
1.0
290
     1
  0
SCALE
  5
49
102
{ACAD_REACTORS
330
47
102
}
330
47
100
AcDbScale
 70
     0
300
1:2
140
1.0
141
2.0
290
     0
  0
SCALE
  5
4A
102
{ACAD_REACTORS
330
47
102
}
330
47
100
AcDbScale
 70
     0
300
1:4
140
1.0
141
4.0
290
     0
  0
SCALE
  5
4B
102
{ACAD_REACTORS
330
47
102
}
330
47
100
AcDbScale
 70
     0
300
1:5
140
1.0
141
5.0
290
     0
  0
SCALE
  5
4C
102
{ACAD_REACTORS
330
47
102
}
330
47
100
AcDbScale
 70
     0
300
1:8
140
1.0
141
8.0
290
     0
  0
SCALE
  5
4D
102
{ACAD_REACTORS
330
47
102
}
330
47
100
AcDbScale
 70
     0
300
1:10
140
1.0
141
10.0
290
     0
  0
SCALE
  5
4E
102
{ACAD_REACTORS
330
47
102
}
330
47
100
AcDbScale
 70
     0
300
1:16
140
1.0
141
16.0
290
     0
  0
SCALE
  5
4F
102
{ACAD_REACTORS
330
47
102
}
330
47
100
AcDbScale
 70
     0
300
1:20
140
1.0
141
20.0
290
     0
  0
SCALE
  5
50
102
{ACAD_REACTORS
330
47
102
}
330
47
100
AcDbScale
 70
     0
300
1:30
140
1.0
141
30.0
290
     0
  0
SCALE
  5
51
102
{ACAD_REACTORS
330
47
102
}
330
47
100
AcDbScale
 70
     0
300
1:40
140
1.0
141
40.0
290
     0
  0
SCALE
  5
52
102
{ACAD_REACTORS
330
47
102
}
330
47
100
AcDbScale
 70
     0
300
1:50
140
1.0
141
50.0
290
     0
  0
SCALE
  5
53
102
{ACAD_REACTORS
330
47
102
}
330
47
100
AcDbScale
 70
     0
300
1:100
140
1.0
141
100.0
290
     0
  0
SCALE
  5
54
102
{ACAD_REACTORS
330
47
102
}
330
47
100
AcDbScale
 70
     0
300
2:1
140
2.0
141
1.0
290
     0
  0
SCALE
  5
55
102
{ACAD_REACTORS
330
47
102
}
330
47
100
AcDbScale
 70
     0
300
4:1
140
4.0
141
1.0
290
     0
  0
SCALE
  5
56
102
{ACAD_REACTORS
330
47
102
}
330
47
100
AcDbScale
 70
     0
300
8:1
140
8.0
141
1.0
290
     0
  0
SCALE
  5
57
102
{ACAD_REACTORS
330
47
102
}
330
47
100
AcDbScale
 70
     0
300
10:1
140
10.0
141
1.0
290
     0
  0
SCALE
  5
58
102
{ACAD_REACTORS
330
47
102
}
330
47
100
AcDbScale
 70
     0
300
100:1
140
100.0
141
1.0
290
     0
  0
SCALE
  5
59
102
{ACAD_REACTORS
330
47
102
}
330
47
100
AcDbScale
 70
     0
300
1/128" = 1'-0"
140
0.0078125
141
12.0
290
     0
  0
SCALE
  5
5A
102
{ACAD_REACTORS
330
47
102
}
330
47
100
AcDbScale
 70
     0
300
1/64" = 1'-0"
140
0.015625
141
12.0
290
     0
  0
SCALE
  5
5B
102
{ACAD_REACTORS
330
47
102
}
330
47
100
AcDbScale
 70
     0
300
1/32" = 1'-0"
140
0.03125
141
12.0
290
     0
  0
SCALE
  5
5C
102
{ACAD_REACTORS
330
47
102
}
330
47
100
AcDbScale
 70
     0
300
1/16" = 1'-0"
140
0.0625
141
12.0
290
     0
  0
SCALE
  5
5D
102
{ACAD_REACTORS
330
47
102
}
330
47
100
AcDbScale
 70
     0
300
3/32" = 1'-0"
140
0.09375
141
12.0
290
     0
  0
SCALE
  5
5E
102
{ACAD_REACTORS
330
47
102
}
330
47
100
AcDbScale
 70
     0
300
1/8" = 1'-0"
140
0.125
141
12.0
290
     0
  0
SCALE
  5
5F
102
{ACAD_REACTORS
330
47
102
}
330
47
100
AcDbScale
 70
     0
300
3/16" = 1'-0"
140
0.1875
141
12.0
290
     0
  0
SCALE
  5
60
102
{ACAD_REACTORS
330
47
102
}
330
47
100
AcDbScale
 70
     0
300
1/4" = 1'-0"
140
0.25
141
12.0
290
     0
  0
SCALE
  5
61
102
{ACAD_REACTORS
330
47
102
}
330
47
100
AcDbScale
 70
     0
300
3/8" = 1'-0"
140
0.375
141
12.0
290
     0
  0
SCALE
  5
62
102
{ACAD_REACTORS
330
47
102
}
330
47
100
AcDbScale
 70
     0
300
1/2" = 1'-0"
140
0.5
141
12.0
290
     0
  0
SCALE
  5
63
102
{ACAD_REACTORS
330
47
102
}
330
47
100
AcDbScale
 70
     0
300
3/4" = 1'-0"
140
0.75
141
12.0
290
     0
  0
SCALE
  5
64
102
{ACAD_REACTORS
330
47
102
}
330
47
100
AcDbScale
 70
     0
300
1" = 1'-0"
140
1.0
141
12.0
290
     0
  0
SCALE
  5
65
102
{ACAD_REACTORS
330
47
102
}
330
47
100
AcDbScale
 70
     0
300
1-1/2" = 1'-0"
140
1.5
141
12.0
290
     0
  0
SCALE
  5
66
102
{ACAD_REACTORS
330
47
102
}
330
47
100
AcDbScale
 70
     0
300
3" = 1'-0"
140
3.0
141
12.0
290
     0
  0
SCALE
  5
67
102
{ACAD_REACTORS
330
47
102
}
330
47
100
AcDbScale
 70
     0
300
6" = 1'-0"
140
6.0
141
12.0
290
     0
  0
SCALE
  5
68
102
{ACAD_REACTORS
330
47
102
}
330
47
100
AcDbScale
 70
     0
300
1'-0" = 1'-0"
140
12.0
141
12.0
290
     0
  0
ENDSEC
  0
EOF
