  0
SECTION
  2
HEADER
  9
$ACADVER
  1
AC1015
  9
$ACADMAINTVER
 70
     6
  9
$DWGCODEPAGE
  3
ANSI_1250
  9
$INSBASE
 10
0.0
 20
0.0
 30
0.0
  9
$EXTMIN
 10
0.0
 20
0.0
 30
0.0
  9
$EXTMAX
 10
20000.0
 20
10000.0
 30
0.0
  9
$LIMMIN
 10
0.0
 20
0.0
  9
$LIMMAX
 10
20000.0
 20
10000.0
  9
$ORTHOMODE
 70
     0
  9
$REGENMODE
 70
     1
  9
$FILLMODE
 70
     1
  9
$QTEXTMODE
 70
     0
  9
$MIRRTEXT
 70
     1
  9
$LTSCALE
 40
1.0
  9
$ATTMODE
 70
     1
  9
$TEXTSIZE
 40
2.0
  9
$TRACEWID
 40
1.0
  9
$TEXTSTYLE
  7
Standard
  9
$CLAYER
  8
0
  9
$CELTYPE
  6
ByLayer
  9
$CECOLOR
 62
   256
  9
$CELTSCALE
 40
1.0
  9
$DISPSILH
 70
     0
  9
$DIMSCALE
 40
1.0
  9
$DIMASZ
 40
2.0
  9
$DIMEXO
 40
1.0
  9
$DIMDLI
 40
3.75
  9
$DIMRND
 40
0.0
  9
$DIMDLE
 40
0.0
  9
$DIMEXE
 40
1.0
  9
$DIMTP
 40
0.0
  9
$DIMTM
 40
0.0
  9
$DIMTXT
 40
2.0
  9
$DIMCEN
 40
2.5
  9
$DIMTSZ
 40
0.0
  9
$DIMTOL
 70
     0
  9
$DIMLIM
 70
     0
  9
$DIMTIH
 70
     1
  9
$DIMTOH
 70
     1
  9
$DIMSE1
 70
     0
  9
$DIMSE2
 70
     0
  9
$DIMTAD
 70
     1
  9
$DIMZIN
 70
     0
  9
$DIMBLK
  1

  9
$DIMASO
 70
     1
  9
$DIMSHO
 70
     1
  9
$DIMPOST
  1

  9
$DIMAPOST
  1

  9
$DIMALT
 70
     0
  9
$DIMALTD
 70
     3
  9
$DIMALTF
 40
0.0393700787
  9
$DIMLFAC
 40
1.0
  9
$DIMTOFL
 70
     1
  9
$DIMTVP
 40
0.0
  9
$DIMTIX
 70
     0
  9
$DIMSOXD
 70
     0
  9
$DIMSAH
 70
     0
  9
$DIMBLK1
  1

  9
$DIMBLK2
  1

  9
$DIMSTYLE
  2
ISO-25
  9
$DIMCLRD
 70
     0
  9
$DIMCLRE
 70
     0
  9
$DIMCLRT
 70
     0
  9
$DIMTFAC
 40
1.0
  9
$DIMGAP
 40
1.524
  9
$DIMJUST
 70
     0
  9
$DIMSD1
 70
     0
  9
$DIMSD2
 70
     0
  9
$DIMTOLJ
 70
     0
  9
$DIMTZIN
 70
     0
  9
$DIMALTZ
 70
     0
  9
$DIMALTTZ
 70
     0
  9
$DIMUPT
 70
     0
  9
$DIMDEC
 70
     2
  9
$DIMTDEC
 70
     0
  9
$DIMALTU
 70
     2
  9
$DIMALTTD
 70
     3
  9
$DIMTXSTY
  7
Standard
  9
$DIMAUNIT
 70
     0
  9
$DIMADEC
 70
     2
  9
$DIMALTRND
 40
0.0
  9
$DIMAZIN
 70
     0
  9
$DIMDSEP
 70
    44
  9
$DIMATFIT
 70
     3
  9
$DIMFRAC
 70
     0
  9
$DIMLDRBLK
  1

  9
$DIMLUNIT
 70
     2
  9
$DIMLWD
 70
    -2
  9
$DIMLWE
 70
    -2
  9
$DIMTMOVE
 70
     0
  9
$LUNITS
 70
     2
  9
$LUPREC
 70
     3
  9
$SKETCHINC
 40
1.0
  9
$FILLETRAD
 40
10.0
  9
$AUNITS
 70
     0
  9
$AUPREC
 70
     2
  9
$MENU
  1
.
  9
$ELEVATION
 40
0.0
  9
$PELEVATION
 40
0.0
  9
$THICKNESS
 40
0.0
  9
$LIMCHECK
 70
     0
  9
$CHAMFERA
 40
0.0
  9
$CHAMFERB
 40
0.0
  9
$CHAMFERC
 40
0.0
  9
$CHAMFERD
 40
0.0
  9
$SKPOLY
 70
     0
  9
$TDCREATE
 40
2458697.35491978
  9
$TDUCREATE
 40
2458697.271586447
  9
$TDUPDATE
 40
2458697.354920324
  9
$TDUUPDATE
 40
2458697.271586991
  9
$TDINDWG
 40
0.0000000116
  9
$TDUSRTIMER
 40
0.0000000116
  9
$USRTIMER
 70
     1
  9
$ANGBASE
 50
0.0
  9
$ANGDIR
 70
     0
  9
$PDMODE
 70
     0
  9
$PDSIZE
 40
-1.0
  9
$PLINEWID
 40
0.0
  9
$SPLFRAME
 70
     0
  9
$SPLINETYPE
 70
     6
  9
$SPLINESEGS
 70
     8
  9
$HANDSEED
  5
2A1
  9
$SURFTAB1
 70
     6
  9
$SURFTAB2
 70
     6
  9
$SURFTYPE
 70
     6
  9
$SURFU
 70
     6
  9
$SURFV
 70
     6
  9
$UCSBASE
  2

  9
$UCSNAME
  2

  9
$UCSORG
 10
0.0
 20
0.0
 30
0.0
  9
$UCSXDIR
 10
1.0
 20
0.0
 30
0.0
  9
$UCSYDIR
 10
0.0
 20
1.0
 30
0.0
  9
$UCSORTHOREF
  2

  9
$UCSORTHOVIEW
 70
     0
  9
$UCSORGTOP
 10
0.0
 20
0.0
 30
0.0
  9
$UCSORGBOTTOM
 10
0.0
 20
0.0
 30
0.0
  9
$UCSORGLEFT
 10
0.0
 20
0.0
 30
0.0
  9
$UCSORGRIGHT
 10
0.0
 20
0.0
 30
0.0
  9
$UCSORGFRONT
 10
0.0
 20
0.0
 30
0.0
  9
$UCSORGBACK
 10
0.0
 20
0.0
 30
0.0
  9
$PUCSBASE
  2

  9
$PUCSNAME
  2

  9
$PUCSORG
 10
0.0
 20
0.0
 30
0.0
  9
$PUCSXDIR
 10
1.0
 20
0.0
 30
0.0
  9
$PUCSYDIR
 10
0.0
 20
1.0
 30
0.0
  9
$PUCSORTHOREF
  2

  9
$PUCSORTHOVIEW
 70
     0
  9
$PUCSORGTOP
 10
0.0
 20
0.0
 30
0.0
  9
$PUCSORGBOTTOM
 10
0.0
 20
0.0
 30
0.0
  9
$PUCSORGLEFT
 10
0.0
 20
0.0
 30
0.0
  9
$PUCSORGRIGHT
 10
0.0
 20
0.0
 30
0.0
  9
$PUCSORGFRONT
 10
0.0
 20
0.0
 30
0.0
  9
$PUCSORGBACK
 10
0.0
 20
0.0
 30
0.0
  9
$USERI1
 70
     0
  9
$USERI2
 70
     0
  9
$USERI3
 70
     0
  9
$USERI4
 70
     0
  9
$USERI5
 70
     0
  9
$USERR1
 40
0.0
  9
$USERR2
 40
0.0
  9
$USERR3
 40
0.0
  9
$USERR4
 40
0.0
  9
$USERR5
 40
0.0
  9
$WORLDVIEW
 70
     1
  9
$SHADEDGE
 70
     3
  9
$SHADEDIF
 70
    70
  9
$TILEMODE
 70
     1
  9
$MAXACTVP
 70
    64
  9
$PINSBASE
 10
0.0
 20
0.0
 30
0.0
  9
$PLIMCHECK
 70
     0
  9
$PEXTMIN
 10
1.0000000000E+20
 20
1.0000000000E+20
 30
1.0000000000E+20
  9
$PEXTMAX
 10
-1.0000000000E+20
 20
-1.0000000000E+20
 30
-1.0000000000E+20
  9
$PLIMMIN
 10
0.0
 20
0.0
  9
$PLIMMAX
 10
420.0
 20
297.0
  9
$UNITMODE
 70
     0
  9
$VISRETAIN
 70
     1
  9
$PLINEGEN
 70
     0
  9
$PSLTSCALE
 70
     1
  9
$TREEDEPTH
 70
  3020
  9
$CMLSTYLE
  2
Standard
  9
$CMLJUST
 70
     0
  9
$CMLSCALE
 40
20.0
  9
$PROXYGRAPHICS
 70
     1
  9
$MEASUREMENT
 70
     1
  9
$CELWEIGHT
370
    -1
  9
$ENDCAPS
280
     0
  9
$JOINSTYLE
280
     0
  9
$LWDISPLAY
290
     1
  9
$INSUNITS
 70
     4
  9
$HYPERLINKBASE
  1

  9
$STYLESHEET
  1

  9
$XEDIT
290
     1
  9
$CEPSNTYPE
380
     0
  9
$PSTYLEMODE
290
     1
  9
$FINGERPRINTGUID
  2
{63C16564-C4EC-4C61-AB09-0A5D2321F2F0}
  9
$VERSIONGUID
  2
{FAEB1C32-E019-11D5-929B-00C0DF256EC4}
  9
$EXTNAMES
290
     1
  9
$PSVPSCALE
 40
0.0
  9
$OLESTARTUP
290
     0
  0
ENDSEC
  0
SECTION
  2
CLASSES
  0
CLASS
  1
ACDBDICTIONARYWDFLT
  2
AcDbDictionaryWithDefault
  3
ObjectDBX Classes
 90
        0
280
     0
281
     0
  0
CLASS
  1
VISUALSTYLE
  2
AcDbVisualStyle
  3
ObjectDBX Classes
 90
     4095
280
     0
281
     0
  0
CLASS
  1
MATERIAL
  2
AcDbMaterial
  3
ObjectDBX Classes
 90
     1153
280
     0
281
     0
  0
CLASS
  1
SCALE
  2
AcDbScale
  3
ObjectDBX Classes
 90
     1153
280
     0
281
     0
  0
CLASS
  1
TABLESTYLE
  2
AcDbTableStyle
  3
ObjectDBX Classes
 90
     4095
280
     0
281
     0
  0
CLASS
  1
MLEADERSTYLE
  2
AcDbMLeaderStyle
  3
ACDB_MLEADERSTYLE_CLASS
 90
     4095
280
     0
281
     0
  0
CLASS
  1
SUN
  2
AcDbSun
  3
SCENEOE
 90
     1153
280
     0
281
     0
  0
CLASS
  1
ACDBPLACEHOLDER
  2
AcDbPlaceHolder
  3
ObjectDBX Classes
 90
        0
280
     0
281
     0
  0
CLASS
  1
LAYOUT
  2
AcDbLayout
  3
ObjectDBX Classes
 90
        0
280
     0
281
     0
  0
ENDSEC
  0
SECTION
  2
TABLES
  0
TABLE
  2
VPORT
  5
8
330
0
100
AcDbSymbolTable
 70
     1
  0
VPORT
  5
29
330
8
100
AcDbSymbolTableRecord
100
AcDbViewportTableRecord
  2
*Active
 70
     0
 10
0.0
 20
0.0
 11
1.0
 21
1.0
 12
10000.0
 22
5000.0
 13
0.0
 23
0.0
 14
10.0
 24
10.0
 15
10.0
 25
10.0
 16
0.0
 26
0.0
 36
1.0
 17
0.0
 27
0.0
 37
0.0
 40
10000.0
 41
2.0
 42
50.0
 43
0.0
 44
0.0
 50
0.0
 51
0.0
 71
     0
 72
  2000
 73
     1
 74
     3
 75
     0
 76
     0
 77
     0
 78
     0
281
     0
 65
     1
110
0.0
120
0.0
130
0.0
111
1.0
121
0.0
131
0.0
112
0.0
122
1.0
132
0.0
 79
     0
146
0.0
  0
ENDTAB
  0
TABLE
  2
LTYPE
  5
5
330
0
100
AcDbSymbolTable
 70
     6
  0
LTYPE
  5
14
330
5
100
AcDbSymbolTableRecord
100
AcDbLinetypeTableRecord
  2
ByBlock
 70
     0
  3

 72
    65
 73
     0
 40
0.0
  0
LTYPE
  5
15
330
5
100
AcDbSymbolTableRecord
100
AcDbLinetypeTableRecord
  2
ByLayer
 70
     0
  3

 72
    65
 73
     0
 40
0.0
  0
LTYPE
  5
16
330
5
100
AcDbSymbolTableRecord
100
AcDbLinetypeTableRecord
  2
Continuous
 70
     0
  3
Solid line
 72
    65
 73
     0
 40
0.0
  0
LTYPE
  5
6E
330
5
100
AcDbSymbolTableRecord
100
AcDbLinetypeTableRecord
  2
HIDDEN
 70
     0
  3
Hidden __ __ __ __ __ __ __ __ __ __ __ __ __ __
 72
    65
 73
     2
 40
1.905
 49
1.27
 74
     0
 49
-0.635
 74
     0
  0
LTYPE
  5
6F
330
5
100
AcDbSymbolTableRecord
100
AcDbLinetypeTableRecord
  2
PHANTOM
 70
     0
  3
Phantom ______  __  __  ______  __  __  ______
 72
    65
 73
     6
 40
12.7
 49
6.35
 74
     0
 49
-1.27
 74
     0
 49
1.27
 74
     0
 49
-1.27
 74
     0
 49
1.27
 74
     0
 49
-1.27
 74
     0
  0
LTYPE
  5
70
330
5
100
AcDbSymbolTableRecord
100
AcDbLinetypeTableRecord
  2
CENTER
 70
     0
  3
Center ____ _ ____ _ ____ _ ____ _ ____ _ ____
 72
    65
 73
     4
 40
10.16
 49
6.35
 74
     0
 49
-1.27
 74
     0
 49
1.27
 74
     0
 49
-1.27
 74
     0
  0
LTYPE
  5
71
330
5
100
AcDbSymbolTableRecord
100
AcDbLinetypeTableRecord
  2
CENTERX2
 70
     0
  3
Center (2x) ________  __  ________  __  _____
 72
    65
 73
     4
 40
20.32
 49
12.7
 74
     0
 49
-2.54
 74
     0
 49
2.54
 74
     0
 49
-2.54
 74
     0
  0
LTYPE
  5
72
330
5
100
AcDbSymbolTableRecord
100
AcDbLinetypeTableRecord
  2
DOT2
 70
     0
  3
Dot (.5x) ........................................
 72
    65
 73
     2
 40
0.635
 49
0.0
 74
     0
 49
-0.635
 74
     0
  0
ENDTAB
  0
TABLE
  2
LAYER
  5
2
330
0
100
AcDbSymbolTable
 70
    13
  0
LAYER
  5
10
330
2
100
AcDbSymbolTableRecord
100
AcDbLayerTableRecord
  2
0
 70
     0
 62
     7
  6
Continuous
370
    -3
390
F
  0
LAYER
  5
73
330
2
100
AcDbSymbolTableRecord
100
AcDbLayerTableRecord
  2
FORMAT
 70
     0
 62
     7
  6
Continuous
370
    -3
390
F
  0
LAYER
  5
74
330
2
100
AcDbSymbolTableRecord
100
AcDbLayerTableRecord
  2
OSA
 70
     0
 62
     7
  6
CENTER
370
    -3
390
F
  0
LAYER
  5
75
330
2
100
AcDbSymbolTableRecord
100
AcDbLayerTableRecord
  2
0_35
 70
     0
 62
     7
  6
Continuous
370
    35
390
F
  0
LAYER
  5
76
330
2
100
AcDbSymbolTableRecord
100
AcDbLayerTableRecord
  2
0_5
 70
     0
 62
     7
  6
Continuous
370
    50
390
F
  0
LAYER
  5
77
330
2
100
AcDbSymbolTableRecord
100
AcDbLayerTableRecord
  2
0_25
 70
     0
 62
     7
  6
Continuous
370
    25
390
F
  0
LAYER
  5
78
330
2
100
AcDbSymbolTableRecord
100
AcDbLayerTableRecord
  2
0_18
 70
     0
 62
     7
  6
Continuous
370
    -3
390
F
  0
LAYER
  5
79
330
2
100
AcDbSymbolTableRecord
100
AcDbLayerTableRecord
  2
SLD-0
 70
     0
 62
   179
  6
Continuous
370
    -3
390
F
  0
LAYER
  5
7A
330
2
100
AcDbSymbolTableRecord
100
AcDbLayerTableRecord
  2
KOTY
 70
     0
 62
     7
  6
Continuous
370
    -3
390
F
  0
LAYER
  5
7B
330
2
100
AcDbSymbolTableRecord
100
AcDbLayerTableRecord
  2
SILNA
 70
     0
 62
   179
  6
Continuous
370
    -3
390
F
  0
LAYER
  5
7C
330
2
100
AcDbSymbolTableRecord
100
AcDbLayerTableRecord
  2
0_18_1
 70
     0
 62
   179
  6
Continuous
370
    -3
390
F
  0
LAYER
  5
7D
330
2
100
AcDbSymbolTableRecord
100
AcDbLayerTableRecord
  2
0_35_1
 70
     0
 62
   179
  6
Continuous
370
    35
390
F
  0
LAYER
  5
7E
330
2
100
AcDbSymbolTableRecord
100
AcDbLayerTableRecord
  2
0_5_1
 70
     0
 62
   179
  6
Continuous
370
    50
390
F
  0
ENDTAB
  0
TABLE
  2
STYLE
  5
3
330
0
100
AcDbSymbolTable
 70
     1
  0
STYLE
  5
11
330
3
100
AcDbSymbolTableRecord
100
AcDbTextStyleTableRecord
  2
Standard
 70
     0
 40
0.0
 41
1.0
 50
0.0
 71
     0
 42
2.0
  3
txt
  4

  0
ENDTAB
  0
TABLE
  2
VIEW
  5
6
330
0
100
AcDbSymbolTable
 70
     0
  0
ENDTAB
  0
TABLE
  2
UCS
  5
7
330
0
100
AcDbSymbolTable
 70
     0
  0
ENDTAB
  0
TABLE
  2
APPID
  5
9
330
0
100
AcDbSymbolTable
 70
     1
  0
APPID
  5
12
330
9
100
AcDbSymbolTableRecord
100
AcDbRegAppTableRecord
  2
ACAD
 70
     0
  0
ENDTAB
  0
TABLE
  2
DIMSTYLE
  5
A
330
0
100
AcDbSymbolTable
 70
     1
100
AcDbDimStyleTable
  0
DIMSTYLE
105
27
330
A
100
AcDbSymbolTableRecord
100
AcDbDimStyleTableRecord
  2
ISO-25
 70
     0
 41
2.5
 42
0.625
 43
3.75
 44
1.25
 73
     0
 74
     0
 77
     1
 78
     8
140
2.5
141
2.5
143
0.0393700787
147
0.625
171
     3
172
     1
178
     0
271
     2
272
     2
274
     3
278
    44
283
     0
284
     8
340
11
  0
ENDTAB
  0
TABLE
  2
BLOCK_RECORD
  5
1
330
0
100
AcDbSymbolTable
 70
     1
  0
BLOCK_RECORD
  5
1F
330
1
100
AcDbSymbolTableRecord
100
AcDbBlockTableRecord
  2
*Model_Space
340
22
  0
BLOCK_RECORD
  5
1B
330
1
100
AcDbSymbolTableRecord
100
AcDbBlockTableRecord
  2
*Paper_Space
340
1E
  0
BLOCK_RECORD
  5
23
330
1
100
AcDbSymbolTableRecord
100
AcDbBlockTableRecord
  2
*Paper_Space0
340
26
  0
ENDTAB
  0
ENDSEC
  0
SECTION
  2
BLOCKS
  0
BLOCK
  5
20
330
1F
100
AcDbEntity
  8
0
100
AcDbBlockBegin
  2
*Model_Space
 70
     0
 10
0.0
 20
0.0
 30
0.0
  3
*Model_Space
  1

  0
ENDBLK
  5
21
330
1F
100
AcDbEntity
  8
0
100
AcDbBlockEnd
  0
BLOCK
  5
1C
330
1B
100
AcDbEntity
 67
     1
  8
0
100
AcDbBlockBegin
  2
*Paper_Space
 70
     0
 10
0.0
 20
0.0
 30
0.0
  3
*Paper_Space
  1

  0
ENDBLK
  5
1D
330
1B
100
AcDbEntity
 67
     1
  8
0
100
AcDbBlockEnd
  0
BLOCK
  5
24
330
23
100
AcDbEntity
  8
0
100
AcDbBlockBegin
  2
*Paper_Space0
 70
     0
 10
0.0
 20
0.0
 30
0.0
  3
*Paper_Space0
  1

  0
ENDBLK
  5
25
330
23
100
AcDbEntity
  8
0
100
AcDbBlockEnd
  0
ENDSEC
  0
SECTION
  2
ENTITIES
  0
LINE
  5
7F
330
1F
100
AcDbEntity
  8
0
  6
Continuous
 62
     7
370
    25
100
AcDbLine
 10
6280.4787326959
 20
5615.7396992488
 30
0.0
 11
6280.4787326959
 21
5616.6490277095
 31
0.0
  0
LINE
  5
80
330
1F
100
AcDbEntity
  8
0
  6
Continuous
 62
     7
370
    25
100
AcDbLine
 10
6267.4787361529
 20
5616.6490277095
 30
0.0
 11
6267.4787361529
 21
5615.7396992488
 31
0.0
  0
ARC
  5
81
330
1F
100
AcDbEntity
  8
0
  6
Continuous
 62
     7
370
    25
100
AcDbCircle
 10
6264.2287340224
 20
5644.7843778582
 30
0.0
 40
1.000000000000909
100
AcDbArc
 50
90.0
 51
180.0
  0
LINE
  5
82
330
1F
100
AcDbEntity
  8
0
  6
Continuous
 62
     7
370
    25
100
AcDbLine
 10
6283.7287355569
 20
5645.7843741222
 30
0.0
 11
6264.2287332919
 21
5645.7843741222
 31
0.0
  0
ARC
  5
83
330
1F
100
AcDbEntity
  8
0
  6
Continuous
 62
     7
370
    25
100
AcDbCircle
 10
6283.7287340224
 20
5644.7843778582
 30
0.0
 40
1.000000000000909
100
AcDbArc
 50
0.0
 51
90.0
  0
SPLINE
  5
84
330
1F
100
AcDbEntity
  8
0
  6
Continuous
 62
     7
370
    25
100
AcDbSpline
210
0.0
220
0.0
230
1.0
 70
    24
 71
     3
 72
    16
 73
    12
 74
     0
 42
0.000000001
 43
0.00000001
 40
0.0
 40
0.0
 40
0.0
 40
0.0
 40
0.0522979193408151
 40
0.1618008179524518
 40
0.2584622076651199
 40
0.3491808644220687
 40
0.4408377457274766
 40
0.5375497119007377
 40
0.695701500211594
 40
0.8536676759445666
 40
1.0
 40
1.0
 40
1.0
 40
1.0
 10
6259.979145636839
 20
5620.365168695025
 30
0.0
 10
6259.979145636839
 20
5619.707779196598
 30
0.0
 10
6259.979145636839
 20
5617.673928521476
 30
0.0
 10
6259.979145636839
 20
5614.435057632047
 30
0.0
 10
6259.979145636839
 20
5610.720067067291
 30
0.0
 10
6259.979145636839
 20
5607.231578966423
 30
0.0
 10
6259.979145636839
 20
5603.738691905881
 30
0.0
 10
6259.979145636839
 20
5599.393313363037
 30
0.0
 10
6259.979145636839
 20
5594.207511233949
 30
0.0
 10
6259.979145636839
 20
5588.390311436941
 30
0.0
 10
6259.979145636839
 20
5584.557609507982
 30
0.0
 10
6259.979145636839
 20
5582.71452391582
 30
0.0
  0
SPLINE
  5
85
330
1F
100
AcDbEntity
  8
0
  6
Continuous
 62
     7
370
    25
100
AcDbSpline
210
0.0
220
0.0
230
1.0
 70
    24
 71
     3
 72
    15
 73
    11
 74
     0
 42
0.000000001
 43
0.00000001
 40
0.0
 40
0.0
 40
0.0
 40
0.0
 40
0.1889047614845724
 40
0.3911270001185909
 40
0.5858735080525005
 40
0.671432345255354
 40
0.7575437166691198
 40
0.8499892155430173
 40
0.9545537303092441
 40
1.0
 40
1.0
 40
1.0
 40
1.0
 10
6287.978382816596
 20
5582.71452391582
 30
0.0
 10
6287.978382816596
 20
5585.093494409627
 30
0.0
 10
6287.978382816596
 20
5590.019148931518
 30
0.0
 10
6287.978382816596
 20
5597.384517679958
 30
0.0
 10
6287.978382816596
 20
5603.438124409836
 30
0.0
 10
6287.978382816596
 20
5608.021618401112
 30
0.0
 10
6287.978382816596
 20
5611.323537767957
 30
0.0
 10
6287.978382816596
 20
5614.866901485218
 30
0.0
 10
6287.978382816596
 20
5617.905584652335
 30
0.0
 10
6287.978382816596
 20
5619.791156708055
 30
0.0
 10
6287.978382816596
 20
5620.362397079043
 30
0.0
  0
LINE
  5
86
330
1F
100
AcDbEntity
  8
0
  6
Continuous
 62
     7
370
    25
100
AcDbLine
 10
6261.0888202098
 20
5629.5256873413
 30
0.0
 11
6261.0888202098
 21
5627.5364717289
 31
0.0
  0
LINE
  5
87
330
1F
100
AcDbEntity
  8
0
  6
Continuous
 62
     7
370
    25
100
AcDbLine
 10
6286.8686411884
 20
5627.5364717289
 30
0.0
 11
6286.8686411884
 21
5629.5256873413
 31
0.0
  0
SPLINE
  5
88
330
1F
100
AcDbEntity
  8
0
  6
Continuous
 62
     7
370
    25
100
AcDbSpline
210
0.0
220
0.0
230
1.0
 70
     8
 71
     3
 72
    12
 73
     8
 74
     0
 42
0.000000001
 43
0.00000001
 40
0.0
 40
0.0
 40
0.0
 40
0.0
 40
0.1544242638105971
 40
0.3867650523146987
 40
0.6222913298676988
 40
0.8817241255830107
 40
1.0
 40
1.0
 40
1.0
 40
1.0
 10
6286.829406431002
 20
5629.508074168734
 30
0.0
 10
6286.832798881605
 20
5629.730653234709
 30
0.0
 10
6286.841295482477
 20
5630.288116174611
 30
0.0
 10
6286.504850812188
 20
5631.12353055712
 30
0.0
 10
6285.933633282457
 20
5631.939629304234
 30
0.0
 10
6285.337306439838
 20
5632.522339131914
 30
0.0
 10
6284.873861084615
 20
5632.803128480686
 30
0.0
 10
6284.728737583441
 20
5632.891054992251
 30
0.0
  0
SPLINE
  5
89
330
1F
100
AcDbEntity
  8
0
  6
Continuous
 62
     7
370
    25
100
AcDbSpline
210
0.0
220
0.0
230
1.0
 70
     8
 71
     3
 72
    12
 73
     8
 74
     0
 42
0.000000001
 43
0.00000001
 40
0.0
 40
0.0
 40
0.0
 40
0.0
 40
0.0556147852338474
 40
0.3462814938591666
 40
0.5965343302003776
 40
0.8271595230445553
 40
1.0
 40
1.0
 40
1.0
 40
1.0
 10
6263.228731265349
 20
5632.899906282
 30
0.0
 10
6263.157830473225
 20
5632.860267752802
 30
0.0
 10
6262.71637174765
 20
5632.613461277724
 30
0.0
 10
6262.130745896926
 20
5632.05721521613
 30
0.0
 10
6261.495873025619
 20
5631.212866143071
 30
0.0
 10
6261.133841887754
 20
5630.344936400494
 30
0.0
 10
6261.120015611457
 20
5629.76346061092
 30
0.0
 10
6261.114092579169
 20
5629.514362458758
 30
0.0
  0
LINE
  5
8A
330
1F
100
AcDbEntity
  8
0
  6
Continuous
 62
     7
370
    25
100
AcDbLine
 10
6443.5187522676
 20
4787.1144970699
 30
0.0
 11
6443.5187522676
 21
5546.1145302101
 31
0.0
  0
LINE
  5
8B
330
1F
100
AcDbEntity
  8
0
  6
Continuous
 62
     7
370
    25
100
AcDbLine
 10
6104.5187507179
 20
5546.1145302101
 30
0.0
 11
6104.5187507179
 21
4787.1144970699
 31
0.0
  0
ARC
  5
8C
330
1F
100
AcDbEntity
  8
0
  6
Continuous
 62
     7
370
    25
100
AcDbCircle
 10
6105.2040300614
 20
5567.6145313272
 30
0.0
 40
4.324969328314634
100
AcDbArc
 50
206.059831153
 51
241.4762140417
  0
ARC
  5
8D
330
1F
100
AcDbEntity
  8
0
  6
Continuous
 62
     7
370
    25
100
AcDbCircle
 10
6105.2040300614
 20
5567.6145313272
 30
0.0
 40
4.324969328314602
100
AcDbArc
 50
118.5237859583
 51
153.940168847
  0
LINE
  5
8E
330
1F
100
AcDbEntity
  8
0
  6
Continuous
 62
     7
370
    25
100
AcDbLine
 10
6103.1387541798
 20
5563.8145169063
 30
0.0
 11
6103.5187635925
 21
5563.8145169063
 31
0.0
  0
LINE
  5
8F
330
1F
100
AcDbEntity
  8
0
  6
Continuous
 62
     7
370
    25
100
AcDbLine
 10
6103.5187635925
 20
5571.4145263477
 30
0.0
 11
6103.1387541798
 21
5571.4145263477
 31
0.0
  0
ARC
  5
90
330
1F
100
AcDbEntity
  8
0
  6
Continuous
 62
     7
370
    25
100
AcDbCircle
 10
6442.8334806108
 20
5567.6145313272
 30
0.0
 40
4.324969328314602
100
AcDbArc
 50
26.059831153
 51
61.4762140417
  0
ARC
  5
91
330
1F
100
AcDbEntity
  8
0
  6
Continuous
 62
     7
370
    25
100
AcDbCircle
 10
6442.8334806108
 20
5567.6145313272
 30
0.0
 40
4.324969328314634
100
AcDbArc
 50
298.5237859583
 51
333.940168847
  0
LINE
  5
92
330
1F
100
AcDbEntity
  8
0
  6
Continuous
 62
     7
370
    25
100
AcDbLine
 10
6444.8987562564
 20
5571.4145263477
 30
0.0
 11
6444.5187542942
 21
5571.4145263477
 31
0.0
  0
LINE
  5
93
330
1F
100
AcDbEntity
  8
0
  6
Continuous
 62
     7
370
    25
100
AcDbLine
 10
6444.5187542942
 20
5563.8145169063
 30
0.0
 11
6444.8987562564
 21
5563.8145169063
 31
0.0
  0
LINE
  5
94
330
1F
100
AcDbEntity
  8
0
  6
Continuous
 62
     7
370
    25
100
AcDbLine
 10
6064.0187654999
 20
4786.6145333095
 30
0.0
 11
6064.0187654999
 21
4781.6145380779
 31
0.0
  0
LINE
  5
95
330
1F
100
AcDbEntity
  8
0
  6
Continuous
 62
     7
370
    25
100
AcDbLine
 10
6484.0187523869
 20
4781.6145380779
 30
0.0
 11
6484.0187523869
 21
4786.6145333095
 31
0.0
  0
ARC
  5
96
330
1F
100
AcDbEntity
  8
0
  6
Continuous
 62
     7
370
    25
100
AcDbCircle
 10
6064.5187553361
 20
4786.6145313272
 30
0.0
 40
0.5000000000009095
100
AcDbArc
 50
90.0
 51
180.0
  0
ARC
  5
97
330
1F
100
AcDbEntity
  8
0
  6
Continuous
 62
     7
370
    25
100
AcDbCircle
 10
6483.5187553361
 20
4786.6145313272
 30
0.0
 40
0.5000000000009095
100
AcDbArc
 50
0.0
 51
90.0
  0
LINE
  5
98
330
1F
100
AcDbEntity
  8
0
  6
Continuous
 62
     7
370
    25
100
AcDbLine
 10
6444.5187542942
 20
5571.4145263477
 30
0.0
 11
6444.5187542942
 21
5582.6145371242
 31
0.0
  0
LINE
  5
99
330
1F
100
AcDbEntity
  8
0
  6
Continuous
 62
     7
370
    25
100
AcDbLine
 10
6444.5187542942
 20
5546.1145302101
 30
0.0
 11
6444.5187542942
 21
5563.8145169063
 31
0.0
  0
LINE
  5
9A
330
1F
100
AcDbEntity
  8
0
  6
Continuous
 62
     7
370
    25
100
AcDbLine
 10
6103.5187635925
 20
5563.8145169063
 30
0.0
 11
6103.5187635925
 21
5546.1145302101
 31
0.0
  0
LINE
  5
9B
330
1F
100
AcDbEntity
  8
0
  6
Continuous
 62
     7
370
    25
100
AcDbLine
 10
6103.5187635925
 20
5582.6145371242
 30
0.0
 11
6103.5187635925
 21
5571.4145263477
 31
0.0
  0
LINE
  5
9C
330
1F
100
AcDbEntity
  8
0
  6
Continuous
 62
     7
370
    25
100
AcDbLine
 10
6264.3616814521
 20
5615.2439078136
 30
0.0
 11
6264.3616814521
 21
5582.7145239158
 31
0.0
  0
SPLINE
  5
9D
330
1F
100
AcDbEntity
  8
0
  6
Continuous
 62
     7
370
    25
100
AcDbSpline
210
0.0
220
0.0
230
1.0
 70
     8
 71
     3
 72
     9
 73
     5
 74
     0
 42
0.000000001
 43
0.00000001
 40
0.0
 40
0.0
 40
0.0
 40
0.0
 40
0.8012137322883727
 40
1.0
 40
1.0
 40
1.0
 40
1.0
 10
6264.362694731039
 20
5615.263100509219
 30
0.0
 10
6264.362259104998
 20
5615.258064004155
 30
0.0
 10
6264.361715397343
 20
5615.251777909868
 30
0.0
 10
6264.361687080982
 20
5615.245212856132
 30
0.0
 10
6264.361681452078
 20
5615.243907813601
 30
0.0
  0
ELLIPSE
  5
9E
330
1F
100
AcDbEntity
  8
0
  6
Continuous
 62
     7
370
    25
100
AcDbEllipse
 10
6273.9787340224
 20
5616.3851243871
 30
0.0
 11
9.956659520290486
 21
0.0
 31
0.0
210
0.0
220
0.0
230
1.0
 40
0.43455554
 41
3.403918197484007
 42
6.020859763285456
  0
SPLINE
  5
9F
330
1F
100
AcDbEntity
  8
0
  6
Continuous
 62
     7
370
    25
100
AcDbSpline
210
0.0
220
0.0
230
1.0
 70
     8
 71
     3
 72
     9
 73
     5
 74
     0
 42
0.000000001
 43
0.00000001
 40
0.0
 40
0.0
 40
0.0
 40
0.0
 40
0.8012252099202097
 40
1.0
 40
1.0
 40
1.0
 40
1.0
 10
6283.595787396712
 20
5615.243907813601
 30
0.0
 10
6283.59568127996
 20
5615.249213764995
 30
0.0
 10
6283.595548836861
 20
5615.255836062108
 30
0.0
 10
6283.594902577766
 20
5615.261895955236
 30
0.0
 10
6283.594774117751
 20
5615.263100509219
 30
0.0
  0
LINE
  5
A0
330
1F
100
AcDbEntity
  8
0
  6
Continuous
 62
     7
370
    25
100
AcDbLine
 10
6283.5957873967
 20
5615.2439078136
 30
0.0
 11
6283.5957873967
 21
5582.7145239158
 31
0.0
  0
ELLIPSE
  5
A1
330
1F
100
AcDbEntity
  8
0
  6
Continuous
 62
     7
370
    25
100
AcDbEllipse
 10
6273.9787340224
 20
5616.8397947501
 30
0.0
 11
9.456659520289577
 21
0.0
 31
0.0
210
0.0
220
0.0
230
1.0
 40
0.457531705
 41
3.405961509865294
 42
6.018816450904168
  0
SPLINE
  5
A2
330
1F
100
AcDbEntity
  8
0
  6
Continuous
 62
     7
370
    25
100
AcDbSpline
210
0.0
220
0.0
230
1.0
 70
     8
 71
     3
 72
    13
 73
     9
 74
     0
 42
0.000000001
 43
0.00000001
 40
0.0
 40
0.0
 40
0.0
 40
0.0
 40
0.0207357461676282
 40
0.0782559907917037
 40
0.3089096934485885
 40
0.5393659560484172
 40
0.7696680212796961
 40
1.0
 40
1.0
 40
1.0
 40
1.0
 10
6283.106843045039
 20
5615.70921147304
 30
0.0
 10
6283.111781265847
 20
5615.708760816057
 30
0.0
 10
6283.130417940839
 20
5615.707060052146
 30
0.0
 10
6283.203821320945
 20
5615.695930672361
 30
0.0
 10
6283.325217425134
 20
5615.653456423592
 30
0.0
 10
6283.46085153014
 20
5615.551713548418
 30
0.0
 10
6283.560763179673
 20
5615.416696440889
 30
0.0
 10
6283.583436647587
 20
5615.314301369615
 30
0.0
 10
6283.594774117751
 20
5615.263100509219
 30
0.0
  0
SPLINE
  5
A3
330
1F
100
AcDbEntity
  8
0
  6
Continuous
 62
     7
370
    25
100
AcDbSpline
210
0.0
220
0.0
230
1.0
 70
     8
 71
     3
 72
    13
 73
     9
 74
     0
 42
0.000000001
 43
0.00000001
 40
0.0
 40
0.0
 40
0.0
 40
0.0
 40
0.020725926228673
 40
0.0782467476585379
 40
0.308902763281786
 40
0.5393613368680739
 40
0.7696657115395401
 40
1.0
 40
1.0
 40
1.0
 40
1.0
 10
6264.850618353171
 20
5615.70921147304
 30
0.0
 10
6264.845682629941
 20
5615.708760762389
 30
0.0
 10
6264.827048756313
 20
5615.70705919102
 30
0.0
 10
6264.75364715598
 20
5615.695931476419
 30
0.0
 10
6264.632251569411
 20
5615.653456108435
 30
0.0
 10
6264.496617279826
 20
5615.551713632366
 30
0.0
 10
6264.396705678822
 20
5615.416696419905
 30
0.0
 10
6264.374032204438
 20
5615.31430136262
 30
0.0
 10
6264.362694731039
 20
5615.263100509219
 30
0.0
  0
LINE
  5
A4
330
1F
100
AcDbEntity
  8
0
  6
Continuous
 62
     7
370
    25
100
AcDbLine
 10
6263.8071272877
 20
5618.881460075
 30
0.0
 11
6264.8506183532
 21
5615.709211473
 31
0.0
  0
SPLINE
  5
A5
330
1F
100
AcDbEntity
  8
0
  6
Continuous
 62
     7
370
    25
100
AcDbSpline
210
0.0
220
0.0
230
1.0
 70
     8
 71
     3
 72
     9
 73
     5
 74
     0
 42
0.000000001
 43
0.00000001
 40
0.0
 40
0.0
 40
0.0
 40
0.0
 40
0.0119605913245414
 40
0.9999999999999999
 40
0.9999999999999999
 40
0.9999999999999999
 40
0.9999999999999999
 10
6264.228733291907
 20
5619.138505105548
 30
0.0
 10
6264.22701196466
 20
5619.137491895623
 30
0.0
 10
6264.083095397335
 20
5619.052779534982
 30
0.0
 10
6263.944277444813
 20
5618.966619443307
 30
0.0
 10
6263.807119837088
 20
5618.881489877276
 30
0.0
  0
SPLINE
  5
A6
330
1F
100
AcDbEntity
  8
0
  6
Continuous
 62
     7
370
    25
100
AcDbSpline
210
0.0
220
0.0
230
1.0
 70
     8
 71
     3
 72
     9
 73
     5
 74
     0
 42
0.000000001
 43
0.00000001
 40
0.0
 40
0.0
 40
0.0
 40
0.0
 40
0.0476047547629601
 40
1.0
 40
1.0
 40
1.0
 40
1.0
 10
6283.106843045039
 20
5615.70921147304
 30
0.0
 10
6283.127015785677
 20
5615.76347783164
 30
0.0
 10
6283.550770529056
 20
5616.90341351388
 30
0.0
 10
6283.893588367127
 20
5618.048208143513
 30
0.0
 10
6284.220086446089
 20
5619.138505105548
 30
0.0
  0
LWPOLYLINE
  5
A7
330
1F
100
AcDbEntity
  8
0
  6
Continuous
 62
     7
370
    25
100
AcDbPolyline
 90
        8
 70
   128
 43
0.0
 10
6273.9787344244
 20
5613.0353471084
 10
6275.4777390864
 20
5613.108243589
 10
6276.8959273007
 20
5613.3229991241
 10
6278.1568561104
 20
5613.6680504127
 10
6279.1925315168
 20
5614.1247710033
 10
6279.9471412209
 20
5614.6685441776
 10
6280.3799827006
 20
5615.2700742527
 10
6280.4787326959
 20
5615.7396992488
  0
LWPOLYLINE
  5
A8
330
1F
100
AcDbEntity
  8
0
  6
Continuous
 62
     7
370
    25
100
AcDbPolyline
 90
        8
 70
   128
 43
0.0
 10
6267.4787361529
 20
5615.7396992488
 10
6267.5774861482
 20
5615.2700742527
 10
6268.0103276279
 20
5614.6685441776
 10
6268.7649298814
 20
5614.1247710033
 10
6269.8006127384
 20
5613.6680504127
 10
6271.0615415481
 20
5613.3229991241
 10
6272.4797297624
 20
5613.108243589
 10
6273.9787344244
 20
5613.0353471084
  0
LWPOLYLINE
  5
A9
330
1F
100
AcDbEntity
  8
0
  6
Continuous
 62
     7
370
    25
100
AcDbPolyline
 90
       23
 70
   128
 43
0.0
 10
6269.79049485
 20
5618.7171300693
 10
6268.7649298814
 20
5618.2639559551
 10
6268.0103276279
 20
5617.7201529785
 10
6267.5774861482
 20
5617.1186229034
 10
6267.4897332099
 20
5616.4917906566
 10
6267.7517999318
 20
5615.8734222694
 10
6268.3495674637
 20
5615.2968665405
 10
6269.2508045938
 20
5614.7932072921
 10
6270.4069260862
 20
5614.38959444
 10
6271.7556003836
 20
5614.1077836795
 10
6273.224132171
 20
5613.9629741951
 10
6274.7333366778
 20
5613.9629741951
 10
6276.2018684652
 20
5614.1077836795
 10
6277.5505427626
 20
5614.38959444
 10
6278.7066642549
 20
5614.7932072921
 10
6279.6079013851
 20
5615.2968665405
 10
6280.205668917
 20
5615.8734222694
 10
6280.4677356389
 20
5616.4917906566
 10
6280.3799827006
 20
5617.1186229034
 10
6279.9471412209
 20
5617.7201529785
 10
6279.1925315168
 20
5618.2639559551
 10
6278.1568561104
 20
5618.7206765457
 10
6278.1324033049
 20
5618.7291702076
  0
LINE
  5
AA
330
1F
100
AcDbEntity
  8
0
  6
Continuous
 62
     7
370
    25
100
AcDbLine
 10
6270.1981980708
 20
5615.5450602813
 30
0.0
 11
6274.3864376452
 21
5614.7348543449
 31
0.0
  0
LINE
  5
AB
330
1F
100
AcDbEntity
  8
0
  6
Continuous
 62
     7
370
    25
100
AcDbLine
 10
6274.3864376452
 20
5614.7348543449
 30
0.0
 11
6278.1669739988
 21
5615.8388515754
 31
0.0
  0
LINE
  5
AC
330
1F
100
AcDbEntity
  8
0
  6
Continuous
 62
     7
370
    25
100
AcDbLine
 10
6269.79049485
 20
5617.4592038436
 30
0.0
 11
6270.1981980708
 21
5615.5450602813
 31
0.0
  0
LINE
  5
AD
330
1F
100
AcDbEntity
  8
0
  6
Continuous
 62
     7
370
    25
100
AcDbLine
 10
6273.5710312036
 20
5621.2912162586
 30
0.0
 11
6269.79049485
 21
5620.187219028
 31
0.0
  0
LINE
  5
AE
330
1F
100
AcDbEntity
  8
0
  6
Continuous
 62
     7
370
    25
100
AcDbLine
 10
6277.759270778
 20
5620.4810401245
 30
0.0
 11
6273.5710312036
 21
5621.2912162586
 31
0.0
  0
LINE
  5
AF
330
1F
100
AcDbEntity
  8
0
  6
Continuous
 62
     7
370
    25
100
AcDbLine
 10
6278.1669739988
 20
5618.5668667598
 30
0.0
 11
6277.759270778
 21
5620.4810401245
 31
0.0
  0
LINE
  5
B0
330
1F
100
AcDbEntity
  8
0
  6
Continuous
 62
     7
370
    25
100
AcDbLine
 10
6274.3864376452
 20
5617.4628993316
 30
0.0
 11
6278.1669739988
 21
5618.5668667598
 31
0.0
  0
LINE
  5
B1
330
1F
100
AcDbEntity
  8
0
  6
Continuous
 62
     7
370
    25
100
AcDbLine
 10
6270.1981980708
 20
5618.2730754657
 30
0.0
 11
6274.3864376452
 21
5617.4628993316
 31
0.0
  0
LINE
  5
B2
330
1F
100
AcDbEntity
  8
0
  6
Continuous
 62
     7
370
    25
100
AcDbLine
 10
6269.79049485
 20
5620.187219028
 30
0.0
 11
6270.1981980708
 21
5618.2730754657
 31
0.0
  0
LWPOLYLINE
  5
B3
330
1F
100
AcDbEntity
  8
0
  6
Continuous
 62
     7
370
    25
100
AcDbPolyline
 90
       17
 70
   128
 43
0.0
 10
6273.9787344244
 20
5620.2322801395
 10
6273.1921095756
 20
5620.1671620651
 10
6272.5252379086
 20
5619.9817916198
 10
6272.0796484855
 20
5619.7043319984
 10
6271.9231788423
 20
5619.3770428939
 10
6272.0796484855
 20
5619.0497835918
 10
6272.5252379086
 20
5618.7723239704
 10
6273.1921095756
 20
5618.5869237228
 10
6273.9787344244
 20
5618.5218354507
 10
6274.7653592732
 20
5618.5869237228
 10
6275.4322309401
 20
5618.7723239704
 10
6275.8778203633
 20
5619.0497835918
 10
6276.0342900064
 20
5619.3770428939
 10
6275.8778203633
 20
5619.7043319984
 10
6275.4322309401
 20
5619.9817916198
 10
6274.7653592732
 20
5620.1671620651
 10
6273.9787344244
 20
5620.2322801395
  0
LINE
  5
B4
330
1F
100
AcDbEntity
  8
0
  6
Continuous
 62
     7
370
    25
100
AcDbLine
 10
6270.1981980708
 20
5618.2730754657
 30
0.0
 11
6270.1981980708
 21
5615.5450602813
 31
0.0
  0
LINE
  5
B5
330
1F
100
AcDbEntity
  8
0
  6
Continuous
 62
     7
370
    25
100
AcDbLine
 10
6274.3864376452
 20
5617.4628993316
 30
0.0
 11
6274.3864376452
 21
5614.7348543449
 31
0.0
  0
LINE
  5
B6
330
1F
100
AcDbEntity
  8
0
  6
Continuous
 62
     7
370
    25
100
AcDbLine
 10
6278.1669739988
 20
5618.5668667598
 30
0.0
 11
6278.1669739988
 21
5615.8388515754
 31
0.0
  0
LINE
  5
B7
330
1F
100
AcDbEntity
  8
0
  6
Continuous
 62
     7
370
    25
100
AcDbLine
 10
6269.79049485
 20
5620.187219028
 30
0.0
 11
6269.79049485
 21
5617.4592038436
 31
0.0
  0
ELLIPSE
  5
B8
330
1F
100
AcDbEntity
  8
0
  6
Continuous
 62
     7
370
    25
100
AcDbEllipse
 10
6264.2287340224
 20
5643.1201690067
 30
0.0
 11
0.9999999999990905
 21
0.0
 31
0.0
210
0.0
220
0.0
230
1.0
 40
0.0386181502
 41
1.570796326794897
 42
3.14159265358979
  0
ELLIPSE
  5
B9
330
1F
100
AcDbEntity
  8
0
  6
Continuous
 62
     7
370
    25
100
AcDbEllipse
 10
6264.2287340224
 20
5643.1201690067
 30
0.0
 11
0.9999999999990905
 21
0.0
 31
0.0
210
0.0
220
0.0
230
1.0
 40
0.7013146197
 41
1.570796326794897
 42
3.141592653589793
  0
LINE
  5
BA
330
1F
100
AcDbEntity
  8
0
  6
Continuous
 62
     7
370
    25
100
AcDbLine
 10
6264.2287332919
 20
5643.8214739605
 30
0.0
 11
6264.2287332919
 21
5643.1587895198
 31
0.0
  0
LINE
  5
BB
330
1F
100
AcDbEntity
  8
0
  6
Continuous
 62
     7
370
    25
100
AcDbLine
 10
6283.7287355569
 20
5643.1587895198
 30
0.0
 11
6283.7287355569
 21
5643.8214739605
 31
0.0
  0
LINE
  5
BC
330
1F
100
AcDbEntity
  8
0
  6
Continuous
 62
     7
370
    25
100
AcDbLine
 10
6264.2287332919
 20
5643.1587895198
 30
0.0
 11
6283.7287355569
 21
5643.1587895198
 31
0.0
  0
LINE
  5
BD
330
1F
100
AcDbEntity
  8
0
  6
Continuous
 62
     7
370
    25
100
AcDbLine
 10
6264.2287332919
 20
5643.8214739605
 30
0.0
 11
6283.7287355569
 21
5643.8214739605
 31
0.0
  0
ELLIPSE
  5
BE
330
1F
100
AcDbEntity
  8
0
  6
Continuous
 62
     7
370
    25
100
AcDbEllipse
 10
6283.7287340224
 20
5643.1201690067
 30
0.0
 11
0.9999999999990905
 21
0.0
 31
0.0
210
0.0
220
0.0
230
1.0
 40
0.0386181502
 41
0.0
 42
1.570796326794897
  0
ELLIPSE
  5
BF
330
1F
100
AcDbEntity
  8
0
  6
Continuous
 62
     7
370
    25
100
AcDbEllipse
 10
6283.7287340224
 20
5643.1201690067
 30
0.0
 11
0.9999999999990905
 21
0.0
 31
0.0
210
0.0
220
0.0
230
1.0
 40
0.7013146197
 41
0.0
 42
1.570796326794897
  0
LINE
  5
C0
330
1F
100
AcDbEntity
  8
0
  6
Continuous
 62
     7
370
    25
100
AcDbLine
 10
6264.2287332919
 20
5643.1587895198
 30
0.0
 11
6264.2287332919
 21
5621.7892726703
 31
0.0
  0
LWPOLYLINE
  5
C1
330
1F
100
AcDbEntity
  8
0
  6
Continuous
 62
     7
370
    25
100
AcDbPolyline
 90
        9
 70
   128
 43
0.0
 10
6264.2287332919
 20
5621.7892726703
 10
6264.0336472896
 20
5621.7972596927
 10
6263.8460491207
 20
5621.820952539
 10
6263.6731658485
 20
5621.8593975349
 10
6263.5216284898
 20
5621.9111343666
 10
6263.3972633985
 20
5621.9741960807
 10
6263.3048538473
 20
5622.0461090847
 10
6263.2479463127
 20
5622.124161367
 10
6263.2287312653
 20
5622.2053428932
  0
LINE
  5
C2
330
1F
100
AcDbEntity
  8
0
  6
Continuous
 62
     7
370
    25
100
AcDbLine
 10
6263.2287312653
 20
5622.2053428932
 30
0.0
 11
6263.2287312653
 21
5643.12016571
 31
0.0
  0
LINE
  5
C3
330
1F
100
AcDbEntity
  8
0
  6
Continuous
 62
     7
370
    25
100
AcDbLine
 10
6283.7287355569
 20
5621.7892726703
 30
0.0
 11
6283.7287355569
 21
5643.1587895198
 31
0.0
  0
LINE
  5
C4
330
1F
100
AcDbEntity
  8
0
  6
Continuous
 62
     7
370
    25
100
AcDbLine
 10
6264.2287332919
 20
5621.7892726703
 30
0.0
 11
6283.7287355569
 21
5621.7892726703
 31
0.0
  0
LINE
  5
C5
330
1F
100
AcDbEntity
  8
0
  6
Continuous
 62
     7
370
    25
100
AcDbLine
 10
6284.7287375834
 20
5643.12016571
 30
0.0
 11
6284.7287375834
 21
5622.2053428932
 31
0.0
  0
LWPOLYLINE
  5
C6
330
1F
100
AcDbEntity
  8
0
  6
Continuous
 62
     7
370
    25
100
AcDbPolyline
 90
        9
 70
   128
 43
0.0
 10
6284.7287375834
 20
5622.2053428932
 10
6284.7095225361
 20
5622.124161367
 10
6284.6526150015
 20
5622.0461090847
 10
6284.5602054503
 20
5621.9741960807
 10
6284.435840359
 20
5621.9111343666
 10
6284.2843030003
 20
5621.8593975349
 10
6284.1114197281
 20
5621.820952539
 10
6283.9238215592
 20
5621.7972596927
 10
6283.7287355569
 20
5621.7892726703
  0
LINE
  5
C7
330
1F
100
AcDbEntity
  8
0
  6
Continuous
 62
     7
370
    25
100
AcDbLine
 10
6264.2287332919
 20
5645.6937154575
 30
0.0
 11
6264.2287332919
 21
5643.8214739605
 31
0.0
  0
LINE
  5
C8
330
1F
100
AcDbEntity
  8
0
  6
Continuous
 62
     7
370
    25
100
AcDbLine
 10
6263.2287312653
 20
5643.12016571
 30
0.0
 11
6263.2287312653
 21
5644.7843869968
 31
0.0
  0
ARC
  5
C9
330
1F
100
AcDbEntity
  8
0
  6
Continuous
 62
     7
370
    25
100
AcDbCircle
 10
6264.1854770435
 20
5644.7367622191
 30
0.0
 40
0.9579303750816289
100
AcDbArc
 50
87.4118750424
 51
177.1502896461
  0
LINE
  5
CA
330
1F
100
AcDbEntity
  8
0
  6
Continuous
 62
     7
370
    25
100
AcDbLine
 10
6283.7287355569
 20
5643.8214739605
 30
0.0
 11
6283.7287355569
 21
5645.6937154575
 31
0.0
  0
LINE
  5
CB
330
1F
100
AcDbEntity
  8
0
  6
Continuous
 62
     7
370
    25
100
AcDbLine
 10
6264.2287332919
 20
5645.6937154575
 30
0.0
 11
6283.7287355569
 21
5645.6937154575
 31
0.0
  0
LINE
  5
CC
330
1F
100
AcDbEntity
  8
0
  6
Continuous
 62
     7
370
    25
100
AcDbLine
 10
6284.7287375834
 20
5644.7843869968
 30
0.0
 11
6284.7287375834
 21
5643.12016571
 31
0.0
  0
ARC
  5
CD
330
1F
100
AcDbEntity
  8
0
  6
Continuous
 62
     7
370
    25
100
AcDbCircle
 10
6283.7719918053
 20
5644.7367622191
 30
0.0
 40
0.9579303750813389
100
AcDbArc
 50
2.8497103538
 51
92.5881249575
  0
SPLINE
  5
CE
330
1F
100
AcDbEntity
  8
0
  6
Continuous
 62
     7
370
    25
100
AcDbSpline
210
0.0
220
0.0
230
1.0
 70
     8
 71
     3
 72
    11
 73
     7
 74
     0
 42
0.000000001
 43
0.00000001
 40
0.0
 40
0.0
 40
0.0
 40
0.0
 40
0.2500035952722472
 40
0.4999985126518936
 40
0.7500053115732951
 40
0.9999999999999999
 40
0.9999999999999999
 40
0.9999999999999999
 40
0.9999999999999999
 10
6263.807119837088
 20
5618.881489877276
 30
0.0
 10
6263.744183587341
 20
5618.872108746818
 30
0.0
 10
6263.618313272435
 20
5618.853346811527
 30
0.0
 10
6263.457645216679
 20
5618.747123855583
 30
0.0
 10
6263.341744568592
 20
5618.599866161077
 30
0.0
 10
6263.321273243721
 20
5618.484504886927
 30
0.0
 10
6263.311037829203
 20
5618.42682564693
 30
0.0
  0
SPLINE
  5
CF
330
1F
100
AcDbEntity
  8
0
  6
Continuous
 62
     7
370
    25
100
AcDbSpline
210
0.0
220
0.0
230
1.0
 70
     8
 71
     3
 72
    11
 73
     7
 74
     0
 42
0.000000001
 43
0.00000001
 40
0.0
 40
0.0
 40
0.0
 40
0.0
 40
0.000007818377588
 40
0.1291748153090296
 40
0.6458671535424282
 40
0.9999999999999999
 40
0.9999999999999999
 40
0.9999999999999999
 40
0.9999999999999999
 10
6264.361681452078
 20
5615.243907813601
 30
0.0
 10
6264.36167896857
 20
5615.243917747763
 30
0.0
 10
6264.320646580859
 20
5615.408049413835
 30
0.0
 10
6264.038665941614
 20
5616.011845269097
 30
0.0
 10
6263.690341890987
 20
5617.137595808905
 30
0.0
 10
6263.420693853048
 20
5618.054090766811
 30
0.0
 10
6263.311037829203
 20
5618.426795844607
 30
0.0
  0
ARC
  5
D0
330
1F
100
AcDbEntity
  8
0
  6
Continuous
 62
     7
370
    25
100
AcDbCircle
 10
6284.2118452223
 20
5618.631316647
 30
0.0
 40
0.5072554093331856
100
AcDbArc
 50
5.9400128492
 51
89.069092008
  0
SPLINE
  5
D1
330
1F
100
AcDbEntity
  8
0
  6
Continuous
 62
     7
370
    25
100
AcDbSpline
210
0.0
220
0.0
230
1.0
 70
     8
 71
     3
 72
    12
 73
     8
 74
     0
 42
0.000000001
 43
0.00000001
 40
0.0
 40
0.0
 40
0.0
 40
0.0
 40
0.1195453137675104
 40
0.5977604118651393
 40
0.9494924678959886
 40
0.9999927640905172
 40
1.0
 40
1.0
 40
1.0
 40
1.0
 10
6284.716377070231
 20
5618.683811072879
 30
0.0
 10
6284.679101135799
 20
5618.546119129091
 30
0.0
 10
6284.4927109109
 20
5617.857620429848
 30
0.0
 10
6284.141393459969
 20
5616.794208949626
 30
0.0
 10
6283.802774767354
 20
5615.72278364301
 30
0.0
 10
6283.613124891708
 20
5615.313259887258
 30
0.0
 10
6283.595789880194
 20
5615.243917747832
 30
0.0
 10
6283.595787396712
 20
5615.243907813601
 30
0.0
  0
SPLINE
  5
D2
330
1F
100
AcDbEntity
  8
0
  6
Continuous
 62
     7
370
    25
100
AcDbSpline
210
0.0
220
0.0
230
1.0
 70
     8
 71
     3
 72
    10
 73
     6
 74
     0
 42
0.000000001
 43
0.00000001
 40
0.0
 40
0.0
 40
0.0
 40
0.0
 40
0.2481683512626257
 40
0.6990185016848152
 40
1.0
 40
1.0
 40
1.0
 40
1.0
 10
6263.007255306525
 20
5619.689371232562
 30
0.0
 10
6262.982481300086
 20
5619.777000335885
 30
0.0
 10
6262.91270008595
 20
5620.023826186949
 30
0.0
 10
6262.820342429053
 20
5620.409052377262
 30
0.0
 10
6262.756474237224
 20
5620.712293993038
 30
0.0
 10
6262.730905821604
 20
5620.833691005282
 30
0.0
  0
LINE
  5
D3
330
1F
100
AcDbEntity
  8
0
  6
Continuous
 62
     7
370
    25
100
AcDbLine
 10
6263.1427515653
 20
5619.0572043701
 30
0.0
 11
6263.0072553065
 21
5619.6893712326
 31
0.0
  0
SPLINE
  5
D4
330
1F
100
AcDbEntity
  8
0
  6
Continuous
 62
     7
370
    25
100
AcDbSpline
210
0.0
220
0.0
230
1.0
 70
     8
 71
     3
 72
     9
 73
     5
 74
     0
 42
0.000000001
 43
0.00000001
 40
0.0
 40
0.0
 40
0.0
 40
0.0
 40
0.6543803107048968
 40
0.9999999999999999
 40
0.9999999999999999
 40
0.9999999999999999
 40
0.9999999999999999
 10
6263.311045279784
 20
5618.426795844607
 30
0.0
 10
6263.273534056493
 20
5618.564264079547
 30
0.0
 10
6263.216210780293
 20
5618.774337996334
 30
0.0
 10
6263.161619415721
 20
5618.98455071542
 30
0.0
 10
6263.14275156526
 20
5619.057204370074
 30
0.0
  0
SPLINE
  5
D5
330
1F
100
AcDbEntity
  8
0
  6
Continuous
 62
     7
370
    25
100
AcDbSpline
210
0.0
220
0.0
230
1.0
 70
     8
 71
     3
 72
    11
 73
     7
 74
     0
 42
0.000000001
 43
0.00000001
 40
0.0
 40
0.0
 40
0.0
 40
0.0
 40
0.2164220478045519
 40
0.5221129500946875
 40
0.839804789319547
 40
1.0
 40
1.0
 40
1.0
 40
1.0
 10
6262.158053031249
 20
5621.514525060229
 30
0.0
 10
6262.212040195134
 20
5618.650732079184
 30
0.0
 10
6262.342282920815
 20
5611.741900853523
 30
0.0
 10
6262.796721607471
 20
5600.855167713966
 30
0.0
 10
6263.39711931663
 20
5590.748553319971
 30
0.0
 10
6263.915949411322
 20
5584.65664128326
 30
0.0
 10
6264.089869370741
 20
5582.614537124209
 30
0.0
  0
SPLINE
  5
D6
330
1F
100
AcDbEntity
  8
0
  6
Continuous
 62
     7
370
    25
100
AcDbSpline
210
0.0
220
0.0
230
1.0
 70
    24
 71
     3
 72
     9
 73
     5
 74
     0
 42
0.000000001
 43
0.00000001
 40
0.0
 40
0.0
 40
0.0
 40
0.0
 40
0.2966673730514375
 40
1.0
 40
1.0
 40
1.0
 40
1.0
 10
6262.598337641043
 20
5621.514525060229
 30
0.0
 10
6262.539287386207
 20
5621.514525060229
 30
0.0
 10
6262.340242057334
 20
5621.514525060229
 30
0.0
 10
6262.23328172369
 20
5621.514525060229
 30
0.0
 10
6262.158053031249
 20
5621.514525060229
 30
0.0
  0
LINE
  5
D7
330
1F
100
AcDbEntity
  8
0
  6
Continuous
 62
     7
370
    25
100
AcDbLine
 10
6262.7309058216
 20
5620.8336910053
 30
0.0
 11
6262.598337641
 21
5621.5145250602
 31
0.0
  0
SPLINE
  5
D8
330
1F
100
AcDbEntity
  8
0
  6
Continuous
 62
     7
370
    25
100
AcDbSpline
210
0.0
220
0.0
230
1.0
 70
     8
 71
     3
 72
     9
 73
     5
 74
     0
 42
0.000000001
 43
0.00000001
 40
0.0
 40
0.0
 40
0.0
 40
0.0
 40
0.1879689380578876
 40
1.0
 40
1.0
 40
1.0
 40
1.0
 10
6284.81622230081
 20
5619.296725635104
 30
0.0
 10
6284.811002631384
 20
5619.248943146949
 30
0.0
 10
6284.783233844266
 20
5618.994738975513
 30
0.0
 10
6284.746337802339
 20
5618.823148151732
 30
0.0
 10
6284.716377070231
 20
5618.683811072879
 30
0.0
  0
SPLINE
  5
D9
330
1F
100
AcDbEntity
  8
0
  6
Continuous
 62
     7
370
    25
100
AcDbSpline
210
0.0
220
0.0
230
1.0
 70
     8
 71
     3
 72
    12
 73
     8
 74
     0
 42
0.000000001
 43
0.00000001
 40
0.0
 40
0.0
 40
0.0
 40
0.0
 40
0.3866636366865651
 40
0.646458096497247
 40
0.821243327287568
 40
0.9390287693631777
 40
1.0
 40
1.0
 40
1.0
 40
1.0
 10
6285.226563027186
 20
5620.833691005282
 30
0.0
 10
6285.179311037926
 20
5620.613081678161
 30
0.0
 10
6285.100311028267
 20
5620.244247704263
 30
0.0
 10
6284.987547642397
 20
5619.812546198963
 30
0.0
 10
6284.907351065148
 20
5619.544801500877
 30
0.0
 10
6284.853817522614
 20
5619.388066101992
 30
0.0
 10
6284.825784086933
 20
5619.319956725833
 30
0.0
 10
6284.81622230081
 20
5619.296725635104
 30
0.0
  0
LINE
  5
DA
330
1F
100
AcDbEntity
  8
0
  6
Continuous
 62
     7
370
    25
100
AcDbLine
 10
6285.3591312077
 20
5621.5145250602
 30
0.0
 11
6285.2265630272
 21
5620.8336910053
 31
0.0
  0
SPLINE
  5
DB
330
1F
100
AcDbEntity
  8
0
  6
Continuous
 62
     7
370
    25
100
AcDbSpline
210
0.0
220
0.0
230
1.0
 70
    24
 71
     3
 72
     9
 73
     5
 74
     0
 42
0.000000001
 43
0.00000001
 40
0.0
 40
0.0
 40
0.0
 40
0.0
 40
0.2966681582712788
 40
0.9999999999999999
 40
0.9999999999999999
 40
0.9999999999999999
 40
0.9999999999999999
 10
6285.799415817542
 20
5621.514525060229
 30
0.0
 10
6285.771578422456
 20
5621.514525060229
 30
0.0
 10
6285.677744978218
 20
5621.51452506023
 30
0.0
 10
6285.490691720206
 20
5621.51452506023
 30
0.0
 10
6285.359131207747
 20
5621.514525060229
 30
0.0
  0
SPLINE
  5
DC
330
1F
100
AcDbEntity
  8
0
  6
Continuous
 62
     7
370
    25
100
AcDbSpline
210
0.0
220
0.0
230
1.0
 70
     8
 71
     3
 72
    11
 73
     7
 74
     0
 42
0.000000001
 43
0.00000001
 40
0.0
 40
0.0
 40
0.0
 40
0.0
 40
0.1726438224582749
 40
0.4778885150442008
 40
0.7518259699538057
 40
1.0
 40
1.0
 40
1.0
 40
1.0
 10
6283.867599478049
 20
5582.614537124209
 30
0.0
 10
6284.054173481401
 20
5584.81639131553
 30
0.0
 10
6284.570621577474
 20
5590.911256540657
 30
0.0
 10
6285.142899110393
 20
5600.606221137099
 30
0.0
 10
6285.601759647813
 20
5611.329863205222
 30
0.0
 10
6285.735734069345
 20
5618.233185183018
 30
0.0
 10
6285.799415817542
 20
5621.514525060229
 30
0.0
  0
SPLINE
  5
DD
330
1F
100
AcDbEntity
  8
0
  6
Continuous
 62
     7
370
    25
100
AcDbSpline
210
0.0
220
0.0
230
1.0
 70
     8
 71
     3
 72
    11
 73
     7
 74
     0
 42
0.000000001
 43
0.00000001
 40
0.0
 40
0.0
 40
0.0
 40
0.0
 40
0.4126285138680966
 40
0.7056481567714104
 40
0.8528730515467463
 40
0.9999999999999999
 40
0.9999999999999999
 40
0.9999999999999999
 40
0.9999999999999999
 10
6261.372411659045
 20
5594.900246505313
 30
0.0
 10
6261.490055840704
 20
5598.508426728727
 30
0.0
 10
6261.69124261562
 20
5604.678881843628
 30
0.0
 10
6261.900673730624
 20
5612.258259633182
 30
0.0
 10
6262.028229426996
 20
5617.532513428633
 30
0.0
 10
6262.072250498104
 20
5620.223109993334
 30
0.0
 10
6262.094253709597
 20
5621.56796062427
 30
0.0
  0
LINE
  5
DE
330
1F
100
AcDbEntity
  8
0
  6
Continuous
 62
     7
370
    25
100
AcDbLine
 10
6262.1370721963
 20
5621.5276976867
 30
0.0
 11
6262.0942537096
 21
5621.5679606243
 31
0.0
  0
LINE
  5
DF
330
1F
100
AcDbEntity
  8
0
  6
Continuous
 62
     7
370
    25
100
AcDbLine
 10
6262.1580530312
 20
5621.5145250602
 30
0.0
 11
6262.1370721963
 21
5621.5276976867
 31
0.0
  0
LINE
  5
E0
330
1F
100
AcDbEntity
  8
0
  6
Continuous
 62
     7
370
    25
100
AcDbLine
 10
6285.8203966525
 20
5621.5276976867
 30
0.0
 11
6285.7994158175
 21
5621.5145250602
 31
0.0
  0
LINE
  5
E1
330
1F
100
AcDbEntity
  8
0
  6
Continuous
 62
     7
370
    25
100
AcDbLine
 10
6285.8718801644
 20
5621.5785106464
 30
0.0
 11
6285.8203966525
 21
5621.5276976867
 31
0.0
  0
SPLINE
  5
E2
330
1F
100
AcDbEntity
  8
0
  6
Continuous
 62
     7
370
    25
100
AcDbSpline
210
0.0
220
0.0
230
1.0
 70
     8
 71
     3
 72
    10
 73
     6
 74
     0
 42
0.000000001
 43
0.00000001
 40
0.0
 40
0.0
 40
0.0
 40
0.0
 40
0.2515175079125285
 40
0.5044138016173582
 40
0.9999999999999999
 40
0.9999999999999999
 40
0.9999999999999999
 40
0.9999999999999999
 10
6285.871880164427
 20
5621.578510646395
 30
0.0
 10
6285.916585306618
 20
5619.892011931936
 30
0.0
 10
6286.006240658689
 20
5616.509769339587
 30
0.0
 10
6286.297232590245
 20
5609.910582049572
 30
0.0
 10
6286.572709868524
 20
5605.056416240769
 30
0.0
 10
6286.75510924129
 20
5601.84236967998
 30
0.0
  0
SPLINE
  5
E3
330
1F
100
AcDbEntity
  8
0
  6
Continuous
 62
     7
370
    25
100
AcDbSpline
210
0.0
220
0.0
230
1.0
 70
     8
 71
     3
 72
    12
 73
     8
 74
     0
 42
0.000000001
 43
0.00000001
 40
0.0
 40
0.0
 40
0.0
 40
0.0
 40
0.0503966854562137
 40
0.3235525166837185
 40
0.6060564507566019
 40
0.8573947072809334
 40
1.0
 40
1.0
 40
1.0
 40
1.0
 10
6285.217108240408
 20
5622.957076673083
 30
0.0
 10
6285.302754705581
 20
5622.920054486518
 30
0.0
 10
6285.852614862072
 20
5622.682367790895
 30
0.0
 10
6286.740019896921
 20
5622.197516497064
 30
0.0
 10
6287.542409719264
 20
5621.490417544264
 30
0.0
 10
6287.946652112892
 20
5620.865641926752
 30
0.0
 10
6287.935108712968
 20
5620.495910057649
 30
0.0
 10
6287.930930068774
 20
5620.362069253497
 30
0.0
  0
SPLINE
  5
E4
330
1F
100
AcDbEntity
  8
0
  6
Continuous
 62
     7
370
    25
100
AcDbSpline
210
0.0
220
0.0
230
1.0
 70
     8
 71
     3
 72
    11
 73
     7
 74
     0
 42
0.000000001
 43
0.00000001
 40
0.0
 40
0.0
 40
0.0
 40
0.0
 40
0.2383384735340495
 40
0.4884590658051616
 40
0.7457221479022164
 40
1.0
 40
1.0
 40
1.0
 40
1.0
 10
6259.987356176657
 20
5620.364900474124
 30
0.0
 10
6260.018798666158
 20
5620.582155698277
 30
0.0
 10
6260.083237985671
 20
5621.027406027599
 30
0.0
 10
6260.607038980672
 20
5621.686594325052
 30
0.0
 10
6261.417168224805
 20
5622.326581026799
 30
0.0
 10
6262.207074942904
 20
5622.707239986577
 30
0.0
 10
6262.599723449034
 20
5622.896458749346
 30
0.0
  0
LINE
  5
E5
330
1F
100
AcDbEntity
  8
0
  6
Continuous
 62
     7
370
    25
100
AcDbLine
 10
6263.6393178609
 20
5619.5118984027
 30
0.0
 11
6263.8071272877
 21
5618.881460075
 31
0.0
  0
SPLINE
  5
E6
330
1F
100
AcDbEntity
  8
0
  6
Continuous
 62
     7
370
    25
100
AcDbSpline
210
0.0
220
0.0
230
1.0
 70
     8
 71
     3
 72
    11
 73
     7
 74
     0
 42
0.000000001
 43
0.00000001
 40
0.0
 40
0.0
 40
0.0
 40
0.0
 40
0.2499999079462491
 40
0.499991968794571
 40
0.7500062535296929
 40
1.0
 40
1.0
 40
1.0
 40
1.0
 10
6263.639317860884
 20
5619.511898402743
 30
0.0
 10
6263.576194039329
 20
5619.50266767687
 30
0.0
 10
6263.449948377575
 20
5619.48420651486
 30
0.0
 10
6263.288917420522
 20
5619.378050248033
 30
0.0
 10
6263.172966221628
 20
5619.230602358542
 30
0.0
 10
6263.152822841581
 20
5619.11500211677
 30
0.0
 10
6263.14275156526
 20
5619.057204370074
 30
0.0
  0
SPLINE
  5
E7
330
1F
100
AcDbEntity
  8
0
  6
Continuous
 62
     7
370
    25
100
AcDbSpline
210
0.0
220
0.0
230
1.0
 70
     8
 71
     3
 72
    10
 73
     6
 74
     0
 42
0.000000001
 43
0.00000001
 40
0.0
 40
0.0
 40
0.0
 40
0.0
 40
0.2913195832613916
 40
0.6412051658285273
 40
1.0
 40
1.0
 40
1.0
 40
1.0
 10
6263.639325311465
 20
5619.511868600421
 30
0.0
 10
6263.575369496381
 20
5619.562364503212
 30
0.0
 10
6263.434600384473
 20
5619.67350785087
 30
0.0
 10
6263.270172768009
 20
5619.859433452621
 30
0.0
 10
6263.242660391164
 20
5619.998438247132
 30
0.0
 10
6263.228731265349
 20
5620.068814401202
 30
0.0
  0
LINE
  5
E8
330
1F
100
AcDbEntity
  8
0
  6
Continuous
 62
     7
370
    25
100
AcDbLine
 10
6264.2287332919
 20
5621.7892726703
 30
0.0
 11
6264.2287332919
 21
5619.1385051055
 31
0.0
  0
SPLINE
  5
E9
330
1F
100
AcDbEntity
  8
0
  6
Continuous
 62
     7
370
    25
100
AcDbSpline
210
0.0
220
0.0
230
1.0
 70
     8
 71
     3
 72
    17
 73
    13
 74
     0
 42
0.000000001
 43
0.00000001
 40
0.0
 40
0.0
 40
0.0
 40
0.0
 40
0.0895667265091676
 40
0.2342954329124708
 40
0.308080672870021
 40
0.3433578357628386
 40
0.3775635220295221
 40
0.4103599665079549
 40
0.4459177147945591
 40
0.5189067981901035
 40
0.6669889924407418
 40
1.0
 40
1.0
 40
1.0
 40
1.0
 10
6263.807127287669
 20
5618.881460074954
 30
0.0
 10
6263.835656767278
 20
5618.899850205054
 30
0.0
 10
6263.910286342752
 20
5618.947956501456
 30
0.0
 10
6264.010799380246
 20
5619.010619703188
 30
0.0
 10
6264.099419890174
 20
5619.060420810564
 30
0.0
 10
6264.142677049412
 20
5619.090717259021
 30
0.0
 10
6264.157979935876
 20
5619.115220615353
 30
0.0
 10
6264.159193307892
 20
5619.140485953954
 30
0.0
 10
6264.143390752143
 20
5619.174598444526
 30
0.0
 10
6264.078387162513
 20
5619.231961129891
 30
0.0
 10
6263.882221658215
 20
5619.340291411206
 30
0.0
 10
6263.738678160656
 20
5619.441702208573
 30
0.0
 10
6263.639317860884
 20
5619.511898402743
 30
0.0
  0
LINE
  5
EA
330
1F
100
AcDbEntity
  8
0
  6
Continuous
 62
     7
370
    25
100
AcDbLine
 10
6263.2287312653
 20
5620.0688144012
 30
0.0
 11
6263.2287312653
 21
5622.2053428932
 31
0.0
  0
LINE
  5
EB
330
1F
100
AcDbEntity
  8
0
  6
Continuous
 62
     7
370
    25
100
AcDbLine
 10
6284.2200864461
 20
5619.1385051055
 30
0.0
 11
6284.2871193197
 21
5619.4167693897
 31
0.0
  0
SPLINE
  5
EC
330
1F
100
AcDbEntity
  8
0
  6
Continuous
 62
     7
370
    25
100
AcDbSpline
210
0.0
220
0.0
230
1.0
 70
     8
 71
     3
 72
    11
 73
     7
 74
     0
 42
0.000000001
 43
0.00000001
 40
0.0
 40
0.0
 40
0.0
 40
0.0
 40
0.0120864035657388
 40
0.0961091898172079
 40
0.5893946324412885
 40
0.9999999999999999
 40
0.9999999999999999
 40
0.9999999999999999
 40
0.9999999999999999
 10
6284.28711931972
 20
5619.416769389682
 30
0.0
 10
6284.28916361479
 20
5619.417655693347
 30
0.0
 10
6284.305419529286
 20
5619.4247034414
 30
0.0
 10
6284.404699752632
 20
5619.46540193555
 30
0.0
 10
6284.57250667745
 20
5619.508135402494
 30
0.0
 10
6284.679936187389
 20
5619.519842375686
 30
0.0
 10
6284.728737583441
 20
5619.525160436206
 30
0.0
  0
SPLINE
  5
ED
330
1F
100
AcDbEntity
  8
0
  6
Continuous
 62
     7
370
    25
100
AcDbSpline
210
0.0
220
0.0
230
1.0
 70
     8
 71
     3
 72
    10
 73
     6
 74
     0
 42
0.000000001
 43
0.00000001
 40
0.0
 40
0.0
 40
0.0
 40
0.0
 40
0.0215945081302909
 40
0.3539009852023502
 40
1.0
 40
1.0
 40
1.0
 40
1.0
 10
6284.81622230081
 20
5619.296725635104
 30
0.0
 10
6284.816088974464
 20
5619.298443970573
 30
0.0
 10
6284.813903959426
 20
5619.32660486276
 30
0.0
 10
6284.800290274187
 20
5619.406781281222
 30
0.0
 10
6284.75719556728
 20
5619.47807859981
 30
0.0
 10
6284.728737583441
 20
5619.525160436206
 30
0.0
  0
LINE
  5
EE
330
1F
100
AcDbEntity
  8
0
  6
Continuous
 62
     7
370
    25
100
AcDbLine
 10
6283.7287355569
 20
5620.3649302764
 30
0.0
 11
6283.7287355569
 21
5621.7892726703
 31
0.0
  0
SPLINE
  5
EF
330
1F
100
AcDbEntity
  8
0
  6
Continuous
 62
     7
370
    25
100
AcDbSpline
210
0.0
220
0.0
230
1.0
 70
     8
 71
     3
 72
    10
 73
     6
 74
     0
 42
0.000000001
 43
0.00000001
 40
0.0
 40
0.0
 40
0.0
 40
0.0
 40
0.2817997241578988
 40
0.7379045060136067
 40
1.0
 40
1.0
 40
1.0
 40
1.0
 10
6284.28711931972
 20
5619.416769389682
 30
0.0
 10
6284.213423897816
 20
5619.481889970601
 30
0.0
 10
6284.020449316106
 20
5619.652410968227
 30
0.0
 10
6283.784181088675
 20
5619.965954235732
 30
0.0
 10
6283.743559678839
 20
5620.258258570113
 30
0.0
 10
6283.728735556883
 20
5620.364930276446
 30
0.0
  0
LWPOLYLINE
  5
F0
330
1F
100
AcDbEntity
  8
0
  6
Continuous
 62
     7
370
    25
100
AcDbPolyline
 90
        9
 70
   128
 43
0.0
 10
6283.7287355569
 20
5620.3649302764
 10
6283.9238215592
 20
5620.3592380329
 10
6284.1114197281
 20
5620.3423997207
 10
6284.2843030003
 20
5620.3150411888
 10
6284.435840359
 20
5620.2782055183
 10
6284.5602054503
 20
5620.2333232208
 10
6284.6526150015
 20
5620.1821228309
 10
6284.7095225361
 20
5620.126571302
 10
6284.7287375834
 20
5620.0688144012
  0
LINE
  5
F1
330
1F
100
AcDbEntity
  8
0
  6
Continuous
 62
     7
370
    25
100
AcDbLine
 10
6284.7287375834
 20
5619.5251604362
 30
0.0
 11
6284.7287375834
 21
5620.0688144012
 31
0.0
  0
SPLINE
  5
F2
330
1F
100
AcDbEntity
  8
0
  6
Continuous
 62
     7
370
    25
100
AcDbSpline
210
0.0
220
0.0
230
1.0
 70
     8
 71
     3
 72
    11
 73
     7
 74
     0
 42
0.000000001
 43
0.00000001
 40
0.0
 40
0.0
 40
0.0
 40
0.0
 40
0.2499788763618974
 40
0.5000105877719624
 40
0.7499834794103518
 40
1.0
 40
1.0
 40
1.0
 40
1.0
 10
6263.228731265349
 20
5620.068814401202
 30
0.0
 10
6263.197583752309
 20
5620.045176524466
 30
0.0
 10
6263.135282142952
 20
5619.997895774938
 30
0.0
 10
6263.066945489692
 20
5619.904169127681
 30
0.0
 10
6263.019800937462
 20
5619.800037576418
 30
0.0
 10
6263.011437426769
 20
5619.726262159722
 30
0.0
 10
6263.007255306525
 20
5619.689371232562
 30
0.0
  0
ARC
  5
F3
330
1F
100
AcDbEntity
  8
0
  6
Continuous
 62
     7
370
    25
100
AcDbCircle
 10
6284.7280039146
 20
5620.7877106491
 30
0.0
 40
0.5006749264049707
100
AcDbArc
 50
5.2692825878
 51
89.9160410421
  0
LINE
  5
F4
330
1F
100
AcDbEntity
  8
0
  6
Continuous
 62
     7
370
    25
100
AcDbLine
 10
6284.7287375834
 20
5622.2053428932
 30
0.0
 11
6284.7287375834
 21
5620.0688144012
 31
0.0
  0
ARC
  5
F5
330
1F
100
AcDbEntity
  8
0
  6
Continuous
 62
     7
370
    25
100
AcDbCircle
 10
6263.2294614969
 20
5620.7877144125
 30
0.0
 40
0.500671158012562
100
AcDbArc
 50
90.0835662301
 51
174.7311101398
  0
ARC
  5
F6
330
1F
100
AcDbEntity
  8
0
  6
Continuous
 62
     7
370
    25
100
AcDbCircle
 10
6263.0948775147
 20
5621.4707241831
 30
0.0
 40
0.4984680159604625
100
AcDbArc
 50
89.8042731106
 51
174.9588616186
  0
LINE
  5
F7
330
1F
100
AcDbEntity
  8
0
  6
Continuous
 62
     7
370
    25
100
AcDbLine
 10
6284.7287375834
 20
5621.288385038
 30
0.0
 11
6284.8608885315
 21
5621.9691892906
 31
0.0
  0
ARC
  5
F8
330
1F
100
AcDbEntity
  8
0
  6
Continuous
 62
     7
370
    25
100
AcDbCircle
 10
6284.8625913341
 20
5621.4707241831
 30
0.0
 40
0.4984680159622603
100
AcDbArc
 50
5.0411383814
 51
90.1957268891
  0
SPLINE
  5
F9
330
1F
100
AcDbEntity
  8
0
  6
Continuous
 62
     7
370
    25
100
AcDbSpline
210
0.0
220
0.0
230
1.0
 70
     8
 71
     3
 72
    11
 73
     7
 74
     0
 42
0.000000001
 43
0.00000001
 40
0.0
 40
0.0
 40
0.0
 40
0.0
 40
0.1452081007387564
 40
0.5856647907525258
 40
0.907190027522692
 40
0.9999999999999999
 40
0.9999999999999999
 40
0.9999999999999999
 40
0.9999999999999999
 10
6262.598337641043
 20
5621.514525060229
 30
0.0
 10
6262.595392637301
 20
5621.567987551791
 30
0.0
 10
6262.583514615405
 20
5621.783616699021
 30
0.0
 10
6262.680165302835
 20
5622.115588948192
 30
0.0
 10
6262.92341155119
 20
5622.396500207838
 30
0.0
 10
6263.104254816899
 20
5622.493158917793
 30
0.0
 10
6263.144763222022
 20
5622.51481020885
 30
0.0
  0
SPLINE
  5
FA
330
1F
100
AcDbEntity
  8
0
  6
Continuous
 62
     7
370
    25
100
AcDbSpline
210
0.0
220
0.0
230
1.0
 70
     8
 71
     3
 72
    11
 73
     7
 74
     0
 42
0.000000001
 43
0.00000001
 40
0.0
 40
0.0
 40
0.0
 40
0.0
 40
0.1452081007387564
 40
0.5856647907525258
 40
0.907190027522692
 40
0.9999999999999999
 40
0.9999999999999999
 40
0.9999999999999999
 40
0.9999999999999999
 10
6285.359131207747
 20
5621.514525060229
 30
0.0
 10
6285.362076211489
 20
5621.567987551791
 30
0.0
 10
6285.373954233384
 20
5621.783616699021
 30
0.0
 10
6285.277303545954
 20
5622.115588948192
 30
0.0
 10
6285.034057297599
 20
5622.396500207838
 30
0.0
 10
6284.853214031892
 20
5622.493158917793
 30
0.0
 10
6284.812705626769
 20
5622.51481020885
 30
0.0
  0
LINE
  5
FB
330
1F
100
AcDbEntity
  8
0
  6
Continuous
 62
     7
370
    25
100
AcDbLine
 10
6263.144763222
 20
5622.5148102088
 30
0.0
 11
6263.2287312653
 21
5622.54356945
 31
0.0
  0
LINE
  5
FC
330
1F
100
AcDbEntity
  8
0
  6
Continuous
 62
     7
370
    25
100
AcDbLine
 10
6284.8127056268
 20
5622.5148102088
 30
0.0
 11
6284.7287375834
 21
5622.54356945
 31
0.0
  0
LINE
  5
FD
330
1F
100
AcDbEntity
  8
0
  6
Continuous
 62
     7
370
    25
100
AcDbLine
 10
6262.4781746772
 20
5622.7841635986
 30
0.0
 11
6263.2351238635
 21
5622.6145287796
 31
0.0
  0
LINE
  5
FE
330
1F
100
AcDbEntity
  8
0
  6
Continuous
 62
     7
370
    25
100
AcDbLine
 10
6262.599723449
 20
5622.8964587493
 30
0.0
 11
6263.2287312653
 21
5623.13168848
 31
0.0
  0
SPLINE
  5
FF
330
1F
100
AcDbEntity
  8
0
  6
Continuous
 62
     7
370
    25
100
AcDbSpline
210
0.0
220
0.0
230
1.0
 70
     8
 71
     3
 72
     9
 73
     5
 74
     0
 42
0.000000001
 43
0.00000001
 40
0.0
 40
0.0
 40
0.0
 40
0.0
 40
0.4188282919306854
 40
1.0
 40
1.0
 40
1.0
 40
1.0
 10
6262.478174677176
 20
5622.78416359859
 30
0.0
 10
6262.494398196296
 20
5622.798812061913
 30
0.0
 10
6262.533133686309
 20
5622.833786927758
 30
0.0
 10
6262.575247874404
 20
5622.873423243833
 30
0.0
 10
6262.599723449034
 20
5622.896458749346
 30
0.0
  0
LINE
  5
100
330
1F
100
AcDbEntity
  8
0
  6
Continuous
 62
     7
370
    25
100
AcDbLine
 10
6284.7223449853
 20
5622.6145287796
 30
0.0
 11
6285.4063678887
 21
5622.7710207744
 31
0.0
  0
LINE
  5
101
330
1F
100
AcDbEntity
  8
0
  6
Continuous
 62
     7
370
    25
100
AcDbLine
 10
6284.7287375834
 20
5623.1318374916
 30
0.0
 11
6285.2171082404
 21
5622.9570766731
 31
0.0
  0
LINE
  5
102
330
1F
100
AcDbEntity
  8
0
  6
Continuous
 62
     7
370
    25
100
AcDbLine
 10
6285.2171082404
 20
5622.9570766731
 30
0.0
 11
6285.4063678887
 21
5622.7710207744
 31
0.0
  0
ARC
  5
103
330
1F
100
AcDbEntity
  8
0
  6
Continuous
 62
     7
370
    25
100
AcDbCircle
 10
6263.2360307947
 20
5621.5155028966
 30
0.0
 40
1.09902625720482
100
AcDbArc
 50
90.0472812528
 51
179.3642332544
  0
ARC
  5
104
330
1F
100
AcDbEntity
  8
0
  6
Continuous
 62
     7
370
    25
100
AcDbCircle
 10
6284.721438054
 20
5621.5155028966
 30
0.0
 40
1.099026257205874
100
AcDbArc
 50
0.6357667456
 51
89.9527187471
  0
SPLINE
  5
105
330
1F
100
AcDbEntity
  8
0
  6
Continuous
 62
     7
370
    25
100
AcDbSpline
210
0.0
220
0.0
230
1.0
 70
     8
 71
     3
 72
    11
 73
     7
 74
     0
 42
0.000000001
 43
0.00000001
 40
0.0
 40
0.0
 40
0.0
 40
0.0
 40
0.0384171060441129
 40
0.100020622427045
 40
0.3463168259716319
 40
1.0
 40
1.0
 40
1.0
 40
1.0
 10
6262.094253709597
 20
5621.56796062427
 30
0.0
 10
6262.095101495271
 20
5621.598993441018
 30
0.0
 10
6262.097308742495
 20
5621.679788742027
 30
0.0
 10
6262.116079041533
 20
5621.894582826519
 30
0.0
 10
6262.17762122232
 20
5622.309780965184
 30
0.0
 10
6262.351720746667
 20
5622.584573317426
 30
0.0
 10
6262.478174677176
 20
5622.78416359859
 30
0.0
  0
SPLINE
  5
106
330
1F
100
AcDbEntity
  8
0
  6
Continuous
 62
     7
370
    25
100
AcDbSpline
210
0.0
220
0.0
230
1.0
 70
     8
 71
     3
 72
    11
 73
     7
 74
     0
 42
0.000000001
 43
0.00000001
 40
0.0
 40
0.0
 40
0.0
 40
0.0
 40
0.6462748805153702
 40
0.7918676755104044
 40
0.9389034533548587
 40
0.9999999999999999
 40
0.9999999999999999
 40
0.9999999999999999
 40
0.9999999999999999
 10
6285.406367888731
 20
5622.771020774417
 30
0.0
 10
6285.544809077795
 20
5622.596666593554
 30
0.0
 10
6285.714438295769
 20
5622.383033905548
 30
0.0
 10
6285.826018326808
 20
5621.964909184733
 30
0.0
 10
6285.862797587506
 20
5621.773337534634
 30
0.0
 10
6285.869819040439
 20
5621.622723029766
 30
0.0
 10
6285.871880164427
 20
5621.578510646395
 30
0.0
  0
LINE
  5
107
330
1F
100
AcDbEntity
  8
0
  6
Continuous
 62
     7
370
    25
100
AcDbLine
 10
6284.7287375834
 20
5627.9058417125
 30
0.0
 11
6284.8628927377
 21
5627.8452833934
 31
0.0
  0
LINE
  5
108
330
1F
100
AcDbEntity
  8
0
  6
Continuous
 62
     7
370
    25
100
AcDbLine
 10
6284.8628927377
 20
5627.8452833934
 30
0.0
 11
6284.8628927377
 21
5623.0838259502
 31
0.0
  0
LINE
  5
109
330
1F
100
AcDbEntity
  8
0
  6
Continuous
 62
     7
370
    25
100
AcDbLine
 10
6263.0945686605
 20
5626.9102951332
 30
0.0
 11
6263.0945686605
 21
5623.0815311714
 31
0.0
  0
LINE
  5
10A
330
1F
100
AcDbEntity
  8
0
  6
Continuous
 62
     7
370
    25
100
AcDbLine
 10
6263.0945686605
 20
5626.9102951332
 30
0.0
 11
6263.2287312653
 21
5627.0192226215
 31
0.0
  0
LWPOLYLINE
  5
10B
330
1F
100
AcDbEntity
  8
0
  6
Continuous
 62
     7
370
    25
100
AcDbPolyline
 90
        7
 70
   128
 43
0.0
 10
6263.0945686605
 20
5626.1182686134
 10
6263.033876231
 20
5626.1739989563
 10
6262.5084091332
 20
5626.8447300239
 10
6262.3314578441
 20
5627.5364717289
 10
6262.5084091332
 20
5628.2282134338
 10
6263.033876231
 20
5628.8989445015
 10
6263.2287312653
 20
5629.0697118087
  0
LWPOLYLINE
  5
10C
330
1F
100
AcDbEntity
  8
0
  6
Continuous
 62
     7
370
    25
100
AcDbPolyline
 90
        7
 70
   128
 43
0.0
 10
6284.7287375834
 20
5629.0697118087
 10
6284.9235926178
 20
5628.8989445015
 10
6285.4490597156
 20
5628.2282134338
 10
6285.6260110047
 20
5627.5364717289
 10
6285.4490597156
 20
5626.8447300239
 10
6284.9235926178
 20
5626.1739989563
 10
6284.8628927377
 20
5626.1182686134
  0
LWPOLYLINE
  5
10D
330
1F
100
AcDbEntity
  8
0
  6
Continuous
 62
     7
370
    25
100
AcDbPolyline
 90
        9
 70
   128
 43
0.0
 10
6263.0945686605
 20
5625.1746972843
 10
6262.1744964626
 20
5625.7655581279
 10
6261.4832539466
 20
5626.4542301937
 10
6261.1328456905
 20
5627.1724065586
 10
6261.1328456905
 20
5627.9005368991
 10
6261.4832539466
 20
5628.618713264
 10
6262.1744964626
 20
5629.3073853298
 10
6263.1877307203
 20
5629.9477478309
 10
6263.2287312653
 20
5629.9690862937
  0
LWPOLYLINE
  5
10E
330
1F
100
AcDbEntity
  8
0
  6
Continuous
 62
     7
370
    25
100
AcDbPolyline
 90
        9
 70
   128
 43
0.0
 10
6284.7287375834
 20
5629.9690862937
 10
6284.7697381285
 20
5629.9477478309
 10
6285.7829723862
 20
5629.3073853298
 10
6286.4742149022
 20
5628.618713264
 10
6286.8246157077
 20
5627.9005368991
 10
6286.8246157077
 20
5627.1724065586
 10
6286.4742149022
 20
5626.4542301937
 10
6285.7829723862
 20
5625.7655581279
 10
6284.8628927377
 20
5625.1746972843
  0
LWPOLYLINE
  5
10F
330
1F
100
AcDbEntity
  8
0
  6
Continuous
 62
     7
370
    25
100
AcDbPolyline
 90
        3
 70
   128
 43
0.0
 10
6263.2287312653
 20
5628.2674630924
 10
6263.033876231
 20
5628.438260202
 10
6262.8117222693
 20
5628.6686023517
  0
LWPOLYLINE
  5
110
330
1F
100
AcDbEntity
  8
0
  6
Continuous
 62
     7
370
    25
100
AcDbPolyline
 90
        3
 70
   128
 43
0.0
 10
6285.1457465795
 20
5628.6686023517
 10
6284.9235926178
 20
5628.438260202
 10
6284.7287375834
 20
5628.2674630924
  0
LINE
  5
111
330
1F
100
AcDbEntity
  8
0
  6
Continuous
 62
     7
370
    25
100
AcDbLine
 10
6101.3187561539
 20
5569.3705638691
 30
0.0
 11
6101.3187561539
 21
5569.5145388885
 31
0.0
  0
LINE
  5
112
330
1F
100
AcDbEntity
  8
0
  6
Continuous
 62
     7
370
    25
100
AcDbLine
 10
6101.3187561539
 20
5569.3705638691
 30
0.0
 11
6101.3187561539
 21
5565.7145341678
 31
0.0
  0
LINE
  5
113
330
1F
100
AcDbEntity
  8
0
  6
Continuous
 62
     7
370
    25
100
AcDbLine
 10
6103.1387541798
 20
5571.1265763088
 30
0.0
 11
6103.1387541798
 21
5571.4145263477
 31
0.0
  0
LINE
  5
114
330
1F
100
AcDbEntity
  8
0
  6
Continuous
 62
     7
370
    25
100
AcDbLine
 10
6103.1387541798
 20
5563.8145169063
 30
0.0
 11
6103.1387541798
 21
5571.1265763088
 31
0.0
  0
LINE
  5
115
330
1F
100
AcDbEntity
  8
0
  6
Continuous
 62
     7
370
    25
100
AcDbLine
 10
6103.5187635925
 20
5571.1265763088
 30
0.0
 11
6103.5187635925
 21
5571.4145263477
 31
0.0
  0
LINE
  5
116
330
1F
100
AcDbEntity
  8
0
  6
Continuous
 62
     7
370
    25
100
AcDbLine
 10
6103.5187635925
 20
5563.8145169063
 30
0.0
 11
6103.5187635925
 21
5571.1265763088
 31
0.0
  0
LINE
  5
117
330
1F
100
AcDbEntity
  8
0
  6
Continuous
 62
     7
370
    25
100
AcDbLine
 10
6446.7187542823
 20
5569.5145388885
 30
0.0
 11
6446.7187542823
 21
5565.7145341678
 31
0.0
  0
LINE
  5
118
330
1F
100
AcDbEntity
  8
0
  6
Continuous
 62
     7
370
    25
100
AcDbLine
 10
6444.8987562564
 20
5571.4145263477
 30
0.0
 11
6444.8987562564
 21
5563.8145169063
 31
0.0
  0
LINE
  5
119
330
1F
100
AcDbEntity
  8
0
  6
Continuous
 62
     7
370
    25
100
AcDbLine
 10
6444.5187542942
 20
5571.4145263477
 30
0.0
 11
6444.5187542942
 21
5563.8145169063
 31
0.0
  0
LINE
  5
11A
330
1F
100
AcDbEntity
  8
0
  6
Continuous
 62
     7
370
    25
100
AcDbLine
 10
6294.018754771
 20
5582.6145371242
 30
0.0
 11
6294.018754771
 21
5582.7145239158
 31
0.0
  0
LINE
  5
11B
330
1F
100
AcDbEntity
  8
0
  6
Continuous
 62
     7
370
    25
100
AcDbLine
 10
6294.018754771
 20
5582.7145239158
 30
0.0
 11
6254.0187482145
 21
5582.7145239158
 31
0.0
  0
LINE
  5
11C
330
1F
100
AcDbEntity
  8
0
  6
Continuous
 62
     7
370
    25
100
AcDbLine
 10
6254.0187482145
 20
5582.6145371242
 30
0.0
 11
6254.0187482145
 21
5582.7145239158
 31
0.0
  0
LINE
  5
11D
330
1F
100
AcDbEntity
  8
0
  6
Continuous
 62
     7
370
    25
100
AcDbLine
 10
6064.0187654999
 20
4781.6145380779
 30
0.0
 11
6484.0187523869
 21
4781.6145380779
 31
0.0
  0
LINE
  5
11E
330
1F
100
AcDbEntity
  8
0
  6
Continuous
 62
     7
370
    25
100
AcDbLine
 10
6064.5187590626
 20
4787.1144970699
 30
0.0
 11
6483.5187588242
 21
4787.1144970699
 31
0.0
  0
SPLINE
  5
11F
330
1F
100
AcDbEntity
  8
0
  6
Continuous
 62
     7
370
    25
100
AcDbSpline
210
0.0
220
0.0
230
1.0
 70
     8
 71
     3
 72
    12
 73
     8
 74
     0
 42
0.000000001
 43
0.00000001
 40
0.0
 40
0.0
 40
0.0
 40
0.0
 40
0.2148240991109599
 40
0.4296436497110166
 40
0.6444773105117441
 40
0.8593234002502417
 40
1.0
 40
1.0
 40
1.0
 40
1.0
 10
6103.538582136912
 20
5567.614521627002
 30
0.0
 10
6103.538133849798
 20
5567.906710112703
 30
0.0
 10
6103.537237285063
 20
5568.491080897541
 30
0.0
 10
6103.530908178089
 20
5569.271691867664
 30
0.0
 10
6103.524130110711
 20
5569.85403572051
 30
0.0
 10
6103.51922767578
 20
5570.184040226717
 30
0.0
 10
6103.519258166963
 20
5570.181995940582
 30
0.0
 10
6103.519270232005
 20
5570.181187037997
 30
0.0
  0
SPLINE
  5
120
330
1F
100
AcDbEntity
  8
0
  6
Continuous
 62
     7
370
    25
100
AcDbSpline
210
0.0
220
0.0
230
1.0
 70
     8
 71
     3
 72
    13
 73
     9
 74
     0
 42
0.000000001
 43
0.00000001
 40
0.0
 40
0.0
 40
0.0
 40
0.0
 40
0.0068563603943409
 40
0.2214998997580068
 40
0.4361463888307865
 40
0.6508112469053102
 40
0.8654857892134243
 40
1.0
 40
1.0
 40
1.0
 40
1.0
 10
6103.518823197169
 20
5565.01906717258
 30
0.0
 10
6103.518802694927
 20
5565.017562803736
 30
0.0
 10
6103.518140354558
 20
5564.968963032299
 30
0.0
 10
6103.520744997216
 20
5565.144870772306
 30
0.0
 10
6103.526471095261
 20
5565.557265456266
 30
0.0
 10
6103.533518090827
 20
5566.234973253559
 30
0.0
 10
6103.537954216858
 20
5566.95772317894
 30
0.0
 10
6103.538407516997
 20
5567.431870844427
 30
0.0
 10
6103.538582136912
 20
5567.614521627002
 30
0.0
  0
LINE
  5
121
330
1F
100
AcDbEntity
  8
0
  6
Continuous
 62
     7
370
    25
100
AcDbLine
 10
6274.0187589434
 20
5546.1145302101
 30
0.0
 11
6444.5187542942
 21
5546.1145302101
 31
0.0
  0
LINE
  5
122
330
1F
100
AcDbEntity
  8
0
  6
Continuous
 62
     7
370
    25
100
AcDbLine
 10
6103.5187635925
 20
5546.1145302101
 30
0.0
 11
6274.0187589434
 21
5546.1145302101
 31
0.0
  0
LINE
  5
123
330
1F
100
AcDbEntity
  8
0
  6
Continuous
 62
     7
370
    25
100
AcDbLine
 10
6274.0187589434
 20
5582.6145371242
 30
0.0
 11
6444.5187542942
 21
5582.6145371242
 31
0.0
  0
LINE
  5
124
330
1F
100
AcDbEntity
  8
0
  6
Continuous
 62
     7
370
    25
100
AcDbLine
 10
6103.5187635925
 20
5582.6145371242
 30
0.0
 11
6274.0187589434
 21
5582.6145371242
 31
0.0
  0
SPLINE
  5
125
330
1F
100
AcDbEntity
  8
0
  6
Continuous
 62
     7
370
    25
100
AcDbSpline
210
0.0
220
0.0
230
1.0
 70
     8
 71
     3
 72
    17
 73
    13
 74
     0
 42
0.000000001
 43
0.00000001
 40
0.0
 40
0.0
 40
0.0
 40
0.0
 40
0.037061146646401
 40
0.1444260627248385
 40
0.2517979205414483
 40
0.3591798975066654
 40
0.4665586562493484
 40
0.5739303156579261
 40
0.6812950906575465
 40
0.7886695873189127
 40
0.8960532927525674
 40
1.0
 40
1.0
 40
1.0
 40
1.0
 10
6444.518255105299
 20
5565.047856216006
 30
0.0
 10
6444.518392711264
 20
5565.038750179981
 30
0.0
 10
6444.518928957158
 20
5565.003264258758
 30
0.0
 10
6444.515246391314
 20
5565.244903686736
 30
0.0
 10
6444.508783221736
 20
5565.747418337653
 30
0.0
 10
6444.50206348342
 20
5566.480132591527
 30
0.0
 10
6444.498392876558
 20
5567.335601265496
 30
0.0
 10
6444.499276143029
 20
5568.223454636321
 30
0.0
 10
6444.504375224813
 20
5569.043879624949
 30
0.0
 10
6444.51134991169
 20
5569.697217521214
 30
0.0
 10
6444.51749097429
 20
5570.13378210953
 30
0.0
 10
6444.518292831111
 20
5570.184874943875
 30
0.0
 10
6444.518687238974
 20
5570.210005883746
 30
0.0
  0
LINE
  5
126
330
1F
100
AcDbEntity
  8
0
  6
Continuous
 62
     8
370
    25
100
AcDbLine
 10
6284.2200864461
 20
5619.1385051055
 30
0.0
 11
6278.0452166107
 21
5619.1385051055
 31
0.0
  0
LINE
  5
127
330
1F
100
AcDbEntity
  8
0
  6
Continuous
 62
     8
370
    25
100
AcDbLine
 10
6269.79049485
 20
5619.1385051055
 30
0.0
 11
6264.2287332919
 21
5619.1385051055
 31
0.0
  0
SPLINE
  5
128
330
1F
100
AcDbEntity
  8
0
  6
Continuous
 62
     8
370
    25
100
AcDbSpline
210
0.0
220
0.0
230
1.0
 70
     8
 71
     3
 72
     9
 73
     5
 74
     0
 42
0.000000001
 43
0.00000001
 40
0.0
 40
0.0
 40
0.0
 40
0.0
 40
0.2490898810160625
 40
1.0
 40
1.0
 40
1.0
 40
1.0
 10
6261.779168656153
 20
5582.71452391582
 30
0.0
 10
6261.739563678516
 20
5583.724530625582
 30
0.0
 10
6261.580564936877
 20
5587.779318823486
 30
0.0
 10
6261.461682033879
 20
5591.846305246501
 30
0.0
 10
6261.372411659045
 20
5594.900246505313
 30
0.0
  0
SPLINE
  5
129
330
1F
100
AcDbEntity
  8
0
  6
Continuous
 62
     8
370
    25
100
AcDbSpline
210
0.0
220
0.0
230
1.0
 70
     8
 71
     3
 72
    10
 73
     6
 74
     0
 42
0.000000001
 43
0.00000001
 40
0.0
 40
0.0
 40
0.0
 40
0.0
 40
0.1842877683934449
 40
0.8153503578488114
 40
0.9999999999999999
 40
0.9999999999999999
 40
0.9999999999999999
 40
0.9999999999999999
 10
6286.75510924129
 20
5601.84236967998
 30
0.0
 10
6286.728611414676
 20
5600.66495974549
 30
0.0
 10
6286.61137621996
 20
5595.455706739761
 30
0.0
 10
6286.425276276253
 20
5589.076723384504
 30
0.0
 10
6286.223863439834
 20
5583.888876803515
 30
0.0
 10
6286.178270390315
 20
5582.71452391582
 30
0.0
  0
LINE
  5
12A
330
1F
100
AcDbEntity
  8
0
  6
Continuous
 62
     8
370
    25
100
AcDbLine
 10
6264.2287332919
 20
5645.7843741222
 30
0.0
 11
6264.2287332919
 21
5645.6937154575
 31
0.0
  0
LINE
  5
12B
330
1F
100
AcDbEntity
  8
0
  6
Continuous
 62
     8
370
    25
100
AcDbLine
 10
6283.7287355569
 20
5645.6937154575
 30
0.0
 11
6283.7287355569
 21
5645.7843741222
 31
0.0
  0
SPLINE
  5
12C
330
1F
100
AcDbEntity
  8
0
  6
Continuous
 62
     8
370
    25
100
AcDbSpline
210
0.0
220
0.0
230
1.0
 70
     8
 71
     3
 72
     9
 73
     5
 74
     0
 42
0.000000001
 43
0.00000001
 40
0.0
 40
0.0
 40
0.0
 40
0.0
 40
0.2236867857943597
 40
1.0
 40
1.0
 40
1.0
 40
1.0
 10
6263.228731265349
 20
5622.40933978992
 30
0.0
 10
6263.198271149814
 20
5622.378324054389
 30
0.0
 10
6263.062098083411
 20
5622.239667068368
 30
0.0
 10
6263.081510332115
 20
5622.087397876409
 30
0.0
 10
6263.096580317301
 20
5621.969189290576
 30
0.0
  0
SPLINE
  5
12D
330
1F
100
AcDbEntity
  8
0
  6
Continuous
 62
     8
370
    25
100
AcDbSpline
210
0.0
220
0.0
230
1.0
 70
     8
 71
     3
 72
     9
 73
     5
 74
     0
 42
0.000000001
 43
0.00000001
 40
0.0
 40
0.0
 40
0.0
 40
0.0
 40
0.7763132142056403
 40
1.0
 40
1.0
 40
1.0
 40
1.0
 10
6284.860888531489
 20
5621.969189290576
 30
0.0
 10
6284.875958516674
 20
5622.087397876409
 30
0.0
 10
6284.895370765379
 20
5622.239667068368
 30
0.0
 10
6284.759197698976
 20
5622.378324054389
 30
0.0
 10
6284.728737583441
 20
5622.40933978992
 30
0.0
  0
ARC
  5
12E
330
1F
100
AcDbEntity
  8
0
  6
Continuous
 62
     8
370
    25
100
AcDbCircle
 10
6263.2419629369
 20
5622.2792799807
 30
0.0
 40
0.254798494758731
100
AcDbArc
 50
92.9767055279
 51
112.4251891928
  0
ARC
  5
12F
330
1F
100
AcDbEntity
  8
0
  6
Continuous
 62
     8
370
    25
100
AcDbCircle
 10
6284.7154984134
 20
5622.2792467096
 30
0.0
 40
0.2548321104461207
100
AcDbArc
 50
67.5761060189
 51
87.0219992593
  0
ARC
  5
130
330
1F
100
AcDbEntity
  8
0
  6
Continuous
 62
     8
370
    25
100
AcDbCircle
 10
6263.2578036078
 20
5621.5148048761
 30
0.0
 40
1.09975061215462
100
AcDbArc
 50
91.5148130634
 51
180.0145780963
  0
ARC
  5
131
330
1F
100
AcDbEntity
  8
0
  6
Continuous
 62
     8
370
    25
100
AcDbCircle
 10
6284.6996618776
 20
5621.5148016013
 30
0.0
 40
1.099753974755309
100
AcDbArc
 50
359.9855925626
 51
88.4850162776
  0
ARC
  5
132
330
1F
100
AcDbEntity
  8
0
  6
Continuous
 62
     8
370
    25
100
AcDbCircle
 10
6264.3424246685
 20
5628.821092498
 30
0.0
 40
3.329023260149956
100
AcDbArc
 50
109.5446038434
 51
167.7808114891
  0
ARC
  5
133
330
1F
100
AcDbEntity
  8
0
  6
Continuous
 62
     8
370
    25
100
AcDbCircle
 10
6283.4400077074
 20
5628.6671277295
 30
0.0
 40
3.534494610892045
100
AcDbArc
 50
14.0582800294
 51
68.6161067779
  0
LINE
  5
134
330
1F
100
AcDbEntity
  8
0
  6
Continuous
 62
     8
370
    25
100
AcDbLine
 10
6484.0187523869
 20
4786.6145333095
 30
0.0
 11
6064.0187654999
 21
4786.6145333095
 31
0.0
  0
SPLINE
  5
135
330
1F
100
AcDbEntity
  8
0
  6
Continuous
 62
     7
370
    25
100
AcDbSpline
210
0.0
220
0.0
230
1.0
 70
     8
 71
     3
 72
    13
 73
     9
 74
     0
 42
0.000000001
 43
0.00000001
 40
0.0
 40
0.0
 40
0.0
 40
0.0
 40
0.1048303441330077
 40
0.2776419243345294
 40
0.4453459030890835
 40
0.6242699287787109
 40
0.8812552002075582
 40
1.0
 40
1.0
 40
1.0
 40
1.0
 10
7100.391073412343
 20
5615.915175323062
 30
0.0
 10
7100.750329913733
 20
5615.090046815723
 30
0.0
 10
7101.701816500949
 20
5612.904703740724
 30
0.0
 10
7103.258719454461
 20
5609.41281326672
 30
0.0
 10
7105.098362450663
 20
5605.350706371541
 30
0.0
 10
7107.235471949476
 20
5600.630036049275
 30
0.0
 10
7109.165453234005
 20
5596.277052961655
 30
0.0
 10
7110.456376297083
 20
5593.321092015026
 30
0.0
 10
7110.864356420084
 20
5592.386897449069
 30
0.0
  0
SPLINE
  5
136
330
1F
100
AcDbEntity
  8
0
  6
Continuous
 62
     7
370
    25
100
AcDbSpline
210
0.0
220
0.0
230
1.0
 70
     8
 71
     3
 72
    11
 73
     7
 74
     0
 42
0.000000001
 43
0.00000001
 40
0.0
 40
0.0
 40
0.0
 40
0.0
 40
0.0588851980159472
 40
0.38794128422141
 40
0.7194238544401402
 40
1.0
 40
1.0
 40
1.0
 40
1.0
 10
7110.916933304711
 20
5592.430587653689
 30
0.0
 10
7110.97031948923
 20
5592.322405330641
 30
0.0
 10
7111.322032749599
 20
5591.609689898789
 30
0.0
 10
7111.726866995441
 20
5590.177614162787
 30
0.0
 10
7112.107799362329
 20
5588.276212555426
 30
0.0
 10
7112.122325792831
 20
5587.015014393172
 30
0.0
 10
7112.128984908654
 20
5586.436863784365
 30
0.0
  0
LINE
  5
137
330
1F
100
AcDbEntity
  8
0
  6
Continuous
 62
     7
370
    25
100
AcDbLine
 10
7112.1123896717
 20
5586.4306649013
 30
0.0
 11
7112.1123896717
 21
5582.6145371242
 31
0.0
  0
ARC
  5
138
330
1F
100
AcDbEntity
  8
0
  6
Continuous
 62
     7
370
    25
100
AcDbCircle
 10
7151.1131451228
 20
5612.0584028329
 30
0.0
 40
0.5000000000000929
100
AcDbArc
 50
9.7012804609
 51
65.4144031684
  0
LINE
  5
139
330
1F
100
AcDbEntity
  8
0
  6
Continuous
 62
     7
370
    25
100
AcDbLine
 10
7151.6131458609
 20
5582.6145371242
 30
0.0
 11
7151.6131458609
 21
5612.0583971782
 31
0.0
  0
ARC
  5
13A
330
1F
100
AcDbEntity
  8
0
  6
Continuous
 62
     7
370
    25
100
AcDbCircle
 10
7126.847467983
 20
5624.6145114605
 30
0.0
 40
1.999982681109727
100
AcDbArc
 50
203.5027162675
 51
269.9993633247
  0
LINE
  5
13B
330
1F
100
AcDbEntity
  8
0
  6
Continuous
 62
     7
370
    25
100
AcDbLine
 10
7125.0189112305
 20
5623.8043268962
 30
0.0
 11
7124.6092038034
 21
5624.7391661449
 31
0.0
  0
LINE
  5
13C
330
1F
100
AcDbEntity
  8
0
  6
Continuous
 62
     7
370
    25
100
AcDbLine
 10
7150.1796690552
 20
5613.0353471084
 30
0.0
 11
7150.5957206516
 21
5613.9446755691
 31
0.0
  0
LINE
  5
13D
330
1F
100
AcDbEntity
  8
0
  6
Continuous
 62
     7
370
    25
100
AcDbLine
 10
7138.7742904751
 20
5619.35337985
 30
0.0
 11
7138.3582388787
 21
5618.4440215869
 31
0.0
  0
LINE
  5
13E
330
1F
100
AcDbEntity
  8
0
  6
Continuous
 62
     7
370
    25
100
AcDbLine
 10
7097.0377524189
 20
5625.1170893951
 30
0.0
 11
7097.7617653823
 21
5623.1278737827
 31
0.0
  0
LINE
  5
13F
330
1F
100
AcDbEntity
  8
0
  6
Continuous
 62
     7
370
    25
100
AcDbLine
 10
7121.9868732422
 20
5631.9450994773
 30
0.0
 11
7121.2628593474
 21
5633.9342852874
 31
0.0
  0
ARC
  5
140
330
1F
100
AcDbEntity
  8
0
  6
Continuous
 62
     7
370
    25
100
AcDbCircle
 10
7119.3834750022
 20
5633.2502566422
 30
0.0
 40
1.999999999999879
100
AcDbArc
 50
20.0
 51
85.1128680053
  0
ARC
  5
141
330
1F
100
AcDbEntity
  8
0
  6
Continuous
 62
     7
370
    25
100
AcDbCircle
 10
7098.9171375091
 20
5625.8011189903
 30
0.0
 40
2.000000000000828
100
AcDbArc
 50
134.8871319947
 51
200.0
  0
ARC
  5
142
330
1F
100
AcDbEntity
  8
0
  6
Continuous
 62
     7
370
    25
100
AcDbCircle
 10
7116.8623294097
 20
5607.7850863232
 30
0.0
 40
27.42847509013234
100
AcDbArc
 50
110.0
 51
134.8871319947
  0
ARC
  5
143
330
1F
100
AcDbEntity
  8
0
  6
Continuous
 62
     7
370
    25
100
AcDbCircle
 10
7117.2171430402
 20
5607.9142279235
 30
0.0
 40
27.42847509013149
100
AcDbArc
 50
85.1128680053
 51
110.0
  0
LWPOLYLINE
  5
144
330
1F
100
AcDbEntity
  8
0
  6
Continuous
 62
     7
370
    25
100
AcDbPolyline
 90
        9
 70
   128
 43
0.0
 10
7107.836052104
 20
5633.6885651393
 10
7107.8225476938
 20
5633.6836477562
 10
7107.7840908236
 20
5633.6696406646
 10
7107.726535787
 20
5633.648689632
 10
7107.6586451652
 20
5633.6239835067
 10
7107.5907545435
 20
5633.5992773815
 10
7107.5331997397
 20
5633.5783263488
 10
7107.4947426366
 20
5633.5643490596
 10
7107.4812384593
 20
5633.5594316764
  0
LINE
  5
145
330
1F
100
AcDbEntity
  8
0
  6
Continuous
 62
     7
370
    25
100
AcDbLine
 10
7411.4257169693
 20
4787.1144970699
 30
0.0
 11
7411.4257169693
 21
5546.1145302101
 31
0.0
  0
LINE
  5
146
330
1F
100
AcDbEntity
  8
0
  6
Continuous
 62
     7
370
    25
100
AcDbLine
 10
7072.4257191448
 20
5546.1145302101
 30
0.0
 11
7072.4257191448
 21
4787.1144970699
 31
0.0
  0
LINE
  5
147
330
1F
100
AcDbEntity
  8
0
  6
Continuous
 62
     7
370
    25
100
AcDbLine
 10
7031.9257227509
 20
4786.6145333095
 30
0.0
 11
7031.9257227509
 21
4781.6145380779
 31
0.0
  0
LINE
  5
148
330
1F
100
AcDbEntity
  8
0
  6
Continuous
 62
     7
370
    25
100
AcDbLine
 10
7451.9257319896
 20
4781.6145380779
 30
0.0
 11
7451.9257319896
 21
4786.6145333095
 31
0.0
  0
ARC
  5
149
330
1F
100
AcDbEntity
  8
0
  6
Continuous
 62
     7
370
    25
100
AcDbCircle
 10
7032.4257207915
 20
4786.6145313272
 30
0.0
 40
0.5000000000009095
100
AcDbArc
 50
90.0
 51
180.0
  0
ARC
  5
14A
330
1F
100
AcDbEntity
  8
0
  6
Continuous
 62
     7
370
    25
100
AcDbCircle
 10
7451.4257207915
 20
4786.6145313272
 30
0.0
 40
0.5000000000009095
100
AcDbArc
 50
0.0
 51
90.0
  0
LINE
  5
14B
330
1F
100
AcDbEntity
  8
0
  6
Continuous
 62
     7
370
    25
100
AcDbLine
 10
7412.425733897
 20
5546.1145302101
 30
0.0
 11
7412.425733897
 21
5582.6145371242
 31
0.0
  0
LINE
  5
14C
330
1F
100
AcDbEntity
  8
0
  6
Continuous
 62
     7
370
    25
100
AcDbLine
 10
7071.4257208436
 20
5582.6145371242
 30
0.0
 11
7071.4257208436
 21
5546.1145302101
 31
0.0
  0
SPLINE
  5
14D
330
1F
100
AcDbEntity
  8
0
  6
Continuous
 62
     7
370
    25
100
AcDbSpline
210
0.0
220
0.0
230
1.0
 70
     8
 71
     3
 72
    11
 73
     7
 74
     0
 42
0.000000001
 43
0.00000001
 40
0.0
 40
0.0
 40
0.0
 40
0.0
 40
0.3831021803765691
 40
0.7662751023244044
 40
0.990113035843878
 40
1.0
 40
1.0
 40
1.0
 40
1.0
 10
7129.901412668719
 20
5594.900246505313
 30
0.0
 10
7128.594354391222
 20
5598.482880901325
 30
0.0
 10
7125.979996481931
 20
5605.64881124319
 30
0.0
 10
7122.235923504606
 20
5614.770450919884
 30
0.0
 10
7120.248405133932
 20
5620.580599485963
 30
0.0
 10
7119.592190517821
 20
5622.802469822225
 30
0.0
 10
7119.564431513741
 20
5622.896458749346
 30
0.0
  0
SPLINE
  5
14E
330
1F
100
AcDbEntity
  8
0
  6
Continuous
 62
     7
370
    25
100
AcDbSpline
210
0.0
220
0.0
230
1.0
 70
     8
 71
     3
 72
     9
 73
     5
 74
     0
 42
0.000000001
 43
0.00000001
 40
0.0
 40
0.0
 40
0.0
 40
0.0
 40
0.4188282919306854
 40
1.0
 40
1.0
 40
1.0
 40
1.0
 10
7119.939234833314
 20
5622.78416359859
 30
0.0
 10
7119.886362336399
 20
5622.798812061913
 30
0.0
 10
7119.760123259586
 20
5622.833786927758
 30
0.0
 10
7119.63635950588
 20
5622.873423243833
 30
0.0
 10
7119.564431513741
 20
5622.896458749346
 30
0.0
  0
SPLINE
  5
14F
330
1F
100
AcDbEntity
  8
0
  6
Continuous
 62
     7
370
    25
100
AcDbSpline
210
0.0
220
0.0
230
1.0
 70
     8
 71
     3
 72
    11
 73
     7
 74
     0
 42
0.000000001
 43
0.00000001
 40
0.0
 40
0.0
 40
0.0
 40
0.0
 40
0.0384171060441129
 40
0.100020622427045
 40
0.3463168259716319
 40
1.0
 40
1.0
 40
1.0
 40
1.0
 10
7122.039280626072
 20
5621.56796062427
 30
0.0
 10
7122.030042292135
 20
5621.598993441018
 30
0.0
 10
7122.005989884085
 20
5621.679788742027
 30
0.0
 10
7121.802068910983
 20
5621.894582826519
 30
0.0
 10
7121.114404199011
 20
5622.309780965184
 30
0.0
 10
7120.433671955582
 20
5622.584573317426
 30
0.0
 10
7119.939234833314
 20
5622.78416359859
 30
0.0
  0
SPLINE
  5
150
330
1F
100
AcDbEntity
  8
0
  6
Continuous
 62
     7
370
    25
100
AcDbSpline
210
0.0
220
0.0
230
1.0
 70
     8
 71
     3
 72
    11
 73
     7
 74
     0
 42
0.000000001
 43
0.00000001
 40
0.0
 40
0.0
 40
0.0
 40
0.0
 40
0.4126285138680966
 40
0.7056481567714104
 40
0.8528730515467463
 40
0.9999999999999999
 40
0.9999999999999999
 40
0.9999999999999999
 40
0.9999999999999999
 10
7129.901412668719
 20
5594.900246505313
 30
0.0
 10
7128.620068331866
 20
5598.508426728727
 30
0.0
 10
7126.428803697695
 20
5604.678881843628
 30
0.0
 10
7124.147671797432
 20
5612.258259633182
 30
0.0
 10
7122.758375473903
 20
5617.532513428633
 30
0.0
 10
7122.278925729311
 20
5620.223109993334
 30
0.0
 10
7122.039280626072
 20
5621.56796062427
 30
0.0
  0
SPLINE
  5
151
330
1F
100
AcDbEntity
  8
0
  6
Continuous
 62
     7
370
    25
100
AcDbSpline
210
0.0
220
0.0
230
1.0
 70
     8
 71
     3
 72
    10
 73
     6
 74
     0
 42
0.000000001
 43
0.00000001
 40
0.0
 40
0.0
 40
0.0
 40
0.0
 40
0.0000047429765867
 40
0.2552104087880396
 40
0.9999999999999999
 40
0.9999999999999999
 40
0.9999999999999999
 40
0.9999999999999999
 10
7135.988041552796
 20
5582.614537124209
 30
0.0
 10
7135.988032860462
 20
5582.614556992429
 30
0.0
 10
7135.520315147274
 20
5583.68362751645
 30
0.0
 10
7133.352849913111
 20
5587.710944874725
 30
0.0
 10
7131.374714398124
 20
5591.83137699515
 30
0.0
 10
7129.901412668719
 20
5594.900246505313
 30
0.0
  0
LINE
  5
152
330
1F
100
AcDbEntity
  8
0
  6
Continuous
 62
     7
370
    25
100
AcDbLine
 10
7122.6296273797
 20
5621.5276976867
 30
0.0
 11
7122.0392806261
 21
5621.5679606243
 31
0.0
  0
LINE
  5
153
330
1F
100
AcDbEntity
  8
0
  6
Continuous
 62
     7
370
    25
100
AcDbLine
 10
7123.085042256
 20
5621.5145250602
 30
0.0
 11
7122.6296273797
 21
5621.5276976867
 31
0.0
  0
SPLINE
  5
154
330
1F
100
AcDbEntity
  8
0
  6
Continuous
 62
     7
370
    25
100
AcDbSpline
210
0.0
220
0.0
230
1.0
 70
     8
 71
     3
 72
    11
 73
     7
 74
     0
 42
0.000000001
 43
0.00000001
 40
0.0
 40
0.0
 40
0.0
 40
0.0
 40
0.2164220478045519
 40
0.5221129500946875
 40
0.839804789319547
 40
1.0
 40
1.0
 40
1.0
 40
1.0
 10
7123.085042256012
 20
5621.514525060229
 30
0.0
 10
7124.382400357934
 20
5618.650732079184
 30
0.0
 10
7127.512245365849
 20
5611.741900853523
 30
0.0
 10
7133.007855582679
 20
5600.855167713966
 30
0.0
 10
7138.214108246015
 20
5590.748553319971
 30
0.0
 10
7141.503727534897
 20
5584.65664128326
 30
0.0
 10
7142.606459352269
 20
5582.614537124209
 30
0.0
  0
SPLINE
  5
155
330
1F
100
AcDbEntity
  8
0
  6
Continuous
 62
     7
370
    25
100
AcDbSpline
210
0.0
220
0.0
230
1.0
 70
     8
 71
     3
 72
    20
 73
    16
 74
     0
 42
0.000000001
 43
0.00000001
 40
0.0
 40
0.0
 40
0.0
 40
0.0
 40
0.0559831032666291
 40
0.1433106214128519
 40
0.2306187310640599
 40
0.3165273771540921
 40
0.4023971030100214
 40
0.4828319655616429
 40
0.5632311832813514
 40
0.6416055617302844
 40
0.7230018029107187
 40
0.7916873657899882
 40
0.8610625303512109
 40
0.9304531239318322
 40
1.0
 40
1.0
 40
1.0
 40
1.0
 10
7100.429273004725
 20
5615.931834821276
 30
0.0
 10
7100.428415032431
 20
5615.931523537766
 30
0.0
 10
7100.426218717199
 20
5615.930726686022
 30
0.0
 10
7100.874564147983
 20
5616.093915158221
 30
0.0
 10
7101.710435453037
 20
5616.39812944505
 30
0.0
 10
7102.939159597026
 20
5616.845381190727
 30
0.0
 10
7104.462822601366
 20
5617.399946306226
 30
0.0
 10
7106.245406642367
 20
5618.04875293338
 30
0.0
 10
7108.190471603592
 20
5618.756687949779
 30
0.0
 10
7110.304437383845
 20
5619.526115359918
 30
0.0
 10
7112.396990961898
 20
5620.287732421745
 30
0.0
 10
7114.406812193844
 20
5621.019271974159
 30
0.0
 10
7116.248276745295
 20
5621.689454684572
 30
0.0
 10
7118.006066728558
 20
5622.329307396749
 30
0.0
 10
7119.0445871954
 20
5622.707266583886
 30
0.0
 10
7119.564431513741
 20
5622.896458749346
 30
0.0
  0
LINE
  5
156
330
1F
100
AcDbEntity
  8
0
  6
Continuous
 62
     7
370
    25
100
AcDbLine
 10
7119.9392348333
 20
5622.7841635986
 30
0.0
 11
7122.5655263095
 21
5622.6145287796
 31
0.0
  0
ARC
  5
157
330
1F
100
AcDbEntity
  8
0
  6
Continuous
 62
     7
370
    25
100
AcDbCircle
 10
7117.9386955699
 20
5621.7963333916
 30
0.0
 40
4.698617497256294
100
AcDbArc
 50
356.7224210406
 51
10.028344579
  0
SPLINE
  5
158
330
1F
100
AcDbEntity
  8
0
  6
Continuous
 62
     7
370
    25
100
AcDbSpline
210
0.0
220
0.0
230
1.0
 70
     8
 71
     3
 72
    10
 73
     6
 74
     0
 42
0.000000001
 43
0.00000001
 40
0.0
 40
0.0
 40
0.0
 40
0.0
 40
0.2481683512626257
 40
0.6990185016848152
 40
1.0
 40
1.0
 40
1.0
 40
1.0
 10
7134.68838462521
 20
5619.689371232562
 30
0.0
 10
7134.461645051181
 20
5619.777000335885
 30
0.0
 10
7133.822985220047
 20
5620.023826186949
 30
0.0
 10
7132.921333574636
 20
5620.409052377262
 30
0.0
 10
7132.249121911076
 20
5620.712293993038
 30
0.0
 10
7131.980014759197
 20
5620.833691005282
 30
0.0
  0
LINE
  5
159
330
1F
100
AcDbEntity
  8
0
  6
Continuous
 62
     7
370
    25
100
AcDbLine
 10
7135.8747461616
 20
5619.0572043701
 30
0.0
 11
7134.6883846252
 21
5619.6893712326
 31
0.0
  0
SPLINE
  5
15A
330
1F
100
AcDbEntity
  8
0
  6
Continuous
 62
     7
370
    25
100
AcDbSpline
210
0.0
220
0.0
230
1.0
 70
     8
 71
     3
 72
     9
 73
     5
 74
     0
 42
0.000000001
 43
0.00000001
 40
0.0
 40
0.0
 40
0.0
 40
0.0
 40
0.6543803107048968
 40
0.9999999999999999
 40
0.9999999999999999
 40
0.9999999999999999
 40
0.9999999999999999
 10
7137.25660348226
 20
5618.426795844607
 30
0.0
 10
7136.955261983344
 20
5618.564264079547
 30
0.0
 10
7136.494762952448
 20
5618.774337996334
 30
0.0
 10
7136.033996217399
 20
5618.98455071542
 30
0.0
 10
7135.874746161594
 20
5619.057204370074
 30
0.0
  0
SPLINE
  5
15B
330
1F
100
AcDbEntity
  8
0
  6
Continuous
 62
     7
370
    25
100
AcDbSpline
210
0.0
220
0.0
230
1.0
 70
     8
 71
     3
 72
    11
 73
     7
 74
     0
 42
0.000000001
 43
0.00000001
 40
0.0
 40
0.0
 40
0.0
 40
0.0
 40
0.000007818377588
 40
0.1291748153090296
 40
0.6458671535424282
 40
0.9999999999999999
 40
0.9999999999999999
 40
0.9999999999999999
 40
0.9999999999999999
 10
7144.234742763533
 20
5615.243907813601
 30
0.0
 10
7144.23472537887
 20
5615.243917747763
 30
0.0
 10
7143.94749689504
 20
5615.408049413835
 30
0.0
 10
7142.412189774589
 20
5616.011845269097
 30
0.0
 10
7140.11859446476
 20
5617.137595808905
 30
0.0
 10
7138.083978000231
 20
5618.054090766811
 30
0.0
 10
7137.256573679938
 20
5618.426795844607
 30
0.0
  0
LINE
  5
15C
330
1F
100
AcDbEntity
  8
0
  6
Continuous
 62
     7
370
    25
100
AcDbLine
 10
7144.2347427635
 20
5615.2439078136
 30
0.0
 11
7144.2347427635
 21
5582.6145371242
 31
0.0
  0
SPLINE
  5
15D
330
1F
100
AcDbEntity
  8
0
  6
Continuous
 62
     7
370
    25
100
AcDbSpline
210
0.0
220
0.0
230
1.0
 70
    24
 71
     3
 72
     9
 73
     5
 74
     0
 42
0.000000001
 43
0.00000001
 40
0.0
 40
0.0
 40
0.0
 40
0.0
 40
0.2966673730514375
 40
1.0
 40
1.0
 40
1.0
 40
1.0
 10
7130.487374755635
 20
5621.514525060229
 30
0.0
 10
7129.756365947153
 20
5621.514525060229
 30
0.0
 10
7127.29229717894
 20
5621.514525060229
 30
0.0
 10
7124.822283479698
 20
5621.514525060229
 30
0.0
 10
7123.085042256012
 20
5621.514525060229
 30
0.0
  0
LINE
  5
15E
330
1F
100
AcDbEntity
  8
0
  6
Continuous
 62
     7
370
    25
100
AcDbLine
 10
7131.9800147592
 20
5620.8336910053
 30
0.0
 11
7130.4873747556
 21
5621.5145250602
 31
0.0
  0
LINE
  5
15F
330
1F
100
AcDbEntity
  8
0
  6
Continuous
 62
     7
370
    25
100
AcDbLine
 10
7122.5655263095
 20
5622.6145287796
 30
0.0
 11
7123.0475155442
 21
5622.6145287796
 31
0.0
  0
ARC
  5
160
330
1F
100
AcDbEntity
  8
0
  6
Continuous
 62
     7
370
    25
100
AcDbCircle
 10
7114.9953759086
 20
5621.7891874411
 30
0.0
 40
8.094327707474594
100
AcDbArc
 50
358.0554262991
 51
5.8523580455
  0
SPLINE
  5
161
330
1F
100
AcDbEntity
  8
0
  6
Continuous
 62
     7
370
    25
100
AcDbSpline
210
0.0
220
0.0
230
1.0
 70
     8
 71
     3
 72
    11
 73
     7
 74
     0
 42
0.000000001
 43
0.00000001
 40
0.0
 40
0.0
 40
0.0
 40
0.0
 40
0.1452081007387564
 40
0.5856647907525258
 40
0.907190027522692
 40
0.9999999999999999
 40
0.9999999999999999
 40
0.9999999999999999
 40
0.9999999999999999
 10
7130.487374755635
 20
5621.514525060229
 30
0.0
 10
7130.423345327579
 20
5621.567987551791
 30
0.0
 10
7130.165096776751
 20
5621.783616699021
 30
0.0
 10
7129.763364006199
 20
5622.115588948192
 30
0.0
 10
7129.41815704219
 20
5622.396500207838
 30
0.0
 10
7129.296167043775
 20
5622.493158917793
 30
0.0
 10
7129.268841612234
 20
5622.51481020885
 30
0.0
  0
LINE
  5
162
330
1F
100
AcDbEntity
  8
0
  6
Continuous
 62
     7
370
    25
100
AcDbLine
 10
7123.0475155442
 20
5622.6145287796
 30
0.0
 11
7129.0033178209
 21
5622.6145287796
 31
0.0
  0
SPLINE
  5
163
330
1F
100
AcDbEntity
  8
0
  6
Continuous
 62
     7
370
    25
100
AcDbSpline
210
0.0
220
0.0
230
1.0
 70
     8
 71
     3
 72
    15
 73
    11
 74
     0
 42
0.000000001
 43
0.00000001
 40
0.0
 40
0.0
 40
0.0
 40
0.0
 40
0.5190105999658342
 40
0.7576445809037703
 40
0.8766577866819609
 40
0.8796930020130732
 40
0.938614385434691
 40
0.9686627024899314
 40
0.9872268903902985
 40
1.0
 40
1.0
 40
1.0
 40
1.0
 10
7129.268841612234
 20
5622.51481020885
 30
0.0
 10
7129.224132682124
 20
5622.544355603301
 30
0.0
 10
7129.158867196952
 20
5622.587485566348
 30
0.0
 10
7129.079913176251
 20
5622.607766383892
 30
0.0
 10
7129.047269207755
 20
5622.611860903514
 30
0.0
 10
7129.030945988026
 20
5622.613652325424
 30
0.0
 10
7129.02259347995
 20
5622.614043575
 30
0.0
 10
7129.012870729699
 20
5622.614431945422
 30
0.0
 10
7129.007306832148
 20
5622.614541113549
 30
0.0
 10
7129.004472924239
 20
5622.614532351129
 30
0.0
 10
7129.003317820921
 20
5622.614528779559
 30
0.0
  0
ARC
  5
164
330
1F
100
AcDbEntity
  8
0
  6
Continuous
 62
     7
370
    25
100
AcDbCircle
 10
7129.089025107
 20
5622.283034343
 30
0.0
 40
1.595615322579593
100
AcDbArc
 50
331.2075501701
 51
348.6564071193
  0
ARC
  5
165
330
1F
100
AcDbEntity
  8
0
  6
Continuous
 62
     7
370
    25
100
AcDbCircle
 10
7129.3649084671
 20
5622.285637093
 30
0.0
 40
0.2484937778199984
100
AcDbArc
 50
67.2571037165
 51
112.7428962835
  0
SPLINE
  5
166
330
1F
100
AcDbEntity
  8
0
  6
Continuous
 62
     7
370
    25
100
AcDbSpline
210
0.0
220
0.0
230
1.0
 70
     8
 71
     3
 72
    10
 73
     6
 74
     0
 42
0.000000001
 43
0.00000001
 40
0.0
 40
0.0
 40
0.0
 40
0.0
 40
0.0790723313715864
 40
0.3860822161419066
 40
1.0
 40
1.0
 40
1.0
 40
1.0
 10
7129.460975322022
 20
5622.51481020885
 30
0.0
 10
7129.487179866899
 20
5622.502821569102
 30
0.0
 10
7129.615127387651
 20
5622.444285283115
 30
0.0
 10
7130.019634688026
 20
5622.259205738422
 30
0.0
 10
7130.399944627822
 20
5622.085192015577
 30
0.0
 10
7130.653470548882
 20
5621.969189290576
 30
0.0
  0
ARC
  5
167
330
1F
100
AcDbEntity
  8
0
  6
Continuous
 62
     7
370
    25
100
AcDbCircle
 10
7124.085883283
 20
5624.3066561466
 30
0.0
 40
1.695922341887787
100
AcDbArc
 50
192.502807809
 51
266.1662824063
  0
SPLINE
  5
168
330
1F
100
AcDbEntity
  8
0
  6
Continuous
 62
     7
370
    25
100
AcDbSpline
210
0.0
220
0.0
230
1.0
 70
     8
 71
     3
 72
     9
 73
     5
 74
     0
 42
0.000000001
 43
0.00000001
 40
0.0
 40
0.0
 40
0.0
 40
0.0
 40
0.4528728994023519
 40
1.0
 40
1.0
 40
1.0
 40
1.0
 10
7119.564431513741
 20
5622.896458749346
 30
0.0
 10
7120.058953108411
 20
5623.076456944643
 30
0.0
 10
7121.150918636313
 20
5623.473915471159
 30
0.0
 10
7121.977780518297
 20
5623.774856977036
 30
0.0
 10
7122.43017906238
 20
5623.939510230593
 30
0.0
  0
ARC
  5
169
330
1F
100
AcDbEntity
  8
0
  6
Continuous
 62
     7
370
    25
100
AcDbCircle
 10
7130.7263727194
 20
5621.5349830125
 30
0.0
 40
1.436464006993353
100
AcDbArc
 50
330.7771889086
 51
350.1150613708
  0
LINE
  5
16A
330
1F
100
AcDbEntity
  8
0
  6
Continuous
 62
     7
370
    25
100
AcDbLine
 10
7130.6534705489
 20
5621.9691892906
 30
0.0
 11
7132.1415116816
 21
5621.288385038
 31
0.0
  0
LINE
  5
16B
330
1F
100
AcDbEntity
  8
0
  6
Continuous
 62
     7
370
    25
100
AcDbLine
 10
7134.8070332586
 20
5620.0688144012
 30
0.0
 11
7132.1415116816
 21
5621.288385038
 31
0.0
  0
SPLINE
  5
16C
330
1F
100
AcDbEntity
  8
0
  6
Continuous
 62
     7
370
    25
100
AcDbSpline
210
0.0
220
0.0
230
1.0
 70
     8
 71
     3
 72
    11
 73
     7
 74
     0
 42
0.000000001
 43
0.00000001
 40
0.0
 40
0.0
 40
0.0
 40
0.0
 40
0.2499788763618974
 40
0.5000105877719624
 40
0.7499834794103518
 40
1.0
 40
1.0
 40
1.0
 40
1.0
 10
7134.807033258571
 20
5620.068814401202
 30
0.0
 10
7134.801556936
 20
5620.045176524466
 30
0.0
 10
7134.790603133391
 20
5619.997895774938
 30
0.0
 10
7134.762819170547
 20
5619.904169127681
 30
0.0
 10
7134.728736763267
 20
5619.800037576418
 30
0.0
 10
7134.701836120345
 20
5619.726262159722
 30
0.0
 10
7134.68838462521
 20
5619.689371232562
 30
0.0
  0
SPLINE
  5
16D
330
1F
100
AcDbEntity
  8
0
  6
Continuous
 62
     7
370
    25
100
AcDbSpline
210
0.0
220
0.0
230
1.0
 70
     8
 71
     3
 72
    10
 73
     6
 74
     0
 42
0.000000001
 43
0.00000001
 40
0.0
 40
0.0
 40
0.0
 40
0.0
 40
0.2913195832613916
 40
0.6412051658285273
 40
1.0
 40
1.0
 40
1.0
 40
1.0
 10
7136.024264413013
 20
5619.511868600421
 30
0.0
 10
7135.913900346845
 20
5619.562364503212
 30
0.0
 10
7135.670984959707
 20
5619.67350785087
 30
0.0
 10
7135.264725552079
 20
5619.859433452621
 30
0.0
 10
7134.960870671111
 20
5619.998438247132
 30
0.0
 10
7134.807033258571
 20
5620.068814401202
 30
0.0
  0
SPLINE
  5
16E
330
1F
100
AcDbEntity
  8
0
  6
Continuous
 62
     7
370
    25
100
AcDbSpline
210
0.0
220
0.0
230
1.0
 70
     8
 71
     3
 72
    11
 73
     7
 74
     0
 42
0.000000001
 43
0.00000001
 40
0.0
 40
0.0
 40
0.0
 40
0.0
 40
0.2499999079462491
 40
0.499991968794571
 40
0.7500062535296929
 40
1.0
 40
1.0
 40
1.0
 40
1.0
 10
7136.024283039465
 20
5619.511898402743
 30
0.0
 10
7136.027499699199
 20
5619.50266767687
 30
0.0
 10
7136.033932917702
 20
5619.48420651486
 30
0.0
 10
7136.004313556903
 20
5619.378050248033
 30
0.0
 10
7135.950525479345
 20
5619.230602358542
 30
0.0
 10
7135.900005242457
 20
5619.11500211677
 30
0.0
 10
7135.874746161594
 20
5619.057204370074
 30
0.0
  0
LINE
  5
16F
330
1F
100
AcDbEntity
  8
0
  6
Continuous
 62
     7
370
    25
100
AcDbLine
 10
7100.4484745479
 20
5623.9201685234
 30
0.0
 11
7103.0136256284
 21
5616.8724855228
 31
0.0
  0
LINE
  5
170
330
1F
100
AcDbEntity
  8
0
  6
Continuous
 62
     7
370
    25
100
AcDbLine
 10
7108.6637578244
 20
5626.9102951332
 30
0.0
 11
7111.2289091377
 21
5619.8625823303
 31
0.0
  0
LINE
  5
171
330
1F
100
AcDbEntity
  8
0
  6
Continuous
 62
     7
370
    25
100
AcDbLine
 10
7100.4484745479
 20
5623.9201685234
 30
0.0
 11
7108.6637578244
 21
5626.9102951332
 31
0.0
  0
LINE
  5
172
330
1F
100
AcDbEntity
  8
0
  6
Continuous
 62
     7
370
    25
100
AcDbLine
 10
7118.1634858056
 20
5630.3679009719
 30
0.0
 11
7120.7286378174
 21
5623.3202179714
 31
0.0
  0
LINE
  5
173
330
1F
100
AcDbEntity
  8
0
  6
Continuous
 62
     7
370
    25
100
AcDbLine
 10
7108.6637578244
 20
5626.9102951332
 30
0.0
 11
7118.1634858056
 21
5630.3679009719
 31
0.0
  0
LINE
  5
174
330
1F
100
AcDbEntity
  8
0
  6
Continuous
 62
     7
370
    25
100
AcDbLine
 10
7136.0242830395
 20
5619.5118984027
 30
0.0
 11
7137.4021654754
 21
5618.881460075
 31
0.0
  0
SPLINE
  5
175
330
1F
100
AcDbEntity
  8
0
  6
Continuous
 62
     7
370
    25
100
AcDbSpline
210
0.0
220
0.0
230
1.0
 70
     8
 71
     3
 72
    11
 73
     7
 74
     0
 42
0.000000001
 43
0.00000001
 40
0.0
 40
0.0
 40
0.0
 40
0.0
 40
0.2500035952722472
 40
0.4999985126518936
 40
0.7500053115732951
 40
0.9999999999999999
 40
0.9999999999999999
 40
0.9999999999999999
 40
0.9999999999999999
 10
7137.402105870738
 20
5618.881489877276
 30
0.0
 10
7137.40573998497
 20
5618.872108746818
 30
0.0
 10
7137.413008087289
 20
5618.853346811527
 30
0.0
 10
7137.384626448934
 20
5618.747123855583
 30
0.0
 10
7137.331857899554
 20
5618.599866161077
 30
0.0
 10
7137.28164814622
 20
5618.484504886927
 30
0.0
 10
7137.256543877616
 20
5618.42682564693
 30
0.0
  0
SPLINE
  5
176
330
1F
100
AcDbEntity
  8
0
  6
Continuous
 62
     7
370
    25
100
AcDbSpline
210
0.0
220
0.0
230
1.0
 70
     8
 71
     3
 72
    15
 73
    11
 74
     0
 42
0.000000001
 43
0.00000001
 40
0.0
 40
0.0
 40
0.0
 40
0.0
 40
0.521798254826312
 40
0.7593458679365237
 40
0.8775786809245746
 40
0.879678624001969
 40
0.9386173369066659
 40
0.9686701922147872
 40
0.9872316883005294
 40
1.0
 40
1.0
 40
1.0
 40
1.0
 10
7129.460975322022
 20
5622.51481020885
 30
0.0
 10
7129.383560966327
 20
5622.544500782446
 30
0.0
 10
7129.270903879852
 20
5622.587707930359
 30
0.0
 10
7129.134572039532
 20
5622.607827955069
 30
0.0
 10
7129.078759413075
 20
5622.611934605604
 30
0.0
 10
7129.050827409302
 20
5622.613639023964
 30
0.0
 10
7129.036581295198
 20
5622.614047505029
 30
0.0
 10
7129.01979741748
 20
5622.614431472165
 30
0.0
 10
7129.010202081687
 20
5622.614541168398
 30
0.0
 10
7129.00531111198
 20
5622.614532366664
 30
0.0
 10
7129.003317820921
 20
5622.614528779559
 30
0.0
  0
SPLINE
  5
177
330
1F
100
AcDbEntity
  8
0
  6
Continuous
 62
     7
370
    25
100
AcDbSpline
210
0.0
220
0.0
230
1.0
 70
     8
 71
     3
 72
    10
 73
     6
 74
     0
 42
0.000000001
 43
0.00000001
 40
0.0
 40
0.0
 40
0.0
 40
0.0
 40
0.3206560629348796
 40
0.7712445930106179
 40
1.0
 40
1.0
 40
1.0
 40
1.0
 10
7129.460975322022
 20
5622.51481020885
 30
0.0
 10
7129.421428496285
 20
5622.532901085291
 30
0.0
 10
7129.326310146609
 20
5622.576413409713
 30
0.0
 10
7129.253355141628
 20
5622.609787177194
 30
0.0
 10
7129.245616336335
 20
5622.613334342865
 30
0.0
 10
7129.243010449304
 20
5622.614528779559
 30
0.0
  0
ARC
  5
178
330
1F
100
AcDbEntity
  8
0
  6
Continuous
 62
     7
370
    25
100
AcDbCircle
 10
7128.2201304363
 20
5624.3331687604
 30
0.0
 40
1.999999999999972
100
AcDbArc
 50
300.7598257244
 51
335.4144031671
  0
LWPOLYLINE
  5
179
330
1F
100
AcDbEntity
  8
0
  6
Continuous
 62
     7
370
    25
100
AcDbPolyline
 90
        9
 70
   128
 43
0.0
 10
7130.0388125508
 20
5623.5010584636
 10
7130.0562841623
 20
5623.4930714412
 10
7130.1080321698
 20
5623.4694083972
 10
7130.1920635431
 20
5623.430933599
 10
7130.3051521807
 20
5623.3791967674
 10
7130.4429506688
 20
5623.3161648555
 10
7130.6001635074
 20
5623.2442220493
 10
7130.7707482754
 20
5623.166169767
 10
7130.9481521874
 20
5623.0850180431
  0
ARC
  5
17A
330
1F
100
AcDbEntity
  8
0
  6
Continuous
 62
     7
370
    25
100
AcDbCircle
 10
7128.2201304363
 20
5624.3331687604
 30
0.0
 40
2.999999999999076
100
AcDbArc
 50
313.1373832762
 51
335.4144031671
  0
LINE
  5
17B
330
1F
100
AcDbEntity
  8
0
  6
Continuous
 62
     7
370
    25
100
AcDbLine
 10
7140.8763004272
 20
5644.7843869968
 30
0.0
 11
7130.9481521874
 21
5623.0850180431
 31
0.0
  0
LINE
  5
17C
330
1F
100
AcDbEntity
  8
0
  6
Continuous
 62
     7
370
    25
100
AcDbLine
 10
7144.5136626988
 20
5643.12016571
 30
0.0
 11
7140.8763004272
 21
5644.7843869968
 31
0.0
  0
LINE
  5
17D
330
1F
100
AcDbEntity
  8
0
  6
Continuous
 62
     7
370
    25
100
AcDbLine
 10
7134.944462943
 20
5622.2053428932
 30
0.0
 11
7144.5136626988
 21
5643.12016571
 31
0.0
  0
ARC
  5
17E
330
1F
100
AcDbEntity
  8
0
  6
Continuous
 62
     7
370
    25
100
AcDbCircle
 10
7137.6724846049
 20
5620.9571756675
 30
0.0
 40
3.000000000000069
100
AcDbArc
 50
155.4144031671
 51
197.2247180642
  0
LWPOLYLINE
  5
17F
330
1F
100
AcDbEntity
  8
0
  6
Continuous
 62
     7
370
    25
100
AcDbPolyline
 90
        9
 70
   128
 43
0.0
 10
7135.8538025795
 20
5621.7892726703
 10
7135.836330968
 20
5621.7972596927
 10
7135.7845829605
 20
5621.820952539
 10
7135.7005515872
 20
5621.8593975349
 10
7135.5874629496
 20
5621.9111343666
 10
7135.4496644615
 20
5621.9741960807
 10
7135.292451623
 20
5622.0461090847
 10
7135.1218668549
 20
5622.124161367
 10
7134.944462943
 20
5622.2053428932
  0
ARC
  5
180
330
1F
100
AcDbEntity
  8
0
  6
Continuous
 62
     7
370
    25
100
AcDbCircle
 10
7137.6724846049
 20
5620.9571756675
 30
0.0
 40
2.000000000000372
100
AcDbArc
 50
155.4144031671
 51
245.4144031684
  0
SPLINE
  5
181
330
1F
100
AcDbEntity
  8
0
  6
Continuous
 62
     7
370
    25
100
AcDbSpline
210
0.0
220
0.0
230
1.0
 70
     8
 71
     3
 72
     9
 73
     5
 74
     0
 42
0.000000001
 43
0.00000001
 40
0.0
 40
0.0
 40
0.0
 40
0.0
 40
0.0119605913245414
 40
0.9999999999999999
 40
0.9999999999999999
 40
0.9999999999999999
 40
0.9999999999999999
 10
7136.840380522503
 20
5619.138505105548
 30
0.0
 10
7136.842594432614
 20
5619.137491895623
 30
0.0
 10
7137.027694821868
 20
5619.052779534982
 30
0.0
 10
7137.216026626175
 20
5618.966619443307
 30
0.0
 10
7137.402105870738
 20
5618.881489877276
 30
0.0
  0
LINE
  5
182
330
1F
100
AcDbEntity
  8
0
  6
Continuous
 62
     7
370
    25
100
AcDbLine
 10
7130.0388125508
 20
5623.5010584636
 30
0.0
 11
7139.9669607906
 21
5645.2004274173
 31
0.0
  0
LWPOLYLINE
  5
183
330
1F
100
AcDbEntity
  8
0
  6
Continuous
 62
     7
370
    25
100
AcDbPolyline
 90
        9
 70
   128
 43
0.0
 10
7139.9669607906
 20
5645.2004274173
 10
7139.9844324021
 20
5645.1924403949
 10
7140.0361804097
 20
5645.1687475486
 10
7140.1202117829
 20
5645.1303025528
 10
7140.2333004205
 20
5645.0785657211
 10
7140.3710989087
 20
5645.0155338092
 10
7140.5283098846
 20
5644.943591003
 10
7140.6988983779
 20
5644.8655387207
 10
7140.8763004272
 20
5644.7843869968
  0
LINE
  5
184
330
1F
100
AcDbEntity
  8
0
  6
Continuous
 62
     7
370
    25
100
AcDbLine
 10
7145.6310299962
 20
5643.1587895198
 30
0.0
 11
7135.8538025795
 21
5621.7892726703
 31
0.0
  0
LWPOLYLINE
  5
185
330
1F
100
AcDbEntity
  8
0
  6
Continuous
 62
     7
370
    25
100
AcDbPolyline
 90
        9
 70
   128
 43
0.0
 10
7145.6310299962
 20
5643.1587895198
 10
7145.6095611482
 20
5643.1580444618
 10
7145.5459741681
 20
5643.1558390899
 10
7145.4427202969
 20
5643.1522926136
 10
7145.3037595182
 20
5643.1474646373
 10
7145.1344376235
 20
5643.1416233821
 10
7144.9412626951
 20
5643.1349476619
 10
7144.7316517859
 20
5643.1277056976
 10
7144.5136626988
 20
5643.12016571
  0
LWPOLYLINE
  5
186
330
1F
100
AcDbEntity
  8
0
  6
Continuous
 62
     7
370
    25
100
AcDbPolyline
 90
        9
 70
   128
 43
0.0
 10
7141.2923520236
 20
5645.6937154575
 10
7141.2843575506
 20
5645.6762512966
 10
7141.2606833308
 20
5645.6244846626
 10
7141.2222346096
 20
5645.5404719158
 10
7141.1704940527
 20
5645.4273721023
 10
7141.1074472397
 20
5645.2895661636
 10
7141.0355156093
 20
5645.132358913
 10
7140.9574670522
 20
5644.9617704196
 10
7140.8763004272
 20
5644.7843869968
  0
ARC
  5
187
330
1F
100
AcDbEntity
  8
0
  6
Continuous
 62
     7
370
    25
100
AcDbCircle
 10
7140.8763004187
 20
5644.7843778582
 30
0.0
 40
1.00000000000024
100
AcDbArc
 50
65.4144031671
 51
155.4144031671
  0
LINE
  5
188
330
1F
100
AcDbEntity
  8
0
  6
Continuous
 62
     7
370
    25
100
AcDbLine
 10
7141.2923520236
 20
5645.6937154575
 30
0.0
 11
7145.3843859761
 21
5643.8214739605
 31
0.0
  0
LWPOLYLINE
  5
189
330
1F
100
AcDbEntity
  8
0
  6
Continuous
 62
     7
370
    25
100
AcDbPolyline
 90
        9
 70
   128
 43
0.0
 10
7145.3843859761
 20
5643.8214739605
 10
7145.3676556974
 20
5643.8080033107
 10
7145.3181056111
 20
5643.7680980011
 10
7145.2376430659
 20
5643.7032779499
 10
7145.1293563275
 20
5643.6160763546
 10
7144.9974102705
 20
5643.5098012729
 10
7144.8468750148
 20
5643.3885356231
 10
7144.6835322111
 20
5643.2569881721
 10
7144.5136626988
 20
5643.12016571
  0
ARC
  5
18A
330
1F
100
AcDbEntity
  8
0
  6
Continuous
 62
     7
370
    25
100
AcDbCircle
 10
7145.1763597926
 20
5643.3668132633
 30
0.0
 40
0.50000000000012
100
AcDbArc
 50
335.4144031671
 51
65.4144031671
  0
LINE
  5
18B
330
1F
100
AcDbEntity
  8
0
  6
Continuous
 62
     7
370
    25
100
AcDbLine
 10
7137.4021468489
 20
5618.881460075
 30
0.0
 11
7144.3355379431
 21
5615.709211473
 31
0.0
  0
SPLINE
  5
18C
330
1F
100
AcDbEntity
  8
0
  6
Continuous
 62
     7
370
    25
100
AcDbSpline
210
0.0
220
0.0
230
1.0
 70
     8
 71
     3
 72
    13
 73
     9
 74
     0
 42
0.000000001
 43
0.00000001
 40
0.0
 40
0.0
 40
0.0
 40
0.0
 40
0.020725926228673
 40
0.0782467476585379
 40
0.308902763281786
 40
0.5393613368680739
 40
0.7696657115395401
 40
1.0
 40
1.0
 40
1.0
 40
1.0
 10
7144.335537943139
 20
5615.70921147304
 30
0.0
 10
7144.336416907476
 20
5615.708760762389
 30
0.0
 10
7144.339735268253
 20
5615.70705919102
 30
0.0
 10
7144.350773828742
 20
5615.695931476419
 30
0.0
 10
7144.358022737997
 20
5615.653456108435
 30
0.0
 10
7144.341244278058
 20
5615.551713632366
 30
0.0
 10
7144.30133924693
 20
5615.416696419905
 30
0.0
 10
7144.259460794101
 20
5615.31430136262
 30
0.0
 10
7144.238520207896
 20
5615.263100509219
 30
0.0
  0
SPLINE
  5
18D
330
1F
100
AcDbEntity
  8
0
  6
Continuous
 62
     7
370
    25
100
AcDbSpline
210
0.0
220
0.0
230
1.0
 70
     8
 71
     3
 72
     9
 73
     5
 74
     0
 42
0.000000001
 43
0.00000001
 40
0.0
 40
0.0
 40
0.0
 40
0.0
 40
0.8012137322883727
 40
1.0
 40
1.0
 40
1.0
 40
1.0
 10
7144.238520207896
 20
5615.263100509219
 30
0.0
 10
7144.236895173455
 20
5615.258064004155
 30
0.0
 10
7144.234866957543
 20
5615.251777909868
 30
0.0
 10
7144.234763357749
 20
5615.245212856132
 30
0.0
 10
7144.234742763533
 20
5615.243907813601
 30
0.0
  0
SPLINE
  5
18E
330
1F
100
AcDbEntity
  8
0
  6
Continuous
 62
     7
370
    25
100
AcDbSpline
210
0.0
220
0.0
230
1.0
 70
    24
 71
     3
 72
    11
 73
     7
 74
     0
 42
0.000000001
 43
0.00000001
 40
0.0
 40
0.0
 40
0.0
 40
0.0
 40
0.19922986288375
 40
0.5928790025056101
 40
0.9900117694828552
 40
0.9999999999999999
 40
0.9999999999999999
 40
0.9999999999999999
 40
0.9999999999999999
 10
7129.003317820921
 20
5622.614528779559
 30
0.0
 10
7129.005007762478
 20
5622.614528779559
 30
0.0
 10
7129.010036781973
 20
5622.614528779559
 30
0.0
 10
7129.070441949826
 20
5622.61452877956
 30
0.0
 10
7129.174363868201
 20
5622.614528779559
 30
0.0
 10
7129.241366616395
 20
5622.614528779559
 30
0.0
 10
7129.243010449304
 20
5622.614528779559
 30
0.0
  0
LWPOLYLINE
  5
18F
330
1F
100
AcDbEntity
  8
0
  6
Continuous
 62
     7
370
    25
100
AcDbPolyline
 90
        9
 70
   128
 43
0.0
 10
7144.3355379431
 20
5615.709211473
 10
7145.9863556354
 20
5614.9539312168
 10
7147.4940215974
 20
5614.2641266628
 10
7148.8061694234
 20
5613.6637588783
 10
7149.8772313624
 20
5613.1737192913
 10
7150.6700029402
 20
5612.8109952255
 10
7151.1569542616
 20
5612.5882228656
 10
7151.3211725085
 20
5612.5130614086
 10
7151.3211725085
 20
5612.5130614086
  0
SPLINE
  5
190
330
1F
100
AcDbEntity
  8
0
  6
Continuous
 62
     7
370
    25
100
AcDbSpline
210
0.0
220
0.0
230
1.0
 70
     8
 71
     3
 72
    11
 73
     7
 74
     0
 42
0.000000001
 43
0.00000001
 40
0.0
 40
0.0
 40
0.0
 40
0.0
 40
0.2201521507533623
 40
0.4945768168610974
 40
0.7760236211899735
 40
1.0
 40
1.0
 40
1.0
 40
1.0
 10
7122.43017906238
 20
5623.939510230593
 30
0.0
 10
7122.726812457553
 20
5624.047483723128
 30
0.0
 10
7123.393206130551
 20
5624.29004863135
 30
0.0
 10
7124.10304426723
 20
5624.548408332508
 30
0.0
 10
7124.541749669396
 20
5624.708065191979
 30
0.0
 10
7124.590199559435
 20
5624.72569231189
 30
0.0
 10
7124.611669945612
 20
5624.733503703646
 30
0.0
  0
LINE
  5
191
330
1F
100
AcDbEntity
  8
0
  6
Continuous
 62
     7
370
    25
100
AcDbLine
 10
7119.4479305102
 20
5630.8354100032
 30
0.0
 11
7122.013082522
 21
5623.7876972004
 31
0.0
  0
LINE
  5
192
330
1F
100
AcDbEntity
  8
0
  6
Continuous
 62
     7
370
    25
100
AcDbLine
 10
7118.1634858056
 20
5630.3679009719
 30
0.0
 11
7119.4479305102
 21
5630.8354100032
 31
0.0
  0
LWPOLYLINE
  5
193
330
1F
100
AcDbEntity
  8
0
  6
Continuous
 62
     7
370
    25
100
AcDbPolyline
 90
       15
 70
   128
 43
0.0
 10
7138.7742904751
 20
5619.35337985
 10
7138.9336136906
 20
5619.2804833694
 10
7139.4029965429
 20
5619.0657278343
 10
7140.1571368604
 20
5618.7206765457
 10
7141.1553730993
 20
5618.2639559551
 10
7142.3438897162
 20
5617.7201529785
 10
7143.6586228936
 20
5617.1186229034
 10
7145.0286840825
 20
5616.4917906566
 10
7146.3802194028
 20
5615.8734222694
 10
7147.6403621762
 20
5615.2968665405
 10
7148.7411854594
 20
5614.7932072921
 10
7149.6233379274
 20
5614.38959444
 10
7150.2392625241
 20
5614.1077836795
 10
7150.5557557373
 20
5613.9629741951
 10
7150.5957206516
 20
5613.9446755691
  0
LINE
  5
194
330
1F
100
AcDbEntity
  8
0
  6
Continuous
 62
     7
370
    25
100
AcDbLine
 10
7141.749493572
 20
5621.2912162586
 30
0.0
 11
7140.5013350575
 21
5618.5632010742
 31
0.0
  0
LINE
  5
195
330
1F
100
AcDbEntity
  8
0
  6
Continuous
 62
     7
370
    25
100
AcDbLine
 10
7141.749493572
 20
5621.2912162586
 30
0.0
 11
7144.1623976259
 21
5620.187219028
 31
0.0
  0
LINE
  5
196
330
1F
100
AcDbEntity
  8
0
  6
Continuous
 62
     7
370
    25
100
AcDbLine
 10
7144.1623976259
 20
5620.187219028
 30
0.0
 11
7142.9142428367
 21
5617.4592038436
 31
0.0
  0
LINE
  5
197
330
1F
100
AcDbEntity
  8
0
  6
Continuous
 62
     7
370
    25
100
AcDbLine
 10
7148.3460699945
 20
5618.2730754657
 30
0.0
 11
7147.09791148
 21
5615.5450602813
 31
0.0
  0
LINE
  5
198
330
1F
100
AcDbEntity
  8
0
  6
Continuous
 62
     7
370
    25
100
AcDbLine
 10
7144.1623976259
 20
5620.187219028
 30
0.0
 11
7148.3460699945
 21
5618.2730754657
 31
0.0
  0
LINE
  5
199
330
1F
100
AcDbEntity
  8
0
  6
Continuous
 62
     7
370
    25
100
AcDbLine
 10
7150.1168345838
 20
5617.4628993316
 30
0.0
 11
7148.8686760693
 21
5614.7348543449
 31
0.0
  0
LINE
  5
19A
330
1F
100
AcDbEntity
  8
0
  6
Continuous
 62
     7
370
    25
100
AcDbLine
 10
7148.3460699945
 20
5618.2730754657
 30
0.0
 11
7150.1168345838
 21
5617.4628993316
 31
0.0
  0
LWPOLYLINE
  5
19B
330
1F
100
AcDbEntity
  8
0
  6
Continuous
 62
     7
370
    25
100
AcDbPolyline
 90
       20
 70
   128
 43
0.0
 10
7097.7617653823
 20
5623.1278737827
 10
7097.9269647776
 20
5623.1879850669
 10
7098.4180572248
 20
5623.3667393966
 10
7099.2216461143
 20
5623.6592193885
 10
7100.3158123038
 20
5624.0574678226
 10
7101.6707099314
 20
5624.5506068512
 10
7103.2493803921
 20
5625.1251956268
 10
7105.0087619203
 20
5625.7655581279
 10
7106.9008631437
 20
5626.4542301937
 10
7108.8740725807
 20
5627.1724065586
 10
7110.8745660438
 20
5627.9005368991
 10
7112.8477759465
 20
5628.618713264
 10
7114.7398769661
 20
5629.3073853298
 10
7116.4992589309
 20
5629.9477478309
 10
7118.0779289259
 20
5630.5223366066
 10
7119.4328263207
 20
5631.0154756351
 10
7120.5269934415
 20
5631.4137240692
 10
7121.3305813997
 20
5631.7062040611
 10
7121.8216733812
 20
5631.8849583908
 10
7121.9868732422
 20
5631.9450994773
  0
LINE
  5
19C
330
1F
100
AcDbEntity
  8
0
  6
Continuous
 62
     7
370
    25
100
AcDbLine
 10
7240.5917120903
 20
5568.1656857772
 30
0.0
 11
7241.736031863
 21
5569.0453907295
 31
0.0
  0
LINE
  5
19D
330
1F
100
AcDbEntity
  8
0
  6
Continuous
 62
     7
370
    25
100
AcDbLine
 10
7240.7814038723
 20
5566.7348166748
 30
0.0
 11
7240.5917120903
 21
5568.1656857772
 31
0.0
  0
LINE
  5
19E
330
1F
100
AcDbEntity
  8
0
  6
Continuous
 62
     7
370
    25
100
AcDbLine
 10
7242.115415427
 20
5566.1836823268
 30
0.0
 11
7240.7814038723
 21
5566.7348166748
 31
0.0
  0
LINE
  5
19F
330
1F
100
AcDbEntity
  8
0
  6
Continuous
 62
     7
370
    25
100
AcDbLine
 10
7243.2597202985
 20
5567.0633872791
 30
0.0
 11
7242.115415427
 21
5566.1836823268
 31
0.0
  0
LINE
  5
1A0
330
1F
100
AcDbEntity
  8
0
  6
Continuous
 62
     7
370
    25
100
AcDbLine
 10
7243.0700285165
 20
5568.4942265792
 30
0.0
 11
7243.2597202985
 21
5567.0633872791
 31
0.0
  0
LINE
  5
1A1
330
1F
100
AcDbEntity
  8
0
  6
Continuous
 62
     7
370
    25
100
AcDbLine
 10
7241.736031863
 20
5569.0453907295
 30
0.0
 11
7243.0700285165
 21
5568.4942265792
 31
0.0
  0
CIRCLE
  5
1A2
330
1F
100
AcDbEntity
  8
0
  6
Continuous
 62
     7
370
    25
100
AcDbCircle
 10
7241.9257207915
 20
5567.6145313272
 30
0.0
 40
1.899999999998967
  0
CIRCLE
  5
1A3
330
1F
100
AcDbEntity
  8
0
  6
Continuous
 62
     7
370
    25
100
AcDbCircle
 10
7241.9257207915
 20
5567.6145313272
 30
0.0
 40
3.799999999999616
  0
ARC
  5
1A4
330
1F
100
AcDbEntity
  8
0
  6
Continuous
 62
     7
370
    25
100
AcDbCircle
 10
7241.9257207915
 20
5567.6145313272
 30
0.0
 40
1.250000000001217
100
AcDbArc
 50
247.5517191532
 51
307.5517191531
  0
ARC
  5
1A5
330
1F
100
AcDbEntity
  8
0
  6
Continuous
 62
     7
370
    25
100
AcDbCircle
 10
7241.9257207915
 20
5567.6145313272
 30
0.0
 40
1.250000000000012
100
AcDbArc
 50
307.5517191531
 51
7.5517191531
  0
ARC
  5
1A6
330
1F
100
AcDbEntity
  8
0
  6
Continuous
 62
     7
370
    25
100
AcDbCircle
 10
7241.9257207915
 20
5567.6145313272
 30
0.0
 40
1.250000000000012
100
AcDbArc
 50
7.5517191531
 51
67.5517191532
  0
ARC
  5
1A7
330
1F
100
AcDbEntity
  8
0
  6
Continuous
 62
     7
370
    25
100
AcDbCircle
 10
7241.9257207915
 20
5567.6145313272
 30
0.0
 40
1.250000000001217
100
AcDbArc
 50
187.5517191532
 51
247.5517191532
  0
ARC
  5
1A8
330
1F
100
AcDbEntity
  8
0
  6
Continuous
 62
     7
370
    25
100
AcDbCircle
 10
7241.9257207915
 20
5567.6145313272
 30
0.0
 40
1.250000000000251
100
AcDbArc
 50
127.5517191532
 51
187.5517191532
  0
ARC
  5
1A9
330
1F
100
AcDbEntity
  8
0
  6
Continuous
 62
     7
370
    25
100
AcDbCircle
 10
7241.9257207915
 20
5567.6145313272
 30
0.0
 40
1.249999999999974
100
AcDbArc
 50
67.5517191532
 51
127.5517191532
  0
LINE
  5
1AA
330
1F
100
AcDbEntity
  8
0
  6
Continuous
 62
     7
370
    25
100
AcDbLine
 10
7404.7241879432
 20
5582.6145371242
 30
0.0
 11
7404.7241879432
 21
5582.7145239158
 31
0.0
  0
LINE
  5
1AB
330
1F
100
AcDbEntity
  8
0
  6
Continuous
 62
     7
370
    25
100
AcDbLine
 10
7388.5951412647
 20
5582.6145371242
 30
0.0
 11
7388.5951412647
 21
5582.7145239158
 31
0.0
  0
LINE
  5
1AC
330
1F
100
AcDbEntity
  8
0
  6
Continuous
 62
     7
370
    25
100
AcDbLine
 10
7404.7241879432
 20
5582.7145239158
 30
0.0
 11
7388.5951412647
 21
5582.7145239158
 31
0.0
  0
LINE
  5
1AD
330
1F
100
AcDbEntity
  8
0
  6
Continuous
 62
     7
370
    25
100
AcDbLine
 10
7120.6805871605
 20
4781.6145380779
 30
0.0
 11
7451.9257319896
 21
4781.6145380779
 31
0.0
  0
LINE
  5
1AE
330
1F
100
AcDbEntity
  8
0
  6
Continuous
 62
     7
370
    25
100
AcDbLine
 10
7031.9257227509
 20
4781.6145380779
 30
0.0
 11
7120.6805871605
 21
4781.6145380779
 31
0.0
  0
LINE
  5
1AF
330
1F
100
AcDbEntity
  8
0
  6
Continuous
 62
     7
370
    25
100
AcDbLine
 10
7120.9692654936
 20
4787.1144970699
 30
0.0
 11
7451.4257086246
 21
4787.1144970699
 31
0.0
  0
LINE
  5
1B0
330
1F
100
AcDbEntity
  8
0
  6
Continuous
 62
     7
370
    25
100
AcDbLine
 10
7032.4257237642
 20
4787.1144970699
 30
0.0
 11
7120.9692654936
 21
4787.1144970699
 31
0.0
  0
LINE
  5
1B1
330
1F
100
AcDbEntity
  8
0
  6
Continuous
 62
     7
370
    25
100
AcDbLine
 10
7071.4257208436
 20
5546.1145302101
 30
0.0
 11
7412.425733897
 21
5546.1145302101
 31
0.0
  0
LINE
  5
1B2
330
1F
100
AcDbEntity
  8
0
  6
Continuous
 62
     7
370
    25
100
AcDbLine
 10
7071.4257208436
 20
5582.6145371242
 30
0.0
 11
7412.425733897
 21
5582.6145371242
 31
0.0
  0
LWPOLYLINE
  5
1B3
330
1F
100
AcDbEntity
  8
0
  6
Continuous
 62
     8
370
    25
100
AcDbPolyline
 90
       14
 70
   128
 43
0.0
 10
7110.8746046937
 20
5592.3913677974
 10
7110.8508247687
 20
5592.5072988315
 10
7110.9264318636
 20
5592.5883909507
 10
7111.2723148233
 20
5592.6232000633
 10
7111.9169846914
 20
5592.4905797287
 10
7112.2945042132
 20
5592.371728067
 10
7113.393833655
 20
5591.9450482173
 10
7114.7419202878
 20
5591.3072785183
 10
7116.3253288521
 20
5590.4003640457
 10
7118.0047297655
 20
5589.2043372436
 10
7120.7034362285
 20
5586.5729411884
 10
7123.5005145698
 20
5582.6145967289
 10
7123.5005462347
 20
5582.6145371242
 10
7123.5005462347
 20
5582.6145371242
  0
SPLINE
  5
1B4
330
1F
100
AcDbEntity
  8
0
  6
Continuous
 62
     8
370
    25
100
AcDbSpline
210
0.0
220
0.0
230
1.0
 70
     8
 71
     3
 72
    17
 73
    13
 74
     0
 42
0.000000001
 43
0.00000001
 40
0.0
 40
0.0
 40
0.0
 40
0.0
 40
0.0691755006209326
 40
0.2094218378325688
 40
0.2488897354083019
 40
0.4007292136219296
 40
0.4633029576028233
 40
0.6745444029230738
 40
0.792172925370237
 40
0.9099208003571289
 40
0.9684705253047208
 40
1.0
 40
1.0
 40
1.0
 40
1.0
 10
7119.689077864482
 20
5582.614537124209
 30
0.0
 10
7119.524121768028
 20
5582.925190510588
 30
0.0
 10
7119.024733855095
 20
5583.865662245812
 30
0.0
 10
7118.223948829327
 20
5584.841714564123
 30
0.0
 10
7117.02309327751
 20
5585.827228505783
 30
0.0
 10
7116.024932289523
 20
5586.316695842067
 30
0.0
 10
7114.51936046071
 20
5586.775914347646
 30
0.0
 10
7113.349359721581
 20
5586.930769033229
 30
0.0
 10
7112.510212472205
 20
5586.839320608568
 30
0.0
 10
7112.223462742077
 20
5586.669607490108
 30
0.0
 10
7112.104797872597
 20
5586.524747607525
 30
0.0
 10
7112.135513918814
 20
5586.460201305538
 30
0.0
 10
7112.146265133365
 20
5586.437608842425
 30
0.0
  0
LWPOLYLINE
  5
1B5
330
1F
100
AcDbEntity
  8
0
  6
Continuous
 62
     8
370
    25
100
AcDbPolyline
 90
        8
 70
   128
 43
0.0
 10
7151.6131458609
 20
5612.0583971782
 10
7151.4397037952
 20
5612.1337672515
 10
7150.9254237442
 20
5612.3572548671
 10
7150.0882243543
 20
5612.7210518165
 10
7148.9572709232
 20
5613.212521915
 10
7147.571962121
 20
5613.8145288272
 10
7145.980562809
 20
5614.5060619159
 10
7144.2385202079
 20
5615.2631005092
  0
SPLINE
  5
1B6
330
1F
100
AcDbEntity
  8
0
  6
Continuous
 62
     8
370
    25
100
AcDbSpline
210
0.0
220
0.0
230
1.0
 70
     8
 71
     3
 72
    11
 73
     7
 74
     0
 42
0.000000001
 43
0.00000001
 40
0.0
 40
0.0
 40
0.0
 40
0.0
 40
0.0875281761927275
 40
0.3627058589743237
 40
0.6463154302387797
 40
1.0
 40
1.0
 40
1.0
 40
1.0
 10
7122.43017906238
 20
5623.939510230593
 30
0.0
 10
7122.572216415307
 20
5623.932200732741
 30
0.0
 10
7123.160801512592
 20
5623.90191108416
 30
0.0
 10
7124.007333910987
 20
5623.859607932738
 30
0.0
 10
7124.843501311131
 20
5623.818859337893
 30
0.0
 10
7124.937742254885
 20
5623.81438168653
 30
0.0
 10
7124.990043955936
 20
5623.811896686129
 30
0.0
  0
LWPOLYLINE
  5
1B7
330
1F
100
AcDbEntity
  8
0
  6
Continuous
 62
     8
370
    25
100
AcDbPolyline
 90
       21
 70
   128
 43
0.0
 10
7121.2628593474
 20
5633.9342852874
 10
7121.0976613491
 20
5633.8741740032
 10
7120.6065693675
 20
5633.6954196735
 10
7119.8029795467
 20
5633.4029396816
 10
7118.7088133572
 20
5633.0046912475
 10
7117.3539159625
 20
5632.511552219
 10
7115.7752450361
 20
5631.9369634433
 10
7114.0158640026
 20
5631.2966009422
 10
7112.1237625173
 20
5630.6079288765
 10
7110.1505530803
 20
5629.8897525116
 10
7108.1500593844
 20
5629.161622171
 10
7106.1768500638
 20
5628.4434458061
 10
7104.2847487531
 20
5627.7547737403
 10
7102.5253671958
 20
5627.1144112392
 10
7100.9466967351
 20
5626.5398224636
 10
7099.5917993403
 20
5626.046683435
 10
7098.4976331509
 20
5625.6484350009
 10
7097.6940437957
 20
5625.355955009
 10
7097.2029518141
 20
5625.1772006794
 10
7097.0377524189
 20
5625.1170893951
 10
7097.0377524189
 20
5625.1170893951
  0
LWPOLYLINE
  5
1B8
330
1F
100
AcDbEntity
  8
0
  6
Continuous
 62
     8
370
    25
100
AcDbPolyline
 90
       19
 70
   128
 43
0.0
 10
7097.5057126759
 20
5627.2181233211
 10
7097.6731928802
 20
5627.2790690704
 10
7098.1705456777
 20
5627.4600883766
 10
7098.9826584971
 20
5627.75566781
 10
7100.0848559468
 20
5628.1568368717
 10
7101.4436485982
 20
5628.6514064117
 10
7103.0177497576
 20
5629.2243262573
 10
7104.759331445
 20
5629.8582216545
 10
7106.6154765702
 20
5630.5338105007
 10
7108.5297868392
 20
5631.2305589958
 10
7110.4440975739
 20
5631.9273074909
 10
7112.3002425573
 20
5632.6028963371
 10
7114.041823688
 20
5633.2367619319
 10
7115.6159255459
 20
5633.8096817775
 10
7116.9747177317
 20
5634.3042513176
 10
7118.076915647
 20
5634.7054203792
 10
7118.8890280007
 20
5635.0009998127
 10
7119.3863812639
 20
5635.1820191188
 10
7119.5538610025
 20
5635.2429946704
  0
LINE
  5
1B9
330
1F
100
AcDbEntity
  8
0
  6
Continuous
 62
     8
370
    25
100
AcDbLine
 10
7120.6805871605
 20
4786.6145333095
 30
0.0
 11
7031.9257227509
 21
4786.6145333095
 31
0.0
  0
LINE
  5
1BA
330
1F
100
AcDbEntity
  8
0
  6
Continuous
 62
     8
370
    25
100
AcDbLine
 10
7451.9257319896
 20
4786.6145333095
 30
0.0
 11
7120.6805871605
 21
4786.6145333095
 31
0.0
  0
LINE
  5
1BB
330
1F
100
AcDbEntity
  8
0
  6
Continuous
 62
     7
370
    25
100
AcDbLine
 10
6264.2287332919
 20
4194.7119008694
 30
0.0
 11
6283.7287355569
 21
4194.7119008694
 31
0.0
  0
SPLINE
  5
1BC
330
1F
100
AcDbEntity
  8
0
  6
Continuous
 62
     7
370
    25
100
AcDbSpline
210
0.0
220
0.0
230
1.0
 70
    24
 71
     3
 72
    16
 73
    12
 74
     0
 42
0.000000001
 43
0.00000001
 40
0.0
 40
0.0
 40
0.0
 40
0.0
 40
0.0510727778696623
 40
0.1604302834199218
 40
0.2569579134164818
 40
0.3475435970178044
 40
0.4390554875572099
 40
0.535613680441139
 40
0.6935201879356288
 40
0.8512460269339965
 40
1.0
 40
1.0
 40
1.0
 40
1.0
 10
6259.97877310781
 20
4227.900877216825
 30
0.0
 10
6259.97877310781
 20
4227.620720413416
 30
0.0
 10
6259.97877310781
 20
4226.740689264772
 30
0.0
 10
6259.97877310781
 20
4225.308409610646
 30
0.0
 10
6259.97877310781
 20
4223.643959040372
 30
0.0
 10
6259.97877310781
 20
4222.072466900117
 30
0.0
 10
6259.97877310781
 20
4220.508932706057
 30
0.0
 10
6259.97877310781
 20
4218.58689066735
 30
0.0
 10
6259.97877310781
 20
4216.317344542656
 30
0.0
 10
6259.97877310781
 20
4213.77919245786
 30
0.0
 10
6259.97877310781
 20
4212.115559373507
 30
0.0
 10
6259.97877310781
 20
4211.308093363414
 30
0.0
  0
SPLINE
  5
1BD
330
1F
100
AcDbEntity
  8
0
  6
Continuous
 62
     7
370
    25
100
AcDbSpline
210
0.0
220
0.0
230
1.0
 70
    24
 71
     3
 72
    15
 73
    11
 74
     0
 42
0.000000001
 43
0.00000001
 40
0.0
 40
0.0
 40
0.0
 40
0.0
 40
0.1912525607021597
 40
0.3931543289905697
 40
0.5875831565416725
 40
0.673004501965334
 40
0.7589855160096304
 40
0.8512996151871834
 40
0.9557188770223263
 40
1.0
 40
1.0
 40
1.0
 40
1.0
 10
6287.9786882904
 20
4211.310289422045
 30
0.0
 10
6287.9786882904
 20
4212.348785881346
 30
0.0
 10
6287.9786882904
 20
4214.483603721781
 30
0.0
 10
6287.9786882904
 20
4217.703955463169
 30
0.0
 10
6287.9786882904
 20
4220.373273365712
 30
0.0
 10
6287.9786882904
 20
4222.430322605913
 30
0.0
 10
6287.9786882904
 20
4223.917238157745
 30
0.0
 10
6287.9786882904
 20
4225.502525393244
 30
0.0
 10
6287.9786882904
 20
4226.84457203144
 30
0.0
 10
6287.9786882904
 20
4227.66012152261
 30
0.0
 10
6287.9786882904
 20
4227.902982005844
 30
0.0
  0
SPLINE
  5
1BE
330
1F
100
AcDbEntity
  8
0
  6
Continuous
 62
     7
370
    25
100
AcDbSpline
210
0.0
220
0.0
230
1.0
 70
     8
 71
     3
 72
    28
 73
    24
 74
     0
 42
0.000000001
 43
0.00000001
 40
0.0
 40
0.0
 40
0.0
 40
0.0
 40
0.0079949070814957
 40
0.0596909178461245
 40
0.1113764676599063
 40
0.1630956227774812
 40
0.2148839708630702
 40
0.2667659028327158
 40
0.3187511481742524
 40
0.3708378013149677
 40
0.4230151622044932
 40
0.4752682017809521
 40
0.5275788395358167
 40
0.5799272547512165
 40
0.6322858735448507
 40
0.6846313208074605
 40
0.736937256156188
 40
0.789176649581075
 40
0.8413244981701231
 40
0.8933630965329143
 40
0.9452863496477487
 40
0.997104436171945
 40
1.0
 40
1.0
 40
1.0
 40
1.0
 10
6286.819467356486
 20
4232.050635706628
 30
0.0
 10
6286.819156491112
 20
4232.14939846389
 30
0.0
 10
6286.816835533617
 20
4232.886772841086
 30
0.0
 10
6286.50886304471
 20
4234.245594675618
 30
0.0
 10
6285.88506019066
 20
4236.066222667634
 30
0.0
 10
6284.941043918214
 20
4237.766820717803
 30
0.0
 10
6283.737480481233
 20
4239.308024902567
 30
0.0
 10
6282.293014445607
 20
4240.652422620788
 30
0.0
 10
6280.644892067176
 20
4241.767429284008
 30
0.0
 10
6278.831969250325
 20
4242.625468490562
 30
0.0
 10
6276.898323633573
 20
4243.204972586627
 30
0.0
 10
6274.891038933733
 20
4243.490965637894
 30
0.0
 10
6272.859381891002
 20
4243.475597870274
 30
0.0
 10
6270.853575809741
 20
4243.158421416029
 30
0.0
 10
6268.923519417148
 20
4242.546547752852
 30
0.0
 10
6267.117397666265
 20
4241.654601561861
 30
0.0
 10
6265.480738075546
 20
4240.504390277196
 30
0.0
 10
6264.053801347545
 20
4239.124540550018
 30
0.0
 10
6262.875602911802
 20
4237.549695279171
 30
0.0
 10
6261.963211432148
 20
4235.819849023446
 30
0.0
 10
6261.383931621298
 20
4233.978029430516
 30
0.0
 10
6261.108927560458
 20
4232.671246883338
 30
0.0
 10
6261.119104667368
 20
4231.99560494135
 30
0.0
 10
6261.119643261713
 20
4231.959848519409
 30
0.0
  0
LINE
  5
1BF
330
1F
100
AcDbEntity
  8
0
  6
Continuous
 62
     7
370
    25
100
AcDbLine
 10
6261.0888202098
 20
4231.237954082
 30
0.0
 11
6261.0888202098
 21
4230.5139406528
 31
0.0
  0
LINE
  5
1C0
330
1F
100
AcDbEntity
  8
0
  6
Continuous
 62
     7
370
    25
100
AcDbLine
 10
6286.8686411884
 20
4230.5139406528
 30
0.0
 11
6286.8686411884
 21
4231.237954082
 31
0.0
  0
LINE
  5
1C1
330
1F
100
AcDbEntity
  8
0
  6
Continuous
 62
     7
370
    25
100
AcDbLine
 10
6103.1387541798
 20
4094.6625467334
 30
0.0
 11
6103.5187635925
 21
4094.6625467334
 31
0.0
  0
LINE
  5
1C2
330
1F
100
AcDbEntity
  8
0
  6
Continuous
 62
     7
370
    25
100
AcDbLine
 10
6103.5187635925
 20
4102.2625412736
 30
0.0
 11
6103.1387541798
 21
4102.2625412736
 31
0.0
  0
ARC
  5
1C3
330
1F
100
AcDbEntity
  8
0
  6
Continuous
 62
     7
370
    25
100
AcDbCircle
 10
6105.2040300614
 20
4098.4625394064
 30
0.0
 40
4.324969328314234
100
AcDbArc
 50
206.059831153
 51
241.4762140417
  0
ARC
  5
1C4
330
1F
100
AcDbEntity
  8
0
  6
Continuous
 62
     7
370
    25
100
AcDbCircle
 10
6105.2040300614
 20
4098.4625394064
 30
0.0
 40
4.324969328314634
100
AcDbArc
 50
118.5237859583
 51
153.940168847
  0
LWPOLYLINE
  5
1C5
330
1F
100
AcDbEntity
  8
0
  6
Continuous
 62
     7
370
    25
100
AcDbPolyline
 90
        3
 70
   128
 43
0.0
 10
6103.5187635925
 20
4096.2625440154
 10
6103.5226080921
 20
4096.3015552554
 10
6103.532025626
 20
4096.3342186008
  0
LWPOLYLINE
  5
1C6
330
1F
100
AcDbEntity
  8
0
  6
Continuous
 62
     7
370
    25
100
AcDbPolyline
 90
        3
 70
   128
 43
0.0
 10
6103.532025626
 20
4100.5908694062
 10
6103.5226080921
 20
4100.6235178504
 10
6103.5187635925
 20
4100.6625439916
  0
ARC
  5
1C7
330
1F
100
AcDbEntity
  8
0
  6
Continuous
 62
     7
370
    25
100
AcDbCircle
 10
6442.8334806108
 20
4098.4625394064
 30
0.0
 40
4.324969328314634
100
AcDbArc
 50
26.059831153
 51
61.4762140417
  0
ARC
  5
1C8
330
1F
100
AcDbEntity
  8
0
  6
Continuous
 62
     7
370
    25
100
AcDbCircle
 10
6442.8334806108
 20
4098.4625394064
 30
0.0
 40
4.324969328314234
100
AcDbArc
 50
298.5237859583
 51
333.940168847
  0
LINE
  5
1C9
330
1F
100
AcDbEntity
  8
0
  6
Continuous
 62
     7
370
    25
100
AcDbLine
 10
6444.8987562564
 20
4102.2625412736
 30
0.0
 11
6444.5187542942
 21
4102.2625412736
 31
0.0
  0
LINE
  5
1CA
330
1F
100
AcDbEntity
  8
0
  6
Continuous
 62
     7
370
    25
100
AcDbLine
 10
6444.5187542942
 20
4094.6625467334
 30
0.0
 11
6444.8987562564
 21
4094.6625467334
 31
0.0
  0
LWPOLYLINE
  5
1CB
330
1F
100
AcDbEntity
  8
0
  6
Continuous
 62
     7
370
    25
100
AcDbPolyline
 90
        3
 70
   128
 43
0.0
 10
6444.5187542942
 20
4100.6625439916
 10
6444.5149097946
 20
4100.6235178504
 10
6444.505469909
 20
4100.5908694062
  0
LWPOLYLINE
  5
1CC
330
1F
100
AcDbEntity
  8
0
  6
Continuous
 62
     7
370
    25
100
AcDbPolyline
 90
        3
 70
   128
 43
0.0
 10
6444.505469909
 20
4096.3342186008
 10
6444.5149097946
 20
4096.3015552554
 10
6444.5187542942
 20
4096.2625440154
  0
LWPOLYLINE
  5
1CD
330
1F
100
AcDbEntity
  8
0
  6
Continuous
 62
     7
370
    25
100
AcDbPolyline
 90
        9
 70
   128
 43
0.0
 10
6264.2287332919
 20
4199.0959081743
 10
6264.0336472896
 20
4199.1039026473
 10
6263.8460491207
 20
4199.1275768671
 10
6263.6731658485
 20
4199.1660255883
 10
6263.5216284898
 20
4199.2177661452
 10
6263.3972633985
 20
4199.2808129582
 10
6263.3048538473
 20
4199.3527445886
 10
6263.2479463127
 20
4199.4307931457
 10
6263.2287312653
 20
4199.5119597707
  0
ARC
  5
1CE
330
1F
100
AcDbEntity
  8
0
  6
Continuous
 62
     7
370
    25
100
AcDbCircle
 10
6264.1854605191
 20
4199.464364926
 30
0.0
 40
0.957912383409537
100
AcDbArc
 50
87.410837013
 51
177.1520286818
  0
LINE
  5
1CF
330
1F
100
AcDbEntity
  8
0
  6
Continuous
 62
     7
370
    25
100
AcDbLine
 10
6264.2287332919
 20
4200.4212994073
 30
0.0
 11
6264.2287332919
 21
4199.0959081743
 31
0.0
  0
LWPOLYLINE
  5
1D0
330
1F
100
AcDbEntity
  8
0
  6
Continuous
 62
     7
370
    25
100
AcDbPolyline
 90
        9
 70
   128
 43
0.0
 10
6284.7287375834
 20
4199.5119597707
 10
6284.7095225361
 20
4199.4307931457
 10
6284.6526150015
 20
4199.3527445886
 10
6284.5602054503
 20
4199.2808129582
 10
6284.435840359
 20
4199.2177661452
 10
6284.2843030003
 20
4199.1660255883
 10
6284.1114197281
 20
4199.1275768671
 10
6283.9238215592
 20
4199.1039026473
 10
6283.7287355569
 20
4199.0959081743
  0
LINE
  5
1D1
330
1F
100
AcDbEntity
  8
0
  6
Continuous
 62
     7
370
    25
100
AcDbLine
 10
6283.7287355569
 20
4199.0959081743
 30
0.0
 11
6283.7287355569
 21
4200.4212994073
 31
0.0
  0
ARC
  5
1D2
330
1F
100
AcDbEntity
  8
0
  6
Continuous
 62
     7
370
    25
100
AcDbCircle
 10
6283.7720083297
 20
4199.464364926
 30
0.0
 40
0.9579123834105695
100
AcDbArc
 50
2.8479713182
 51
92.5891629869
  0
LINE
  5
1D3
330
1F
100
AcDbEntity
  8
0
  6
Continuous
 62
     7
370
    25
100
AcDbLine
 10
6264.2287332919
 20
4199.0959081743
 30
0.0
 11
6283.7287355569
 21
4199.0959081743
 31
0.0
  0
LINE
  5
1D4
330
1F
100
AcDbEntity
  8
0
  6
Continuous
 62
     7
370
    25
100
AcDbLine
 10
6264.2287332919
 20
4200.4212994073
 30
0.0
 11
6283.7287355569
 21
4200.4212994073
 31
0.0
  0
LINE
  5
1D5
330
1F
100
AcDbEntity
  8
0
  6
Continuous
 62
     7
370
    25
100
AcDbLine
 10
6283.7287355569
 20
4195.0038742218
 30
0.0
 11
6283.7287355569
 21
4199.0959081743
 31
0.0
  0
LINE
  5
1D6
330
1F
100
AcDbEntity
  8
0
  6
Continuous
 62
     7
370
    25
100
AcDbLine
 10
6264.2287332919
 20
4195.0038742218
 30
0.0
 11
6283.7287355569
 21
4195.0038742218
 31
0.0
  0
LINE
  5
1D7
330
1F
100
AcDbEntity
  8
0
  6
Continuous
 62
     7
370
    25
100
AcDbLine
 10
6264.2287332919
 20
4199.0959081743
 30
0.0
 11
6264.2287332919
 21
4195.0038742218
 31
0.0
  0
LINE
  5
1D8
330
1F
100
AcDbEntity
  8
0
  6
Continuous
 62
     7
370
    25
100
AcDbLine
 10
6284.7287375834
 20
4199.5119597707
 30
0.0
 11
6284.7287375834
 21
4195.8745974991
 31
0.0
  0
ELLIPSE
  5
1D9
330
1F
100
AcDbEntity
  8
0
  6
Continuous
 62
     7
370
    25
100
AcDbEllipse
 10
6283.7287340224
 20
4195.8745968748
 30
0.0
 11
0.9999999999990905
 21
0.0
 31
0.0
210
0.0
220
0.0
230
1.0
 40
0.8707225759
 41
4.712388980384702
 42
6.283185307179586
  0
ELLIPSE
  5
1DA
330
1F
100
AcDbEntity
  8
0
  6
Continuous
 62
     7
370
    25
100
AcDbEllipse
 10
6264.2287340224
 20
4195.8745968748
 30
0.0
 11
0.9999999999990905
 21
0.0
 31
0.0
210
0.0
220
0.0
230
1.0
 40
0.8707225759
 41
3.141592653589793
 42
4.712388980384702
  0
LINE
  5
1DB
330
1F
100
AcDbEntity
  8
0
  6
Continuous
 62
     7
370
    25
100
AcDbLine
 10
6263.2287312653
 20
4195.8745974991
 30
0.0
 11
6263.2287312653
 21
4199.5119597707
 31
0.0
  0
LINE
  5
1DC
330
1F
100
AcDbEntity
  8
0
  6
Continuous
 62
     7
370
    25
100
AcDbLine
 10
6283.7287355569
 20
4200.4212994073
 30
0.0
 11
6283.7287355569
 21
4210.3494476471
 31
0.0
  0
LINE
  5
1DD
330
1F
100
AcDbEntity
  8
0
  6
Continuous
 62
     7
370
    25
100
AcDbLine
 10
6264.2287332919
 20
4210.3494476471
 30
0.0
 11
6264.2287332919
 21
4200.4212994073
 31
0.0
  0
LINE
  5
1DE
330
1F
100
AcDbEntity
  8
0
  6
Continuous
 62
     7
370
    25
100
AcDbLine
 10
6283.7287355569
 20
4210.3494476471
 30
0.0
 11
6264.2287332919
 21
4210.3494476471
 31
0.0
  0
LINE
  5
1DF
330
1F
100
AcDbEntity
  8
0
  6
Continuous
 62
     7
370
    25
100
AcDbLine
 10
6263.2287312653
 20
4199.5119597707
 30
0.0
 11
6263.2287312653
 21
4209.4401080105
 31
0.0
  0
ARC
  5
1E0
330
1F
100
AcDbEntity
  8
0
  6
Continuous
 62
     7
370
    25
100
AcDbCircle
 10
6264.1854612682
 20
4209.3925123421
 30
0.0
 40
0.9579131724294135
100
AcDbArc
 50
87.410883994
 51
177.1519817008
  0
LINE
  5
1E1
330
1F
100
AcDbEntity
  8
0
  6
Continuous
 62
     7
370
    25
100
AcDbLine
 10
6284.7287375834
 20
4209.4401080105
 30
0.0
 11
6284.7287375834
 21
4199.5119597707
 31
0.0
  0
ARC
  5
1E2
330
1F
100
AcDbEntity
  8
0
  6
Continuous
 62
     7
370
    25
100
AcDbCircle
 10
6283.7720075806
 20
4209.3925123421
 30
0.0
 40
0.9579131724299679
100
AcDbArc
 50
2.8480182992
 51
92.5891160059
  0
ELLIPSE
  5
1E3
330
1F
100
AcDbEntity
  8
0
  6
Continuous
 62
     7
370
    25
100
AcDbEllipse
 10
6264.2287340224
 20
4195.8745968748
 30
0.0
 11
0.0
 21
1.117366832548214
 31
0.0
210
0.0
220
0.0
230
1.0
 40
0.8949612346
 41
1.570796326794897
 42
3.141592653589793
  0
ELLIPSE
  5
1E4
330
1F
100
AcDbEntity
  8
0
  6
Continuous
 62
     7
370
    25
100
AcDbEllipse
 10
6283.7287340224
 20
4195.8745968748
 30
0.0
 11
0.0
 21
1.117366832548214
 31
0.0
210
0.0
220
0.0
230
1.0
 40
0.8949612346
 41
3.141592653589793
 42
4.712388980384702
  0
LINE
  5
1E5
330
1F
100
AcDbEntity
  8
0
  6
Continuous
 62
     7
370
    25
100
AcDbLine
 10
6278.2370616105
 20
4219.0814517382
 30
0.0
 11
6278.2370616105
 21
4218.3751776759
 31
0.0
  0
LINE
  5
1E6
330
1F
100
AcDbEntity
  8
0
  6
Continuous
 62
     7
370
    25
100
AcDbLine
 10
6278.2370616105
 20
4218.3751776759
 30
0.0
 11
6279.0441234019
 21
4219.3758428041
 31
0.0
  0
LINE
  5
1E7
330
1F
100
AcDbEntity
  8
0
  6
Continuous
 62
     7
370
    25
100
AcDbLine
 10
6267.3529032972
 20
4220.1241455916
 30
0.0
 11
6267.3529032972
 21
4219.6596223805
 31
0.0
  0
LINE
  5
1E8
330
1F
100
AcDbEntity
  8
0
  6
Continuous
 62
     7
370
    25
100
AcDbLine
 10
6267.3529032972
 20
4219.6596223805
 30
0.0
 11
6268.5805354622
 21
4219.5147495661
 31
0.0
  0
LINE
  5
1E9
330
1F
100
AcDbEntity
  8
0
  6
Continuous
 62
     7
370
    25
100
AcDbLine
 10
6276.3150055316
 20
4218.6020012889
 30
0.0
 11
6278.2370616105
 21
4218.3751776759
 31
0.0
  0
LINE
  5
1EA
330
1F
100
AcDbEntity
  8
0
  6
Continuous
 62
     7
370
    25
100
AcDbLine
 10
6267.071584275
 20
4220.2872062046
 30
0.0
 11
6267.3529032972
 21
4219.6596223805
 31
0.0
  0
SPLINE
  5
1EB
330
1F
100
AcDbEntity
  8
0
  6
Continuous
 62
     7
370
    25
100
AcDbSpline
210
0.0
220
0.0
230
1.0
 70
     8
 71
     3
 72
    11
 73
     7
 74
     0
 42
0.000000001
 43
0.00000001
 40
0.0
 40
0.0
 40
0.0
 40
0.0
 40
0.2201521507533623
 40
0.4945768168610974
 40
0.7760236211899735
 40
1.0
 40
1.0
 40
1.0
 40
1.0
 10
6265.956373920721
 20
4217.958081135521
 30
0.0
 10
6266.491906094196
 20
4217.661447740348
 30
0.0
 10
6267.694991309476
 20
4216.995054067351
 30
0.0
 10
6269.760671334027
 20
4216.285215930671
 30
0.0
 10
6271.920703720984
 20
4215.846510528506
 30
0.0
 10
6273.346775908821
 20
4215.798060638467
 30
0.0
 10
6273.978734424395
 20
4215.77659025229
 30
0.0
  0
SPLINE
  5
1EC
330
1F
100
AcDbEntity
  8
0
  6
Continuous
 62
     7
370
    25
100
AcDbSpline
210
0.0
220
0.0
230
1.0
 70
     8
 71
     3
 72
     9
 73
     5
 74
     0
 42
0.000000001
 43
0.00000001
 40
0.0
 40
0.0
 40
0.0
 40
0.0
 40
0.4528728994023519
 40
1.0
 40
1.0
 40
1.0
 40
1.0
 10
6262.599723449034
 20
4220.823828684161
 30
0.0
 10
6263.045603762495
 20
4220.329307089492
 30
0.0
 10
6264.030163258217
 20
4219.237341561588
 30
0.0
 10
6265.275187446443
 20
4218.410479679605
 30
0.0
 10
6265.956373920721
 20
4217.958081135521
 30
0.0
  0
SPLINE
  5
1ED
330
1F
100
AcDbEntity
  8
0
  6
Continuous
 62
     7
370
    25
100
AcDbSpline
210
0.0
220
0.0
230
1.0
 70
     8
 71
     3
 72
    14
 73
    10
 74
     0
 42
0.000000001
 43
0.00000001
 40
0.0
 40
0.0
 40
0.0
 40
0.0
 40
0.0303962246588215
 40
0.1979854787014723
 40
0.3655116956255476
 40
0.5195014590824234
 40
0.6734806081229286
 40
0.9670970602022323
 40
0.9999999999999999
 40
0.9999999999999999
 40
0.9999999999999999
 40
0.9999999999999999
 10
6285.217108240408
 20
4220.657321246335
 30
0.0
 10
6285.302782946311
 20
4220.759030171342
 30
0.0
 10
6285.860824211341
 20
4221.421510148103
 30
0.0
 10
6286.73979964796
 20
4222.757295482478
 30
0.0
 10
6287.560992667703
 20
4224.706609000518
 30
0.0
 10
6287.980051125508
 20
4226.715162430241
 30
0.0
 10
6287.9857363583
 20
4229.269918359924
 30
0.0
 10
6287.652231495669
 20
4231.411366241648
 30
0.0
 10
6286.835462002128
 20
4232.576724229135
 30
0.0
 10
6286.753157189173
 20
4232.694155856962
 30
0.0
  0
SPLINE
  5
1EE
330
1F
100
AcDbEntity
  8
0
  6
Continuous
 62
     7
370
    25
100
AcDbSpline
210
0.0
220
0.0
230
1.0
 70
     8
 71
     3
 72
    14
 73
    10
 74
     0
 42
0.000000001
 43
0.00000001
 40
0.0
 40
0.0
 40
0.0
 40
0.0
 40
0.0553282527197638
 40
0.2248414097889617
 40
0.4008904463379606
 40
0.5494480086327136
 40
0.699497085891177
 40
0.8495795340272216
 40
1.0
 40
1.0
 40
1.0
 40
1.0
 10
6261.228362133784
 20
4232.775138312945
 30
0.0
 10
6261.107880838776
 20
4232.570087260276
 30
0.0
 10
6260.618272313453
 20
4231.736806513193
 30
0.0
 10
6260.153610335521
 20
4230.075375043662
 30
0.0
 10
6259.907712601858
 20
4227.993172516014
 30
0.0
 10
6260.09259055714
 20
4225.980969859085
 30
0.0
 10
6260.607438100221
 20
4224.140111517501
 30
0.0
 10
6261.423306317706
 20
4222.382161366007
 30
0.0
 10
6262.2072904529
 20
4221.343662293369
 30
0.0
 10
6262.599723449034
 20
4220.823828684161
 30
0.0
  0
SPLINE
  5
1EF
330
1F
100
AcDbEntity
  8
0
  6
Continuous
 62
     7
370
    25
100
AcDbSpline
210
0.0
220
0.0
230
1.0
 70
     8
 71
     3
 72
     9
 73
     5
 74
     0
 42
0.000000001
 43
0.00000001
 40
0.0
 40
0.0
 40
0.0
 40
0.0
 40
0.4936610626463619
 40
1.0
 40
1.0
 40
1.0
 40
1.0
 10
6282.001094928069
 20
4217.958081135521
 30
0.0
 10
6282.587307610614
 20
4218.342155008003
 30
0.0
 10
6283.774787699489
 20
4219.120166282422
 30
0.0
 10
6284.732288368928
 20
4220.140623847314
 30
0.0
 10
6285.217108240408
 20
4220.657321246335
 30
0.0
  0
SPLINE
  5
1F0
330
1F
100
AcDbEntity
  8
0
  6
Continuous
 62
     7
370
    25
100
AcDbSpline
210
0.0
220
0.0
230
1.0
 70
     8
 71
     3
 72
    11
 73
     7
 74
     0
 42
0.000000001
 43
0.00000001
 40
0.0
 40
0.0
 40
0.0
 40
0.0
 40
0.3685959425573083
 40
0.6671304857017308
 40
0.9749047978645479
 40
1.0
 40
1.0
 40
1.0
 40
1.0
 10
6273.978734424395
 20
4215.77659025229
 30
0.0
 10
6275.019496625935
 20
4215.833613989006
 30
0.0
 10
6276.903196669393
 20
4215.936822594366
 30
0.0
 10
6279.546918987659
 20
4216.704542969341
 30
0.0
 10
6281.149880340675
 20
4217.449540634753
 30
0.0
 10
6281.941420325655
 20
4217.922429781979
 30
0.0
 10
6282.001094928069
 20
4217.958081135521
 30
0.0
  0
SPLINE
  5
1F1
330
1F
100
AcDbEntity
  8
0
  6
Continuous
 62
     7
370
    25
100
AcDbSpline
210
0.0
220
0.0
230
1.0
 70
     8
 71
     3
 72
    14
 73
    10
 74
     0
 42
0.000000001
 43
0.00000001
 40
0.0
 40
0.0
 40
0.0
 40
0.0
 40
0.0437987572866937
 40
0.1836037041993
 40
0.3233977738762616
 40
0.5141733129720997
 40
0.643001359236217
 40
0.7718327397554803
 40
1.0
 40
1.0
 40
1.0
 40
1.0
 10
6265.956373920721
 20
4217.958081135521
 30
0.0
 10
6266.161683393404
 20
4217.816104931599
 30
0.0
 10
6267.022337485597
 20
4217.220942909589
 30
0.0
 10
6268.671461620595
 20
4216.371573933684
 30
0.0
 10
6271.233942079129
 20
4215.54801611595
 30
0.0
 10
6273.869766955027
 20
4215.277469877567
 30
0.0
 10
6276.419151693021
 20
4215.538078215161
 30
0.0
 10
6279.125943569768
 20
4216.221342112598
 30
0.0
 10
6280.880018995446
 20
4217.280893719205
 30
0.0
 10
6282.001094928069
 20
4217.958081135521
 30
0.0
  0
LWPOLYLINE
  5
1F2
330
1F
100
AcDbEntity
  8
0
  6
Continuous
 62
     7
370
    25
100
AcDbPolyline
 90
        9
 70
   128
 43
0.0
 10
6282.0010949281
 20
4217.9580811355
 10
6282.0728738215
 20
4217.8555406574
 10
6282.1683008578
 20
4217.7192211095
 10
6282.2851334122
 20
4217.5523243789
 10
6282.4206296709
 20
4217.3587638829
 10
6282.5716082361
 20
4217.1430807505
 10
6282.734530082
 20
4216.9103357885
 10
6282.9055805114
 20
4216.6659865472
 10
6283.0807362106
 20
4216.4157681111
  0
SPLINE
  5
1F3
330
1F
100
AcDbEntity
  8
0
  6
Continuous
 62
     7
370
    25
100
AcDbSpline
210
0.0
220
0.0
230
1.0
 70
     8
 71
     3
 72
    14
 73
    10
 74
     0
 42
0.000000001
 43
0.00000001
 40
0.0
 40
0.0
 40
0.0
 40
0.0
 40
0.2282846386836514
 40
0.3570618123560031
 40
0.4858367332901765
 40
0.6765203594110849
 40
0.8163383789573817
 40
0.9561619514203911
 40
1.0
 40
1.0
 40
1.0
 40
1.0
 10
6283.080736210627
 20
4216.415768111119
 30
0.0
 10
6281.80365643928
 20
4215.661561481723
 30
0.0
 10
6279.806165848981
 20
4214.481900916141
 30
0.0
 10
6276.739530192811
 20
4213.72453055444
 30
0.0
 10
6273.855317509705
 20
4213.436012174949
 30
0.0
 10
6270.873901597701
 20
4213.735519115741
 30
0.0
 10
6267.968454820344
 20
4214.648963890094
 30
0.0
 10
6266.0929345575
 20
4215.593703251265
 30
0.0
 10
6265.111088665629
 20
4216.257360323882
 30
0.0
 10
6264.876732638163
 20
4216.415768111119
 30
0.0
  0
LWPOLYLINE
  5
1F4
330
1F
100
AcDbEntity
  8
0
  6
Continuous
 62
     7
370
    25
100
AcDbPolyline
 90
        9
 70
   128
 43
0.0
 10
6265.9563739207
 20
4217.9580811355
 10
6265.8845950273
 20
4217.8555406574
 10
6265.789167991
 20
4217.7192211095
 10
6265.6723354366
 20
4217.5523243789
 10
6265.5368391779
 20
4217.3587638829
 10
6265.3858606127
 20
4217.1430807505
 10
6265.2229313162
 20
4216.9103357885
 10
6265.0518883374
 20
4216.6659865472
 10
6264.8767326382
 20
4216.4157681111
  0
LINE
  5
1F5
330
1F
100
AcDbEntity
  8
0
  6
Continuous
 62
     7
370
    25
100
AcDbLine
 10
6285.2171082404
 20
4220.6573212463
 30
0.0
 11
6285.4063678887
 21
4220.1755331773
 31
0.0
  0
LINE
  5
1F6
330
1F
100
AcDbEntity
  8
0
  6
Continuous
 62
     7
370
    25
100
AcDbLine
 10
6284.7223449853
 20
4217.8227338884
 30
0.0
 11
6285.4063678887
 21
4220.1755331773
 31
0.0
  0
SPLINE
  5
1F7
330
1F
100
AcDbEntity
  8
0
  6
Continuous
 62
     7
370
    25
100
AcDbSpline
210
0.0
220
0.0
230
1.0
 70
     8
 71
     3
 72
     9
 73
     5
 74
     0
 42
0.000000001
 43
0.00000001
 40
0.0
 40
0.0
 40
0.0
 40
0.0
 40
0.4822844856834073
 40
1.0
 40
1.0
 40
1.0
 40
1.0
 10
6284.722344985289
 20
4217.822733888397
 30
0.0
 10
6284.475955346254
 20
4217.576183109937
 30
0.0
 10
6283.965075053917
 20
4217.064968700643
 30
0.0
 10
6283.382397447378
 20
4216.637220164504
 30
0.0
 10
6283.080736210627
 20
4216.415768111119
 30
0.0
  0
LINE
  5
1F8
330
1F
100
AcDbEntity
  8
0
  6
Continuous
 62
     7
370
    25
100
AcDbLine
 10
6264.8767326382
 20
4216.4157681111
 30
0.0
 11
6263.2351238635
 21
4217.8227338884
 31
0.0
  0
LINE
  5
1F9
330
1F
100
AcDbEntity
  8
0
  6
Continuous
 62
     7
370
    25
100
AcDbLine
 10
6262.4781746772
 20
4220.4490253646
 30
0.0
 11
6263.2351238635
 21
4217.8227338884
 31
0.0
  0
SPLINE
  5
1FA
330
1F
100
AcDbEntity
  8
0
  6
Continuous
 62
     7
370
    25
100
AcDbSpline
210
0.0
220
0.0
230
1.0
 70
     8
 71
     3
 72
     9
 73
     5
 74
     0
 42
0.000000001
 43
0.00000001
 40
0.0
 40
0.0
 40
0.0
 40
0.0
 40
0.4188282919306854
 40
1.0
 40
1.0
 40
1.0
 40
1.0
 10
6262.478174677176
 20
4220.449025364587
 30
0.0
 10
6262.494398196296
 20
4220.501897861503
 30
0.0
 10
6262.533133686309
 20
4220.628136938315
 30
0.0
 10
6262.575247874404
 20
4220.751900692022
 30
0.0
 10
6262.599723449034
 20
4220.823828684161
 30
0.0
  0
LINE
  5
1FB
330
1F
100
AcDbEntity
  8
0
  6
Continuous
 62
     7
370
    25
100
AcDbLine
 10
6283.7287355569
 20
4210.3494476471
 30
0.0
 11
6283.7287355569
 21
4211.1452497486
 31
0.0
  0
LINE
  5
1FC
330
1F
100
AcDbEntity
  8
0
  6
Continuous
 62
     7
370
    25
100
AcDbLine
 10
6264.2287332919
 20
4211.1452497486
 30
0.0
 11
6264.2287332919
 21
4210.3494476471
 31
0.0
  0
LINE
  5
1FD
330
1F
100
AcDbEntity
  8
0
  6
Continuous
 62
     7
370
    25
100
AcDbLine
 10
6283.7287355569
 20
4211.1452497486
 30
0.0
 11
6264.2287332919
 21
4211.1452497486
 31
0.0
  0
SPLINE
  5
1FE
330
1F
100
AcDbEntity
  8
0
  6
Continuous
 62
     7
370
    25
100
AcDbSpline
210
0.0
220
0.0
230
1.0
 70
     8
 71
     3
 72
    10
 73
     6
 74
     0
 42
0.000000001
 43
0.00000001
 40
0.0
 40
0.0
 40
0.0
 40
0.0
 40
0.2605768921777133
 40
0.6358388890506442
 40
1.0
 40
1.0
 40
1.0
 40
1.0
 10
6284.330586006922
 20
4210.927284875879
 30
0.0
 10
6284.391632963998
 20
4210.870679183631
 30
0.0
 10
6284.54059486558
 20
4210.732554501228
 30
0.0
 10
6284.694304632459
 20
4210.452335276348
 30
0.0
 10
6284.717375386094
 20
4210.227573407163
 30
0.0
 10
6284.728737583441
 20
4210.116879636416
 30
0.0
  0
SPLINE
  5
1FF
330
1F
100
AcDbEntity
  8
0
  6
Continuous
 62
     7
370
    25
100
AcDbSpline
210
0.0
220
0.0
230
1.0
 70
     8
 71
     3
 72
    10
 73
     6
 74
     0
 42
0.000000001
 43
0.00000001
 40
0.0
 40
0.0
 40
0.0
 40
0.0
 40
0.4525516239560819
 40
0.9034482439536521
 40
1.0
 40
1.0
 40
1.0
 40
1.0
 10
6283.728735556883
 20
4211.145249748597
 30
0.0
 10
6283.828571222649
 20
4211.135413538372
 30
0.0
 10
6284.027877450148
 20
4211.115777089436
 30
0.0
 10
6284.222612545632
 20
4211.010324860273
 30
0.0
 10
6284.314398079662
 20
4210.939734650214
 30
0.0
 10
6284.330586006922
 20
4210.927284875879
 30
0.0
  0
LINE
  5
200
330
1F
100
AcDbEntity
  8
0
  6
Continuous
 62
     7
370
    25
100
AcDbLine
 10
6284.7287375834
 20
4210.1168796364
 30
0.0
 11
6284.7287375834
 21
4209.4401080105
 31
0.0
  0
SPLINE
  5
201
330
1F
100
AcDbEntity
  8
0
  6
Continuous
 62
     7
370
    25
100
AcDbSpline
210
0.0
220
0.0
230
1.0
 70
     8
 71
     3
 72
    10
 73
     6
 74
     0
 42
0.000000001
 43
0.00000001
 40
0.0
 40
0.0
 40
0.0
 40
0.0
 40
0.3206560629348796
 40
0.7712445930106179
 40
1.0
 40
1.0
 40
1.0
 40
1.0
 10
6263.626882841868
 20
4210.927284875879
 30
0.0
 10
6263.682587282238
 20
4210.966831701616
 30
0.0
 10
6263.816568059176
 20
4211.061950051294
 30
0.0
 10
6264.028929543853
 20
4211.134905056273
 30
0.0
 10
6264.178401587558
 20
4211.142643861567
 30
0.0
 10
6264.228733291907
 20
4211.145249748597
 30
0.0
  0
SPLINE
  5
202
330
1F
100
AcDbEntity
  8
0
  6
Continuous
 62
     7
370
    25
100
AcDbSpline
210
0.0
220
0.0
230
1.0
 70
     8
 71
     3
 72
    10
 73
     6
 74
     0
 42
0.000000001
 43
0.00000001
 40
0.0
 40
0.0
 40
0.0
 40
0.0
 40
0.4028934298106371
 40
0.8055528492275372
 40
1.0
 40
1.0
 40
1.0
 40
1.0
 10
6263.228731265349
 20
4210.116879636416
 30
0.0
 10
6263.242521332107
 20
4210.239385545087
 30
0.0
 10
6263.270093456013
 20
4210.484326207988
 30
0.0
 10
6263.438664111447
 20
4210.758640083251
 30
0.0
 10
6263.580646440114
 20
4210.885856860888
 30
0.0
 10
6263.626882841868
 20
4210.927284875879
 30
0.0
  0
LINE
  5
203
330
1F
100
AcDbEntity
  8
0
  6
Continuous
 62
     7
370
    25
100
AcDbLine
 10
6263.2287312653
 20
4209.4401080105
 30
0.0
 11
6263.2287312653
 21
4210.1168796364
 31
0.0
  0
SPLINE
  5
204
330
1F
100
AcDbEntity
  8
0
  6
Continuous
 62
     7
370
    25
100
AcDbSpline
210
0.0
220
0.0
230
1.0
 70
     8
 71
     3
 72
    10
 73
     6
 74
     0
 42
0.000000001
 43
0.00000001
 40
0.0
 40
0.0
 40
0.0
 40
0.0
 40
0.0000047429765867
 40
0.2552104087880396
 40
0.9999999999999999
 40
0.9999999999999999
 40
0.9999999999999999
 40
0.9999999999999999
 10
6261.783005705161
 20
4204.400218645105
 30
0.0
 10
6261.783005705168
 20
4204.400227337439
 30
0.0
 10
6261.783006111586
 20
4204.867945050627
 30
0.0
 10
6261.526027052517
 20
4207.035410284791
 30
0.0
 10
6261.437984870678
 20
4209.013545799779
 30
0.0
 10
6261.372411659045
 20
4210.486847529182
 30
0.0
  0
ARC
  5
205
330
1F
100
AcDbEntity
  8
0
  6
Continuous
 62
     7
370
    25
100
AcDbCircle
 10
6273.9787340224
 20
4211.2751150751
 30
0.0
 40
14.0
100
AcDbArc
 50
180.0
 51
209.4105432815
  0
ARC
  5
206
330
1F
100
AcDbEntity
  8
0
  6
Continuous
 62
     7
370
    25
100
AcDbCircle
 10
6273.9787340224
 20
4211.2751150751
 30
0.0
 40
14.00000000000071
100
AcDbArc
 50
330.5894567185
 51
0.1579203989
  0
SPLINE
  5
207
330
1F
100
AcDbEntity
  8
0
  6
Continuous
 62
     7
370
    25
100
AcDbSpline
210
0.0
220
0.0
230
1.0
 70
     8
 71
     3
 72
    11
 73
     7
 74
     0
 42
0.000000001
 43
0.00000001
 40
0.0
 40
0.0
 40
0.0
 40
0.0
 40
0.1833272387647331
 40
0.8111006554224274
 40
0.9999969668034158
 40
1.0
 40
1.0
 40
1.0
 40
1.0
 10
6286.75510924129
 20
4213.887456426392
 30
0.0
 10
6286.727367864262
 20
4213.310474497874
 30
0.0
 10
6286.604630789072
 20
4210.75771461592
 30
0.0
 10
6286.500806639923
 20
4207.709719414311
 30
0.0
 10
6286.174462739819
 20
4204.941562670699
 30
0.0
 10
6286.174463143623
 20
4204.400227337441
 30
0.0
 10
6286.17446314363
 20
4204.400218645105
 30
0.0
  0
LWPOLYLINE
  5
208
330
1F
100
AcDbEntity
  8
0
  6
Continuous
 62
     7
370
    25
100
AcDbPolyline
 90
        9
 70
   128
 43
0.0
 10
6262.1370721963
 20
4217.7586328182
 10
6262.1603925136
 20
4217.7599944118
 10
6262.2243930009
 20
4217.7637290154
 10
6262.326644769
 20
4217.7696987931
 10
6262.4632884171
 20
4217.7776746396
 10
6262.6291383412
 20
4217.7873566691
 10
6262.8179211524
 20
4217.7983779404
 10
6263.0224991944
 20
4217.8103212211
 10
6263.2351238635
 20
4217.8227338884
  0
LINE
  5
209
330
1F
100
AcDbEntity
  8
0
  6
Continuous
 62
     7
370
    25
100
AcDbLine
 10
6262.1370721963
 20
4217.7586328182
 30
0.0
 11
6262.0942537096
 21
4218.3489795718
 31
0.0
  0
SPLINE
  5
20A
330
1F
100
AcDbEntity
  8
0
  6
Continuous
 62
     7
370
    25
100
AcDbSpline
210
0.0
220
0.0
230
1.0
 70
     8
 71
     3
 72
    11
 73
     7
 74
     0
 42
0.000000001
 43
0.00000001
 40
0.0
 40
0.0
 40
0.0
 40
0.0
 40
0.0384171060441129
 40
0.100020622427045
 40
0.3463168259716319
 40
1.0
 40
1.0
 40
1.0
 40
1.0
 10
6262.094253709597
 20
4218.348979571829
 30
0.0
 10
6262.095101495271
 20
4218.358217905767
 30
0.0
 10
6262.097308742495
 20
4218.382270313817
 30
0.0
 10
6262.116079041533
 20
4218.58619128692
 30
0.0
 10
6262.17762122232
 20
4219.273855998892
 30
0.0
 10
6262.351720746667
 20
4219.954588242319
 30
0.0
 10
6262.478174677176
 20
4220.449025364587
 30
0.0
  0
LINE
  5
20B
330
1F
100
AcDbEntity
  8
0
  6
Continuous
 62
     7
370
    25
100
AcDbLine
 10
6285.8718801644
 20
4218.4465430621
 30
0.0
 11
6285.8203966525
 21
4217.7586328182
 31
0.0
  0
LWPOLYLINE
  5
20C
330
1F
100
AcDbEntity
  8
0
  6
Continuous
 62
     7
370
    25
100
AcDbPolyline
 90
        9
 70
   128
 43
0.0
 10
6285.8203966525
 20
4217.7586328182
 10
6285.7970763352
 20
4217.7599944118
 10
6285.7330758479
 20
4217.7637290154
 10
6285.6308240798
 20
4217.7696987931
 10
6285.4941804316
 20
4217.7776746396
 10
6285.3283305076
 20
4217.7873566691
 10
6285.1395476964
 20
4217.7983779404
 10
6284.9349696544
 20
4217.8103212211
 10
6284.7223449853
 20
4217.8227338884
  0
SPLINE
  5
20D
330
1F
100
AcDbEntity
  8
0
  6
Continuous
 62
     7
370
    25
100
AcDbSpline
210
0.0
220
0.0
230
1.0
 70
     8
 71
     3
 72
    11
 73
     7
 74
     0
 42
0.000000001
 43
0.00000001
 40
0.0
 40
0.0
 40
0.0
 40
0.0
 40
0.6462748805153702
 40
0.7918676755104044
 40
0.9389034533548587
 40
0.9999999999999999
 40
0.9999999999999999
 40
0.9999999999999999
 40
0.9999999999999999
 10
6285.406367888731
 20
4220.175533177326
 30
0.0
 10
6285.544809077795
 20
4219.746224288558
 30
0.0
 10
6285.714438295769
 20
4219.220200700027
 30
0.0
 10
6285.826018326808
 20
4218.685830430973
 30
0.0
 10
6285.862797587506
 20
4218.49322989433
 30
0.0
 10
6285.869819040439
 20
4218.457137781052
 30
0.0
 10
6285.871880164427
 20
4218.4465430621
 30
0.0
  0
LINE
  5
20E
330
1F
100
AcDbEntity
  8
0
  6
Continuous
 62
     7
370
    25
100
AcDbLine
 10
6284.3305860069
 20
4211.384942377
 30
0.0
 11
6284.3305860069
 21
4210.9272848759
 31
0.0
  0
SPLINE
  5
20F
330
1F
100
AcDbEntity
  8
0
  6
Continuous
 62
     7
370
    25
100
AcDbSpline
210
0.0
220
0.0
230
1.0
 70
     8
 71
     3
 72
    11
 73
     7
 74
     0
 42
0.000000001
 43
0.00000001
 40
0.0
 40
0.0
 40
0.0
 40
0.0
 40
0.0099806987107402
 40
0.4071219336398909
 40
0.8007704516966938
 40
1.0
 40
1.0
 40
1.0
 40
1.0
 10
6283.728735556883
 20
4211.145249748597
 30
0.0
 10
6283.730212514372
 20
4211.146893595214
 30
0.0
 10
6283.79045897671
 20
4211.213947619435
 30
0.0
 10
6283.94061709593
 20
4211.31779342458
 30
0.0
 10
6284.155140445449
 20
4211.378226140194
 30
0.0
 10
6284.286458240294
 20
4211.383253120626
 30
0.0
 10
6284.330586006922
 20
4211.384942376981
 30
0.0
  0
LINE
  5
210
330
1F
100
AcDbEntity
  8
0
  6
Continuous
 62
     7
370
    25
100
AcDbLine
 10
6263.6268828419
 20
4210.9272848759
 30
0.0
 11
6263.6268828419
 21
4211.384942377
 31
0.0
  0
SPLINE
  5
211
330
1F
100
AcDbEntity
  8
0
  6
Continuous
 62
     7
370
    25
100
AcDbSpline
210
0.0
220
0.0
230
1.0
 70
     8
 71
     3
 72
    11
 73
     7
 74
     0
 42
0.000000001
 43
0.00000001
 40
0.0
 40
0.0
 40
0.0
 40
0.0
 40
0.19922986288375
 40
0.5928790025056101
 40
0.9900117694828552
 40
0.9999999999999999
 40
0.9999999999999999
 40
0.9999999999999999
 40
0.9999999999999999
 10
6263.626882841868
 20
4211.384942376981
 30
0.0
 10
6263.671009870151
 20
4211.383252435424
 30
0.0
 10
6263.802325467787
 20
4211.378223415929
 30
0.0
 10
6264.01687593262
 20
4211.317818248076
 30
0.0
 10
6264.166951106122
 20
4211.2138963297
 30
0.0
 10
6264.227253835994
 20
4211.146893581507
 30
0.0
 10
6264.228733291907
 20
4211.145249748597
 30
0.0
  0
SPLINE
  5
212
330
1F
100
AcDbEntity
  8
0
  6
Continuous
 62
     7
370
    25
100
AcDbSpline
210
0.0
220
0.0
230
1.0
 70
     8
 71
     3
 72
    15
 73
    11
 74
     0
 42
0.000000001
 43
0.00000001
 40
0.0
 40
0.0
 40
0.0
 40
0.0
 40
0.5190106012507403
 40
0.7576445827794586
 40
0.8766577888522883
 40
0.8796930041909148
 40
0.9386143877584033
 40
0.9686627048880337
 40
0.9872390328898989
 40
1.0
 40
1.0
 40
1.0
 40
1.0
 10
6284.812705626769
 20
4211.119418585668
 30
0.0
 10
6284.738922799653
 20
4211.164127504257
 30
0.0
 10
6284.631215636964
 20
4211.22939297261
 30
0.0
 10
6284.50056178203
 20
4211.308347059075
 30
0.0
 10
6284.446672825834
 20
4211.340990949527
 30
0.0
 10
6284.419574318921
 20
4211.357314232571
 30
0.0
 10
6284.405799039982
 20
4211.365664828016
 30
0.0
 10
6284.389682456268
 20
4211.375393303272
 30
0.0
 10
6284.380482155678
 20
4211.380949163979
 30
0.0
 10
6284.375786154777
 20
4211.383786838027
 30
0.0
 10
6284.37387388019
 20
4211.384942376981
 30
0.0
  0
LINE
  5
213
330
1F
100
AcDbEntity
  8
0
  6
Continuous
 62
     7
370
    25
100
AcDbLine
 10
6284.3738738802
 20
4211.384942377
 30
0.0
 11
6284.7000528481
 21
4217.3407446537
 31
0.0
  0
LWPOLYLINE
  5
214
330
1F
100
AcDbEntity
  8
0
  6
Continuous
 62
     7
370
    25
100
AcDbPolyline
 90
        9
 70
   128
 43
0.0
 10
6285.7994158175
 20
4217.3032179419
 10
6285.7782934215
 20
4217.3039387856
 10
6285.7157308963
 20
4217.3060752395
 10
6285.6141347793
 20
4217.3095434848
 10
6285.4774166253
 20
4217.3142094109
 10
6285.3108290937
 20
4217.3198960666
 10
6285.1207573321
 20
4217.3263836596
 10
6284.9145252612
 20
4217.3334225956
 10
6284.7000528481
 20
4217.3407446537
  0
SPLINE
  5
215
330
1F
100
AcDbEntity
  8
0
  6
Continuous
 62
     7
370
    25
100
AcDbSpline
210
0.0
220
0.0
230
1.0
 70
     8
 71
     3
 72
     9
 73
     5
 74
     0
 42
0.000000001
 43
0.00000001
 40
0.0
 40
0.0
 40
0.0
 40
0.0
 40
0.2966681582712788
 40
0.9999999999999999
 40
0.9999999999999999
 40
0.9999999999999999
 40
0.9999999999999999
 10
6285.799415817542
 20
4217.30321794189
 30
0.0
 10
6285.771578422456
 20
4216.570352530238
 30
0.0
 10
6285.677744978218
 20
4214.100032102448
 30
0.0
 10
6285.490691720206
 20
4211.634777501255
 30
0.0
 10
6285.359131207747
 20
4209.900885442266
 30
0.0
  0
SPLINE
  5
216
330
1F
100
AcDbEntity
  8
0
  6
Continuous
 62
     7
370
    25
100
AcDbSpline
210
0.0
220
0.0
230
1.0
 70
     8
 71
     3
 72
    11
 73
     7
 74
     0
 42
0.000000001
 43
0.00000001
 40
0.0
 40
0.0
 40
0.0
 40
0.0
 40
0.1452081007387564
 40
0.5856647907525258
 40
0.907190027522692
 40
0.9999999999999999
 40
0.9999999999999999
 40
0.9999999999999999
 40
0.9999999999999999
 10
6285.359131207747
 20
4209.900885442266
 30
0.0
 10
6285.362076211489
 20
4209.964914870323
 30
0.0
 10
6285.373954233384
 20
4210.223163421151
 30
0.0
 10
6285.277303545954
 20
4210.624896191703
 30
0.0
 10
6285.034057297599
 20
4210.970103155712
 30
0.0
 10
6284.853214031892
 20
4211.092093154127
 30
0.0
 10
6284.812705626769
 20
4211.119418585668
 30
0.0
  0
SPLINE
  5
217
330
1F
100
AcDbEntity
  8
0
  6
Continuous
 62
     7
370
    25
100
AcDbSpline
210
0.0
220
0.0
230
1.0
 70
     8
 71
     3
 72
    11
 73
     7
 74
     0
 42
0.000000001
 43
0.00000001
 40
0.0
 40
0.0
 40
0.0
 40
0.0
 40
0.1452081007387564
 40
0.5856647907525258
 40
0.907190027522692
 40
0.9999999999999999
 40
0.9999999999999999
 40
0.9999999999999999
 40
0.9999999999999999
 10
6262.598337641043
 20
4209.900885442266
 30
0.0
 10
6262.595392637301
 20
4209.964914870323
 30
0.0
 10
6262.583514615405
 20
4210.223163421151
 30
0.0
 10
6262.680165302835
 20
4210.624896191703
 30
0.0
 10
6262.92341155119
 20
4210.970103155712
 30
0.0
 10
6263.104254816899
 20
4211.092093154127
 30
0.0
 10
6263.144763222022
 20
4211.119418585668
 30
0.0
  0
SPLINE
  5
218
330
1F
100
AcDbEntity
  8
0
  6
Continuous
 62
     7
370
    25
100
AcDbSpline
210
0.0
220
0.0
230
1.0
 70
     8
 71
     3
 72
     9
 73
     5
 74
     0
 42
0.000000001
 43
0.00000001
 40
0.0
 40
0.0
 40
0.0
 40
0.0
 40
0.2966673730514375
 40
1.0
 40
1.0
 40
1.0
 40
1.0
 10
6262.598337641043
 20
4209.900885442266
 30
0.0
 10
6262.539287386207
 20
4210.631894250751
 30
0.0
 10
6262.340242057334
 20
4213.095963018962
 30
0.0
 10
6262.23328172369
 20
4215.565976718203
 30
0.0
 10
6262.158053031249
 20
4217.30321794189
 30
0.0
  0
LWPOLYLINE
  5
219
330
1F
100
AcDbEntity
  8
0
  6
Continuous
 62
     7
370
    25
100
AcDbPolyline
 90
        9
 70
   128
 43
0.0
 10
6262.1580530312
 20
4217.3032179419
 10
6262.1791754272
 20
4217.3039387856
 10
6262.2417379525
 20
4217.3060752395
 10
6262.343326619
 20
4217.3095434848
 10
6262.4800522235
 20
4217.3142094109
 10
6262.6466397551
 20
4217.3198960666
 10
6262.8367040661
 20
4217.3263836596
 10
6263.042936137
 20
4217.3334225956
 10
6263.2574160006
 20
4217.3407446537
  0
LINE
  5
21A
330
1F
100
AcDbEntity
  8
0
  6
Continuous
 62
     7
370
    25
100
AcDbLine
 10
6263.2574160006
 20
4217.3407446537
 30
0.0
 11
6263.5835949686
 21
4211.384942377
 31
0.0
  0
SPLINE
  5
21B
330
1F
100
AcDbEntity
  8
0
  6
Continuous
 62
     7
370
    25
100
AcDbSpline
210
0.0
220
0.0
230
1.0
 70
     8
 71
     3
 72
    15
 73
    11
 74
     0
 42
0.000000001
 43
0.00000001
 40
0.0
 40
0.0
 40
0.0
 40
0.0
 40
0.5190105999658342
 40
0.7576445809037703
 40
0.8766577866819609
 40
0.8796930020130732
 40
0.938614385434691
 40
0.9686627024899314
 40
0.9872268903902985
 40
1.0
 40
1.0
 40
1.0
 40
1.0
 10
6263.144763222022
 20
4211.119418585668
 30
0.0
 10
6263.218546042176
 20
4211.164127515778
 30
0.0
 10
6263.326253194704
 20
4211.22939300095
 30
0.0
 10
6263.456907089371
 20
4211.308347021652
 30
0.0
 10
6263.510795998413
 20
4211.340990990147
 30
0.0
 10
6263.53789454358
 20
4211.357314209875
 30
0.0
 10
6263.55166866696
 20
4211.365666717952
 30
0.0
 10
6263.567786226802
 20
4211.375389468203
 30
0.0
 10
6263.576981671498
 20
4211.380953365753
 30
0.0
 10
6263.58167994731
 20
4211.383787273663
 30
0.0
 10
6263.5835949686
 20
4211.384942376981
 30
0.0
  0
LWPOLYLINE
  5
21C
330
1F
100
AcDbEntity
  8
0
  6
Continuous
 62
     7
370
    25
100
AcDbPolyline
 90
        9
 70
   128
 43
0.0
 10
6263.0965803173
 20
4209.734789649
 10
6263.0014513042
 20
4209.731991956
 10
6262.9098166135
 20
4209.7369410042
 10
6262.825051358
 20
4209.7494561169
 10
6262.75026243
 20
4209.7690753583
 10
6262.688191643
 20
4209.7950778846
 10
6262.641133776
 20
4209.8265118841
 10
6262.610809913
 20
4209.862216929
 10
6262.598337641
 20
4209.9008854423
  0
ARC
  5
21D
330
1F
100
AcDbEntity
  8
0
  6
Continuous
 62
     7
370
    25
100
AcDbCircle
 10
6264.2889902591
 20
4212.1466369939
 30
0.0
 40
1.537671346698338
100
AcDbArc
 50
221.9155922383
 51
232.4654563829
  0
SPLINE
  5
21E
330
1F
100
AcDbEntity
  8
0
  6
Continuous
 62
     7
370
    25
100
AcDbSpline
210
0.0
220
0.0
230
1.0
 70
     8
 71
     3
 72
    10
 73
     6
 74
     0
 42
0.000000001
 43
0.00000001
 40
0.0
 40
0.0
 40
0.0
 40
0.0
 40
0.0790723313715864
 40
0.3860822161419066
 40
1.0
 40
1.0
 40
1.0
 40
1.0
 10
6263.352179935259
 20
4210.927284875879
 30
0.0
 10
6263.33081752306
 20
4210.901080331003
 30
0.0
 10
6263.226512422894
 20
4210.773132810251
 30
0.0
 10
6263.08776447356
 20
4210.368625509876
 30
0.0
 10
6263.093054096962
 20
4209.988315570079
 30
0.0
 10
6263.096580317301
 20
4209.734789649019
 30
0.0
  0
SPLINE
  5
21F
330
1F
100
AcDbEntity
  8
0
  6
Continuous
 62
     7
370
    25
100
AcDbSpline
210
0.0
220
0.0
230
1.0
 70
     8
 71
     3
 72
    10
 73
     6
 74
     0
 42
0.000000001
 43
0.00000001
 40
0.0
 40
0.0
 40
0.0
 40
0.0
 40
0.6139177838580934
 40
0.9209276686284136
 40
1.0
 40
1.0
 40
1.0
 40
1.0
 10
6284.860888531489
 20
4209.734789649019
 30
0.0
 10
6284.864414751828
 20
4209.988315570079
 30
0.0
 10
6284.869704375229
 20
4210.368625509876
 30
0.0
 10
6284.730956425895
 20
4210.773132810251
 30
0.0
 10
6284.62665132573
 20
4210.901080331003
 30
0.0
 10
6284.605288913531
 20
4210.927284875879
 30
0.0
  0
ARC
  5
220
330
1F
100
AcDbEntity
  8
0
  6
Continuous
 62
     7
370
    25
100
AcDbCircle
 10
6283.6680984053
 20
4212.1470474195
 30
0.0
 40
1.538228432799477
100
AcDbArc
 50
307.5364594038
 51
318.0824919751
  0
LWPOLYLINE
  5
221
330
1F
100
AcDbEntity
  8
0
  6
Continuous
 62
     7
370
    25
100
AcDbPolyline
 90
        9
 70
   128
 43
0.0
 10
6285.3591312077
 20
4209.9008854423
 10
6285.3466589358
 20
4209.862216929
 10
6285.3163350728
 20
4209.8265118841
 10
6285.2692772057
 20
4209.7950778846
 10
6285.2072064188
 20
4209.7690753583
 10
6285.1324174908
 20
4209.7494561169
 10
6285.0476522353
 20
4209.7369410042
 10
6284.9560175446
 20
4209.731991956
 10
6284.8608885315
 20
4209.734789649
  0
LINE
  5
222
330
1F
100
AcDbEntity
  8
0
  6
Continuous
 62
     7
370
    25
100
AcDbLine
 10
6263.0965803173
 20
4209.734789649
 30
0.0
 11
6263.2287312653
 21
4208.2467485163
 31
0.0
  0
LINE
  5
223
330
1F
100
AcDbEntity
  8
0
  6
Continuous
 62
     7
370
    25
100
AcDbLine
 10
6263.6268828419
 20
4210.9272848759
 30
0.0
 11
6263.3521799353
 21
4210.9272848759
 31
0.0
  0
LINE
  5
224
330
1F
100
AcDbEntity
  8
0
  6
Continuous
 62
     7
370
    25
100
AcDbLine
 10
6284.7287375834
 20
4208.2467485163
 30
0.0
 11
6284.8608885315
 21
4209.734789649
 31
0.0
  0
LINE
  5
225
330
1F
100
AcDbEntity
  8
0
  6
Continuous
 62
     7
370
    25
100
AcDbLine
 10
6284.6052889135
 20
4210.9272848759
 30
0.0
 11
6284.3305860069
 21
4210.9272848759
 31
0.0
  0
SPLINE
  5
226
330
1F
100
AcDbEntity
  8
0
  6
Continuous
 62
     7
370
    25
100
AcDbSpline
210
0.0
220
0.0
230
1.0
 70
     8
 71
     3
 72
    15
 73
    11
 74
     0
 42
0.000000001
 43
0.00000001
 40
0.0
 40
0.0
 40
0.0
 40
0.0
 40
0.5217982577829773
 40
0.759345872239205
 40
0.8775786858971985
 40
0.8796786289864916
 40
0.9386237427093054
 40
0.968670192037263
 40
0.9872316882281803
 40
1.0
 40
1.0
 40
1.0
 40
1.0
 10
6284.605288913531
 20
4210.927284875879
 30
0.0
 10
6284.566179409988
 20
4211.004699204567
 30
0.0
 10
6284.509265383088
 20
4211.117356251738
 30
0.0
 10
6284.440235865048
 20
4211.253688244941
 30
0.0
 10
6284.412097167391
 20
4211.309500691502
 30
0.0
 10
6284.397889823766
 20
4211.337433836519
 30
0.0
 10
6284.390714875031
 20
4211.351673708267
 30
0.0
 10
6284.382205383551
 20
4211.368464470113
 30
0.0
 10
6284.377367211748
 20
4211.378058028575
 30
0.0
 10
6284.374885350672
 20
4211.382949060546
 30
0.0
 10
6284.37387388019
 20
4211.384942376981
 30
0.0
  0
SPLINE
  5
227
330
1F
100
AcDbEntity
  8
0
  6
Continuous
 62
     7
370
    25
100
AcDbSpline
210
0.0
220
0.0
230
1.0
 70
     8
 71
     3
 72
    15
 73
    11
 74
     0
 42
0.000000001
 43
0.00000001
 40
0.0
 40
0.0
 40
0.0
 40
0.0
 40
0.521798254826312
 40
0.7593458679365237
 40
0.8775786809245746
 40
0.879678624001969
 40
0.9386173369066659
 40
0.9686701922147872
 40
0.9872316883005294
 40
1.0
 40
1.0
 40
1.0
 40
1.0
 10
6263.352179935259
 20
4210.927284875879
 30
0.0
 10
6263.391289385395
 20
4211.004699231575
 30
0.0
 10
6263.448203334576
 20
4211.117356318049
 30
0.0
 10
6263.51723315493
 20
4211.25368815837
 30
0.0
 10
6263.545371496857
 20
4211.309500784826
 30
0.0
 10
6263.559578617987
 20
4211.3374327886
 30
0.0
 10
6263.566741220032
 20
4211.351678902704
 30
0.0
 10
6263.575264321011
 20
4211.368462780422
 30
0.0
 10
6263.580101463795
 20
4211.378058116215
 30
0.0
 10
6263.582583447955
 20
4211.382949085923
 30
0.0
 10
6263.5835949686
 20
4211.384942376981
 30
0.0
  0
LINE
  5
228
330
1F
100
AcDbEntity
  8
0
  6
Continuous
 62
     7
370
    25
100
AcDbLine
 10
6263.5835949686
 20
4211.384942377
 30
0.0
 11
6263.6268828419
 21
4211.384942377
 31
0.0
  0
LINE
  5
229
330
1F
100
AcDbEntity
  8
0
  6
Continuous
 62
     7
370
    25
100
AcDbLine
 10
6263.2351238635
 20
4217.8227338884
 30
0.0
 11
6263.2574160006
 21
4217.3407446537
 31
0.0
  0
LINE
  5
22A
330
1F
100
AcDbEntity
  8
0
  6
Continuous
 62
     7
370
    25
100
AcDbLine
 10
6284.7000528481
 20
4217.3407446537
 30
0.0
 11
6284.7223449853
 21
4217.8227338884
 31
0.0
  0
LINE
  5
22B
330
1F
100
AcDbEntity
  8
0
  6
Continuous
 62
     7
370
    25
100
AcDbLine
 10
6284.3305860069
 20
4211.384942377
 30
0.0
 11
6284.3738738802
 21
4211.384942377
 31
0.0
  0
LINE
  5
22C
330
1F
100
AcDbEntity
  8
0
  6
Continuous
 62
     7
370
    25
100
AcDbLine
 10
6285.8203966525
 20
4217.7586328182
 30
0.0
 11
6285.7994158175
 21
4217.3032179419
 31
0.0
  0
LINE
  5
22D
330
1F
100
AcDbEntity
  8
0
  6
Continuous
 62
     7
370
    25
100
AcDbLine
 10
6262.1580530312
 20
4217.3032179419
 30
0.0
 11
6262.1370721963
 21
4217.7586328182
 31
0.0
  0
LWPOLYLINE
  5
22E
330
1F
100
AcDbEntity
  8
0
  6
Continuous
 62
     7
370
    25
100
AcDbPolyline
 90
        9
 70
   128
 43
0.0
 10
6263.2287312653
 20
4208.2467485163
 10
6263.1339077261
 20
4208.2432225291
 10
6263.0425412562
 20
4208.2474321071
 10
6262.9579920676
 20
4208.2592226509
 10
6262.88333725
 20
4208.2781638894
 10
6262.8213111666
 20
4208.303561056
 10
6262.7741862443
 20
4208.3344884161
 10
6262.7436761167
 20
4208.3698134813
 10
6262.7309058216
 20
4208.4082454387
  0
LINE
  5
22F
330
1F
100
AcDbEntity
  8
0
  6
Continuous
 62
     7
370
    25
100
AcDbLine
 10
6262.7309058216
 20
4208.4082454387
 30
0.0
 11
6262.598337641
 21
4209.9008854423
 31
0.0
  0
LWPOLYLINE
  5
230
330
1F
100
AcDbEntity
  8
0
  6
Continuous
 62
     7
370
    25
100
AcDbPolyline
 90
        9
 70
   128
 43
0.0
 10
6284.7287375834
 20
4208.2467485163
 10
6284.8235611227
 20
4208.2432225291
 10
6284.914920142
 20
4208.2474321071
 10
6284.9994767812
 20
4208.2592226509
 10
6285.0741315988
 20
4208.2781638894
 10
6285.1361576822
 20
4208.303561056
 10
6285.1832826045
 20
4208.3344884161
 10
6285.213792732
 20
4208.3698134813
 10
6285.2265630272
 20
4208.4082454387
  0
LINE
  5
231
330
1F
100
AcDbEntity
  8
0
  6
Continuous
 62
     7
370
    25
100
AcDbLine
 10
6285.3591312077
 20
4209.9008854423
 30
0.0
 11
6285.2265630272
 21
4208.4082454387
 31
0.0
  0
SPLINE
  5
232
330
1F
100
AcDbEntity
  8
0
  6
Continuous
 62
     7
370
    25
100
AcDbSpline
210
0.0
220
0.0
230
1.0
 70
     8
 71
     3
 72
     9
 73
     5
 74
     0
 42
0.000000001
 43
0.00000001
 40
0.0
 40
0.0
 40
0.0
 40
0.0
 40
0.8535359435212405
 40
1.0
 40
1.0
 40
1.0
 40
1.0
 10
6286.17446314363
 20
4204.400218645105
 30
0.0
 10
6285.676383768848
 20
4203.488214167839
 30
0.0
 10
6285.092835555603
 20
4202.41971261944
 30
0.0
 10
6284.775252138919
 20
4201.252495422837
 30
0.0
 10
6284.728737583441
 20
4201.08154005743
 30
0.0
  0
SPLINE
  5
233
330
1F
100
AcDbEntity
  8
0
  6
Continuous
 62
     7
370
    25
100
AcDbSpline
210
0.0
220
0.0
230
1.0
 70
     8
 71
     3
 72
    10
 73
     6
 74
     0
 42
0.000000001
 43
0.00000001
 40
0.0
 40
0.0
 40
0.0
 40
0.0
 40
0.2515175079125285
 40
0.5044138016173582
 40
0.9999999999999999
 40
0.9999999999999999
 40
0.9999999999999999
 40
0.9999999999999999
 10
6285.871880164427
 20
4218.4465430621
 30
0.0
 10
6285.916585306618
 20
4218.215779136473
 30
0.0
 10
6286.006240658689
 20
4217.752986267823
 30
0.0
 10
6286.297232590245
 20
4216.250980073436
 30
0.0
 10
6286.572709868524
 20
4214.828987796805
 30
0.0
 10
6286.75510924129
 20
4213.887456426392
 30
0.0
  0
LINE
  5
234
330
1F
100
AcDbEntity
  8
0
  6
Continuous
 62
     7
370
    25
100
AcDbLine
 10
6263.2287312653
 20
4201.1771235559
 30
0.0
 11
6261.7830057052
 21
4204.4002186451
 31
0.0
  0
SPLINE
  5
235
330
1F
100
AcDbEntity
  8
0
  6
Continuous
 62
     7
370
    25
100
AcDbSpline
210
0.0
220
0.0
230
1.0
 70
     8
 71
     3
 72
    11
 73
     7
 74
     0
 42
0.000000001
 43
0.00000001
 40
0.0
 40
0.0
 40
0.0
 40
0.0
 40
0.4126285138680966
 40
0.7056481567714104
 40
0.8528730515467463
 40
0.9999999999999999
 40
0.9999999999999999
 40
0.9999999999999999
 40
0.9999999999999999
 10
6261.372411659045
 20
4210.486847529182
 30
0.0
 10
6261.490055840704
 20
4211.768191866036
 30
0.0
 10
6261.69124261562
 20
4213.959456500206
 30
0.0
 10
6261.900673730624
 20
4216.24058840047
 30
0.0
 10
6262.028229426996
 20
4217.629884723999
 30
0.0
 10
6262.072250498104
 20
4218.109334468591
 30
0.0
 10
6262.094253709597
 20
4218.348979571829
 30
0.0
  0
LINE
  5
236
330
1F
100
AcDbEntity
  8
0
  6
Continuous
 62
     7
370
    25
100
AcDbLine
 10
6278.1669739988
 20
4192.6843333933
 30
0.0
 11
6277.9693846014
 21
4194.7119008694
 31
0.0
  0
LINE
  5
237
330
1F
100
AcDbEntity
  8
0
  6
Continuous
 62
     7
370
    25
100
AcDbLine
 10
6274.3864376452
 20
4190.2714256141
 30
0.0
 11
6278.1669739988
 21
4192.6843333933
 31
0.0
  0
LINE
  5
238
330
1F
100
AcDbEntity
  8
0
  6
Continuous
 62
     7
370
    25
100
AcDbLine
 10
6270.1981980708
 20
4192.0421902034
 30
0.0
 11
6274.3864376452
 21
4190.2714256141
 31
0.0
  0
LINE
  5
239
330
1F
100
AcDbEntity
  8
0
  6
Continuous
 62
     7
370
    25
100
AcDbLine
 10
6269.9380312469
 20
4194.7119008694
 30
0.0
 11
6270.1981980708
 21
4192.0421902034
 31
0.0
  0
LWPOLYLINE
  5
23A
330
1F
100
AcDbEntity
  8
0
  6
Continuous
 62
     7
370
    25
100
AcDbPolyline
 90
       11
 70
   128
 43
0.0
 10
6271.9426695612
 20
4194.7119008694
 10
6271.9231788423
 20
4194.4550979827
 10
6272.0796484855
 20
4193.739786366
 10
6272.5252379086
 20
4193.1333724353
 10
6273.1921095756
 20
4192.7281800602
 10
6273.9787344244
 20
4192.5858963225
 10
6274.7653592732
 20
4192.7281800602
 10
6275.4322309401
 20
4193.1333724353
 10
6275.8778203633
 20
4193.739786366
 10
6276.0342900064
 20
4194.4550979827
 10
6276.0147992876
 20
4194.7119008694
  0
SPLINE
  5
23B
330
1F
100
AcDbEntity
  8
0
  6
Continuous
 62
     7
370
    25
100
AcDbSpline
210
0.0
220
0.0
230
1.0
 70
     8
 71
     3
 72
    11
 73
     7
 74
     0
 42
0.000000001
 43
0.00000001
 40
0.0
 40
0.0
 40
0.0
 40
0.0
 40
0.2499788763618974
 40
0.5000105877719624
 40
0.7499834794103518
 40
1.0
 40
1.0
 40
1.0
 40
1.0
 10
6263.228731265349
 20
4205.58122693933
 30
0.0
 10
6263.197583752309
 20
4205.586703261903
 30
0.0
 10
6263.135282142952
 20
4205.597657064512
 30
0.0
 10
6263.066945489692
 20
4205.625441027355
 30
0.0
 10
6263.019800937462
 20
4205.659523434634
 30
0.0
 10
6263.011437426769
 20
4205.686424077558
 30
0.0
 10
6263.007255306525
 20
4205.699875572691
 30
0.0
  0
SPLINE
  5
23C
330
1F
100
AcDbEntity
  8
0
  6
Continuous
 62
     7
370
    25
100
AcDbSpline
210
0.0
220
0.0
230
1.0
 70
     8
 71
     3
 72
    10
 73
     6
 74
     0
 42
0.000000001
 43
0.00000001
 40
0.0
 40
0.0
 40
0.0
 40
0.0
 40
0.2481683512626257
 40
0.6990185016848152
 40
1.0
 40
1.0
 40
1.0
 40
1.0
 10
6263.007255306525
 20
4205.699875572691
 30
0.0
 10
6262.982481300086
 20
4205.92661514672
 30
0.0
 10
6262.91270008595
 20
4206.565274977856
 30
0.0
 10
6262.820342429053
 20
4207.466926623265
 30
0.0
 10
6262.756474237224
 20
4208.139138286827
 30
0.0
 10
6262.730905821604
 20
4208.408245438704
 30
0.0
  0
SPLINE
  5
23D
330
1F
100
AcDbEntity
  8
0
  6
Continuous
 62
     7
370
    25
100
AcDbSpline
210
0.0
220
0.0
230
1.0
 70
     8
 71
     3
 72
    10
 73
     6
 74
     0
 42
0.000000001
 43
0.00000001
 40
0.0
 40
0.0
 40
0.0
 40
0.0
 40
0.0215945081302909
 40
0.3539009852023502
 40
1.0
 40
1.0
 40
1.0
 40
1.0
 10
6284.81622230081
 20
4204.526260117063
 30
0.0
 10
6284.816088974464
 20
4204.525205664607
 30
0.0
 10
6284.813903959426
 20
4204.50792480037
 30
0.0
 10
6284.800290274187
 20
4204.459539797279
 30
0.0
 10
6284.75719556728
 20
4204.419449085984
 30
0.0
 10
6284.728737583441
 20
4204.39297481812
 30
0.0
  0
SPLINE
  5
23E
330
1F
100
AcDbEntity
  8
0
  6
Continuous
 62
     7
370
    25
100
AcDbSpline
210
0.0
220
0.0
230
1.0
 70
     8
 71
     3
 72
    12
 73
     8
 74
     0
 42
0.000000001
 43
0.00000001
 40
0.0
 40
0.0
 40
0.0
 40
0.0
 40
0.3866636366865651
 40
0.646458096497247
 40
0.821243327287568
 40
0.9390287693631777
 40
1.0
 40
1.0
 40
1.0
 40
1.0
 10
6285.226563027186
 20
4208.408245438704
 30
0.0
 10
6285.179311037926
 20
4207.916306179606
 30
0.0
 10
6285.100311028267
 20
4207.093839087136
 30
0.0
 10
6284.987547642397
 20
4206.034273009058
 30
0.0
 10
6284.907351065148
 20
4205.313418441338
 30
0.0
 10
6284.853817522614
 20
4204.846936397645
 30
0.0
 10
6284.825784086933
 20
4204.607819364819
 30
0.0
 10
6284.81622230081
 20
4204.526260117063
 30
0.0
  0
LINE
  5
23F
330
1F
100
AcDbEntity
  8
0
  6
Continuous
 62
     7
370
    25
100
AcDbLine
 10
6278.1669739988
 20
4192.6843333933
 30
0.0
 11
6278.1669739988
 21
4193.9324919078
 31
0.0
  0
LINE
  5
240
330
1F
100
AcDbEntity
  8
0
  6
Continuous
 62
     7
370
    25
100
AcDbLine
 10
6278.1669739988
 20
4193.9324919078
 30
0.0
 11
6278.0910153296
 21
4194.7119008694
 31
0.0
  0
LINE
  5
241
330
1F
100
AcDbEntity
  8
0
  6
Continuous
 62
     7
370
    25
100
AcDbLine
 10
6263.1427515653
 20
4204.5135140363
 30
0.0
 11
6263.0072553065
 21
4205.6998755727
 31
0.0
  0
LWPOLYLINE
  5
242
330
1F
100
AcDbEntity
  8
0
  6
Continuous
 62
     7
370
    25
100
AcDbPolyline
 90
        3
 70
   128
 43
0.0
 10
6273.5267673042
 20
4194.7119008694
 10
6273.9787344244
 20
4194.6661580298
 10
6274.4307015446
 20
4194.7119008694
  0
SPLINE
  5
243
330
1F
100
AcDbEntity
  8
0
  6
Continuous
 62
     7
370
    25
100
AcDbSpline
210
0.0
220
0.0
230
1.0
 70
     8
 71
     3
 72
     9
 73
     5
 74
     0
 42
0.000000001
 43
0.00000001
 40
0.0
 40
0.0
 40
0.0
 40
0.0
 40
0.3306066122466542
 40
0.9999999999999999
 40
0.9999999999999999
 40
0.9999999999999999
 40
0.9999999999999999
 10
6263.228731265349
 20
4203.799943992863
 30
0.0
 10
6263.218996600218
 20
4203.878556411049
 30
0.0
 10
6263.18955174107
 20
4204.116338764075
 30
0.0
 10
6263.161517500517
 20
4204.354254689193
 30
0.0
 10
6263.14275156526
 20
4204.513514036307
 30
0.0
  0
ARC
  5
244
330
1F
100
AcDbEntity
  8
0
  6
Continuous
 62
     7
370
    25
100
AcDbCircle
 10
6273.9787344244
 20
4196.2948740921
 30
0.0
 40
6.600552565372283
100
AcDbArc
 50
193.8761735408
 51
346.1238264592
  0
ARC
  5
245
330
1F
100
AcDbEntity
  8
0
  6
Continuous
 62
     7
370
    25
100
AcDbCircle
 10
6273.9787340224
 20
4198.7317745954
 30
0.0
 40
9.956659520290632
100
AcDbArc
 50
203.8120200003
 51
336.1879799998
  0
LWPOLYLINE
  5
246
330
1F
100
AcDbEntity
  8
0
  6
Continuous
 62
     7
370
    25
100
AcDbPolyline
 90
       37
 70
   128
 43
0.0
 10
6273.9787344244
 20
4220.8343991954
 10
6276.0159019735
 20
4221.001878934
 10
6277.9911700991
 20
4221.4992321972
 10
6279.8445243743
 20
4222.3113445509
 10
6281.5196458605
 20
4223.4135424662
 10
6282.9656396416
 20
4224.772334652
 10
6284.1385770944
 20
4226.3464365099
 10
6285.0028071907
 20
4228.0880176406
 10
6285.5320815351
 20
4229.944162624
 10
6285.7103068736
 20
4231.8584733587
 10
6285.5320815351
 20
4233.7727836277
 10
6285.0028071907
 20
4235.6289287529
 10
6284.1385770944
 20
4237.3705104403
 10
6282.9656396416
 20
4238.9446115997
 10
6281.5196458605
 20
4240.3034042511
 10
6279.8445243743
 20
4241.4056017008
 10
6277.9911700991
 20
4242.2177145202
 10
6276.0159019735
 20
4242.7150673177
 10
6273.9787344244
 20
4242.882547522
 10
6271.9415668753
 20
4242.7150673177
 10
6269.9662987497
 20
4242.2177145202
 10
6268.1129444745
 20
4241.4056017008
 10
6266.4378229883
 20
4240.3034042511
 10
6264.9918292072
 20
4238.9446115997
 10
6263.8188917544
 20
4237.3705104403
 10
6262.9546616581
 20
4235.6289287529
 10
6262.4253873136
 20
4233.7727836277
 10
6262.2471619752
 20
4231.8584733587
 10
6262.4253873136
 20
4229.944162624
 10
6262.9546616581
 20
4228.0880176406
 10
6263.8188917544
 20
4226.3464365099
 10
6264.9918292072
 20
4224.772334652
 10
6266.4378229883
 20
4223.4135424662
 10
6268.1129444745
 20
4222.3113445509
 10
6269.9662987497
 20
4221.4992321972
 10
6271.9415668753
 20
4221.001878934
 10
6273.9787344244
 20
4220.8343991954
  0
LINE
  5
247
330
1F
100
AcDbEntity
  8
0
  6
Continuous
 62
     7
370
    25
100
AcDbLine
 10
6261.0888202098
 20
4231.237954082
 30
0.0
 11
6261.1108962801
 21
4231.9464453906
 31
0.0
  0
LINE
  5
248
330
1F
100
AcDbEntity
  8
0
  6
Continuous
 62
     7
370
    25
100
AcDbLine
 10
6286.8406940606
 20
4232.0351454839
 30
0.0
 11
6286.8686411884
 21
4231.237954082
 31
0.0
  0
LWPOLYLINE
  5
249
330
1F
100
AcDbEntity
  8
0
  6
Continuous
 62
     7
370
    25
100
AcDbPolyline
 90
       21
 70
   128
 43
0.0
 10
6261.0888202098
 20
4230.5139406528
 10
6261.1328456905
 20
4229.5136941541
 10
6261.4832539466
 20
4227.5404842514
 10
6262.1744964626
 20
4225.6483832318
 10
6263.1877307203
 20
4223.889001267
 10
6264.4953150657
 20
4222.310331272
 10
6266.0615835693
 20
4220.9554338772
 10
6267.8438146022
 20
4219.8612667564
 10
6269.7933856752
 20
4219.0576787982
 10
6271.8571219948
 20
4218.5665868167
 10
6273.9787344244
 20
4218.4013869557
 10
6276.100346854
 20
4218.5665868167
 10
6278.1640831736
 20
4219.0576787982
 10
6280.1136542466
 20
4219.8612667564
 10
6281.8958778289
 20
4220.9554338772
 10
6283.4621463325
 20
4222.310331272
 10
6284.7697381285
 20
4223.889001267
 10
6285.7829723862
 20
4225.6483832318
 10
6286.4742149022
 20
4227.5404842514
 10
6286.8246157077
 20
4229.5136941541
 10
6286.8686411884
 20
4230.5139406528
  0
LINE
  5
24A
330
1F
100
AcDbEntity
  8
0
  6
Continuous
 62
     7
370
    25
100
AcDbLine
 10
6103.1387541798
 20
4097.0115061793
 30
0.0
 11
6103.1387541798
 21
4102.2625412736
 31
0.0
  0
LINE
  5
24B
330
1F
100
AcDbEntity
  8
0
  6
Continuous
 62
     7
370
    25
100
AcDbLine
 10
6103.1387541798
 20
4094.6625467334
 30
0.0
 11
6103.1387541798
 21
4097.0115061793
 31
0.0
  0
LINE
  5
24C
330
1F
100
AcDbEntity
  8
0
  6
Continuous
 62
     7
370
    25
100
AcDbLine
 10
6103.5187635925
 20
4097.0115061793
 30
0.0
 11
6103.5187635925
 21
4102.2625412736
 31
0.0
  0
LINE
  5
24D
330
1F
100
AcDbEntity
  8
0
  6
Continuous
 62
     7
370
    25
100
AcDbLine
 10
6103.5187635925
 20
4094.6625467334
 30
0.0
 11
6103.5187635925
 21
4097.0115061793
 31
0.0
  0
LINE
  5
24E
330
1F
100
AcDbEntity
  8
0
  6
Continuous
 62
     7
370
    25
100
AcDbLine
 10
6101.3187561539
 20
4097.7370288167
 30
0.0
 11
6101.3187561539
 21
4100.3625389133
 31
0.0
  0
LINE
  5
24F
330
1F
100
AcDbEntity
  8
0
  6
Continuous
 62
     7
370
    25
100
AcDbLine
 10
6101.3187561539
 20
4097.7370288167
 30
0.0
 11
6101.3187561539
 21
4096.5625341926
 31
0.0
  0
LINE
  5
250
330
1F
100
AcDbEntity
  8
0
  6
Continuous
 62
     7
370
    25
100
AcDbLine
 10
6446.7187542823
 20
4100.3625389133
 30
0.0
 11
6446.7187542823
 21
4096.5625341926
 31
0.0
  0
LINE
  5
251
330
1F
100
AcDbEntity
  8
0
  6
Continuous
 62
     7
370
    25
100
AcDbLine
 10
6444.8987562564
 20
4102.2625412736
 30
0.0
 11
6444.8987562564
 21
4094.6625467334
 31
0.0
  0
LINE
  5
252
330
1F
100
AcDbEntity
  8
0
  6
Continuous
 62
     7
370
    25
100
AcDbLine
 10
6444.5187542942
 20
4102.2625412736
 30
0.0
 11
6444.5187542942
 21
4094.6625467334
 31
0.0
  0
ARC
  5
253
330
1F
100
AcDbEntity
  8
0
  6
Continuous
 62
     7
370
    25
100
AcDbCircle
 10
6274.0187553361
 20
4098.4625394064
 30
0.0
 40
5.250000000000292
100
AcDbArc
 50
342.8473878307
 51
146.4209664272
  0
LWPOLYLINE
  5
254
330
1F
100
AcDbEntity
  8
0
  6
Continuous
 62
     7
370
    25
100
AcDbPolyline
 90
        9
 70
   128
 43
0.0
 10
6279.0352497604
 20
4096.9142164979
 10
6277.9763210919
 20
4097.4162664209
 10
6276.8198270705
 20
4097.9645695481
 10
6275.5967993644
 20
4098.5444035325
 10
6274.3400503304
 20
4099.1402264629
 10
6273.0833087471
 20
4099.7360642943
 10
6271.8602810409
 20
4100.3158982787
 10
6270.7037870195
 20
4100.864201406
 10
6269.644858351
 20
4101.366251329
  0
ARC
  5
255
330
1F
100
AcDbEntity
  8
0
  6
Continuous
 62
     7
370
    25
100
AcDbCircle
 10
6274.0187553361
 20
4098.4625394064
 30
0.0
 40
5.250000000000041
100
AcDbArc
 50
162.8473878307
 51
326.4209664272
  0
LWPOLYLINE
  5
256
330
1F
100
AcDbEntity
  8
0
  6
Continuous
 62
     7
370
    25
100
AcDbPolyline
 90
        9
 70
   128
 43
0.0
 10
6269.0022606757
 20
4100.0108566079
 10
6270.0611893442
 20
4099.5088215861
 10
6271.2176833656
 20
4098.9605184589
 10
6272.4407110718
 20
4098.3806695733
 10
6273.6974601057
 20
4097.784846643
 10
6274.954201689
 20
4097.1890237126
 10
6276.1772293952
 20
4096.6091748271
 10
6277.3337234166
 20
4096.0608716998
 10
6278.3926520851
 20
4095.558836678
  0
ARC
  5
257
330
1F
100
AcDbEntity
  8
0
  6
Continuous
 62
     7
370
    25
100
AcDbCircle
 10
6274.0187553361
 20
4098.4625394064
 30
0.0
 40
5.250000000000041
100
AcDbArc
 50
326.4209664272
 51
342.8473878307
  0
ARC
  5
258
330
1F
100
AcDbEntity
  8
0
  6
Continuous
 62
     7
370
    25
100
AcDbCircle
 10
6274.0187553361
 20
4098.4625394064
 30
0.0
 40
5.250000000000292
100
AcDbArc
 50
146.4209664272
 51
162.8473878307
  0
LINE
  5
259
330
1F
100
AcDbEntity
  8
0
  6
Continuous
 62
     7
370
    25
100
AcDbLine
 10
6254.0187482145
 20
3951.7931189332
 30
0.0
 11
6294.018754771
 21
3951.7931189332
 31
0.0
  0
LINE
  5
25A
330
1F
100
AcDbEntity
  8
0
  6
Continuous
 62
     7
370
    25
100
AcDbLine
 10
6294.018754771
 20
3951.7931189332
 30
0.0
 11
6294.018754771
 21
3935.6640722547
 31
0.0
  0
LINE
  5
25B
330
1F
100
AcDbEntity
  8
0
  6
Continuous
 62
     7
370
    25
100
AcDbLine
 10
6294.018754771
 20
3935.6640722547
 30
0.0
 11
6254.0187482145
 21
3935.6640722547
 31
0.0
  0
LINE
  5
25C
330
1F
100
AcDbEntity
  8
0
  6
Continuous
 62
     7
370
    25
100
AcDbLine
 10
6254.0187482145
 20
3935.6640722547
 30
0.0
 11
6254.0187482145
 21
3951.7931189332
 31
0.0
  0
CIRCLE
  5
25D
330
1F
100
AcDbEntity
  8
0
  6
Continuous
 62
     7
370
    25
100
AcDbCircle
 10
6274.0187553361
 20
4098.4625394064
 30
0.0
 40
209.5
  0
CIRCLE
  5
25E
330
1F
100
AcDbEntity
  8
0
  6
Continuous
 62
     7
370
    25
100
AcDbCircle
 10
6274.0187553361
 20
4098.4625394064
 30
0.0
 40
210.0000000000006
  0
CIRCLE
  5
25F
330
1F
100
AcDbEntity
  8
0
  6
Continuous
 62
     7
370
    25
100
AcDbCircle
 10
6353.5191803365
 20
3925.8946327008
 30
0.0
 40
5.500000000008526
  0
CIRCLE
  5
260
330
1F
100
AcDbEntity
  8
0
  6
Continuous
 62
     7
370
    25
100
AcDbCircle
 10
6164.3207767513
 20
3943.3291983916
 30
0.0
 40
5.500000000000439
  0
CIRCLE
  5
261
330
1F
100
AcDbEntity
  8
0
  6
Continuous
 62
     7
370
    25
100
AcDbCircle
 10
6084.8203517509
 20
4115.8971050973
 30
0.0
 40
5.500000000002187
  0
CIRCLE
  5
262
330
1F
100
AcDbEntity
  8
0
  6
Continuous
 62
     7
370
    25
100
AcDbCircle
 10
6194.5183303357
 20
4271.030446112
 30
0.0
 40
5.500000000010536
  0
CIRCLE
  5
263
330
1F
100
AcDbEntity
  8
0
  6
Continuous
 62
     7
370
    25
100
AcDbCircle
 10
6383.7167339209
 20
4253.5958804212
 30
0.0
 40
5.500000000016349
  0
CIRCLE
  5
264
330
1F
100
AcDbEntity
  8
0
  6
Continuous
 62
     7
370
    25
100
AcDbCircle
 10
6463.2171589213
 20
4081.0279737156
 30
0.0
 40
5.500000000015081
  0
CIRCLE
  5
265
330
1F
100
AcDbEntity
  8
0
  6
Continuous
 62
     7
370
    25
100
AcDbCircle
 10
6194.5183303357
 20
4271.030446112
 30
0.0
 40
4.000000000010403
  0
CIRCLE
  5
266
330
1F
100
AcDbEntity
  8
0
  6
Continuous
 62
     7
370
    25
100
AcDbCircle
 10
6383.7167339209
 20
4253.5958804212
 30
0.0
 40
4.000000000016742
  0
CIRCLE
  5
267
330
1F
100
AcDbEntity
  8
0
  6
Continuous
 62
     7
370
    25
100
AcDbCircle
 10
6084.8203517509
 20
4115.8971050973
 30
0.0
 40
4.000000000001312
  0
CIRCLE
  5
268
330
1F
100
AcDbEntity
  8
0
  6
Continuous
 62
     7
370
    25
100
AcDbCircle
 10
6463.2171589213
 20
4081.0279737156
 30
0.0
 40
4.000000000014469
  0
CIRCLE
  5
269
330
1F
100
AcDbEntity
  8
0
  6
Continuous
 62
     7
370
    25
100
AcDbCircle
 10
6164.3207767513
 20
3943.3291983916
 30
0.0
 40
3.999999999999827
  0
CIRCLE
  5
26A
330
1F
100
AcDbEntity
  8
0
  6
Continuous
 62
     7
370
    25
100
AcDbCircle
 10
6353.5191803365
 20
3925.8946327008
 30
0.0
 40
4.000000000008393
  0
LWPOLYLINE
  5
26B
330
1F
100
AcDbEntity
  8
0
  6
Continuous
 62
     7
370
    25
100
AcDbPolyline
 90
        3
 70
   128
 43
0.0
 10
6274.0187589434
 20
4083.4625359569
 10
6271.729016712
 20
4083.6383398566
 10
6271.5332899597
 20
4083.6698856149
  0
ARC
  5
26C
330
1F
100
AcDbEntity
  8
0
  6
Continuous
 62
     7
370
    25
100
AcDbCircle
 10
6274.0187553361
 20
4098.4625394064
 30
0.0
 40
15.00000000000023
100
AcDbArc
 50
215.2764276605
 51
234.9448864101
  0
ARC
  5
26D
330
1F
100
AcDbEntity
  8
0
  6
Continuous
 62
     7
370
    25
100
AcDbCircle
 10
6274.0187553361
 20
4098.4625394064
 30
0.0
 40
15.0000000000004
100
AcDbArc
 50
170.5812580992
 51
189.4215366457
  0
ARC
  5
26E
330
1F
100
AcDbEntity
  8
0
  6
Continuous
 62
     7
370
    25
100
AcDbCircle
 10
6274.0187553361
 20
4098.4625394064
 30
0.0
 40
15.00000000000041
100
AcDbArc
 50
125.4278182498
 51
144.6805802185
  0
ARC
  5
26F
330
1F
100
AcDbEntity
  8
0
  6
Continuous
 62
     7
370
    25
100
AcDbCircle
 10
6274.0187553361
 20
4098.4625394064
 30
0.0
 40
15.00000000000036
100
AcDbArc
 50
80.1707734921
 51
99.7593400686
  0
ARC
  5
270
330
1F
100
AcDbEntity
  8
0
  6
Continuous
 62
     7
370
    25
100
AcDbCircle
 10
6274.0187553361
 20
4098.4625394064
 30
0.0
 40
15.00000000000023
100
AcDbArc
 50
35.5144657177
 51
54.4852466919
  0
ARC
  5
271
330
1F
100
AcDbEntity
  8
0
  6
Continuous
 62
     7
370
    25
100
AcDbCircle
 10
6274.0187553361
 20
4098.4625394064
 30
0.0
 40
15.00000000000009
100
AcDbArc
 50
350.1243101272
 51
9.7242277703
  0
ARC
  5
272
330
1F
100
AcDbEntity
  8
0
  6
Continuous
 62
     7
370
    25
100
AcDbCircle
 10
6274.0187553361
 20
4098.4625394064
 30
0.0
 40
15.00000000000013
100
AcDbArc
 50
305.3683673253
 51
324.3848316863
  0
LWPOLYLINE
  5
273
330
1F
100
AcDbEntity
  8
0
  6
Continuous
 62
     7
370
    25
100
AcDbPolyline
 90
        3
 70
   128
 43
0.0
 10
6276.6302395966
 20
4083.6916115079
 10
6276.3084937242
 20
4083.6383398566
 10
6274.0187589434
 20
4083.4625359569
  0
LINE
  5
274
330
1F
100
AcDbEntity
  8
0
  6
Continuous
 62
     7
370
    25
100
AcDbLine
 10
6304.0187526849
 20
4219.949254388
 30
0.0
 11
6303.214186838
 21
4217.8153596763
 31
0.0
  0
LWPOLYLINE
  5
275
330
1F
100
AcDbEntity
  8
0
  6
Continuous
 62
     7
370
    25
100
AcDbPolyline
 90
        9
 70
   128
 43
0.0
 10
6294.9267421272
 20
4217.3699919078
 10
6295.2821199205
 20
4217.9081901852
 10
6295.8948854711
 20
4218.3258864973
 10
6296.7429552582
 20
4218.6080139074
 10
6297.7957446483
 20
4218.7444023732
 10
6299.0152854827
 20
4218.7301289234
 10
6300.3575895336
 20
4218.5657113735
 10
6301.7742503789
 20
4218.2570785228
 10
6303.214186838
 20
4217.8153596763
  0
SPLINE
  5
276
330
1F
100
AcDbEntity
  8
0
  6
Continuous
 62
     7
370
    25
100
AcDbSpline
210
0.0
220
0.0
230
1.0
 70
     8
 71
     3
 72
    13
 73
     9
 74
     0
 42
0.000000001
 43
0.00000001
 40
0.0
 40
0.0
 40
0.0
 40
0.0
 40
0.2685610422376144
 40
0.5371798525198228
 40
0.8154723097683793
 40
0.9250829055268236
 40
0.989022442362372
 40
1.0
 40
1.0
 40
1.0
 40
1.0
 10
6294.926742127222
 20
4217.369991907844
 30
0.0
 10
6295.581122453154
 20
4218.985240548038
 30
0.0
 10
6296.890023863601
 20
4222.216085271802
 30
0.0
 10
6299.383683864487
 20
4226.884941451522
 30
0.0
 10
6301.682129561538
 20
4230.474285435096
 30
0.0
 10
6303.239969595615
 20
4232.928230639083
 30
0.0
 10
6303.870043280842
 20
4233.95766234086
 30
0.0
 10
6303.999747240252
 20
4234.41810282252
 30
0.0
 10
6304.018752684874
 20
4234.485570894549
 30
0.0
  0
SPLINE
  5
277
330
1F
100
AcDbEntity
  8
0
  6
Continuous
 62
     7
370
    25
100
AcDbSpline
210
0.0
220
0.0
230
1.0
 70
    24
 71
     3
 72
    11
 73
     7
 74
     0
 42
0.000000001
 43
0.00000001
 40
0.0
 40
0.0
 40
0.0
 40
0.0
 40
0.1214329956703102
 40
0.2457448521086965
 40
0.6222969551715181
 40
1.0
 40
1.0
 40
1.0
 40
1.0
 10
6304.018752684874
 20
4234.485570894549
 30
0.0
 10
6304.018752684874
 20
4233.86183391865
 30
0.0
 10
6304.018752684874
 20
4232.599572784013
 30
0.0
 10
6304.018752684874
 20
4229.674739484179
 30
0.0
 10
6304.018752684874
 20
4225.583166588367
 30
0.0
 10
6304.018752684874
 20
4221.8291345868
 30
0.0
 10
6304.018752684874
 20
4219.949254387984
 30
0.0
  0
SPLINE
  5
278
330
1F
100
AcDbEntity
  8
0
  6
Continuous
 62
     7
370
    25
100
AcDbSpline
210
0.0
220
0.0
230
1.0
 70
     8
 71
     3
 72
    13
 73
     9
 74
     0
 42
0.000000001
 43
0.00000001
 40
0.0
 40
0.0
 40
0.0
 40
0.0
 40
0.008764302751707
 40
0.1422065840454129
 40
0.356917743952569
 40
0.571355590275125
 40
0.7856798582050031
 40
1.0
 40
1.0
 40
1.0
 40
1.0
 10
6290.018448641581
 20
4205.061046028504
 30
0.0
 10
6290.027583019645
 20
4205.060615235295
 30
0.0
 10
6290.175794319353
 20
4205.053625331766
 30
0.0
 10
6290.547849921087
 20
4205.035886036507
 30
0.0
 10
6291.101792461358
 20
4205.008829113201
 30
0.0
 10
6291.608445088935
 20
4204.98346988053
 30
0.0
 10
6291.952540939326
 20
4204.965941831308
 30
0.0
 10
6291.996685900423
 20
4204.963673963017
 30
0.0
 10
6292.018758168501
 20
4204.962540039787
 30
0.0
  0
ARC
  5
279
330
1F
100
AcDbEntity
  8
0
  6
Continuous
 62
     7
370
    25
100
AcDbCircle
 10
6341.7566622712
 20
4199.8497501759
 30
0.0
 40
52.00000000000006
100
AcDbArc
 50
136.5295241585
 51
174.2483200869
  0
LINE
  5
27A
330
1F
100
AcDbEntity
  8
0
  6
Continuous
 62
     7
370
    25
100
AcDbLine
 10
6304.0187526849
 20
4235.6247467544
 30
0.0
 11
6304.0187526849
 21
4234.4855708945
 31
0.0
  0
ARC
  5
27B
330
1F
100
AcDbEntity
  8
0
  6
Continuous
 62
     7
370
    25
100
AcDbCircle
 10
6341.7566622712
 20
4199.8497501759
 30
0.0
 40
50.00000000000056
100
AcDbArc
 50
159.4879220722
 51
174.130916549
  0
LINE
  5
27C
330
1F
100
AcDbEntity
  8
0
  6
Continuous
 62
     7
370
    25
100
AcDbLine
 10
6252.7894620207
 20
4218.1246612165
 30
0.0
 11
6253.1107608583
 21
4217.3699919078
 31
0.0
  0
LWPOLYLINE
  5
27D
330
1F
100
AcDbEntity
  8
0
  6
Continuous
 62
     7
370
    25
100
AcDbPolyline
 90
        9
 70
   128
 43
0.0
 10
6253.1107608583
 20
4217.3699919078
 10
6252.7553979662
 20
4217.9081901852
 10
6252.1426175144
 20
4218.3258864973
 10
6251.2945477274
 20
4218.6080139074
 10
6250.2417657879
 20
4218.7444023732
 10
6249.0222249535
 20
4218.7301289234
 10
6247.6799283531
 20
4218.5657113735
 10
6246.2632600573
 20
4218.2570785228
 10
6244.8233161476
 20
4217.8153596763
  0
LINE
  5
27E
330
1F
100
AcDbEntity
  8
0
  6
Continuous
 62
     7
370
    25
100
AcDbLine
 10
6244.8233161476
 20
4217.8153596763
 30
0.0
 11
6244.0187577513
 21
4219.949254388
 31
0.0
  0
SPLINE
  5
27F
330
1F
100
AcDbEntity
  8
0
  6
Continuous
 62
     7
370
    25
100
AcDbSpline
210
0.0
220
0.0
230
1.0
 70
    24
 71
     3
 72
    11
 73
     7
 74
     0
 42
0.000000001
 43
0.00000001
 40
0.0
 40
0.0
 40
0.0
 40
0.0
 40
0.4989723062555065
 40
0.7488975711436374
 40
0.8749897617402255
 40
1.0
 40
1.0
 40
1.0
 40
1.0
 10
6244.018757751269
 20
4219.949254387984
 30
0.0
 10
6244.018757751269
 20
4222.417117277189
 30
0.0
 10
6244.018757751269
 20
4226.12108341012
 30
0.0
 10
6244.018757751269
 20
4230.216075170204
 30
0.0
 10
6244.018757751269
 20
4232.538889435727
 30
0.0
 10
6244.018757751269
 20
4233.838543728862
 30
0.0
 10
6244.018757751269
 20
4234.485570894549
 30
0.0
  0
ARC
  5
280
330
1F
100
AcDbEntity
  8
0
  6
Continuous
 62
     7
370
    25
100
AcDbCircle
 10
6206.280848401
 20
4199.8497501759
 30
0.0
 40
52.00000000000095
100
AcDbArc
 50
5.7516799131
 51
43.4704758415
  0
SPLINE
  5
281
330
1F
100
AcDbEntity
  8
0
  6
Continuous
 62
     7
370
    25
100
AcDbSpline
210
0.0
220
0.0
230
1.0
 70
     8
 71
     3
 72
    13
 73
     9
 74
     0
 42
0.000000001
 43
0.00000001
 40
0.0
 40
0.0
 40
0.0
 40
0.0
 40
0.008764302751707
 40
0.1422065840454129
 40
0.356917743952569
 40
0.571355590275125
 40
0.7856798582050031
 40
1.0
 40
1.0
 40
1.0
 40
1.0
 10
6258.019061794562
 20
4205.061046028504
 30
0.0
 10
6258.009927416498
 20
4205.060615235295
 30
0.0
 10
6257.861716116789
 20
4205.053625331766
 30
0.0
 10
6257.489660515055
 20
4205.035886036507
 30
0.0
 10
6256.935717974785
 20
4205.008829113201
 30
0.0
 10
6256.429065347207
 20
4204.98346988053
 30
0.0
 10
6256.084969496816
 20
4204.965941831308
 30
0.0
 10
6256.040824535719
 20
4204.963673963017
 30
0.0
 10
6256.018752267642
 20
4204.962540039787
 30
0.0
  0
ARC
  5
282
330
1F
100
AcDbEntity
  8
0
  6
Continuous
 62
     7
370
    25
100
AcDbCircle
 10
6206.280848401
 20
4199.8497501759
 30
0.0
 40
50.00000000000064
100
AcDbArc
 50
5.869083451
 51
20.5120779278
  0
SPLINE
  5
283
330
1F
100
AcDbEntity
  8
0
  6
Continuous
 62
     7
370
    25
100
AcDbSpline
210
0.0
220
0.0
230
1.0
 70
    24
 71
     3
 72
     9
 73
     5
 74
     0
 42
0.000000001
 43
0.00000001
 40
0.0
 40
0.0
 40
0.0
 40
0.0
 40
0.1065731814067476
 40
1.0
 40
1.0
 40
1.0
 40
1.0
 10
6244.018757751269
 20
4234.485570894549
 30
0.0
 10
6244.018757751269
 20
4234.525004812079
 30
0.0
 10
6244.018757751269
 20
4234.895022081048
 30
0.0
 10
6244.018757751269
 20
4235.280421012867
 30
0.0
 10
6244.018757751269
 20
4235.624746754411
 30
0.0
  0
ARC
  5
284
330
1F
100
AcDbEntity
  8
0
  6
Continuous
 62
     7
370
    25
100
AcDbCircle
 10
6274.0187553361
 20
4204.9625394064
 30
0.0
 40
18.0
100
AcDbArc
 50
180.0
 51
360.0
  0
CIRCLE
  5
285
330
1F
100
AcDbEntity
  8
0
  6
Continuous
 62
     7
370
    25
100
AcDbCircle
 10
6274.0187553361
 20
4098.4625394064
 30
0.0
 40
170.5
  0
ARC
  5
286
330
1F
100
AcDbEntity
  8
0
  6
Continuous
 62
     7
370
    25
100
AcDbCircle
 10
6274.0187553361
 20
4098.4625394064
 30
0.0
 40
141.0000000000007
100
AcDbArc
 50
102.2844938563
 51
77.7155061437
  0
ARC
  5
287
330
1F
100
AcDbEntity
  8
0
  6
Continuous
 62
     7
370
    25
100
AcDbCircle
 10
6274.0187553361
 20
4204.9625394064
 30
0.0
 40
11.00000000000057
100
AcDbArc
 50
176.4730798578
 51
191.2130091935
  0
LINE
  5
288
330
1F
100
AcDbEntity
  8
0
  6
Continuous
 62
     7
370
    25
100
AcDbLine
 10
6244.0187577513
 20
4236.2340894472
 30
0.0
 11
6244.0187577513
 21
4235.6247467544
 31
0.0
  0
LINE
  5
289
330
1F
100
AcDbEntity
  8
0
  6
Continuous
 62
     7
370
    25
100
AcDbLine
 10
6304.0187526849
 20
4235.6247467544
 30
0.0
 11
6304.0187526849
 21
4236.2340894472
 31
0.0
  0
SPLINE
  5
28A
330
1F
100
AcDbEntity
  8
0
  6
Continuous
 62
     7
370
    25
100
AcDbSpline
210
0.0
220
0.0
230
1.0
 70
     8
 71
     3
 72
     9
 73
     5
 74
     0
 42
0.000000001
 43
0.00000001
 40
0.0
 40
0.0
 40
0.0
 40
0.0
 40
0.4966538088403304
 40
1.0
 40
1.0
 40
1.0
 40
1.0
 10
6247.297355940623
 20
4207.456796983251
 30
0.0
 10
6247.044407915657
 20
4209.221172551146
 30
0.0
 10
6246.535103405225
 20
4212.773698549114
 30
0.0
 10
6245.396451996998
 20
4216.127324717713
 30
0.0
 10
6244.823316147608
 20
4217.815359676251
 30
0.0
  0
SPLINE
  5
28B
330
1F
100
AcDbEntity
  8
0
  6
Continuous
 62
     7
370
    25
100
AcDbSpline
210
0.0
220
0.0
230
1.0
 70
     8
 71
     3
 72
    27
 73
    23
 74
     0
 42
0.000000001
 43
0.00000001
 40
0.0
 40
0.0
 40
0.0
 40
0.0
 40
0.038440550823415
 40
0.0940858899559199
 40
0.1497213518381279
 40
0.202152662599377
 40
0.2545698732515617
 40
0.305098847459559
 40
0.3556137164770466
 40
0.406209887873476
 40
0.4567964517725437
 40
0.5113165135378981
 40
0.5631770418763709
 40
0.615045253037363
 40
0.6708535342342208
 40
0.7266820860479606
 40
0.7861297094735135
 40
0.8456013601497876
 40
0.9035709667833692
 40
0.9615526015090339
 40
0.9671677303913957
 40
0.9999999999999999
 40
0.9999999999999999
 40
0.9999999999999999
 40
0.9999999999999999
 10
6300.74015449552
 20
4207.456796983251
 30
0.0
 10
6300.68707298553
 20
4206.433987226672
 30
0.0
 10
6300.557152341816
 20
4203.930590055141
 30
0.0
 10
6299.661340288297
 20
4200.006378021236
 30
0.0
 10
6298.021290545117
 20
4195.898266274177
 30
0.0
 10
6295.735087690328
 20
4192.159112034026
 30
0.0
 10
6292.950983040745
 20
4188.89507715086
 30
0.0
 10
6289.676341591723
 20
4186.127625697511
 30
0.0
 10
6286.015796215628
 20
4183.903347029152
 30
0.0
 10
6282.000308263973
 20
4182.290361276453
 30
0.0
 10
6277.640220932331
 20
4181.302829957595
 30
0.0
 10
6273.117471259994
 20
4181.068519858838
 30
0.0
 10
6268.594753232717
 20
4181.622578296154
 30
0.0
 10
6264.207371702829
 20
4182.909907969812
 30
0.0
 10
6260.046072083199
 20
4184.981111557415
 30
0.0
 10
6256.172841113765
 20
4187.829087714159
 30
0.0
 10
6252.858593022132
 20
4191.367728385723
 30
0.0
 10
6250.229724714281
 20
4195.435736590729
 30
0.0
 10
6248.415115565603
 20
4199.822562490025
 30
0.0
 10
6247.702648863587
 20
4203.009505650032
 30
0.0
 10
6247.380385703878
 20
4205.559860789558
 30
0.0
 10
6247.335600444918
 20
4206.583045432463
 30
0.0
 10
6247.297355940623
 20
4207.456796983251
 30
0.0
  0
SPLINE
  5
28C
330
1F
100
AcDbEntity
  8
0
  6
Continuous
 62
     7
370
    25
100
AcDbSpline
210
0.0
220
0.0
230
1.0
 70
     8
 71
     3
 72
    10
 73
     6
 74
     0
 42
0.000000001
 43
0.00000001
 40
0.0
 40
0.0
 40
0.0
 40
0.0
 40
0.1439970662027259
 40
0.3323748811893916
 40
1.0
 40
1.0
 40
1.0
 40
1.0
 10
6303.214186837954
 20
4217.815359676251
 30
0.0
 10
6303.041441248695
 20
4217.337370383551
 30
0.0
 10
6302.642708856291
 20
4216.234072666724
 30
0.0
 10
6301.589669129096
 20
4212.851535727802
 30
0.0
 10
6301.112395809404
 20
4209.820669904282
 30
0.0
 10
6300.74015449552
 20
4207.456796983251
 30
0.0
  0
SPLINE
  5
28D
330
1F
100
AcDbEntity
  8
0
  6
Continuous
 62
     7
370
    25
100
AcDbSpline
210
0.0
220
0.0
230
1.0
 70
    11
 71
     3
 72
    26
 73
    22
 74
     0
 42
0.000000001
 43
0.00000001
 40
0.0
 40
0.0
 40
0.0
 40
0.0
 40
0.053636963594025
 40
0.1072758209045232
 40
0.1608728377883991
 40
0.214451772629439
 40
0.2680635193866126
 40
0.3217427002088095
 40
0.3754924039497911
 40
0.4292838640029825
 40
0.4830692675680474
 40
0.5368068733501135
 40
0.5904777668291278
 40
0.6440946257881893
 40
0.6976869962370899
 40
0.7512924879870628
 40
0.8049440948927923
 40
0.8586611075180007
 40
0.9124350250523275
 40
0.9662295744411828
 40
1.0
 40
1.0
 40
1.0
 40
1.0
 10
6253.426456859393
 20
4101.277023175726
 30
0.0
 10
6253.14160551681
 20
4100.926629236416
 30
0.0
 10
6252.571892774633
 20
4100.225828986725
 30
0.0
 10
6252.219106957627
 20
4098.8908778057
 30
0.0
 10
6252.299453698959
 20
4097.530846509527
 30
0.0
 10
6252.832305604947
 20
4096.270081737925
 30
0.0
 10
6253.749967914157
 20
4095.25740627831
 30
0.0
 10
6254.952148792025
 20
4094.604398898374
 30
0.0
 10
6256.303759742271
 20
4094.385963628453
 30
0.0
 10
6257.65245498502
 20
4094.627727644715
 30
0.0
 10
6258.845115702599
 20
4095.303006700921
 30
0.0
 10
6259.746309153059
 20
4096.33507180959
 30
0.0
 10
6260.254438813151
 20
4097.606497676094
 30
0.0
 10
6260.313073929486
 20
4098.973401546879
 30
0.0
 10
6259.916572508328
 20
4100.282060688573
 30
0.0
 10
6259.109689209178
 20
4101.385961637419
 30
0.0
 10
6257.983192910115
 20
4102.160923054041
 30
0.0
 10
6256.661375475549
 20
4102.520896311279
 30
0.0
 10
6255.299347449361
 20
4102.418827152599
 30
0.0
 10
6254.184601575857
 20
4101.951900938849
 30
0.0
 10
6253.637465926848
 20
4101.46485713981
 30
0.0
 10
6253.426456859393
 20
4101.277023175726
 30
0.0
  0
SPLINE
  5
28E
330
1F
100
AcDbEntity
  8
0
  6
Continuous
 62
     7
370
    25
100
AcDbSpline
210
0.0
220
0.0
230
1.0
 70
    11
 71
     3
 72
    26
 73
    22
 74
     0
 42
0.000000001
 43
0.00000001
 40
0.0
 40
0.0
 40
0.0
 40
0.0
 40
0.0535969358503761
 40
0.1071924837840319
 40
0.1608229000671217
 40
0.2145261858043595
 40
0.268293444292777
 40
0.3220881161992994
 40
0.3758621158234718
 40
0.4295791844394429
 40
0.4832312536428491
 40
0.5368361660882845
 40
0.5904286791064333
 40
0.6440457659388655
 40
0.6977170513744638
 40
0.7514547355991652
 40
0.8052401194549662
 40
0.8590314246141654
 40
0.9127814018729321
 40
0.9664605072425452
 40
1.0
 40
1.0
 40
1.0
 40
1.0
 10
6258.639181068224
 20
4113.842114428053
 30
0.0
 10
6258.352675903731
 20
4113.49318472098
 30
0.0
 10
6257.779672993925
 20
4112.795334342525
 30
0.0
 10
6257.420365695119
 20
4111.46301481032
 30
0.0
 10
6257.493411640217
 20
4110.102761562356
 30
0.0
 10
6258.020190928144
 20
4108.838021986518
 30
0.0
 10
6258.934729878976
 20
4107.81925362111
 30
0.0
 10
6260.136441289337
 20
4107.160313266696
 30
0.0
 10
6261.488597859181
 20
4106.936976217703
 30
0.0
 10
6262.837804566545
 20
4107.174177599973
 30
0.0
 10
6264.031419266013
 20
4107.844304748829
 30
0.0
 10
6264.935425774304
 20
4108.870880926543
 30
0.0
 10
6265.448885284809
 20
4110.138114701965
 30
0.0
 10
6265.514483322704
 20
4111.50387623282
 30
0.0
 10
6265.124581372527
 20
4112.815070724957
 30
0.0
 10
6264.322048014983
 20
4113.924285604212
 30
0.0
 10
6263.197003768796
 20
4114.70541345445
 30
0.0
 10
6261.874705187709
 20
4115.070769136647
 30
0.0
 10
6260.511793295813
 20
4114.973249139505
 30
0.0
 10
6259.397322063946
 20
4114.510840622346
 30
0.0
 10
6258.849748031058
 20
4114.027847219835
 30
0.0
 10
6258.639181068224
 20
4113.842114428053
 30
0.0
  0
SPLINE
  5
28F
330
1F
100
AcDbEntity
  8
0
  6
Continuous
 62
     7
370
    25
100
AcDbSpline
210
0.0
220
0.0
230
1.0
 70
    11
 71
     3
 72
    26
 73
    22
 74
     0
 42
0.000000001
 43
0.00000001
 40
0.0
 40
0.0
 40
0.0
 40
0.0
 40
0.0537437625356862
 40
0.1074856709331088
 40
0.1612668772871299
 40
0.2150604484995337
 40
0.2688192219027933
 40
0.3225150232318652
 40
0.3761489196232232
 40
0.4297463130369193
 40
0.4833425217849353
 40
0.5369743948822843
 40
0.5906669159686482
 40
0.6444229313545492
 40
0.6982158691402888
 40
0.7519987213380881
 40
0.8057279831301829
 40
0.8593835415743233
 40
0.9129801623167519
 40
0.9665593708268162
 40
1.0
 40
1.0
 40
1.0
 40
1.0
 10
6271.204272320551
 20
4119.054838636885
 30
0.0
 10
6270.915566552316
 20
4118.706600272924
 30
0.0
 10
6270.338164976077
 20
4118.010135559087
 30
0.0
 10
6269.972918930319
 20
4116.676806508768
 30
0.0
 10
6270.041475654957
 20
4115.31373350678
 30
0.0
 10
6270.56566493538
 20
4114.045545069236
 30
0.0
 10
6271.478420576573
 20
4113.024049481944
 30
0.0
 10
6272.67790900605
 20
4112.362725648309
 30
0.0
 10
6274.027500896438
 20
4112.136047327353
 30
0.0
 10
6275.375256442911
 20
4112.368440573657
 30
0.0
 10
6276.57001901891
 20
4113.033195043135
 30
0.0
 10
6277.477947305784
 20
4114.055761456995
 30
0.0
 10
6277.996855324682
 20
4115.321805683917
 30
0.0
 10
6278.067515731752
 20
4116.689331414796
 30
0.0
 10
6277.680929540878
 20
4118.003896267098
 30
0.0
 10
6276.880235590857
 20
4119.116342349744
 30
0.0
 10
6275.756951863015
 20
4119.900003366297
 30
0.0
 10
6274.437124383152
 20
4120.268181896891
 30
0.0
 10
6273.076421221828
 20
4120.175038405157
 30
0.0
 10
6271.963170836456
 20
4119.717949967873
 30
0.0
 10
6271.414947611065
 20
4119.238922765884
 30
0.0
 10
6271.204272320551
 20
4119.054838636885
 30
0.0
  0
SPLINE
  5
290
330
1F
100
AcDbEntity
  8
0
  6
Continuous
 62
     7
370
    25
100
AcDbSpline
210
0.0
220
0.0
230
1.0
 70
    11
 71
     3
 72
    26
 73
    22
 74
     0
 42
0.000000001
 43
0.00000001
 40
0.0
 40
0.0
 40
0.0
 40
0.0
 40
0.0537900762871177
 40
0.1075801236541588
 40
0.1613520333015633
 40
0.2150658987502559
 40
0.2687147011342995
 40
0.3223185499239642
 40
0.3759113234404752
 40
0.4295302966683489
 40
0.4832051425506363
 40
0.5369455221612678
 40
0.590732575203811
 40
0.6445229078521819
 40
0.698269516498622
 40
0.7519450887948435
 40
0.8055541456688199
 40
0.8591331741761503
 40
0.9127322413107698
 40
0.9663923534847231
 40
1.0
 40
1.0
 40
1.0
 40
1.0
 10
6284.379223397059
 20
4114.360466221342
 30
0.0
 10
6284.026711065518
 20
4114.076739202945
 30
0.0
 10
6283.321686591963
 20
4113.509285318694
 30
0.0
 10
6282.697540239948
 20
4112.274713955603
 30
0.0
 10
6282.493321885386
 20
4110.924832401596
 30
0.0
 10
6282.754375641526
 20
4109.578327606215
 30
0.0
 10
6283.444308808955
 20
4108.39668805911
 30
0.0
 10
6284.48607566107
 20
4107.510093339946
 30
0.0
 10
6285.761783581349
 20
4107.018170759576
 30
0.0
 10
6287.128474811466
 20
4106.975689229092
 30
0.0
 10
6288.432946458768
 20
4107.387735792765
 30
0.0
 10
6289.528391399824
 20
4108.20890034758
 30
0.0
 10
6290.290606640173
 20
4109.347351568571
 30
0.0
 10
6290.632572886863
 20
4110.674545590304
 30
0.0
 10
6290.515397830306
 20
4112.039732518403
 30
0.0
 10
6289.952930941597
 20
4113.288224091062
 30
0.0
 10
6289.010119652877
 20
4114.278955288048
 30
0.0
 10
6287.792316580108
 20
4114.903126097883
 30
0.0
 10
6286.441294594416
 20
4115.08465281915
 30
0.0
 10
6285.257781663612
 20
4114.859962848654
 30
0.0
 10
6284.623493731586
 20
4114.499343986077
 30
0.0
 10
6284.379223397059
 20
4114.360466221342
 30
0.0
  0
SPLINE
  5
291
330
1F
100
AcDbEntity
  8
0
  6
Continuous
 62
     7
370
    25
100
AcDbSpline
210
0.0
220
0.0
230
1.0
 70
    11
 71
     3
 72
    26
 73
    22
 74
     0
 42
0.000000001
 43
0.00000001
 40
0.0
 40
0.0
 40
0.0
 40
0.0
 40
0.0536387053882724
 40
0.1072784028824476
 40
0.1608847467748022
 40
0.2144770703803175
 40
0.2680921887584158
 40
0.3217612286424438
 40
0.3754959220516557
 40
0.4292801717160296
 40
0.4830720225143664
 40
0.5368245202868438
 40
0.5905067274898178
 40
0.6441204286903691
 40
0.6976998089626685
 40
0.7512951941983622
 40
0.8049488522871727
 40
0.8586760141100824
 40
0.9124576782622267
 40
0.9662505136642763
 40
0.9999999999999999
 40
0.9999999999999999
 40
0.9999999999999999
 40
0.9999999999999999
 10
6288.961397519392
 20
4101.311876991758
 30
0.0
 10
6288.672220750044
 20
4100.964987494198
 30
0.0
 10
6288.093861862711
 20
4100.271202082979
 30
0.0
 10
6287.724670802676
 20
4098.940582519271
 30
0.0
 10
6287.788318235645
 20
4097.579471778849
 30
0.0
 10
6288.305858678605
 20
4096.312023046871
 30
0.0
 10
6289.211313653695
 20
4095.288137095874
 30
0.0
 10
6290.405493023917
 20
4094.62067107054
 30
0.0
 10
6291.754128821842
 20
4094.385891994348
 30
0.0
 10
6293.105474914797
 20
4094.611104260739
 30
0.0
 10
6294.306281882438
 20
4095.271715158532
 30
0.0
 10
6295.220124733305
 20
4096.292788373533
 30
0.0
 10
6295.743741878946
 20
4097.558075077233
 30
0.0
 10
6295.818971262794
 20
4098.924132684597
 30
0.0
 10
6295.438518880604
 20
4100.237295535474
 30
0.0
 10
6294.645396605431
 20
4101.350792348761
 30
0.0
 10
6293.52863163975
 20
4102.139533949775
 30
0.0
 10
6292.211248163466
 20
4102.515780137081
 30
0.0
 10
6290.847906372225
 20
4102.430430148075
 30
0.0
 10
6289.727564449497
 20
4101.977187241514
 30
0.0
 10
6289.174583725033
 20
4101.496999792216
 30
0.0
 10
6288.961397519392
 20
4101.311876991758
 30
0.0
  0
SPLINE
  5
292
330
1F
100
AcDbEntity
  8
0
  6
Continuous
 62
     7
370
    25
100
AcDbSpline
210
0.0
220
0.0
230
1.0
 70
    11
 71
     3
 72
    26
 73
    22
 74
     0
 42
0.000000001
 43
0.00000001
 40
0.0
 40
0.0
 40
0.0
 40
0.0
 40
0.0536055304724179
 40
0.1072105185445986
 40
0.1608416794917998
 40
0.2145339343266216
 40
0.2682895369210676
 40
0.3220820027805928
 40
0.3758652793321245
 40
0.429594821478313
 40
0.4832510681964792
 40
0.5368475151523571
 40
0.5904271967360886
 40
0.6440389810106405
 40
0.6977186122128634
 40
0.7514687348497104
 40
0.8052600537014415
 40
0.8590452637326962
 40
0.9127826745700426
 40
0.9664537255833578
 40
1.0
 40
1.0
 40
1.0
 40
1.0
 10
6283.741476049704
 20
4088.739826897154
 30
0.0
 10
6283.454927053021
 20
4088.390838576502
 30
0.0
 10
6282.881831959064
 20
4087.692865466387
 30
0.0
 10
6282.522575903754
 20
4086.360273903591
 30
0.0
 10
6282.59582661276
 20
4084.999896642284
 30
0.0
 10
6283.122781414036
 20
4083.735313600746
 30
0.0
 10
6284.037283605715
 20
4082.716787353228
 30
0.0
 10
6285.238905238248
 20
4082.05797005628
 30
0.0
 10
6286.591094115363
 20
4081.834648497471
 30
0.0
 10
6287.940412976574
 20
4082.071989759905
 30
0.0
 10
6289.134014104803
 20
4082.742251327197
 30
0.0
 10
6290.037825215156
 20
4083.768816022144
 30
0.0
 10
6290.55113033822
 20
4085.035804289801
 30
0.0
 10
6290.616781287283
 20
4086.401344382349
 30
0.0
 10
6290.226990580582
 20
4087.712573628739
 30
0.0
 10
6289.424402737548
 20
4088.82197627528
 30
0.0
 10
6288.299191767938
 20
4089.603170438674
 30
0.0
 10
6286.976853875583
 20
4089.968471704837
 30
0.0
 10
6285.61405603943
 20
4089.870933932692
 30
0.0
 10
6284.499665155752
 20
4089.408568028155
 30
0.0
 10
6283.952089345792
 20
4088.925592918726
 30
0.0
 10
6283.741476049704
 20
4088.739826897154
 30
0.0
  0
SPLINE
  5
293
330
1F
100
AcDbEntity
  8
0
  6
Continuous
 62
     7
370
    25
100
AcDbSpline
210
0.0
220
0.0
230
1.0
 70
    11
 71
     3
 72
    26
 73
    22
 74
     0
 42
0.000000001
 43
0.00000001
 40
0.0
 40
0.0
 40
0.0
 40
0.0
 40
0.0537337092255405
 40
0.107466063833504
 40
0.1612391426641742
 40
0.215033926885704
 40
0.2688025707130684
 40
0.3225068881360962
 40
0.3761384815328346
 40
0.4297230652253538
 40
0.4833087552280495
 40
0.5369423453051918
 40
0.5906485052781806
 40
0.644417730509353
 40
0.698212948866223
 40
0.7519852769463304
 40
0.8056995528059248
 40
0.8593489630970376
 40
0.9129529251121039
 40
0.9665458598102926
 40
1.0
 40
1.0
 40
1.0
 40
1.0
 10
6271.169411053938
 20
4083.519890526304
 30
0.0
 10
6270.885053233044
 20
4083.168156276155
 30
0.0
 10
6270.31634475987
 20
4082.464696643019
 30
0.0
 10
6269.967553424111
 20
4081.127144051448
 30
0.0
 10
6270.052775179688
 20
4079.765173311272
 30
0.0
 10
6270.592382671302
 20
4078.503555465112
 30
0.0
 10
6271.517567550421
 20
4077.493222106335
 30
0.0
 10
6272.725145735028
 20
4076.846582888307
 30
0.0
 10
6274.077369971867
 20
4076.636500929713
 30
0.0
 10
6275.421958572379
 20
4076.885263743274
 30
0.0
 10
6276.608306191447
 20
4077.564339199915
 30
0.0
 10
6277.50375056149
 20
4078.59769039444
 30
0.0
 10
6278.007373164919
 20
4079.870021617485
 30
0.0
 10
6278.061440752862
 20
4081.238544008802
 30
0.0
 10
6277.658808049516
 20
4082.548449100131
 30
0.0
 10
6276.8446129073
 20
4083.651006127609
 30
0.0
 10
6275.711993957753
 20
4084.420823770749
 30
0.0
 10
6274.3879014112
 20
4084.772976277352
 30
0.0
 10
6273.028310064368
 20
4084.663311157873
 30
0.0
 10
6271.92040186929
 20
4084.192559966953
 30
0.0
 10
6271.377904818933
 20
4083.706640325917
 30
0.0
 10
6271.169411053938
 20
4083.519890526304
 30
0.0
  0
SPLINE
  5
294
330
1F
100
AcDbEntity
  8
0
  6
Continuous
 62
     7
370
    25
100
AcDbSpline
210
0.0
220
0.0
230
1.0
 70
    11
 71
     3
 72
    26
 73
    22
 74
     0
 42
0.000000001
 43
0.00000001
 40
0.0
 40
0.0
 40
0.0
 40
0.0
 40
0.0537916617247994
 40
0.1075830800634775
 40
0.161362562647315
 40
0.2150855012152187
 40
0.268734100104512
 40
0.3223266783932807
 40
0.3759071722282526
 40
0.4295250878422648
 40
0.4832121122019577
 40
0.5369682100195923
 40
0.5907614030549054
 40
0.6445437454455752
 40
0.6982743016732228
 40
0.7519388520755407
 40
0.8055516970415583
 40
0.8591434797489895
 40
0.9127524967763241
 40
0.9664107559562123
 40
1.0
 40
1.0
 40
1.0
 40
1.0
 10
6259.217919817252
 20
4089.218794921408
 30
0.0
 10
6258.870479077762
 20
4088.928844653144
 30
0.0
 10
6258.175599170818
 20
4088.348945428528
 30
0.0
 10
6257.573478175035
 20
4087.103476400965
 30
0.0
 10
6257.393232272214
 20
4085.750135834502
 30
0.0
 10
6257.678210597525
 20
4084.408401729081
 30
0.0
 10
6258.389056726195
 20
4083.239241501602
 30
0.0
 10
6259.446256301189
 20
4082.371433526031
 30
0.0
 10
6260.730186029297
 20
4081.902267742574
 30
0.0
 10
6262.097234407507
 20
4081.883864231348
 30
0.0
 10
6263.394323869058
 20
4082.318834461355
 30
0.0
 10
6264.475288156056
 20
4083.159368589666
 30
0.0
 10
6265.217312378843
 20
4084.311335549166
 30
0.0
 10
6265.535641799494
 20
4085.644410261908
 30
0.0
 10
6265.394288969616
 20
4087.007146175728
 30
0.0
 10
6264.809892089805
 20
4088.245353631113
 30
0.0
 10
6263.849727358419
 20
4089.219329088801
 30
0.0
 10
6262.62083733142
 20
4089.821934115389
 30
0.0
 10
6261.266544993182
 20
4089.979458688242
 30
0.0
 10
6260.087219121261
 20
4089.733678023714
 30
0.0
 10
6259.459560767788
 20
4089.361918057113
 30
0.0
 10
6259.217919817252
 20
4089.218794921408
 30
0.0
  0
LINE
  5
295
330
1F
100
AcDbEntity
  8
0
  6
Continuous
 62
     7
370
    25
100
AcDbLine
 10
6244.0187577513
 20
4235.9747467565
 30
0.0
 11
6244.0187577513
 21
4236.2340894472
 31
0.0
  0
LINE
  5
296
330
1F
100
AcDbEntity
  8
0
  6
Continuous
 62
     7
370
    25
100
AcDbLine
 10
6304.0187526849
 20
4235.9747467565
 30
0.0
 11
6304.0187526849
 21
4236.2340894472
 31
0.0
  0
SPLINE
  5
297
330
1F
100
AcDbEntity
  8
0
  6
Continuous
 62
     7
370
    25
100
AcDbSpline
210
0.0
220
0.0
230
1.0
 70
     8
 71
     3
 72
    13
 73
     9
 74
     0
 42
0.000000001
 43
0.00000001
 40
0.0
 40
0.0
 40
0.0
 40
0.0
 40
0.1632707473402017
 40
0.371089516468815
 40
0.5790879086177747
 40
0.7871564660131624
 40
0.9952222706492507
 40
1.0
 40
1.0
 40
1.0
 40
1.0
 10
6256.012806704325
 20
4205.020101362834
 30
0.0
 10
6255.93044099342
 20
4205.280463311139
 30
0.0
 10
6255.74323629
 20
4205.872226324889
 30
0.0
 10
6254.543861194999
 20
4206.668011964408
 30
0.0
 10
6252.572191272882
 20
4207.28299866739
 30
0.0
 10
6250.074620190918
 20
4207.578982080267
 30
0.0
 10
6248.230005758784
 20
4207.539531691528
 30
0.0
 10
6247.317831643878
 20
4207.458613368462
 30
0.0
 10
6247.297355940623
 20
4207.456796983251
 30
0.0
  0
SPLINE
  5
298
330
1F
100
AcDbEntity
  8
0
  6
Continuous
 62
     7
370
    25
100
AcDbSpline
210
0.0
220
0.0
230
1.0
 70
     8
 71
     3
 72
    13
 73
     9
 74
     0
 42
0.000000001
 43
0.00000001
 40
0.0
 40
0.0
 40
0.0
 40
0.0
 40
0.1632707649072099
 40
0.3710895563959464
 40
0.5790883878349471
 40
0.7871564429713835
 40
0.9952228431038699
 40
1.0
 40
1.0
 40
1.0
 40
1.0
 10
6292.024703731818
 20
4205.020101362834
 30
0.0
 10
6292.107069517631
 20
4205.280463304349
 30
0.0
 10
6292.294274391309
 20
4205.872226302665
 30
0.0
 10
6293.493648803876
 20
4206.668012655237
 30
0.0
 10
6295.465325211678
 20
4207.282998452009
 30
0.0
 10
6297.962893303961
 20
4207.578978369052
 30
0.0
 10
6299.807508389979
 20
4207.539541411092
 30
0.0
 10
6300.719681275419
 20
4207.458613368774
 30
0.0
 10
6300.74015449552
 20
4207.456796983251
 30
0.0
  0
LINE
  5
299
330
1F
100
AcDbEntity
  8
0
  6
Continuous
 62
     8
370
    25
100
AcDbLine
 10
6264.2287332919
 20
4195.0038742218
 30
0.0
 11
6264.2287332919
 21
4194.7119008694
 31
0.0
  0
LINE
  5
29A
330
1F
100
AcDbEntity
  8
0
  6
Continuous
 62
     8
370
    25
100
AcDbLine
 10
6283.7287355569
 20
4194.7119008694
 30
0.0
 11
6283.7287355569
 21
4195.0038742218
 31
0.0
  0
ARC
  5
29B
330
1F
100
AcDbEntity
  8
0
  6
Continuous
 62
     8
370
    25
100
AcDbCircle
 10
6273.9787340224
 20
4198.523748489
 30
0.0
 40
9.456659520289737
100
AcDbArc
 50
203.7712483213
 51
336.2287516787
  0
ARC
  5
29C
330
1F
100
AcDbEntity
  8
0
  6
Continuous
 62
     8
370
    25
100
AcDbCircle
 10
6273.5815188753
 20
4231.6175517521
 30
0.0
 40
12.49846447926335
100
AcDbArc
 50
181.740428958
 51
271.8212323214
  0
ARC
  5
29D
330
1F
100
AcDbEntity
  8
0
  6
Continuous
 62
     8
370
    25
100
AcDbCircle
 10
6274.3759563885
 20
4231.6175372409
 30
0.0
 40
12.49845017927306
100
AcDbArc
 50
268.178736171
 51
358.2596356035
  0
SPLINE
  5
29E
330
1F
100
AcDbEntity
  8
0
  6
Continuous
 62
     8
370
    25
100
AcDbSpline
210
0.0
220
0.0
230
1.0
 70
     8
 71
     3
 72
    13
 73
     9
 74
     0
 42
0.000000001
 43
0.00000001
 40
0.0
 40
0.0
 40
0.0
 40
0.0
 40
0.01146077906988
 40
0.0782146920999506
 40
0.1926504510629389
 40
0.4831930721653993
 40
0.763636221751417
 40
1.0
 40
1.0
 40
1.0
 40
1.0
 10
6244.018757751269
 20
4234.485570894549
 30
0.0
 10
6244.037763293377
 20
4234.418102869705
 30
0.0
 10
6244.167467619332
 20
4233.957663770617
 30
0.0
 10
6244.797508779115
 20
4232.928216216421
 30
0.0
 10
6246.355610827971
 20
4230.474394875169
 30
0.0
 10
6248.651621207546
 20
4226.883915009324
 30
0.0
 10
6251.025719317052
 20
4222.46081681656
 30
0.0
 10
6252.23595551024
 20
4219.485455140679
 30
0.0
 10
6252.789462020678
 20
4218.124661216507
 30
0.0
  0
ARC
  5
29F
330
1F
100
AcDbEntity
  8
0
  6
Continuous
 62
     8
370
    25
100
AcDbCircle
 10
6274.0187553361
 20
4204.9625394064
 30
0.0
 40
16.00000000000094
100
AcDbArc
 50
179.6472457747
 51
258.5774589783
  0
ARC
  5
2A0
330
1F
100
AcDbEntity
  8
0
  6
Continuous
 62
     8
370
    25
100
AcDbCircle
 10
6274.0187553361
 20
4204.9625394064
 30
0.0
 40
16.00000000000139
100
AcDbArc
 50
280.686509121
 51
0.3527542253
  0
ENDSEC
  0
SECTION
  2
OBJECTS
  0
DICTIONARY
  5
C
330
0
100
AcDbDictionary
281
     1
  3
ACAD_GROUP
350
D
  3
ACAD_LAYOUT
350
1A
  3
ACAD_MLINESTYLE
350
17
  3
ACAD_PLOTSETTINGS
350
19
  3
ACAD_PLOTSTYLENAME
350
E
  3
ACAD_SCALELIST
350
47
  0
DICTIONARY
  5
D
102
{ACAD_REACTORS
330
C
102
}
330
C
100
AcDbDictionary
281
     1
  0
DICTIONARY
  5
1A
102
{ACAD_REACTORS
330
C
102
}
330
C
100
AcDbDictionary
281
     1
  3
Layout1
350
1E
  3
Layout2
350
26
  3
Model
350
22
  0
DICTIONARY
  5
17
102
{ACAD_REACTORS
330
C
102
}
330
C
100
AcDbDictionary
281
     1
  3
Standard
350
18
  0
DICTIONARY
  5
19
102
{ACAD_REACTORS
330
C
102
}
330
C
100
AcDbDictionary
281
     1
  0
ACDBDICTIONARYWDFLT
  5
E
102
{ACAD_REACTORS
330
C
102
}
330
C
100
AcDbDictionary
281
     1
  3
Normal
350
F
100
AcDbDictionaryWithDefault
340
F
  0
DICTIONARY
  5
47
102
{ACAD_REACTORS
330
C
102
}
330
C
100
AcDbDictionary
281
     1
  3
A0
350
48
  3
A1
350
49
  3
A2
350
4A
  3
A3
350
4B
  3
A4
350
4C
  3
A5
350
4D
  3
A6
350
4E
  3
A7
350
4F
  3
A8
350
50
  3
A9
350
51
  3
B0
350
52
  3
B1
350
53
  3
B2
350
54
  3
B3
350
55
  3
B4
350
56
  3
B5
350
57
  3
B6
350
58
  3
B7
350
59
  3
B8
350
5A
  3
B9
350
5B
  3
C0
350
5C
  3
C1
350
5D
  3
C2
350
5E
  3
C3
350
5F
  3
C4
350
60
  3
C5
350
61
  3
C6
350
62
  3
C7
350
63
  3
C8
350
64
  3
C9
350
65
  3
D0
350
66
  3
D1
350
67
  3
D2
350
68
  0
LAYOUT
  5
1E
102
{ACAD_REACTORS
330
1A
102
}
330
1A
100
AcDbPlotSettings
  1

  2
none_device
  4

  6

 40
0.0
 41
0.0
 42
0.0
 43
0.0
 44
0.0
 45
0.0
 46
0.0
 47
0.0
 48
0.0
 49
0.0
140
0.0
141
0.0
142
1.0
143
1.0
 70
   688
 72
     1
 73
     0
 74
     5
  7

 75
    16
147
1.0
148
0.0
149
0.0
100
AcDbLayout
  1
Layout1
 70
     1
 71
     1
 10
0.0
 20
0.0
 11
420.0
 21
297.0
 12
0.0
 22
0.0
 32
0.0
 14
1.0000000000E+20
 24
1.0000000000E+20
 34
1.0000000000E+20
 15
-1.0000000000E+20
 25
-1.0000000000E+20
 35
-1.0000000000E+20
146
0.0
 13
0.0
 23
0.0
 33
0.0
 16
1.0
 26
0.0
 36
0.0
 17
0.0
 27
1.0
 37
0.0
 76
     0
330
1B
  0
LAYOUT
  5
26
102
{ACAD_REACTORS
330
1A
102
}
330
1A
100
AcDbPlotSettings
  1

  2
none_device
  4

  6

 40
0.0
 41
0.0
 42
0.0
 43
0.0
 44
0.0
 45
0.0
 46
0.0
 47
0.0
 48
0.0
 49
0.0
140
0.0
141
0.0
142
1.0
143
1.0
 70
   688
 72
     1
 73
     0
 74
     5
  7

 75
    16
147
1.0
148
0.0
149
0.0
100
AcDbLayout
  1
Layout2
 70
     1
 71
     2
 10
0.0
 20
0.0
 11
0.0
 21
0.0
 12
0.0
 22
0.0
 32
0.0
 14
0.0
 24
0.0
 34
0.0
 15
0.0
 25
0.0
 35
0.0
146
0.0
 13
0.0
 23
0.0
 33
0.0
 16
1.0
 26
0.0
 36
0.0
 17
0.0
 27
1.0
 37
0.0
 76
     0
330
23
  0
LAYOUT
  5
22
102
{ACAD_REACTORS
330
1A
102
}
330
1A
100
AcDbPlotSettings
  1

  2
none_device
  4
Letter_(8.50_x_11.00_Inches)
  6

 40
6.35
 41
6.35
 42
6.35000508
 43
6.35000508
 44
215.9
 45
279.4
 46
0.0
 47
0.0
 48
0.0
 49
0.0
140
0.0
141
0.0
142
1.0
143
1.0
 70
  1712
 72
     1
 73
     0
 74
     0
  7

 75
     0
147
1.0
148
0.0
149
0.0
100
AcDbLayout
  1
Model
 70
     1
 71
     0
 10
0.0
 20
0.0
 11
20000.0
 21
10000.0
 12
0.0
 22
0.0
 32
0.0
 14
0.0
 24
0.0
 34
0.0
 15
20000.0
 25
10000.0
 35
0.0
146
0.0
 13
0.0
 23
0.0
 33
0.0
 16
1.0
 26
0.0
 36
0.0
 17
0.0
 27
1.0
 37
0.0
 76
     0
330
1F
331
29
  0
MLINESTYLE
  5
18
102
{ACAD_REACTORS
330
17
102
}
330
17
100
AcDbMlineStyle
  2
Standard
 70
     0
  3

 62
   256
 51
90.0
 52
90.0
 71
     2
 49
0.5
 62
   256
  6
BYLAYER
 49
-0.5
 62
   256
  6
BYLAYER
  0
ACDBPLACEHOLDER
  5
F
102
{ACAD_REACTORS
330
E
102
}
330
E
  0
SCALE
  5
48
102
{ACAD_REACTORS
330
47
102
}
330
47
100
AcDbScale
 70
     0
300
1:1
140
1.0
141
1.0
290
     1
  0
SCALE
  5
49
102
{ACAD_REACTORS
330
47
102
}
330
47
100
AcDbScale
 70
     0
300
1:2
140
1.0
141
2.0
290
     0
  0
SCALE
  5
4A
102
{ACAD_REACTORS
330
47
102
}
330
47
100
AcDbScale
 70
     0
300
1:4
140
1.0
141
4.0
290
     0
  0
SCALE
  5
4B
102
{ACAD_REACTORS
330
47
102
}
330
47
100
AcDbScale
 70
     0
300
1:5
140
1.0
141
5.0
290
     0
  0
SCALE
  5
4C
102
{ACAD_REACTORS
330
47
102
}
330
47
100
AcDbScale
 70
     0
300
1:8
140
1.0
141
8.0
290
     0
  0
SCALE
  5
4D
102
{ACAD_REACTORS
330
47
102
}
330
47
100
AcDbScale
 70
     0
300
1:10
140
1.0
141
10.0
290
     0
  0
SCALE
  5
4E
102
{ACAD_REACTORS
330
47
102
}
330
47
100
AcDbScale
 70
     0
300
1:16
140
1.0
141
16.0
290
     0
  0
SCALE
  5
4F
102
{ACAD_REACTORS
330
47
102
}
330
47
100
AcDbScale
 70
     0
300
1:20
140
1.0
141
20.0
290
     0
  0
SCALE
  5
50
102
{ACAD_REACTORS
330
47
102
}
330
47
100
AcDbScale
 70
     0
300
1:30
140
1.0
141
30.0
290
     0
  0
SCALE
  5
51
102
{ACAD_REACTORS
330
47
102
}
330
47
100
AcDbScale
 70
     0
300
1:40
140
1.0
141
40.0
290
     0
  0
SCALE
  5
52
102
{ACAD_REACTORS
330
47
102
}
330
47
100
AcDbScale
 70
     0
300
1:50
140
1.0
141
50.0
290
     0
  0
SCALE
  5
53
102
{ACAD_REACTORS
330
47
102
}
330
47
100
AcDbScale
 70
     0
300
1:100
140
1.0
141
100.0
290
     0
  0
SCALE
  5
54
102
{ACAD_REACTORS
330
47
102
}
330
47
100
AcDbScale
 70
     0
300
2:1
140
2.0
141
1.0
290
     0
  0
SCALE
  5
55
102
{ACAD_REACTORS
330
47
102
}
330
47
100
AcDbScale
 70
     0
300
4:1
140
4.0
141
1.0
290
     0
  0
SCALE
  5
56
102
{ACAD_REACTORS
330
47
102
}
330
47
100
AcDbScale
 70
     0
300
8:1
140
8.0
141
1.0
290
     0
  0
SCALE
  5
57
102
{ACAD_REACTORS
330
47
102
}
330
47
100
AcDbScale
 70
     0
300
10:1
140
10.0
141
1.0
290
     0
  0
SCALE
  5
58
102
{ACAD_REACTORS
330
47
102
}
330
47
100
AcDbScale
 70
     0
300
100:1
140
100.0
141
1.0
290
     0
  0
SCALE
  5
59
102
{ACAD_REACTORS
330
47
102
}
330
47
100
AcDbScale
 70
     0
300
1/128" = 1'-0"
140
0.0078125
141
12.0
290
     0
  0
SCALE
  5
5A
102
{ACAD_REACTORS
330
47
102
}
330
47
100
AcDbScale
 70
     0
300
1/64" = 1'-0"
140
0.015625
141
12.0
290
     0
  0
SCALE
  5
5B
102
{ACAD_REACTORS
330
47
102
}
330
47
100
AcDbScale
 70
     0
300
1/32" = 1'-0"
140
0.03125
141
12.0
290
     0
  0
SCALE
  5
5C
102
{ACAD_REACTORS
330
47
102
}
330
47
100
AcDbScale
 70
     0
300
1/16" = 1'-0"
140
0.0625
141
12.0
290
     0
  0
SCALE
  5
5D
102
{ACAD_REACTORS
330
47
102
}
330
47
100
AcDbScale
 70
     0
300
3/32" = 1'-0"
140
0.09375
141
12.0
290
     0
  0
SCALE
  5
5E
102
{ACAD_REACTORS
330
47
102
}
330
47
100
AcDbScale
 70
     0
300
1/8" = 1'-0"
140
0.125
141
12.0
290
     0
  0
SCALE
  5
5F
102
{ACAD_REACTORS
330
47
102
}
330
47
100
AcDbScale
 70
     0
300
3/16" = 1'-0"
140
0.1875
141
12.0
290
     0
  0
SCALE
  5
60
102
{ACAD_REACTORS
330
47
102
}
330
47
100
AcDbScale
 70
     0
300
1/4" = 1'-0"
140
0.25
141
12.0
290
     0
  0
SCALE
  5
61
102
{ACAD_REACTORS
330
47
102
}
330
47
100
AcDbScale
 70
     0
300
3/8" = 1'-0"
140
0.375
141
12.0
290
     0
  0
SCALE
  5
62
102
{ACAD_REACTORS
330
47
102
}
330
47
100
AcDbScale
 70
     0
300
1/2" = 1'-0"
140
0.5
141
12.0
290
     0
  0
SCALE
  5
63
102
{ACAD_REACTORS
330
47
102
}
330
47
100
AcDbScale
 70
     0
300
3/4" = 1'-0"
140
0.75
141
12.0
290
     0
  0
SCALE
  5
64
102
{ACAD_REACTORS
330
47
102
}
330
47
100
AcDbScale
 70
     0
300
1" = 1'-0"
140
1.0
141
12.0
290
     0
  0
SCALE
  5
65
102
{ACAD_REACTORS
330
47
102
}
330
47
100
AcDbScale
 70
     0
300
1-1/2" = 1'-0"
140
1.5
141
12.0
290
     0
  0
SCALE
  5
66
102
{ACAD_REACTORS
330
47
102
}
330
47
100
AcDbScale
 70
     0
300
3" = 1'-0"
140
3.0
141
12.0
290
     0
  0
SCALE
  5
67
102
{ACAD_REACTORS
330
47
102
}
330
47
100
AcDbScale
 70
     0
300
6" = 1'-0"
140
6.0
141
12.0
290
     0
  0
SCALE
  5
68
102
{ACAD_REACTORS
330
47
102
}
330
47
100
AcDbScale
 70
     0
300
1'-0" = 1'-0"
140
12.0
141
12.0
290
     0
  0
ENDSEC
  0
EOF
