  0
SECTION
  2
HEADER
  9
$ACADVER
  1
AC1015
  9
$ACADMAINTVER
 70
     6
  9
$DWGCODEPAGE
  3
ANSI_1250
  9
$INSBASE
 10
0.0
 20
0.0
 30
0.0
  9
$EXTMIN
 10
0.0
 20
0.0
 30
0.0
  9
$EXTMAX
 10
20000.0
 20
10000.0
 30
0.0
  9
$LIMMIN
 10
0.0
 20
0.0
  9
$LIMMAX
 10
20000.0
 20
10000.0
  9
$ORTHOMODE
 70
     0
  9
$REGENMODE
 70
     1
  9
$FILLMODE
 70
     1
  9
$QTEXTMODE
 70
     0
  9
$MIRRTEXT
 70
     1
  9
$LTSCALE
 40
1.0
  9
$ATTMODE
 70
     1
  9
$TEXTSIZE
 40
2.0
  9
$TRACEWID
 40
1.0
  9
$TEXTSTYLE
  7
Standard
  9
$CLAYER
  8
0
  9
$CELTYPE
  6
ByLayer
  9
$CECOLOR
 62
   256
  9
$CELTSCALE
 40
1.0
  9
$DISPSILH
 70
     0
  9
$DIMSCALE
 40
1.0
  9
$DIMASZ
 40
2.0
  9
$DIMEXO
 40
1.0
  9
$DIMDLI
 40
3.75
  9
$DIMRND
 40
0.0
  9
$DIMDLE
 40
0.0
  9
$DIMEXE
 40
1.0
  9
$DIMTP
 40
0.0
  9
$DIMTM
 40
0.0
  9
$DIMTXT
 40
2.0
  9
$DIMCEN
 40
2.5
  9
$DIMTSZ
 40
0.0
  9
$DIMTOL
 70
     0
  9
$DIMLIM
 70
     0
  9
$DIMTIH
 70
     1
  9
$DIMTOH
 70
     1
  9
$DIMSE1
 70
     0
  9
$DIMSE2
 70
     0
  9
$DIMTAD
 70
     1
  9
$DIMZIN
 70
     0
  9
$DIMBLK
  1

  9
$DIMASO
 70
     1
  9
$DIMSHO
 70
     1
  9
$DIMPOST
  1

  9
$DIMAPOST
  1

  9
$DIMALT
 70
     0
  9
$DIMALTD
 70
     3
  9
$DIMALTF
 40
0.0393700787
  9
$DIMLFAC
 40
1.0
  9
$DIMTOFL
 70
     1
  9
$DIMTVP
 40
0.0
  9
$DIMTIX
 70
     0
  9
$DIMSOXD
 70
     0
  9
$DIMSAH
 70
     0
  9
$DIMBLK1
  1

  9
$DIMBLK2
  1

  9
$DIMSTYLE
  2
ISO-25
  9
$DIMCLRD
 70
     0
  9
$DIMCLRE
 70
     0
  9
$DIMCLRT
 70
     0
  9
$DIMTFAC
 40
1.0
  9
$DIMGAP
 40
1.524
  9
$DIMJUST
 70
     0
  9
$DIMSD1
 70
     0
  9
$DIMSD2
 70
     0
  9
$DIMTOLJ
 70
     0
  9
$DIMTZIN
 70
     0
  9
$DIMALTZ
 70
     0
  9
$DIMALTTZ
 70
     0
  9
$DIMUPT
 70
     0
  9
$DIMDEC
 70
     2
  9
$DIMTDEC
 70
     0
  9
$DIMALTU
 70
     2
  9
$DIMALTTD
 70
     3
  9
$DIMTXSTY
  7
Standard
  9
$DIMAUNIT
 70
     0
  9
$DIMADEC
 70
     2
  9
$DIMALTRND
 40
0.0
  9
$DIMAZIN
 70
     0
  9
$DIMDSEP
 70
    44
  9
$DIMATFIT
 70
     3
  9
$DIMFRAC
 70
     0
  9
$DIMLDRBLK
  1

  9
$DIMLUNIT
 70
     2
  9
$DIMLWD
 70
    -2
  9
$DIMLWE
 70
    -2
  9
$DIMTMOVE
 70
     0
  9
$LUNITS
 70
     2
  9
$LUPREC
 70
     3
  9
$SKETCHINC
 40
1.0
  9
$FILLETRAD
 40
10.0
  9
$AUNITS
 70
     0
  9
$AUPREC
 70
     2
  9
$MENU
  1
.
  9
$ELEVATION
 40
0.0
  9
$PELEVATION
 40
0.0
  9
$THICKNESS
 40
0.0
  9
$LIMCHECK
 70
     0
  9
$CHAMFERA
 40
0.0
  9
$CHAMFERB
 40
0.0
  9
$CHAMFERC
 40
0.0
  9
$CHAMFERD
 40
0.0
  9
$SKPOLY
 70
     0
  9
$TDCREATE
 40
2459095.55507456
  9
$TDUCREATE
 40
2459095.471741227
  9
$TDUPDATE
 40
2459095.555074965
  9
$TDUUPDATE
 40
2459095.471741632
  9
$TDINDWG
 40
0.0000000116
  9
$TDUSRTIMER
 40
0.0000000116
  9
$USRTIMER
 70
     1
  9
$ANGBASE
 50
0.0
  9
$ANGDIR
 70
     0
  9
$PDMODE
 70
     0
  9
$PDSIZE
 40
-1.0
  9
$PLINEWID
 40
0.0
  9
$SPLFRAME
 70
     0
  9
$SPLINETYPE
 70
     6
  9
$SPLINESEGS
 70
     8
  9
$HANDSEED
  5
33A
  9
$SURFTAB1
 70
     6
  9
$SURFTAB2
 70
     6
  9
$SURFTYPE
 70
     6
  9
$SURFU
 70
     6
  9
$SURFV
 70
     6
  9
$UCSBASE
  2

  9
$UCSNAME
  2

  9
$UCSORG
 10
0.0
 20
0.0
 30
0.0
  9
$UCSXDIR
 10
1.0
 20
0.0
 30
0.0
  9
$UCSYDIR
 10
0.0
 20
1.0
 30
0.0
  9
$UCSORTHOREF
  2

  9
$UCSORTHOVIEW
 70
     0
  9
$UCSORGTOP
 10
0.0
 20
0.0
 30
0.0
  9
$UCSORGBOTTOM
 10
0.0
 20
0.0
 30
0.0
  9
$UCSORGLEFT
 10
0.0
 20
0.0
 30
0.0
  9
$UCSORGRIGHT
 10
0.0
 20
0.0
 30
0.0
  9
$UCSORGFRONT
 10
0.0
 20
0.0
 30
0.0
  9
$UCSORGBACK
 10
0.0
 20
0.0
 30
0.0
  9
$PUCSBASE
  2

  9
$PUCSNAME
  2

  9
$PUCSORG
 10
0.0
 20
0.0
 30
0.0
  9
$PUCSXDIR
 10
1.0
 20
0.0
 30
0.0
  9
$PUCSYDIR
 10
0.0
 20
1.0
 30
0.0
  9
$PUCSORTHOREF
  2

  9
$PUCSORTHOVIEW
 70
     0
  9
$PUCSORGTOP
 10
0.0
 20
0.0
 30
0.0
  9
$PUCSORGBOTTOM
 10
0.0
 20
0.0
 30
0.0
  9
$PUCSORGLEFT
 10
0.0
 20
0.0
 30
0.0
  9
$PUCSORGRIGHT
 10
0.0
 20
0.0
 30
0.0
  9
$PUCSORGFRONT
 10
0.0
 20
0.0
 30
0.0
  9
$PUCSORGBACK
 10
0.0
 20
0.0
 30
0.0
  9
$USERI1
 70
     0
  9
$USERI2
 70
     0
  9
$USERI3
 70
     0
  9
$USERI4
 70
     0
  9
$USERI5
 70
     0
  9
$USERR1
 40
0.0
  9
$USERR2
 40
0.0
  9
$USERR3
 40
0.0
  9
$USERR4
 40
0.0
  9
$USERR5
 40
0.0
  9
$WORLDVIEW
 70
     1
  9
$SHADEDGE
 70
     3
  9
$SHADEDIF
 70
    70
  9
$TILEMODE
 70
     1
  9
$MAXACTVP
 70
    64
  9
$PINSBASE
 10
0.0
 20
0.0
 30
0.0
  9
$PLIMCHECK
 70
     0
  9
$PEXTMIN
 10
1.0000000000E+20
 20
1.0000000000E+20
 30
1.0000000000E+20
  9
$PEXTMAX
 10
-1.0000000000E+20
 20
-1.0000000000E+20
 30
-1.0000000000E+20
  9
$PLIMMIN
 10
0.0
 20
0.0
  9
$PLIMMAX
 10
420.0
 20
297.0
  9
$UNITMODE
 70
     0
  9
$VISRETAIN
 70
     1
  9
$PLINEGEN
 70
     0
  9
$PSLTSCALE
 70
     1
  9
$TREEDEPTH
 70
  3020
  9
$CMLSTYLE
  2
Standard
  9
$CMLJUST
 70
     0
  9
$CMLSCALE
 40
20.0
  9
$PROXYGRAPHICS
 70
     1
  9
$MEASUREMENT
 70
     1
  9
$CELWEIGHT
370
    -1
  9
$ENDCAPS
280
     0
  9
$JOINSTYLE
280
     0
  9
$LWDISPLAY
290
     1
  9
$INSUNITS
 70
     4
  9
$HYPERLINKBASE
  1

  9
$STYLESHEET
  1

  9
$XEDIT
290
     1
  9
$CEPSNTYPE
380
     0
  9
$PSTYLEMODE
290
     1
  9
$FINGERPRINTGUID
  2
{ad797651-e33a-46db-a60c-a3fd7d131cde}
  9
$VERSIONGUID
  2
{FAEB1C32-E019-11D5-929B-00C0DF256EC4}
  9
$EXTNAMES
290
     1
  9
$PSVPSCALE
 40
0.0
  9
$OLESTARTUP
290
     0
  0
ENDSEC
  0
SECTION
  2
CLASSES
  0
CLASS
  1
ACDBDICTIONARYWDFLT
  2
AcDbDictionaryWithDefault
  3
ObjectDBX Classes
 90
        0
280
     0
281
     0
  0
CLASS
  1
VISUALSTYLE
  2
AcDbVisualStyle
  3
ObjectDBX Classes
 90
     4095
280
     0
281
     0
  0
CLASS
  1
MATERIAL
  2
AcDbMaterial
  3
ObjectDBX Classes
 90
     1153
280
     0
281
     0
  0
CLASS
  1
SCALE
  2
AcDbScale
  3
ObjectDBX Classes
 90
     1153
280
     0
281
     0
  0
CLASS
  1
TABLESTYLE
  2
AcDbTableStyle
  3
ObjectDBX Classes
 90
     4095
280
     0
281
     0
  0
CLASS
  1
MLEADERSTYLE
  2
AcDbMLeaderStyle
  3
ACDB_MLEADERSTYLE_CLASS
 90
     4095
280
     0
281
     0
  0
CLASS
  1
SUN
  2
AcDbSun
  3
SCENEOE
 90
     1153
280
     0
281
     0
  0
CLASS
  1
ACDBPLACEHOLDER
  2
AcDbPlaceHolder
  3
ObjectDBX Classes
 90
        0
280
     0
281
     0
  0
CLASS
  1
LAYOUT
  2
AcDbLayout
  3
ObjectDBX Classes
 90
        0
280
     0
281
     0
  0
ENDSEC
  0
SECTION
  2
TABLES
  0
TABLE
  2
VPORT
  5
8
330
0
100
AcDbSymbolTable
 70
     1
  0
VPORT
  5
29
330
8
100
AcDbSymbolTableRecord
100
AcDbViewportTableRecord
  2
*Active
 70
     0
 10
0.0
 20
0.0
 11
1.0
 21
1.0
 12
10000.0
 22
5000.0
 13
0.0
 23
0.0
 14
10.0
 24
10.0
 15
10.0
 25
10.0
 16
0.0
 26
0.0
 36
1.0
 17
0.0
 27
0.0
 37
0.0
 40
10000.0
 41
2.0
 42
50.0
 43
0.0
 44
0.0
 50
0.0
 51
0.0
 71
     0
 72
  2000
 73
     1
 74
     3
 75
     0
 76
     0
 77
     0
 78
     0
281
     0
 65
     1
110
0.0
120
0.0
130
0.0
111
1.0
121
0.0
131
0.0
112
0.0
122
1.0
132
0.0
 79
     0
146
0.0
  0
ENDTAB
  0
TABLE
  2
LTYPE
  5
5
330
0
100
AcDbSymbolTable
 70
     6
  0
LTYPE
  5
14
330
5
100
AcDbSymbolTableRecord
100
AcDbLinetypeTableRecord
  2
ByBlock
 70
     0
  3

 72
    65
 73
     0
 40
0.0
  0
LTYPE
  5
15
330
5
100
AcDbSymbolTableRecord
100
AcDbLinetypeTableRecord
  2
ByLayer
 70
     0
  3

 72
    65
 73
     0
 40
0.0
  0
LTYPE
  5
16
330
5
100
AcDbSymbolTableRecord
100
AcDbLinetypeTableRecord
  2
Continuous
 70
     0
  3
Solid line
 72
    65
 73
     0
 40
0.0
  0
LTYPE
  5
6E
330
5
100
AcDbSymbolTableRecord
100
AcDbLinetypeTableRecord
  2
HIDDEN
 70
     0
  3
Hidden __ __ __ __ __ __ __ __ __ __ __ __ __ __
 72
    65
 73
     2
 40
1.905
 49
1.27
 74
     0
 49
-0.635
 74
     0
  0
LTYPE
  5
6F
330
5
100
AcDbSymbolTableRecord
100
AcDbLinetypeTableRecord
  2
PHANTOM
 70
     0
  3
Phantom ______  __  __  ______  __  __  ______
 72
    65
 73
     6
 40
12.7
 49
6.35
 74
     0
 49
-1.27
 74
     0
 49
1.27
 74
     0
 49
-1.27
 74
     0
 49
1.27
 74
     0
 49
-1.27
 74
     0
  0
LTYPE
  5
70
330
5
100
AcDbSymbolTableRecord
100
AcDbLinetypeTableRecord
  2
CENTER
 70
     0
  3
Center ____ _ ____ _ ____ _ ____ _ ____ _ ____
 72
    65
 73
     4
 40
10.16
 49
6.35
 74
     0
 49
-1.27
 74
     0
 49
1.27
 74
     0
 49
-1.27
 74
     0
  0
LTYPE
  5
71
330
5
100
AcDbSymbolTableRecord
100
AcDbLinetypeTableRecord
  2
CENTERX2
 70
     0
  3
Center (2x) ________  __  ________  __  _____
 72
    65
 73
     4
 40
20.32
 49
12.7
 74
     0
 49
-2.54
 74
     0
 49
2.54
 74
     0
 49
-2.54
 74
     0
  0
LTYPE
  5
72
330
5
100
AcDbSymbolTableRecord
100
AcDbLinetypeTableRecord
  2
DOT2
 70
     0
  3
Dot (.5x) ........................................
 72
    65
 73
     2
 40
0.635
 49
0.0
 74
     0
 49
-0.635
 74
     0
  0
ENDTAB
  0
TABLE
  2
LAYER
  5
2
330
0
100
AcDbSymbolTable
 70
    13
  0
LAYER
  5
10
330
2
100
AcDbSymbolTableRecord
100
AcDbLayerTableRecord
  2
0
 70
     0
 62
     7
  6
Continuous
370
    -3
390
F
  0
LAYER
  5
73
330
2
100
AcDbSymbolTableRecord
100
AcDbLayerTableRecord
  2
FORMAT
 70
     0
 62
     7
  6
Continuous
370
    -3
390
F
  0
LAYER
  5
74
330
2
100
AcDbSymbolTableRecord
100
AcDbLayerTableRecord
  2
OSA
 70
     0
 62
     7
  6
CENTER
370
    -3
390
F
  0
LAYER
  5
75
330
2
100
AcDbSymbolTableRecord
100
AcDbLayerTableRecord
  2
0_35
 70
     0
 62
     7
  6
Continuous
370
    35
390
F
  0
LAYER
  5
76
330
2
100
AcDbSymbolTableRecord
100
AcDbLayerTableRecord
  2
0_5
 70
     0
 62
     7
  6
Continuous
370
    50
390
F
  0
LAYER
  5
77
330
2
100
AcDbSymbolTableRecord
100
AcDbLayerTableRecord
  2
0_25
 70
     0
 62
     7
  6
Continuous
370
    25
390
F
  0
LAYER
  5
78
330
2
100
AcDbSymbolTableRecord
100
AcDbLayerTableRecord
  2
0_18
 70
     0
 62
     7
  6
Continuous
370
    -3
390
F
  0
LAYER
  5
79
330
2
100
AcDbSymbolTableRecord
100
AcDbLayerTableRecord
  2
SLD-0
 70
     0
 62
   179
  6
Continuous
370
    -3
390
F
  0
LAYER
  5
7A
330
2
100
AcDbSymbolTableRecord
100
AcDbLayerTableRecord
  2
KOTY
 70
     0
 62
     7
  6
Continuous
370
    -3
390
F
  0
LAYER
  5
7B
330
2
100
AcDbSymbolTableRecord
100
AcDbLayerTableRecord
  2
SILNA
 70
     0
 62
   179
  6
Continuous
370
    -3
390
F
  0
LAYER
  5
7C
330
2
100
AcDbSymbolTableRecord
100
AcDbLayerTableRecord
  2
0_18_1
 70
     0
 62
   179
  6
Continuous
370
    -3
390
F
  0
LAYER
  5
7D
330
2
100
AcDbSymbolTableRecord
100
AcDbLayerTableRecord
  2
0_35_1
 70
     0
 62
   179
  6
Continuous
370
    35
390
F
  0
LAYER
  5
7E
330
2
100
AcDbSymbolTableRecord
100
AcDbLayerTableRecord
  2
0_5_1
 70
     0
 62
   179
  6
Continuous
370
    50
390
F
  0
ENDTAB
  0
TABLE
  2
STYLE
  5
3
330
0
100
AcDbSymbolTable
 70
     1
  0
STYLE
  5
11
330
3
100
AcDbSymbolTableRecord
100
AcDbTextStyleTableRecord
  2
Standard
 70
     0
 40
0.0
 41
1.0
 50
0.0
 71
     0
 42
2.0
  3
txt
  4

  0
ENDTAB
  0
TABLE
  2
VIEW
  5
6
330
0
100
AcDbSymbolTable
 70
     0
  0
ENDTAB
  0
TABLE
  2
UCS
  5
7
330
0
100
AcDbSymbolTable
 70
     0
  0
ENDTAB
  0
TABLE
  2
APPID
  5
9
330
0
100
AcDbSymbolTable
 70
     1
  0
APPID
  5
12
330
9
100
AcDbSymbolTableRecord
100
AcDbRegAppTableRecord
  2
ACAD
 70
     0
  0
ENDTAB
  0
TABLE
  2
DIMSTYLE
  5
A
330
0
100
AcDbSymbolTable
 70
     1
100
AcDbDimStyleTable
  0
DIMSTYLE
105
27
330
A
100
AcDbSymbolTableRecord
100
AcDbDimStyleTableRecord
  2
ISO-25
 70
     0
 41
2.5
 42
0.625
 43
3.75
 44
1.25
 73
     0
 74
     0
 77
     1
 78
     8
140
2.5
141
2.5
143
0.0393700787
147
0.625
171
     3
172
     1
178
     0
271
     2
272
     2
274
     3
278
    44
283
     0
284
     8
340
11
  0
ENDTAB
  0
TABLE
  2
BLOCK_RECORD
  5
1
330
0
100
AcDbSymbolTable
 70
     1
  0
BLOCK_RECORD
  5
1F
330
1
100
AcDbSymbolTableRecord
100
AcDbBlockTableRecord
  2
*Model_Space
340
22
  0
BLOCK_RECORD
  5
1B
330
1
100
AcDbSymbolTableRecord
100
AcDbBlockTableRecord
  2
*Paper_Space
340
1E
  0
BLOCK_RECORD
  5
23
330
1
100
AcDbSymbolTableRecord
100
AcDbBlockTableRecord
  2
*Paper_Space0
340
26
  0
ENDTAB
  0
ENDSEC
  0
SECTION
  2
BLOCKS
  0
BLOCK
  5
20
330
1F
100
AcDbEntity
  8
0
100
AcDbBlockBegin
  2
*Model_Space
 70
     0
 10
0.0
 20
0.0
 30
0.0
  3
*Model_Space
  1

  0
ENDBLK
  5
21
330
1F
100
AcDbEntity
  8
0
100
AcDbBlockEnd
  0
BLOCK
  5
1C
330
1B
100
AcDbEntity
 67
     1
  8
0
100
AcDbBlockBegin
  2
*Paper_Space
 70
     0
 10
0.0
 20
0.0
 30
0.0
  3
*Paper_Space
  1

  0
ENDBLK
  5
1D
330
1B
100
AcDbEntity
 67
     1
  8
0
100
AcDbBlockEnd
  0
BLOCK
  5
24
330
23
100
AcDbEntity
  8
0
100
AcDbBlockBegin
  2
*Paper_Space0
 70
     0
 10
0.0
 20
0.0
 30
0.0
  3
*Paper_Space0
  1

  0
ENDBLK
  5
25
330
23
100
AcDbEntity
  8
0
100
AcDbBlockEnd
  0
ENDSEC
  0
SECTION
  2
ENTITIES
  0
ARC
  5
7F
330
1F
100
AcDbEntity
  8
0
  6
Continuous
 62
     7
370
    25
100
AcDbCircle
 10
1982.0425257536
 20
7538.0501504215
 30
0.0
 40
0.25
100
AcDbArc
 50
0.0
 51
76.6576362029
  0
ARC
  5
80
330
1F
100
AcDbEntity
  8
0
  6
Continuous
 62
     7
370
    25
100
AcDbCircle
 10
1977.5425257536
 20
7538.0501504215
 30
0.0
 40
0.2499999999997992
100
AcDbArc
 50
103.3423637971
 51
180.0
  0
LINE
  5
81
330
1F
100
AcDbEntity
  8
0
  6
Continuous
 62
     7
370
    25
100
AcDbLine
 10
1982.2925257536
 20
7536.2507786999
 30
0.0
 11
1982.2925257536
 21
7538.0501504215
 31
0.0
  0
LINE
  5
82
330
1F
100
AcDbEntity
  8
0
  6
Continuous
 62
     7
370
    25
100
AcDbLine
 10
1977.2925257536
 20
7538.0501504215
 30
0.0
 11
1977.2925257536
 21
7536.2549175888
 31
0.0
  0
ARC
  5
83
330
1F
100
AcDbEntity
  8
0
  6
Continuous
 62
     7
370
    25
100
AcDbCircle
 10
1979.7925257536
 20
7528.563317441
 30
0.0
 40
9.999999999999634
100
AcDbArc
 50
76.6576362029
 51
103.3423637971
  0
LINE
  5
84
330
1F
100
AcDbEntity
  8
0
  6
Continuous
 62
     7
370
    25
100
AcDbLine
 10
1974.2925257536
 20
7559.6190714713
 30
0.0
 11
1974.2925257536
 21
7557.513317441
 31
0.0
  0
LINE
  5
85
330
1F
100
AcDbEntity
  8
0
  6
Continuous
 62
     7
370
    25
100
AcDbLine
 10
1985.2925257536
 20
7557.513317441
 30
0.0
 11
1985.2925257536
 21
7559.6190714713
 31
0.0
  0
LINE
  5
86
330
1F
100
AcDbEntity
  8
0
  6
Continuous
 62
     7
370
    25
100
AcDbLine
 10
1985.0425257536
 20
7559.6190714713
 30
0.0
 11
1985.0425257536
 21
7560.513317441
 31
0.0
  0
LINE
  5
87
330
1F
100
AcDbEntity
  8
0
  6
Continuous
 62
     7
370
    25
100
AcDbLine
 10
1974.5425257536
 20
7560.513317441
 30
0.0
 11
1974.5425257536
 21
7559.6190714713
 31
0.0
  0
LINE
  5
88
330
1F
100
AcDbEntity
  8
0
  6
Continuous
 62
     7
370
    25
100
AcDbLine
 10
1985.0425257536
 20
7560.513317441
 30
0.0
 11
1984.5425257536
 21
7561.013317441
 31
0.0
  0
LINE
  5
89
330
1F
100
AcDbEntity
  8
0
  6
Continuous
 62
     7
370
    25
100
AcDbLine
 10
1975.0425257536
 20
7561.013317441
 30
0.0
 11
1974.5425257536
 21
7560.513317441
 31
0.0
  0
LINE
  5
8A
330
1F
100
AcDbEntity
  8
0
  6
Continuous
 62
     7
370
    25
100
AcDbLine
 10
1949.4322757536
 20
7471.263317441
 30
0.0
 11
1949.4322757536
 21
7471.2631723853
 31
0.0
  0
LINE
  5
8B
330
1F
100
AcDbEntity
  8
0
  6
Continuous
 62
     7
370
    25
100
AcDbLine
 10
1962.6527757536
 20
7471.2631723853
 30
0.0
 11
1962.6527757536
 21
7471.263317441
 31
0.0
  0
ARC
  5
8C
330
1F
100
AcDbEntity
  8
0
  6
Continuous
 62
     7
370
    25
100
AcDbCircle
 10
1949.4175257536
 20
7470.513317441
 30
0.0
 40
0.7500000000003068
100
AcDbArc
 50
271.1268896477
 51
88.8731103523
  0
ARC
  5
8D
330
1F
100
AcDbEntity
  8
0
  6
Continuous
 62
     7
370
    25
100
AcDbCircle
 10
1962.6675257536
 20
7470.513317441
 30
0.0
 40
0.7500000000003113
100
AcDbArc
 50
91.1268896477
 51
268.8731103523
  0
LINE
  5
8E
330
1F
100
AcDbEntity
  8
0
  6
Continuous
 62
     7
370
    25
100
AcDbLine
 10
1949.4322757536
 20
7469.7634624967
 30
0.0
 11
1949.4322757536
 21
7467.263317441
 31
0.0
  0
LINE
  5
8F
330
1F
100
AcDbEntity
  8
0
  6
Continuous
 62
     7
370
    25
100
AcDbLine
 10
1962.6527757536
 20
7467.263317441
 30
0.0
 11
1962.6527757536
 21
7469.7634624967
 31
0.0
  0
LINE
  5
90
330
1F
100
AcDbEntity
  8
0
  6
Continuous
 62
     7
370
    25
100
AcDbLine
 10
1949.4322757536
 20
7467.263317441
 30
0.0
 11
1949.9322757536
 21
7466.763317441
 31
0.0
  0
LINE
  5
91
330
1F
100
AcDbEntity
  8
0
  6
Continuous
 62
     7
370
    25
100
AcDbLine
 10
1962.1527757536
 20
7466.763317441
 30
0.0
 11
1962.6527757536
 21
7467.263317441
 31
0.0
  0
LINE
  5
92
330
1F
100
AcDbEntity
  8
0
  6
Continuous
 62
     7
370
    25
100
AcDbLine
 10
1962.9175257536
 20
7471.263317441
 30
0.0
 11
1963.4175257536
 21
7471.5519925756
 31
0.0
  0
LINE
  5
93
330
1F
100
AcDbEntity
  8
0
  6
Continuous
 62
     7
370
    25
100
AcDbLine
 10
1948.6675257536
 20
7471.5519925756
 30
0.0
 11
1949.1675257536
 21
7471.263317441
 31
0.0
  0
LINE
  5
94
330
1F
100
AcDbEntity
  8
0
  6
Continuous
 62
     7
370
    25
100
AcDbLine
 10
1963.4175257536
 20
7471.5519925756
 30
0.0
 11
1963.4175257536
 21
7472.513317441
 31
0.0
  0
LINE
  5
95
330
1F
100
AcDbEntity
  8
0
  6
Continuous
 62
     7
370
    25
100
AcDbLine
 10
1948.6675257536
 20
7472.513317441
 30
0.0
 11
1948.6675257536
 21
7471.5519925756
 31
0.0
  0
ARC
  5
96
330
1F
100
AcDbEntity
  8
0
  6
Continuous
 62
     7
370
    25
100
AcDbCircle
 10
1996.9175257536
 20
7470.513317441
 30
0.0
 40
0.7500000000003113
100
AcDbArc
 50
271.1268896477
 51
88.8731103523
  0
ARC
  5
97
330
1F
100
AcDbEntity
  8
0
  6
Continuous
 62
     7
370
    25
100
AcDbCircle
 10
2010.1675257536
 20
7470.513317441
 30
0.0
 40
0.7500000000003023
100
AcDbArc
 50
91.1268896477
 51
268.8731103523
  0
LINE
  5
98
330
1F
100
AcDbEntity
  8
0
  6
Continuous
 62
     7
370
    25
100
AcDbLine
 10
1996.9322757536
 20
7471.263317441
 30
0.0
 11
1996.9322757536
 21
7471.2631723853
 31
0.0
  0
LINE
  5
99
330
1F
100
AcDbEntity
  8
0
  6
Continuous
 62
     7
370
    25
100
AcDbLine
 10
2010.1527757536
 20
7471.2631723853
 30
0.0
 11
2010.1527757536
 21
7471.263317441
 31
0.0
  0
LINE
  5
9A
330
1F
100
AcDbEntity
  8
0
  6
Continuous
 62
     7
370
    25
100
AcDbLine
 10
1996.9322757536
 20
7469.7634624967
 30
0.0
 11
1996.9322757536
 21
7467.263317441
 31
0.0
  0
LINE
  5
9B
330
1F
100
AcDbEntity
  8
0
  6
Continuous
 62
     7
370
    25
100
AcDbLine
 10
2010.1527757536
 20
7467.263317441
 30
0.0
 11
2010.1527757536
 21
7469.7634624967
 31
0.0
  0
LINE
  5
9C
330
1F
100
AcDbEntity
  8
0
  6
Continuous
 62
     7
370
    25
100
AcDbLine
 10
1996.9322757536
 20
7467.263317441
 30
0.0
 11
1997.4322757536
 21
7466.763317441
 31
0.0
  0
LINE
  5
9D
330
1F
100
AcDbEntity
  8
0
  6
Continuous
 62
     7
370
    25
100
AcDbLine
 10
2009.6527757536
 20
7466.763317441
 30
0.0
 11
2010.1527757536
 21
7467.263317441
 31
0.0
  0
LINE
  5
9E
330
1F
100
AcDbEntity
  8
0
  6
Continuous
 62
     7
370
    25
100
AcDbLine
 10
2010.4175257536
 20
7471.263317441
 30
0.0
 11
2010.9175257536
 21
7471.5519925756
 31
0.0
  0
LINE
  5
9F
330
1F
100
AcDbEntity
  8
0
  6
Continuous
 62
     7
370
    25
100
AcDbLine
 10
1996.1675257536
 20
7471.5519925756
 30
0.0
 11
1996.6675257536
 21
7471.263317441
 31
0.0
  0
LINE
  5
A0
330
1F
100
AcDbEntity
  8
0
  6
Continuous
 62
     7
370
    25
100
AcDbLine
 10
2010.9175257536
 20
7471.5519925756
 30
0.0
 11
2010.9175257536
 21
7472.513317441
 31
0.0
  0
LINE
  5
A1
330
1F
100
AcDbEntity
  8
0
  6
Continuous
 62
     7
370
    25
100
AcDbLine
 10
1996.1675257536
 20
7472.513317441
 30
0.0
 11
1996.1675257536
 21
7471.5519925756
 31
0.0
  0
LINE
  5
A2
330
1F
100
AcDbEntity
  8
0
  6
Continuous
 62
     7
370
    25
100
AcDbLine
 10
1986.0168582822
 20
7515.7904360851
 30
0.0
 11
1988.4587118126
 21
7523.9056903224
 31
0.0
  0
LINE
  5
A3
330
1F
100
AcDbEntity
  8
0
  6
Continuous
 62
     7
370
    25
100
AcDbLine
 10
1989.4163014324
 20
7523.6175547292
 30
0.0
 11
1988.4587118126
 21
7523.9056903224
 31
0.0
  0
LINE
  5
A4
330
1F
100
AcDbEntity
  8
0
  6
Continuous
 62
     7
370
    25
100
AcDbLine
 10
1989.4163014324
 20
7523.6175547292
 30
0.0
 11
1986.9744479019
 21
7515.5023004919
 31
0.0
  0
LINE
  5
A5
330
1F
100
AcDbEntity
  8
0
  6
Continuous
 62
     7
370
    25
100
AcDbLine
 10
1986.0168582822
 20
7515.7904360851
 30
0.0
 11
1986.9744479019
 21
7515.5023004919
 31
0.0
  0
ARC
  5
A6
330
1F
100
AcDbEntity
  8
0
  6
Continuous
 62
     7
370
    25
100
AcDbCircle
 10
1979.7925257536
 20
7517.663317441
 30
0.0
 40
6.5000000000001
100
AcDbArc
 50
196.746369583
 51
343.253630417
  0
ARC
  5
A7
330
1F
100
AcDbEntity
  8
0
  6
Continuous
 62
     7
370
    25
100
AcDbCircle
 10
1979.7925257536
 20
7517.663317441
 30
0.0
 40
7.500000000000156
100
AcDbArc
 50
196.746369583
 51
343.253630417
  0
LINE
  5
A8
330
1F
100
AcDbEntity
  8
0
  6
Continuous
 62
     7
370
    25
100
AcDbLine
 10
1973.568193225
 20
7515.7904360851
 30
0.0
 11
1972.6106036052
 21
7515.5023004919
 31
0.0
  0
ARC
  5
A9
330
1F
100
AcDbEntity
  8
0
  6
Continuous
 62
     7
370
    25
100
AcDbCircle
 10
1979.7925257536
 20
7526.513317441
 30
0.0
 40
10.04999999999975
100
AcDbArc
 50
343.253630417
 51
196.746369583
  0
ARC
  5
AA
330
1F
100
AcDbEntity
  8
0
  6
Continuous
 62
     7
370
    25
100
AcDbCircle
 10
1979.7925257536
 20
7526.513317441
 30
0.0
 40
9.049999999999693
100
AcDbArc
 50
343.253630417
 51
196.746369583
  0
LINE
  5
AB
330
1F
100
AcDbEntity
  8
0
  6
Continuous
 62
     7
370
    25
100
AcDbLine
 10
1970.1687500747
 20
7523.6175547292
 30
0.0
 11
1971.1263396945
 21
7523.9056903224
 31
0.0
  0
LINE
  5
AC
330
1F
100
AcDbEntity
  8
0
  6
Continuous
 62
     7
370
    25
100
AcDbLine
 10
1971.1263396945
 20
7523.9056903224
 30
0.0
 11
1973.568193225
 21
7515.7904360851
 31
0.0
  0
LINE
  5
AD
330
1F
100
AcDbEntity
  8
0
  6
Continuous
 62
     7
370
    25
100
AcDbLine
 10
1972.6106036052
 20
7515.5023004919
 30
0.0
 11
1970.1687500747
 21
7523.6175547292
 31
0.0
  0
ARC
  5
AE
330
1F
100
AcDbEntity
  8
0
  6
Continuous
 62
     7
370
    25
100
AcDbCircle
 10
1979.7925257536
 20
7526.513317441
 30
0.0
 40
14.24999999999965
100
AcDbArc
 50
296.7987192895
 51
309.0446816692
  0
ARC
  5
AF
330
1F
100
AcDbEntity
  8
0
  6
Continuous
 62
     7
370
    25
100
AcDbCircle
 10
1979.7925257536
 20
7526.513317441
 30
0.0
 40
14.24999999999985
100
AcDbArc
 50
309.0446816692
 51
243.2012807105
  0
ARC
  5
B0
330
1F
100
AcDbEntity
  8
0
  6
Continuous
 62
     7
370
    25
100
AcDbCircle
 10
1979.7925257536
 20
7526.513317441
 30
0.0
 40
11.74999999999988
100
AcDbArc
 50
102.2844938563
 51
227.9513586993
  0
ARC
  5
B1
330
1F
100
AcDbEntity
  8
0
  6
Continuous
 62
     7
370
    25
100
AcDbCircle
 10
1979.7925257536
 20
7526.513317441
 30
0.0
 40
11.74999999999979
100
AcDbArc
 50
312.0486413007
 51
77.7155061437
  0
LINE
  5
B2
330
1F
100
AcDbEntity
  8
0
  6
Continuous
 62
     7
370
    25
100
AcDbLine
 10
2002.1242565228
 20
7482.9428046205
 30
0.0
 11
2002.1242565228
 21
7482.763317441
 31
0.0
  0
LINE
  5
B3
330
1F
100
AcDbEntity
  8
0
  6
Continuous
 62
     7
370
    25
100
AcDbLine
 10
2001.4511795997
 20
7482.9428046205
 30
0.0
 11
2002.1242565228
 21
7482.9428046205
 31
0.0
  0
LINE
  5
B4
330
1F
100
AcDbEntity
  8
0
  6
Continuous
 62
     7
370
    25
100
AcDbLine
 10
2001.4511795997
 20
7484.513317441
 30
0.0
 11
2001.4511795997
 21
7482.9428046205
 31
0.0
  0
LINE
  5
B5
330
1F
100
AcDbEntity
  8
0
  6
Continuous
 62
     7
370
    25
100
AcDbLine
 10
2001.2941283177
 20
7484.513317441
 30
0.0
 11
2001.4511795997
 21
7484.513317441
 31
0.0
  0
LINE
  5
B6
330
1F
100
AcDbEntity
  8
0
  6
Continuous
 62
     7
370
    25
100
AcDbLine
 10
2001.2941283177
 20
7482.763317441
 30
0.0
 11
2001.2941283177
 21
7484.513317441
 31
0.0
  0
LINE
  5
B7
330
1F
100
AcDbEntity
  8
0
  6
Continuous
 62
     7
370
    25
100
AcDbLine
 10
2002.1242565228
 20
7482.763317441
 30
0.0
 11
2001.2941283177
 21
7482.763317441
 31
0.0
  0
SPLINE
  5
B8
330
1F
100
AcDbEntity
  8
0
  6
Continuous
 62
     7
370
    25
100
AcDbSpline
210
0.0
220
0.0
230
1.0
 70
     8
 71
     3
 72
    11
 73
     7
 74
     0
 42
0.00000001
 43
0.00000001
 40
0.0
 40
0.0
 40
0.0
 40
0.0
 40
0.2797756381379562
 40
0.5591787501349128
 40
0.779591646520488
 40
1.0
 40
1.0
 40
1.0
 40
1.0
 10
2002.98873969586
 20
7482.740881543581
 30
0.0
 10
2002.890715925146
 20
7482.750775190259
 30
0.0
 10
2002.694798904078
 20
7482.770549310055
 30
0.0
 10
2002.47930848946
 20
7482.952181351425
 30
0.0
 10
2002.34730790425
 20
7483.169232004817
 30
0.0
 10
2002.3332223195
 20
7483.322567800986
 30
0.0
 10
2002.326179599706
 20
7483.399234908966
 30
0.0
  0
SPLINE
  5
B9
330
1F
100
AcDbEntity
  8
0
  6
Continuous
 62
     7
370
    25
100
AcDbSpline
210
0.0
220
0.0
230
1.0
 70
     8
 71
     3
 72
    11
 73
     7
 74
     0
 42
0.00000001
 43
0.00000001
 40
0.0
 40
0.0
 40
0.0
 40
0.0
 40
0.2795212190095958
 40
0.5593812344205449
 40
0.7795068288935172
 40
1.0
 40
1.0
 40
1.0
 40
1.0
 10
2003.649897548423
 20
7483.399234908966
 30
0.0
 10
2003.637888440243
 20
7483.302003988649
 30
0.0
 10
2003.613855668128
 20
7483.107424298336
 30
0.0
 10
2003.437513446655
 20
7482.88898700995
 30
0.0
 10
2003.218735539596
 20
7482.758432297162
 30
0.0
 10
2003.065447602815
 20
7482.7467350475
 30
0.0
 10
2002.98873969586
 20
7482.740881543581
 30
0.0
  0
SPLINE
  5
BA
330
1F
100
AcDbEntity
  8
0
  6
Continuous
 62
     7
370
    25
100
AcDbSpline
210
0.0
220
0.0
230
1.0
 70
     8
 71
     3
 72
     9
 73
     5
 74
     0
 42
0.00000001
 43
0.00000001
 40
0.0
 40
0.0
 40
0.0
 40
0.0
 40
0.5592164975841799
 40
1.0
 40
1.0
 40
1.0
 40
1.0
 10
2003.474617099706
 20
7483.853912392939
 30
0.0
 10
2003.531139002932
 20
7483.777728922153
 30
0.0
 10
2003.632212385908
 20
7483.641496405558
 30
0.0
 10
2003.644487070124
 20
7483.473350743016
 30
0.0
 10
2003.649897548423
 20
7483.399234908966
 30
0.0
  0
SPLINE
  5
BB
330
1F
100
AcDbEntity
  8
0
  6
Continuous
 62
     7
370
    25
100
AcDbSpline
210
0.0
220
0.0
230
1.0
 70
     8
 71
     3
 72
     9
 73
     5
 74
     0
 42
0.00000001
 43
0.00000001
 40
0.0
 40
0.0
 40
0.0
 40
0.0
 40
0.5591815471098
 40
1.0
 40
1.0
 40
1.0
 40
1.0
 10
2002.98873969586
 20
7484.064599492299
 30
0.0
 10
2003.092527794531
 20
7484.053766722641
 30
0.0
 10
2003.278134954152
 20
7484.034394177689
 30
0.0
 10
2003.414503380833
 20
7483.909130800899
 30
0.0
 10
2003.474617099706
 20
7483.853912392939
 30
0.0
  0
SPLINE
  5
BC
330
1F
100
AcDbEntity
  8
0
  6
Continuous
 62
     7
370
    25
100
AcDbSpline
210
0.0
220
0.0
230
1.0
 70
     8
 71
     3
 72
     9
 73
     5
 74
     0
 42
0.00000001
 43
0.00000001
 40
0.0
 40
0.0
 40
0.0
 40
0.0
 40
0.5588802587661026
 40
1.0
 40
1.0
 40
1.0
 40
1.0
 10
2002.501460048423
 20
7483.852860710248
 30
0.0
 10
2002.580482173988
 20
7483.921397429339
 30
0.0
 10
2002.721875834483
 20
7484.044029635463
 30
0.0
 10
2002.907053966279
 20
7484.058303159201
 30
0.0
 10
2002.98873969586
 20
7484.064599492299
 30
0.0
  0
SPLINE
  5
BD
330
1F
100
AcDbEntity
  8
0
  6
Continuous
 62
     7
370
    25
100
AcDbSpline
210
0.0
220
0.0
230
1.0
 70
     8
 71
     3
 72
     9
 73
     5
 74
     0
 42
0.00000001
 43
0.00000001
 40
0.0
 40
0.0
 40
0.0
 40
0.0
 40
0.5592850765150877
 40
1.0
 40
1.0
 40
1.0
 40
1.0
 10
2002.326179599706
 20
7483.399234908966
 30
0.0
 10
2002.33544108987
 20
7483.493476073279
 30
0.0
 10
2002.352000605855
 20
7483.661978985784
 30
0.0
 10
2002.455740381249
 20
7483.794469960475
 30
0.0
 10
2002.501460048423
 20
7483.852860710248
 30
0.0
  0
SPLINE
  5
BE
330
1F
100
AcDbEntity
  8
0
  6
Continuous
 62
     7
370
    25
100
AcDbSpline
210
0.0
220
0.0
230
1.0
 70
     8
 71
     3
 72
    11
 73
     7
 74
     0
 42
0.00000001
 43
0.00000001
 40
0.0
 40
0.0
 40
0.0
 40
0.0
 40
0.2797756381379665
 40
0.5591787501349357
 40
0.7795916465204819
 40
1.0
 40
1.0
 40
1.0
 40
1.0
 10
2006.219508926629
 20
7482.740881543581
 30
0.0
 10
2006.121485155915
 20
7482.750775190259
 30
0.0
 10
2005.925568134847
 20
7482.770549310055
 30
0.0
 10
2005.710077720229
 20
7482.952181351425
 30
0.0
 10
2005.578077135019
 20
7483.169232004817
 30
0.0
 10
2005.56399155027
 20
7483.322567800986
 30
0.0
 10
2005.556948830475
 20
7483.399234908966
 30
0.0
  0
SPLINE
  5
BF
330
1F
100
AcDbEntity
  8
0
  6
Continuous
 62
     7
370
    25
100
AcDbSpline
210
0.0
220
0.0
230
1.0
 70
     8
 71
     3
 72
    11
 73
     7
 74
     0
 42
0.00000001
 43
0.00000001
 40
0.0
 40
0.0
 40
0.0
 40
0.0
 40
0.2795212190096035
 40
0.5593812344205714
 40
0.7795068288935513
 40
1.0
 40
1.0
 40
1.0
 40
1.0
 10
2006.880666779193
 20
7483.399234908966
 30
0.0
 10
2006.868657671013
 20
7483.302003988649
 30
0.0
 10
2006.844624898897
 20
7483.107424298336
 30
0.0
 10
2006.668282677424
 20
7482.88898700995
 30
0.0
 10
2006.449504770365
 20
7482.758432297162
 30
0.0
 10
2006.296216833585
 20
7482.7467350475
 30
0.0
 10
2006.219508926629
 20
7482.740881543581
 30
0.0
  0
SPLINE
  5
C0
330
1F
100
AcDbEntity
  8
0
  6
Continuous
 62
     7
370
    25
100
AcDbSpline
210
0.0
220
0.0
230
1.0
 70
     8
 71
     3
 72
     9
 73
     5
 74
     0
 42
0.00000001
 43
0.00000001
 40
0.0
 40
0.0
 40
0.0
 40
0.0
 40
0.5592164975841917
 40
1.0
 40
1.0
 40
1.0
 40
1.0
 10
2006.705386330475
 20
7483.853912392939
 30
0.0
 10
2006.761908233701
 20
7483.777728922153
 30
0.0
 10
2006.862981616677
 20
7483.641496405558
 30
0.0
 10
2006.875256300893
 20
7483.473350743016
 30
0.0
 10
2006.880666779193
 20
7483.399234908966
 30
0.0
  0
SPLINE
  5
C1
330
1F
100
AcDbEntity
  8
0
  6
Continuous
 62
     7
370
    25
100
AcDbSpline
210
0.0
220
0.0
230
1.0
 70
     8
 71
     3
 72
     9
 73
     5
 74
     0
 42
0.00000001
 43
0.00000001
 40
0.0
 40
0.0
 40
0.0
 40
0.0
 40
0.5591815471098385
 40
1.0
 40
1.0
 40
1.0
 40
1.0
 10
2006.219508926629
 20
7484.064599492299
 30
0.0
 10
2006.3232970253
 20
7484.053766722641
 30
0.0
 10
2006.508904184921
 20
7484.034394177689
 30
0.0
 10
2006.645272611602
 20
7483.909130800899
 30
0.0
 10
2006.705386330475
 20
7483.853912392939
 30
0.0
  0
SPLINE
  5
C2
330
1F
100
AcDbEntity
  8
0
  6
Continuous
 62
     7
370
    25
100
AcDbSpline
210
0.0
220
0.0
230
1.0
 70
     8
 71
     3
 72
     9
 73
     5
 74
     0
 42
0.00000001
 43
0.00000001
 40
0.0
 40
0.0
 40
0.0
 40
0.0
 40
0.5588802587661068
 40
1.0
 40
1.0
 40
1.0
 40
1.0
 10
2005.732229279193
 20
7483.852860710248
 30
0.0
 10
2005.811251404758
 20
7483.921397429339
 30
0.0
 10
2005.952645065252
 20
7484.044029635462
 30
0.0
 10
2006.137823197049
 20
7484.058303159201
 30
0.0
 10
2006.219508926629
 20
7484.064599492299
 30
0.0
  0
SPLINE
  5
C3
330
1F
100
AcDbEntity
  8
0
  6
Continuous
 62
     7
370
    25
100
AcDbSpline
210
0.0
220
0.0
230
1.0
 70
     8
 71
     3
 72
     9
 73
     5
 74
     0
 42
0.00000001
 43
0.00000001
 40
0.0
 40
0.0
 40
0.0
 40
0.0
 40
0.5592850765151236
 40
1.0
 40
1.0
 40
1.0
 40
1.0
 10
2005.556948830475
 20
7483.399234908966
 30
0.0
 10
2005.56621032064
 20
7483.493476073279
 30
0.0
 10
2005.582769836625
 20
7483.661978985784
 30
0.0
 10
2005.686509612018
 20
7483.794469960475
 30
0.0
 10
2005.732229279193
 20
7483.852860710248
 30
0.0
  0
LINE
  5
C4
330
1F
100
AcDbEntity
  8
0
  6
Continuous
 62
     7
370
    25
100
AcDbLine
 10
2009.7925257536
 20
7485.618333115
 30
0.0
 11
1998.2925257536
 21
7485.618333115
 31
0.0
  0
LINE
  5
C5
330
1F
100
AcDbEntity
  8
0
  6
Continuous
 62
     7
370
    25
100
AcDbLine
 10
2009.7925257536
 20
7482.013317441
 30
0.0
 11
2009.7925257536
 21
7485.618333115
 31
0.0
  0
LINE
  5
C6
330
1F
100
AcDbEntity
  8
0
  6
Continuous
 62
     7
370
    25
100
AcDbLine
 10
1998.2925257536
 20
7482.013317441
 30
0.0
 11
2009.7925257536
 21
7482.013317441
 31
0.0
  0
LINE
  5
C7
330
1F
100
AcDbEntity
  8
0
  6
Continuous
 62
     7
370
    25
100
AcDbLine
 10
1998.2925257536
 20
7485.618333115
 30
0.0
 11
1998.2925257536
 21
7482.013317441
 31
0.0
  0
SPLINE
  5
C8
330
1F
100
AcDbEntity
  8
0
  6
Continuous
 62
     7
370
    25
100
AcDbSpline
210
0.0
220
0.0
230
1.0
 70
     8
 71
     3
 72
    11
 73
     7
 74
     0
 42
0.00000001
 43
0.00000001
 40
0.0
 40
0.0
 40
0.0
 40
0.0
 40
0.279547155779528
 40
0.5591097655556658
 40
0.7796364814727657
 40
1.0
 40
1.0
 40
1.0
 40
1.0
 10
2003.919128317654
 20
7483.406947248709
 30
0.0
 10
2003.931474675829
 20
7483.503655482859
 30
0.0
 10
2003.956168074714
 20
7483.697077297412
 30
0.0
 10
2004.134382675831
 20
7483.912434677649
 30
0.0
 10
2004.351803073745
 20
7484.040698282855
 30
0.0
 10
2004.50367646239
 20
7484.056634388757
 30
0.0
 10
2004.579585048423
 20
7484.064599492299
 30
0.0
  0
SPLINE
  5
C9
330
1F
100
AcDbEntity
  8
0
  6
Continuous
 62
     7
370
    25
100
AcDbSpline
210
0.0
220
0.0
230
1.0
 70
     8
 71
     3
 72
    11
 73
     7
 74
     0
 42
0.00000001
 43
0.00000001
 40
0.0
 40
0.0
 40
0.0
 40
0.0
 40
0.2797144814225351
 40
0.5593578373993814
 40
0.7796334029649435
 40
1.0
 40
1.0
 40
1.0
 40
1.0
 10
2004.574677195859
 20
7482.763317441017
 30
0.0
 10
2004.479263070633
 20
7482.775262598432
 30
0.0
 10
2004.288459081965
 20
7482.799149875864
 30
0.0
 10
2004.069251175072
 20
7482.966575231298
 30
0.0
 10
2003.940127335132
 20
7483.181446386041
 30
0.0
 10
2003.926128954113
 20
7483.331769942795
 30
0.0
 10
2003.919128317654
 20
7483.406947248709
 30
0.0
  0
SPLINE
  5
CA
330
1F
100
AcDbEntity
  8
0
  6
Continuous
 62
     7
370
    25
100
AcDbSpline
210
0.0
220
0.0
230
1.0
 70
     8
 71
     3
 72
     9
 73
     5
 74
     0
 42
0.00000001
 43
0.00000001
 40
0.0
 40
0.0
 40
0.0
 40
0.0
 40
0.5587642781414971
 40
1.0
 40
1.0
 40
1.0
 40
1.0
 10
2005.085794984321
 20
7483.008359508324
 30
0.0
 10
2005.00500269678
 20
7482.930438361514
 30
0.0
 10
2004.860411693558
 20
7482.790985733888
 30
0.0
 10
2004.662155091002
 20
7482.771788115864
 30
0.0
 10
2004.574677195859
 20
7482.763317441017
 30
0.0
  0
LINE
  5
CB
330
1F
100
AcDbEntity
  8
0
  6
Continuous
 62
     7
370
    25
100
AcDbLine
 10
2005.0857949843
 20
7482.9421034987
 30
0.0
 11
2005.0857949843
 21
7483.0083595083
 31
0.0
  0
SPLINE
  5
CC
330
1F
100
AcDbEntity
  8
0
  6
Continuous
 62
     7
370
    25
100
AcDbSpline
210
0.0
220
0.0
230
1.0
 70
     8
 71
     3
 72
    11
 73
     7
 74
     0
 42
0.00000001
 43
0.00000001
 40
0.0
 40
0.0
 40
0.0
 40
0.0
 40
0.2808170740327639
 40
0.5598577018504609
 40
0.7786436526970325
 40
1.0
 40
1.0
 40
1.0
 40
1.0
 10
2004.579585048423
 20
7482.426778979479
 30
0.0
 10
2004.657425075432
 20
7482.432309939454
 30
0.0
 10
2004.812612714157
 20
7482.443336870603
 30
0.0
 10
2005.011659346644
 20
7482.563435298516
 30
0.0
 10
2005.083584402878
 20
7482.758857556055
 30
0.0
 10
2005.085055260609
 20
7482.88078417054
 30
0.0
 10
2005.085794984321
 20
7482.942103498709
 30
0.0
  0
SPLINE
  5
CD
330
1F
100
AcDbEntity
  8
0
  6
Continuous
 62
     7
370
    25
100
AcDbSpline
210
0.0
220
0.0
230
1.0
 70
     8
 71
     3
 72
    10
 73
     6
 74
     0
 42
0.00000001
 43
0.00000001
 40
0.0
 40
0.0
 40
0.0
 40
0.0
 40
0.2803339619524885
 40
0.5602536054019499
 40
1.0
 40
1.0
 40
1.0
 40
1.0
 10
2004.098615497142
 20
7482.673573851273
 30
0.0
 10
2004.129171561393
 20
7482.629848777295
 30
0.0
 10
2004.19023852968
 20
7482.542463252643
 30
0.0
 10
2004.358086084113
 20
7482.441640076063
 30
0.0
 10
2004.495574071639
 20
7482.432415553194
 30
0.0
 10
2004.579585048423
 20
7482.426778979479
 30
0.0
  0
LINE
  5
CE
330
1F
100
AcDbEntity
  8
0
  6
Continuous
 62
     7
370
    25
100
AcDbLine
 10
2003.9415642151
 20
7482.6735738513
 30
0.0
 11
2004.0986154971
 21
7482.6735738513
 31
0.0
  0
SPLINE
  5
CF
330
1F
100
AcDbEntity
  8
0
  6
Continuous
 62
     7
370
    25
100
AcDbSpline
210
0.0
220
0.0
230
1.0
 70
     8
 71
     3
 72
    11
 73
     7
 74
     0
 42
0.00000001
 43
0.00000001
 40
0.0
 40
0.0
 40
0.0
 40
0.0
 40
0.2802636218842663
 40
0.5599830548892977
 40
0.7795690322326277
 40
0.9999999999999999
 40
0.9999999999999999
 40
0.9999999999999999
 40
0.9999999999999999
 10
2004.594659167013
 20
7482.269727697428
 30
0.0
 10
2004.517970097149
 20
7482.274342107306
 30
0.0
 10
2004.364740864861
 20
7482.283561967249
 30
0.0
 10
2004.16332277574
 20
7482.369147730503
 30
0.0
 10
2004.020861149127
 20
7482.510633015826
 30
0.0
 10
2003.96803034447
 20
7482.619190749523
 30
0.0
 10
2003.94156421509
 20
7482.673573851273
 30
0.0
  0
SPLINE
  5
D0
330
1F
100
AcDbEntity
  8
0
  6
Continuous
 62
     7
370
    25
100
AcDbSpline
210
0.0
220
0.0
230
1.0
 70
     8
 71
     3
 72
    10
 73
     6
 74
     0
 42
0.00000001
 43
0.00000001
 40
0.0
 40
0.0
 40
0.0
 40
0.0
 40
0.2800947422113286
 40
0.5603137742443113
 40
1.0
 40
1.0
 40
1.0
 40
1.0
 10
2005.196221667013
 20
7482.635012152556
 30
0.0
 10
2005.164932000119
 20
7482.57158797551
 30
0.0
 10
2005.102338781788
 20
7482.444711477445
 30
0.0
 10
2004.886662422763
 20
7482.297117514177
 30
0.0
 10
2004.705379029354
 20
7482.280113186905
 30
0.0
 10
2004.594659167013
 20
7482.269727697428
 30
0.0
  0
SPLINE
  5
D1
330
1F
100
AcDbEntity
  8
0
  6
Continuous
 62
     7
370
    25
100
AcDbSpline
210
0.0
220
0.0
230
1.0
 70
     8
 71
     3
 72
     9
 73
     5
 74
     0
 42
0.00000001
 43
0.00000001
 40
0.0
 40
0.0
 40
0.0
 40
0.0
 40
0.5604411192634795
 40
1.0
 40
1.0
 40
1.0
 40
1.0
 10
2005.242846266372
 20
7483.027289796785
 30
0.0
 10
2005.242704820986
 20
7482.952902989595
 30
0.0
 10
2005.242452438743
 20
7482.820173957705
 30
0.0
 10
2005.210337898415
 20
7482.691549969047
 30
0.0
 10
2005.196221667013
 20
7482.635012152556
 30
0.0
  0
LINE
  5
D2
330
1F
100
AcDbEntity
  8
0
  6
Continuous
 62
     7
370
    25
100
AcDbLine
 10
2005.2428462664
 20
7484.0421635949
 30
0.0
 11
2005.2428462664
 21
7483.0272897968
 31
0.0
  0
LINE
  5
D3
330
1F
100
AcDbEntity
  8
0
  6
Continuous
 62
     7
370
    25
100
AcDbLine
 10
2005.0857949843
 20
7484.0421635949
 30
0.0
 11
2005.2428462664
 21
7484.0421635949
 31
0.0
  0
LINE
  5
D4
330
1F
100
AcDbEntity
  8
0
  6
Continuous
 62
     7
370
    25
100
AcDbLine
 10
2005.0857949843
 20
7483.8185057423
 30
0.0
 11
2005.0857949843
 21
7484.0421635949
 31
0.0
  0
SPLINE
  5
D5
330
1F
100
AcDbEntity
  8
0
  6
Continuous
 62
     7
370
    25
100
AcDbSpline
210
0.0
220
0.0
230
1.0
 70
     8
 71
     3
 72
     9
 73
     5
 74
     0
 42
0.00000001
 43
0.00000001
 40
0.0
 40
0.0
 40
0.0
 40
0.0
 40
0.5585964256824503
 40
1.0
 40
1.0
 40
1.0
 40
1.0
 10
2004.579585048423
 20
7484.064599492299
 30
0.0
 10
2004.690738987672
 20
7484.051168219382
 30
0.0
 10
2004.889726904775
 20
7484.027123538285
 30
0.0
 10
2005.025752708401
 20
7483.882391140153
 30
0.0
 10
2005.085794984321
 20
7483.818505742299
 30
0.0
  0
SPLINE
  5
D6
330
1F
100
AcDbEntity
  8
0
  6
Continuous
 62
     7
370
    25
100
AcDbSpline
210
0.0
220
0.0
230
1.0
 70
     8
 71
     3
 72
    11
 73
     7
 74
     0
 42
0.00000001
 43
0.00000001
 40
0.0
 40
0.0
 40
0.0
 40
0.0
 40
0.2796181048413053
 40
0.5591671821897016
 40
0.7795122911402527
 40
1.0
 40
1.0
 40
1.0
 40
1.0
 10
2002.483230881757
 20
7483.398183226273
 30
0.0
 10
2002.492573348082
 20
7483.324252645699
 30
0.0
 10
2002.511255974421
 20
7483.176409735309
 30
0.0
 10
2002.64481162985
 20
7483.008814369231
 30
0.0
 10
2002.813505500983
 20
7482.9135666643
 30
0.0
 10
2002.929848338238
 20
7482.903145228891
 30
0.0
 10
2002.988038574065
 20
7482.897932825632
 30
0.0
  0
SPLINE
  5
D7
330
1F
100
AcDbEntity
  8
0
  6
Continuous
 62
     7
370
    25
100
AcDbSpline
210
0.0
220
0.0
230
1.0
 70
     8
 71
     3
 72
    11
 73
     7
 74
     0
 42
0.00000001
 43
0.00000001
 40
0.0
 40
0.0
 40
0.0
 40
0.0
 40
0.2794841610043206
 40
0.5592560945587122
 40
0.7795472410484351
 40
0.9999999999999999
 40
0.9999999999999999
 40
0.9999999999999999
 40
0.9999999999999999
 10
2002.988038574065
 20
7483.907548210247
 30
0.0
 10
2002.913313523473
 20
7483.898425167147
 30
0.0
 10
2002.763786481191
 20
7483.880169687351
 30
0.0
 10
2002.600092553195
 20
7483.740510399112
 30
0.0
 10
2002.498427492593
 20
7483.574457169813
 30
0.0
 10
2002.488297656842
 20
7483.456955569325
 30
0.0
 10
2002.483230881757
 20
7483.398183226273
 30
0.0
  0
SPLINE
  5
D8
330
1F
100
AcDbEntity
  8
0
  6
Continuous
 62
     7
370
    25
100
AcDbSpline
210
0.0
220
0.0
230
1.0
 70
     8
 71
     3
 72
    11
 73
     7
 74
     0
 42
0.00000001
 43
0.00000001
 40
0.0
 40
0.0
 40
0.0
 40
0.0
 40
0.279745425169816
 40
0.5591127150243984
 40
0.7796058487770408
 40
1.0
 40
1.0
 40
1.0
 40
1.0
 10
2002.988038574065
 20
7482.897932825632
 30
0.0
 10
2003.062187166238
 20
7482.906378310664
 30
0.0
 10
2003.210384123025
 20
7482.923257864863
 30
0.0
 10
2003.378015277881
 20
7483.056667003685
 30
0.0
 10
2003.47582077435
 20
7483.223696641943
 30
0.0
 10
2003.48717195184
 20
7483.340029737384
 30
0.0
 10
2003.492846266372
 20
7483.398183226273
 30
0.0
  0
SPLINE
  5
D9
330
1F
100
AcDbEntity
  8
0
  6
Continuous
 62
     7
370
    25
100
AcDbSpline
210
0.0
220
0.0
230
1.0
 70
     8
 71
     3
 72
    11
 73
     7
 74
     0
 42
0.00000001
 43
0.00000001
 40
0.0
 40
0.0
 40
0.0
 40
0.0
 40
0.2795862054458503
 40
0.5593981391285301
 40
0.7796525900078317
 40
0.9999999999999999
 40
0.9999999999999999
 40
0.9999999999999999
 40
0.9999999999999999
 10
2003.492846266372
 20
7483.398183226273
 30
0.0
 10
2003.484244010158
 20
7483.472989483427
 30
0.0
 10
2003.467032552566
 20
7483.622662393724
 30
0.0
 10
2003.328808005235
 20
7483.787291624836
 30
0.0
 10
2003.164239370246
 20
7483.891410288441
 30
0.0
 10
2003.04678043337
 20
7483.902168146406
 30
0.0
 10
2002.988038574065
 20
7483.907548210247
 30
0.0
  0
SPLINE
  5
DA
330
1F
100
AcDbEntity
  8
0
  6
Continuous
 62
     7
370
    25
100
AcDbSpline
210
0.0
220
0.0
230
1.0
 70
     8
 71
     3
 72
    11
 73
     7
 74
     0
 42
0.00000001
 43
0.00000001
 40
0.0
 40
0.0
 40
0.0
 40
0.0
 40
0.2794841610043686
 40
0.559256094558767
 40
0.7795472410484752
 40
1.0
 40
1.0
 40
1.0
 40
1.0
 10
2006.218807804834
 20
7483.907548210247
 30
0.0
 10
2006.144082754242
 20
7483.898425167146
 30
0.0
 10
2005.99455571196
 20
7483.880169687351
 30
0.0
 10
2005.830861783964
 20
7483.740510399112
 30
0.0
 10
2005.729196723363
 20
7483.574457169813
 30
0.0
 10
2005.719066887611
 20
7483.456955569325
 30
0.0
 10
2005.714000112526
 20
7483.398183226273
 30
0.0
  0
SPLINE
  5
DB
330
1F
100
AcDbEntity
  8
0
  6
Continuous
 62
     7
370
    25
100
AcDbSpline
210
0.0
220
0.0
230
1.0
 70
     8
 71
     3
 72
    11
 73
     7
 74
     0
 42
0.00000001
 43
0.00000001
 40
0.0
 40
0.0
 40
0.0
 40
0.0
 40
0.279586205445882
 40
0.5593981391285568
 40
0.7796525900078535
 40
1.0
 40
1.0
 40
1.0
 40
1.0
 10
2006.723615497141
 20
7483.398183226273
 30
0.0
 10
2006.715013240927
 20
7483.472989483427
 30
0.0
 10
2006.697801783335
 20
7483.622662393724
 30
0.0
 10
2006.559577236005
 20
7483.787291624836
 30
0.0
 10
2006.395008601015
 20
7483.891410288441
 30
0.0
 10
2006.277549664139
 20
7483.902168146406
 30
0.0
 10
2006.218807804834
 20
7483.907548210247
 30
0.0
  0
SPLINE
  5
DC
330
1F
100
AcDbEntity
  8
0
  6
Continuous
 62
     7
370
    25
100
AcDbSpline
210
0.0
220
0.0
230
1.0
 70
     8
 71
     3
 72
    11
 73
     7
 74
     0
 42
0.00000001
 43
0.00000001
 40
0.0
 40
0.0
 40
0.0
 40
0.0
 40
0.2796181048413421
 40
0.5591671821897225
 40
0.7795122911402544
 40
1.0
 40
1.0
 40
1.0
 40
1.0
 10
2005.714000112526
 20
7483.398183226273
 30
0.0
 10
2005.723342578852
 20
7483.324252645699
 30
0.0
 10
2005.74202520519
 20
7483.176409735309
 30
0.0
 10
2005.87558086062
 20
7483.008814369231
 30
0.0
 10
2006.044274731752
 20
7482.9135666643
 30
0.0
 10
2006.160617569007
 20
7482.903145228892
 30
0.0
 10
2006.218807804834
 20
7482.897932825632
 30
0.0
  0
SPLINE
  5
DD
330
1F
100
AcDbEntity
  8
0
  6
Continuous
 62
     7
370
    25
100
AcDbSpline
210
0.0
220
0.0
230
1.0
 70
     8
 71
     3
 72
    11
 73
     7
 74
     0
 42
0.00000001
 43
0.00000001
 40
0.0
 40
0.0
 40
0.0
 40
0.0
 40
0.2797454251698191
 40
0.5591127150243987
 40
0.7796058487770445
 40
1.0
 40
1.0
 40
1.0
 40
1.0
 10
2006.218807804834
 20
7482.897932825632
 30
0.0
 10
2006.292956397007
 20
7482.906378310664
 30
0.0
 10
2006.441153353795
 20
7482.923257864863
 30
0.0
 10
2006.60878450865
 20
7483.056667003685
 30
0.0
 10
2006.70659000512
 20
7483.223696641943
 30
0.0
 10
2006.717941182609
 20
7483.340029737383
 30
0.0
 10
2006.723615497141
 20
7483.398183226273
 30
0.0
  0
SPLINE
  5
DE
330
1F
100
AcDbEntity
  8
0
  6
Continuous
 62
     7
370
    25
100
AcDbSpline
210
0.0
220
0.0
230
1.0
 70
     8
 71
     3
 72
    11
 73
     7
 74
     0
 42
0.00000001
 43
0.00000001
 40
0.0
 40
0.0
 40
0.0
 40
0.0
 40
0.2798122013168126
 40
0.559092840769288
 40
0.7795797120336021
 40
1.0
 40
1.0
 40
1.0
 40
1.0
 10
2005.085794984321
 20
7483.409751735889
 30
0.0
 10
2005.078275172835
 20
7483.483224988701
 30
0.0
 10
2005.063249835317
 20
7483.630031916498
 30
0.0
 10
2004.931051701388
 20
7483.796406475494
 30
0.0
 10
2004.764641056608
 20
7483.890791808833
 30
0.0
 10
2004.649678059004
 20
7483.901963305461
 30
0.0
 10
2004.592205240731
 20
7483.907548210247
 30
0.0
  0
SPLINE
  5
DF
330
1F
100
AcDbEntity
  8
0
  6
Continuous
 62
     7
370
    25
100
AcDbSpline
210
0.0
220
0.0
230
1.0
 70
     8
 71
     3
 72
    11
 73
     7
 74
     0
 42
0.00000001
 43
0.00000001
 40
0.0
 40
0.0
 40
0.0
 40
0.0
 40
0.2801649188671124
 40
0.5592780661813073
 40
0.7793866682380699
 40
1.0
 40
1.0
 40
1.0
 40
1.0
 10
2004.582740096501
 20
7482.920368723068
 30
0.0
 10
2004.657031985589
 20
7482.926467403368
 30
0.0
 10
2004.805336863409
 20
7482.938641868817
 30
0.0
 10
2004.977828117441
 20
7483.066392940129
 30
0.0
 10
2005.073732689425
 20
7483.235086235891
 30
0.0
 10
2005.081771150716
 20
7483.351485467773
 30
0.0
 10
2005.085794984321
 20
7483.409751735889
 30
0.0
  0
SPLINE
  5
E0
330
1F
100
AcDbEntity
  8
0
  6
Continuous
 62
     7
370
    25
100
AcDbSpline
210
0.0
220
0.0
230
1.0
 70
     8
 71
     3
 72
    11
 73
     7
 74
     0
 42
0.00000001
 43
0.00000001
 40
0.0
 40
0.0
 40
0.0
 40
0.0
 40
0.2797518026228191
 40
0.5592857109618565
 40
0.7796219976952139
 40
1.0
 40
1.0
 40
1.0
 40
1.0
 10
2004.592205240731
 20
7483.907548210247
 30
0.0
 10
2004.516927603266
 20
7483.898613925736
 30
0.0
 10
2004.366430960905
 20
7483.880752315486
 30
0.0
 10
2004.194810644819
 20
7483.747202648943
 30
0.0
 10
2004.093699131347
 20
7483.578059324166
 30
0.0
 10
2004.082019812086
 20
7483.459781608263
 30
0.0
 10
2004.076179599706
 20
7483.400637152556
 30
0.0
  0
SPLINE
  5
E1
330
1F
100
AcDbEntity
  8
0
  6
Continuous
 62
     7
370
    25
100
AcDbSpline
210
0.0
220
0.0
230
1.0
 70
     8
 71
     3
 72
    11
 73
     7
 74
     0
 42
0.00000001
 43
0.00000001
 40
0.0
 40
0.0
 40
0.0
 40
0.0
 40
0.2795944843980843
 40
0.5589352358510666
 40
0.7792448871334404
 40
1.0
 40
1.0
 40
1.0
 40
1.0
 10
2004.076179599706
 20
7483.400637152556
 30
0.0
 10
2004.084313099066
 20
7483.327160512693
 30
0.0
 10
2004.100572716607
 20
7483.18027391327
 30
0.0
 10
2004.239801755552
 20
7483.018627580402
 30
0.0
 10
2004.409953745037
 20
7482.932007254627
 30
0.0
 10
2004.525105879331
 20
7482.924250844831
 30
0.0
 10
2004.582740096501
 20
7482.920368723068
 30
0.0
  0
CIRCLE
  5
E2
330
1F
100
AcDbEntity
  8
0
  6
Continuous
 62
     7
370
    25
100
AcDbCircle
 10
1979.7925257536
 20
7491.513317441
 30
0.0
 40
6.250000000000044
  0
LINE
  5
E3
330
1F
100
AcDbEntity
  8
0
  6
Continuous
 62
     7
370
    25
100
AcDbLine
 10
1979.5749872717
 20
7494.1097216451
 30
0.0
 11
1979.5595781193
 21
7495.8825145003
 31
0.0
  0
ARC
  5
E4
330
1F
100
AcDbEntity
  8
0
  6
Continuous
 62
     7
370
    25
100
AcDbCircle
 10
1978.7510872123
 20
7495.8754870805
 30
0.0
 40
0.8085214476224931
100
AcDbArc
 50
0.4980035682
 51
180.4980035681
  0
LINE
  5
E5
330
1F
100
AcDbEntity
  8
0
  6
Continuous
 62
     7
370
    25
100
AcDbLine
 10
1977.9425963053
 20
7495.8684596607
 30
0.0
 11
1977.9753572569
 21
7492.0993762446
 31
0.0
  0
ARC
  5
E6
330
1F
100
AcDbEntity
  8
0
  6
Continuous
 62
     7
370
    25
100
AcDbCircle
 10
1977.0606357323
 20
7491.1975773012
 30
0.0
 40
1.284506442936201
100
AcDbArc
 50
44.5924092827
 51
105.9921510105
  0
LINE
  5
E7
330
1F
100
AcDbEntity
  8
0
  6
Continuous
 62
     7
370
    25
100
AcDbLine
 10
1976.706746925
 20
7492.4323726341
 30
0.0
 11
1976.7303062554
 21
7489.7219177385
 31
0.0
  0
ARC
  5
E8
330
1F
100
AcDbEntity
  8
0
  6
Continuous
 62
     7
370
    25
100
AcDbCircle
 10
1979.8914520073
 20
7489.7493944833
 30
0.0
 40
3.161265163866975
100
AcDbArc
 50
180.4980035681
 51
270.4980035681
  0
LINE
  5
E9
330
1F
100
AcDbEntity
  8
0
  6
Continuous
 62
     7
370
    25
100
AcDbLine
 10
1979.918928752
 20
7486.5882487314
 30
0.0
 11
1981.1024962464
 21
7486.5985363247
 31
0.0
  0
ARC
  5
EA
330
1F
100
AcDbEntity
  8
0
  6
Continuous
 62
     7
370
    25
100
AcDbCircle
 10
1981.0826983068
 20
7488.8762505596
 30
0.0
 40
2.277800275319203
100
AcDbArc
 50
270.4980035681
 51
0.4980035682
  0
LINE
  5
EB
330
1F
100
AcDbEntity
  8
0
  6
Continuous
 62
     7
370
    25
100
AcDbLine
 10
1983.3604125417
 20
7488.8960484992
 30
0.0
 11
1983.3263551418
 21
7492.8142857523
 31
0.0
  0
ARC
  5
EC
330
1F
100
AcDbEntity
  8
0
  6
Continuous
 62
     7
370
    25
100
AcDbCircle
 10
1982.649575084
 20
7492.8084031659
 30
0.0
 40
0.6768056231051274
100
AcDbArc
 50
0.4980035681
 51
90.4980035681
  0
LINE
  5
ED
330
1F
100
AcDbEntity
  8
0
  6
Continuous
 62
     7
370
    25
100
AcDbLine
 10
1982.6436924977
 20
7493.4851832237
 30
0.0
 11
1982.3965890996
 21
7493.4830353959
 31
0.0
  0
ARC
  5
EE
330
1F
100
AcDbEntity
  8
0
  6
Continuous
 62
     7
370
    25
100
AcDbCircle
 10
1982.402471686
 20
7492.8062553381
 30
0.0
 40
0.6768056231047096
100
AcDbArc
 50
90.4980035681
 51
119.2345613039
  0
ARC
  5
EF
330
1F
100
AcDbEntity
  8
0
  6
Continuous
 62
     7
370
    25
100
AcDbCircle
 10
1981.4067568259
 20
7493.2719084417
 30
0.0
 40
0.6768056231042199
100
AcDbArc
 50
10.6384903329
 51
90.4980035682
  0
LINE
  5
F0
330
1F
100
AcDbEntity
  8
0
  6
Continuous
 62
     7
370
    25
100
AcDbLine
 10
1981.4008742396
 20
7493.9486884995
 30
0.0
 11
1981.1112265399
 21
7493.9461708757
 31
0.0
  0
ARC
  5
F1
330
1F
100
AcDbEntity
  8
0
  6
Continuous
 62
     7
370
    25
100
AcDbCircle
 10
1981.1171091263
 20
7493.2693908179
 30
0.0
 40
0.6768056231042159
100
AcDbArc
 50
90.4980035681
 51
125.2420057952
  0
ARC
  5
F2
330
1F
100
AcDbEntity
  8
0
  6
Continuous
 62
     7
370
    25
100
AcDbCircle
 10
1980.1233039427
 20
7493.5153393768
 30
0.0
 40
0.6768056231042159
100
AcDbArc
 50
26.9572727274
 51
90.4980035681
  0
LINE
  5
F3
330
1F
100
AcDbEntity
  8
0
  6
Continuous
 62
     7
370
    25
100
AcDbLine
 10
1980.1174213564
 20
7494.1921194346
 30
0.0
 11
1979.8891245207
 21
7494.1901350737
 31
0.0
  0
ARC
  5
F4
330
1F
100
AcDbEntity
  8
0
  6
Continuous
 62
     7
370
    25
100
AcDbCircle
 10
1979.8950071071
 20
7493.5133550159
 30
0.0
 40
0.6768056231042179
100
AcDbArc
 50
90.4980035681
 51
118.2187156943
  0
CIRCLE
  5
F5
330
1F
100
AcDbEntity
  8
0
  6
Continuous
 62
     7
370
    25
100
AcDbCircle
 10
1979.7925257536
 20
7491.513317441
 30
0.0
 40
6.999999999999719
  0
ARC
  5
F6
330
1F
100
AcDbEntity
  8
0
  6
Continuous
 62
     7
370
    25
100
AcDbCircle
 10
1979.4119305927
 20
7492.0456661253
 30
0.0
 40
0.3338093443283459
100
AcDbArc
 50
180.4980035683
 51
0.4980035681
  0
LINE
  5
F7
330
1F
100
AcDbEntity
  8
0
  6
Continuous
 62
     7
370
    25
100
AcDbLine
 10
1979.732946057
 20
7493.5190277142
 30
0.0
 11
1979.7457273279
 21
7492.0485674934
 31
0.0
  0
ARC
  5
F8
330
1F
100
AcDbEntity
  8
0
  6
Continuous
 62
     7
370
    25
100
AcDbCircle
 10
1979.8529965803
 20
7493.5200711959
 30
0.0
 40
0.1200550581437699
100
AcDbArc
 50
90.4980035681
 51
180.498003568
  0
LINE
  5
F9
330
1F
100
AcDbEntity
  8
0
  6
Continuous
 62
     7
370
    25
100
AcDbLine
 10
1980.1641478949
 20
7493.6428353228
 30
0.0
 11
1979.8519530986
 21
7493.6401217191
 31
0.0
  0
ARC
  5
FA
330
1F
100
AcDbEntity
  8
0
  6
Continuous
 62
     7
370
    25
100
AcDbCircle
 10
1980.1651913766
 20
7493.5227847996
 30
0.0
 40
0.1200550581437759
100
AcDbArc
 50
0.4980035685
 51
90.4980035681
  0
LINE
  5
FB
330
1F
100
AcDbEntity
  8
0
  6
Continuous
 62
     7
370
    25
100
AcDbLine
 10
1980.2980231707
 20
7492.0533680604
 30
0.0
 11
1980.2852418998
 21
7493.5238282812
 31
0.0
  0
ARC
  5
FC
330
1F
100
AcDbEntity
  8
0
  6
Continuous
 62
     7
370
    25
100
AcDbCircle
 10
1980.6318199059
 20
7492.0562694286
 30
0.0
 40
0.3338093443283459
100
AcDbArc
 50
180.4980035683
 51
0.4980035679
  0
LINE
  5
FD
330
1F
100
AcDbEntity
  8
0
  6
Continuous
 62
     7
370
    25
100
AcDbLine
 10
1980.9550480762
 20
7493.2750635162
 30
0.0
 11
1980.9656166411
 21
7492.0591707968
 31
0.0
  0
ARC
  5
FE
330
1F
100
AcDbEntity
  8
0
  6
Continuous
 62
     7
370
    25
100
AcDbCircle
 10
1981.0750985995
 20
7493.2761069979
 30
0.0
 40
0.1200550581446814
100
AcDbArc
 50
90.4980035682
 51
180.498003568
  0
LINE
  5
FF
330
1F
100
AcDbEntity
  8
0
  6
Continuous
 62
     7
370
    25
100
AcDbLine
 10
1981.4476007781
 20
7493.3994043878
 30
0.0
 11
1981.0740551178
 21
7493.3961575211
 31
0.0
  0
ARC
  5
100
330
1F
100
AcDbEntity
  8
0
  6
Continuous
 62
     7
370
    25
100
AcDbCircle
 10
1981.4486442598
 20
7493.2793538645
 30
0.0
 40
0.1200550581437759
100
AcDbArc
 50
0.4980035685
 51
90.4980035681
  0
LINE
  5
101
330
1F
100
AcDbEntity
  8
0
  6
Continuous
 62
     7
370
    25
100
AcDbLine
 10
1981.5792633479
 20
7492.0645046267
 30
0.0
 11
1981.568694783
 21
7493.2803973462
 31
0.0
  0
ARC
  5
102
330
1F
100
AcDbEntity
  8
0
  6
Continuous
 62
     7
370
    25
100
AcDbCircle
 10
1981.9130600831
 20
7492.0674059949
 30
0.0
 40
0.3338093443283379
100
AcDbArc
 50
180.4980035683
 51
0.4980035681
  0
LINE
  5
103
330
1F
100
AcDbEntity
  8
0
  6
Continuous
 62
     7
370
    25
100
AcDbLine
 10
1982.240270571
 20
7492.8280422351
 30
0.0
 11
1982.2468568183
 21
7492.0703073631
 31
0.0
  0
ARC
  5
104
330
1F
100
AcDbEntity
  8
0
  6
Continuous
 62
     7
370
    25
100
AcDbCircle
 10
1982.3603210942
 20
7492.8290857167
 30
0.0
 40
0.1200550581440032
100
AcDbArc
 50
90.4980035681
 51
180.4980035685
  0
LINE
  5
105
330
1F
100
AcDbEntity
  8
0
  6
Continuous
 62
     7
370
    25
100
AcDbLine
 10
1982.6902789713
 20
7492.9520133107
 30
0.0
 11
1982.3592776126
 21
7492.94913624
 31
0.0
  0
ARC
  5
106
330
1F
100
AcDbEntity
  8
0
  6
Continuous
 62
     7
370
    25
100
AcDbCircle
 10
1982.691322453
 20
7492.8319627875
 30
0.0
 40
0.1200550581437699
100
AcDbArc
 50
0.498003568
 51
90.4980035681
  0
LINE
  5
107
330
1F
100
AcDbEntity
  8
0
  6
Continuous
 62
     7
370
    25
100
AcDbLine
 10
1982.8456319875
 20
7488.8915740159
 30
0.0
 11
1982.8113729762
 21
7492.8330062691
 31
0.0
  0
ARC
  5
108
330
1F
100
AcDbEntity
  8
0
  6
Continuous
 62
     7
370
    25
100
AcDbCircle
 10
1981.0826983068
 20
7488.8762505596
 30
0.0
 40
1.763000275319168
100
AcDbArc
 50
270.4980035681
 51
0.4980035682
  0
LINE
  5
109
330
1F
100
AcDbEntity
  8
0
  6
Continuous
 62
     7
370
    25
100
AcDbLine
 10
1979.9144542687
 20
7487.1030292856
 30
0.0
 11
1981.0980217631
 21
7487.1133168789
 31
0.0
  0
ARC
  5
10A
330
1F
100
AcDbEntity
  8
0
  6
Continuous
 62
     7
370
    25
100
AcDbCircle
 10
1979.8914520073
 20
7489.7493944833
 30
0.0
 40
2.64646516386716
100
AcDbArc
 50
180.4980035681
 51
270.4980035681
  0
LINE
  5
10B
330
1F
100
AcDbEntity
  8
0
  6
Continuous
 62
     7
370
    25
100
AcDbLine
 10
1977.2257647088
 20
7491.9493621304
 30
0.0
 11
1977.2450868096
 21
7489.7263922218
 31
0.0
  0
ARC
  5
10C
330
1F
100
AcDbEntity
  8
0
  6
Continuous
 62
     7
370
    25
100
AcDbCircle
 10
1977.0606357323
 20
7491.1975773012
 30
0.0
 40
0.7697064429356847
100
AcDbArc
 50
0.4980035681
 51
77.6117514151
  0
LINE
  5
10D
330
1F
100
AcDbEntity
  8
0
  6
Continuous
 62
     7
370
    25
100
AcDbLine
 10
1977.8388067134
 20
7490.2270938246
 30
0.0
 11
1977.8303131007
 21
7491.204267353
 31
0.0
  0
ARC
  5
10E
330
1F
100
AcDbEntity
  8
0
  6
Continuous
 62
     7
370
    25
100
AcDbCircle
 10
1978.1726034486
 20
7490.2299951928
 30
0.0
 40
0.3338093443283379
100
AcDbArc
 50
180.4980035681
 51
0.4980035681
  0
LINE
  5
10F
330
1F
100
AcDbEntity
  8
0
  6
Continuous
 62
     7
370
    25
100
AcDbLine
 10
1978.4573768596
 20
7495.872934144
 30
0.0
 11
1978.5064001838
 21
7490.2328965609
 31
0.0
  0
ARC
  5
110
330
1F
100
AcDbEntity
  8
0
  6
Continuous
 62
     7
370
    25
100
AcDbCircle
 10
1978.7510872123
 20
7495.8754870805
 30
0.0
 40
0.293721447622223
100
AcDbArc
 50
0.4980035682
 51
180.498003568
  0
LINE
  5
111
330
1F
100
AcDbEntity
  8
0
  6
Continuous
 62
     7
370
    25
100
AcDbLine
 10
1979.0781338575
 20
7492.0427647571
 30
0.0
 11
1979.044797565
 21
7495.878040017
 31
0.0
  0
LINE
  5
112
330
1F
100
AcDbEntity
  8
0
  6
Continuous
 62
     7
370
    25
100
AcDbLine
 10
2017.2925257536
 20
7477.513317441
 30
0.0
 11
2022.2925257536
 21
7477.513317441
 31
0.0
  0
ARC
  5
113
330
1F
100
AcDbEntity
  8
0
  6
Continuous
 62
     7
370
    25
100
AcDbCircle
 10
2017.2925257536
 20
7477.513317441
 30
0.0
 40
5.0
100
AcDbArc
 50
270.0
 51
0.0
  0
LINE
  5
114
330
1F
100
AcDbEntity
  8
0
  6
Continuous
 62
     7
370
    25
100
AcDbLine
 10
2017.2925257536
 20
7477.513317441
 30
0.0
 11
2017.2925257536
 21
7472.513317441
 31
0.0
  0
LINE
  5
115
330
1F
100
AcDbEntity
  8
0
  6
Continuous
 62
     7
370
    25
100
AcDbLine
 10
1937.2925257536
 20
7552.513317441
 30
0.0
 11
1937.2925257536
 21
7477.513317441
 31
0.0
  0
LINE
  5
116
330
1F
100
AcDbEntity
  8
0
  6
Continuous
 62
     7
370
    25
100
AcDbLine
 10
1937.2925257536
 20
7552.513317441
 30
0.0
 11
1942.2925257536
 21
7552.513317441
 31
0.0
  0
LINE
  5
117
330
1F
100
AcDbEntity
  8
0
  6
Continuous
 62
     7
370
    25
100
AcDbLine
 10
1942.2925257536
 20
7552.513317441
 30
0.0
 11
1942.2925257536
 21
7477.513317441
 31
0.0
  0
LINE
  5
118
330
1F
100
AcDbEntity
  8
0
  6
Continuous
 62
     7
370
    25
100
AcDbLine
 10
1937.2925257536
 20
7477.513317441
 30
0.0
 11
1942.2925257536
 21
7477.513317441
 31
0.0
  0
LINE
  5
119
330
1F
100
AcDbEntity
  8
0
  6
Continuous
 62
     7
370
    25
100
AcDbLine
 10
2017.2925257536
 20
7557.513317441
 30
0.0
 11
1942.2925257536
 21
7557.513317441
 31
0.0
  0
LINE
  5
11A
330
1F
100
AcDbEntity
  8
0
  6
Continuous
 62
     7
370
    25
100
AcDbLine
 10
2017.2925257536
 20
7557.513317441
 30
0.0
 11
2017.2925257536
 21
7552.513317441
 31
0.0
  0
LINE
  5
11B
330
1F
100
AcDbEntity
  8
0
  6
Continuous
 62
     7
370
    25
100
AcDbLine
 10
2017.2925257536
 20
7552.513317441
 30
0.0
 11
1942.2925257536
 21
7552.513317441
 31
0.0
  0
LINE
  5
11C
330
1F
100
AcDbEntity
  8
0
  6
Continuous
 62
     7
370
    25
100
AcDbLine
 10
1942.2925257536
 20
7557.513317441
 30
0.0
 11
1942.2925257536
 21
7552.513317441
 31
0.0
  0
LINE
  5
11D
330
1F
100
AcDbEntity
  8
0
  6
Continuous
 62
     7
370
    25
100
AcDbLine
 10
1942.2925257536
 20
7477.513317441
 30
0.0
 11
2017.2925257536
 21
7477.513317441
 31
0.0
  0
LINE
  5
11E
330
1F
100
AcDbEntity
  8
0
  6
Continuous
 62
     7
370
    25
100
AcDbLine
 10
1942.2925257536
 20
7472.513317441
 30
0.0
 11
2017.2925257536
 21
7472.513317441
 31
0.0
  0
LINE
  5
11F
330
1F
100
AcDbEntity
  8
0
  6
Continuous
 62
     7
370
    25
100
AcDbLine
 10
1942.2925257536
 20
7477.513317441
 30
0.0
 11
1942.2925257536
 21
7472.513317441
 31
0.0
  0
ARC
  5
120
330
1F
100
AcDbEntity
  8
0
  6
Continuous
 62
     7
370
    25
100
AcDbCircle
 10
1942.2925257536
 20
7477.513317441
 30
0.0
 40
5.0
100
AcDbArc
 50
180.0
 51
270.0
  0
ARC
  5
121
330
1F
100
AcDbEntity
  8
0
  6
Continuous
 62
     7
370
    25
100
AcDbCircle
 10
2017.2925257536
 20
7552.513317441
 30
0.0
 40
5.0
100
AcDbArc
 50
0.0
 51
90.0
  0
LINE
  5
122
330
1F
100
AcDbEntity
  8
0
  6
Continuous
 62
     7
370
    25
100
AcDbLine
 10
2017.2925257536
 20
7552.513317441
 30
0.0
 11
2022.2925257536
 21
7552.513317441
 31
0.0
  0
LINE
  5
123
330
1F
100
AcDbEntity
  8
0
  6
Continuous
 62
     7
370
    25
100
AcDbLine
 10
2017.2925257536
 20
7477.513317441
 30
0.0
 11
2017.2925257536
 21
7552.513317441
 31
0.0
  0
LINE
  5
124
330
1F
100
AcDbEntity
  8
0
  6
Continuous
 62
     7
370
    25
100
AcDbLine
 10
2022.2925257536
 20
7477.513317441
 30
0.0
 11
2022.2925257536
 21
7552.513317441
 31
0.0
  0
ARC
  5
125
330
1F
100
AcDbEntity
  8
0
  6
Continuous
 62
     7
370
    25
100
AcDbCircle
 10
1942.2925257536
 20
7552.513317441
 30
0.0
 40
5.0
100
AcDbArc
 50
90.0
 51
180.0
  0
ARC
  5
126
330
1F
100
AcDbEntity
  8
0
  6
Continuous
 62
     7
370
    25
100
AcDbCircle
 10
1979.7925257536
 20
7526.513317441
 30
0.0
 40
11.62499999999979
100
AcDbArc
 50
102.4186815058
 51
226.9188702219
  0
ARC
  5
127
330
1F
100
AcDbEntity
  8
0
  6
Continuous
 62
     7
370
    25
100
AcDbCircle
 10
1979.7925257536
 20
7526.513317441
 30
0.0
 40
11.62499999999979
100
AcDbArc
 50
313.0811297781
 51
77.5813184942
  0
LINE
  5
128
330
1F
100
AcDbEntity
  8
0
  6
Continuous
 62
     7
370
    25
100
AcDbLine
 10
1981.8926970063
 20
7559.6190714713
 30
0.0
 11
1974.2925257536
 21
7559.6190714713
 31
0.0
  0
LINE
  5
129
330
1F
100
AcDbEntity
  8
0
  6
Continuous
 62
     7
370
    25
100
AcDbLine
 10
1985.2925257536
 20
7559.6190714713
 30
0.0
 11
1981.8926970063
 21
7559.6190714713
 31
0.0
  0
LINE
  5
12A
330
1F
100
AcDbEntity
  8
0
  6
Continuous
 62
     7
370
    25
100
AcDbLine
 10
1975.2458923837
 20
7560.513317441
 30
0.0
 11
1974.5425257536
 21
7560.513317441
 31
0.0
  0
LINE
  5
12B
330
1F
100
AcDbEntity
  8
0
  6
Continuous
 62
     7
370
    25
100
AcDbLine
 10
1985.0425257536
 20
7560.513317441
 30
0.0
 11
1975.2458923837
 21
7560.513317441
 31
0.0
  0
LINE
  5
12C
330
1F
100
AcDbEntity
  8
0
  6
Continuous
 62
     7
370
    25
100
AcDbLine
 10
1975.6789050856
 20
7561.013317441
 30
0.0
 11
1984.5425257536
 21
7561.013317441
 31
0.0
  0
LINE
  5
12D
330
1F
100
AcDbEntity
  8
0
  6
Continuous
 62
     7
370
    25
100
AcDbLine
 10
1975.0425257536
 20
7561.013317441
 30
0.0
 11
1975.6789050856
 21
7561.013317441
 31
0.0
  0
LINE
  5
12E
330
1F
100
AcDbEntity
  8
0
  6
Continuous
 62
     7
370
    25
100
AcDbLine
 10
1960.4025891886
 20
7472.513317441
 30
0.0
 11
1960.4025891886
 21
7471.5519925756
 31
0.0
  0
LINE
  5
12F
330
1F
100
AcDbEntity
  8
0
  6
Continuous
 62
     7
370
    25
100
AcDbLine
 10
1959.0137418346
 20
7471.5519925756
 30
0.0
 11
1960.4025891886
 21
7471.5519925756
 31
0.0
  0
LINE
  5
130
330
1F
100
AcDbEntity
  8
0
  6
Continuous
 62
     7
370
    25
100
AcDbLine
 10
1959.0137418346
 20
7471.5519925756
 30
0.0
 11
1959.0137418346
 21
7472.513317441
 31
0.0
  0
LINE
  5
131
330
1F
100
AcDbEntity
  8
0
  6
Continuous
 62
     7
370
    25
100
AcDbLine
 10
1960.4025891886
 20
7471.5519925756
 30
0.0
 11
1961.2356780723
 21
7471.263317441
 31
0.0
  0
SPLINE
  5
132
330
1F
100
AcDbEntity
  8
0
  6
Continuous
 62
     7
370
    25
100
AcDbSpline
210
0.0
220
0.0
230
1.0
 70
     8
 71
     3
 72
     9
 73
     5
 74
     0
 42
0.00000001
 43
0.00000001
 40
0.0
 40
0.0
 40
0.0
 40
0.0
 40
0.4414876113116157
 40
1.0
 40
1.0
 40
1.0
 40
1.0
 10
1957.347564067167
 20
7471.263317441022
 30
0.0
 10
1957.594713137478
 20
7471.294303555798
 30
0.0
 10
1958.154522889731
 20
7471.36448925067
 30
0.0
 10
1958.705829989411
 20
7471.484798416197
 30
0.0
 10
1959.013741834554
 20
7471.551992575617
 30
0.0
  0
LINE
  5
133
330
1F
100
AcDbEntity
  8
0
  6
Continuous
 62
     7
370
    25
100
AcDbLine
 10
1957.3475640672
 20
7471.263317441
 30
0.0
 11
1961.2356780723
 21
7471.263317441
 31
0.0
  0
SPLINE
  5
134
330
1F
100
AcDbEntity
  8
0
  6
Continuous
 62
     7
370
    25
100
AcDbSpline
210
0.0
220
0.0
230
1.0
 70
     8
 71
     3
 72
     9
 73
     5
 74
     0
 42
0.00000001
 43
0.00000001
 40
0.0
 40
0.0
 40
0.0
 40
0.0
 40
0.2685299139547136
 40
1.0
 40
1.0
 40
1.0
 40
1.0
 10
1953.071309672552
 20
7471.551992575617
 30
0.0
 10
1953.219037866409
 20
7471.518615819795
 30
0.0
 10
1953.769174689832
 20
7471.39432145225
 30
0.0
 10
1954.32841781965
 20
7471.318660883649
 30
0.0
 10
1954.737487439939
 20
7471.263317441022
 30
0.0
  0
LINE
  5
135
330
1F
100
AcDbEntity
  8
0
  6
Continuous
 62
     7
370
    25
100
AcDbLine
 10
1953.0713096726
 20
7472.513317441
 30
0.0
 11
1953.0713096726
 21
7471.5519925756
 31
0.0
  0
LINE
  5
136
330
1F
100
AcDbEntity
  8
0
  6
Continuous
 62
     7
370
    25
100
AcDbLine
 10
1957.3475640672
 20
7471.263317441
 30
0.0
 11
1954.7374874399
 21
7471.263317441
 31
0.0
  0
SPLINE
  5
137
330
1F
100
AcDbEntity
  8
0
  6
Continuous
 62
     7
370
    25
100
AcDbSpline
210
0.0
220
0.0
230
1.0
 70
     8
 71
     3
 72
     9
 73
     5
 74
     0
 42
0.00000001
 43
0.00000001
 40
0.0
 40
0.0
 40
0.0
 40
0.0
 40
0.11090490596101
 40
1.0
 40
1.0
 40
1.0
 40
1.0
 10
1950.849373434815
 20
7471.263317441022
 30
0.0
 10
1950.880439636243
 20
7471.270377127625
 30
0.0
 10
1951.160555300726
 20
7471.33403244153
 30
0.0
 10
1951.436828855948
 20
7471.449410505225
 30
0.0
 10
1951.682462318509
 20
7471.551992575617
 30
0.0
  0
LINE
  5
138
330
1F
100
AcDbEntity
  8
0
  6
Continuous
 62
     7
370
    25
100
AcDbLine
 10
1951.6824623185
 20
7471.5519925756
 30
0.0
 11
1953.0713096726
 21
7471.5519925756
 31
0.0
  0
LINE
  5
139
330
1F
100
AcDbEntity
  8
0
  6
Continuous
 62
     7
370
    25
100
AcDbLine
 10
1950.8493734348
 20
7471.263317441
 30
0.0
 11
1954.7374874399
 21
7471.263317441
 31
0.0
  0
LINE
  5
13A
330
1F
100
AcDbEntity
  8
0
  6
Continuous
 62
     7
370
    25
100
AcDbLine
 10
1951.6824623185
 20
7471.5519925756
 30
0.0
 11
1951.6824623185
 21
7472.513317441
 31
0.0
  0
LINE
  5
13B
330
1F
100
AcDbEntity
  8
0
  6
Continuous
 62
     7
370
    25
100
AcDbLine
 10
1956.0425257536
 20
7471.2631723853
 30
0.0
 11
1962.6527757536
 21
7471.2631723853
 31
0.0
  0
LINE
  5
13C
330
1F
100
AcDbEntity
  8
0
  6
Continuous
 62
     7
370
    25
100
AcDbLine
 10
1949.4322757536
 20
7471.2631723853
 30
0.0
 11
1956.0425257536
 21
7471.2631723853
 31
0.0
  0
LINE
  5
13D
330
1F
100
AcDbEntity
  8
0
  6
Continuous
 62
     7
370
    25
100
AcDbLine
 10
1962.6527757536
 20
7469.7634624967
 30
0.0
 11
1949.4322757536
 21
7469.7634624967
 31
0.0
  0
LINE
  5
13E
330
1F
100
AcDbEntity
  8
0
  6
Continuous
 62
     7
370
    25
100
AcDbLine
 10
1956.0425257536
 20
7467.263317441
 30
0.0
 11
1962.6527757536
 21
7467.263317441
 31
0.0
  0
LINE
  5
13F
330
1F
100
AcDbEntity
  8
0
  6
Continuous
 62
     7
370
    25
100
AcDbLine
 10
1949.4322757536
 20
7467.263317441
 30
0.0
 11
1956.0425257536
 21
7467.263317441
 31
0.0
  0
LINE
  5
140
330
1F
100
AcDbEntity
  8
0
  6
Continuous
 62
     7
370
    25
100
AcDbLine
 10
1956.0425257536
 20
7466.763317441
 30
0.0
 11
1949.9322757536
 21
7466.763317441
 31
0.0
  0
LINE
  5
141
330
1F
100
AcDbEntity
  8
0
  6
Continuous
 62
     7
370
    25
100
AcDbLine
 10
1962.1527757536
 20
7466.763317441
 30
0.0
 11
1956.0425257536
 21
7466.763317441
 31
0.0
  0
LINE
  5
142
330
1F
100
AcDbEntity
  8
0
  6
Continuous
 62
     7
370
    25
100
AcDbLine
 10
1963.3738052696
 20
7471.5519925756
 30
0.0
 11
1963.3738052696
 21
7472.513317441
 31
0.0
  0
SPLINE
  5
143
330
1F
100
AcDbEntity
  8
0
  6
Continuous
 62
     7
370
    25
100
AcDbSpline
210
0.0
220
0.0
230
1.0
 70
     8
 71
     3
 72
     9
 73
     5
 74
     0
 42
0.00000001
 43
0.00000001
 40
0.0
 40
0.0
 40
0.0
 40
0.0
 40
0.1109049059610097
 40
1.0
 40
1.0
 40
1.0
 40
1.0
 10
1962.540716385905
 20
7471.263317441022
 30
0.0
 10
1962.571782587333
 20
7471.270377127625
 30
0.0
 10
1962.851898251816
 20
7471.33403244153
 30
0.0
 10
1963.128171807038
 20
7471.449410505226
 30
0.0
 10
1963.373805269599
 20
7471.551992575617
 30
0.0
  0
LINE
  5
144
330
1F
100
AcDbEntity
  8
0
  6
Continuous
 62
     7
370
    25
100
AcDbLine
 10
1962.5407163859
 20
7471.263317441
 30
0.0
 11
1961.2356780723
 21
7471.263317441
 31
0.0
  0
LINE
  5
145
330
1F
100
AcDbEntity
  8
0
  6
Continuous
 62
     7
370
    25
100
AcDbLine
 10
1948.7112462375
 20
7471.5519925756
 30
0.0
 11
1949.5443351212
 21
7471.263317441
 31
0.0
  0
LINE
  5
146
330
1F
100
AcDbEntity
  8
0
  6
Continuous
 62
     7
370
    25
100
AcDbLine
 10
1948.7112462375
 20
7472.513317441
 30
0.0
 11
1948.7112462375
 21
7471.5519925756
 31
0.0
  0
LINE
  5
147
330
1F
100
AcDbEntity
  8
0
  6
Continuous
 62
     7
370
    25
100
AcDbLine
 10
1950.8493734348
 20
7471.263317441
 30
0.0
 11
1949.5443351212
 21
7471.263317441
 31
0.0
  0
LINE
  5
148
330
1F
100
AcDbEntity
  8
0
  6
Continuous
 62
     7
370
    25
100
AcDbLine
 10
1963.3738052696
 20
7471.5519925756
 30
0.0
 11
1963.4175257536
 21
7471.5519925756
 31
0.0
  0
LINE
  5
149
330
1F
100
AcDbEntity
  8
0
  6
Continuous
 62
     7
370
    25
100
AcDbLine
 10
1962.5407163859
 20
7471.263317441
 30
0.0
 11
1962.9175257536
 21
7471.263317441
 31
0.0
  0
LINE
  5
14A
330
1F
100
AcDbEntity
  8
0
  6
Continuous
 62
     7
370
    25
100
AcDbLine
 10
1948.6675257536
 20
7471.5519925756
 30
0.0
 11
1948.7112462375
 21
7471.5519925756
 31
0.0
  0
LINE
  5
14B
330
1F
100
AcDbEntity
  8
0
  6
Continuous
 62
     7
370
    25
100
AcDbLine
 10
1949.1675257536
 20
7471.263317441
 30
0.0
 11
1949.5443351212
 21
7471.263317441
 31
0.0
  0
LINE
  5
14C
330
1F
100
AcDbEntity
  8
0
  6
Continuous
 62
     7
370
    25
100
AcDbLine
 10
2006.5137418346
 20
7471.5519925756
 30
0.0
 11
2006.5137418346
 21
7472.513317441
 31
0.0
  0
SPLINE
  5
14D
330
1F
100
AcDbEntity
  8
0
  6
Continuous
 62
     7
370
    25
100
AcDbSpline
210
0.0
220
0.0
230
1.0
 70
     8
 71
     3
 72
     9
 73
     5
 74
     0
 42
0.00000001
 43
0.00000001
 40
0.0
 40
0.0
 40
0.0
 40
0.0
 40
0.1109049059610091
 40
1.0
 40
1.0
 40
1.0
 40
1.0
 10
2004.847564067166
 20
7471.263317441022
 30
0.0
 10
2004.909696470021
 20
7471.270377127625
 30
0.0
 10
2005.469927798988
 20
7471.33403244153
 30
0.0
 10
2006.022474909432
 20
7471.449410505226
 30
0.0
 10
2006.513741834553
 20
7471.551992575617
 30
0.0
  0
LINE
  5
14E
330
1F
100
AcDbEntity
  8
0
  6
Continuous
 62
     7
370
    25
100
AcDbLine
 10
2000.5713096726
 20
7471.5519925756
 30
0.0
 11
2002.2374874399
 21
7471.263317441
 31
0.0
  0
LINE
  5
14F
330
1F
100
AcDbEntity
  8
0
  6
Continuous
 62
     7
370
    25
100
AcDbLine
 10
2000.5713096726
 20
7472.513317441
 30
0.0
 11
2000.5713096726
 21
7471.5519925756
 31
0.0
  0
LINE
  5
150
330
1F
100
AcDbEntity
  8
0
  6
Continuous
 62
     7
370
    25
100
AcDbLine
 10
2004.8475640672
 20
7471.263317441
 30
0.0
 11
2002.2374874399
 21
7471.263317441
 31
0.0
  0
LINE
  5
151
330
1F
100
AcDbEntity
  8
0
  6
Continuous
 62
     7
370
    25
100
AcDbLine
 10
2009.2671701789
 20
7471.2631723853
 30
0.0
 11
2010.1527757536
 21
7471.2631723853
 31
0.0
  0
LINE
  5
152
330
1F
100
AcDbEntity
  8
0
  6
Continuous
 62
     7
370
    25
100
AcDbLine
 10
1996.9322757536
 20
7471.2631723853
 30
0.0
 11
2009.2671701789
 21
7471.2631723853
 31
0.0
  0
LINE
  5
153
330
1F
100
AcDbEntity
  8
0
  6
Continuous
 62
     7
370
    25
100
AcDbLine
 10
2010.1527757536
 20
7469.7634624967
 30
0.0
 11
1996.9322757536
 21
7469.7634624967
 31
0.0
  0
LINE
  5
154
330
1F
100
AcDbEntity
  8
0
  6
Continuous
 62
     7
370
    25
100
AcDbLine
 10
2009.2671701789
 20
7467.263317441
 30
0.0
 11
2010.1527757536
 21
7467.263317441
 31
0.0
  0
LINE
  5
155
330
1F
100
AcDbEntity
  8
0
  6
Continuous
 62
     7
370
    25
100
AcDbLine
 10
1996.9322757536
 20
7467.263317441
 30
0.0
 11
2009.2671701789
 21
7467.263317441
 31
0.0
  0
LINE
  5
156
330
1F
100
AcDbEntity
  8
0
  6
Continuous
 62
     7
370
    25
100
AcDbLine
 10
2008.834157477
 20
7466.763317441
 30
0.0
 11
1997.4322757536
 21
7466.763317441
 31
0.0
  0
LINE
  5
157
330
1F
100
AcDbEntity
  8
0
  6
Continuous
 62
     7
370
    25
100
AcDbLine
 10
2009.6527757536
 20
7466.763317441
 30
0.0
 11
2008.834157477
 21
7466.763317441
 31
0.0
  0
SPLINE
  5
158
330
1F
100
AcDbEntity
  8
0
  6
Continuous
 62
     7
370
    25
100
AcDbSpline
210
0.0
220
0.0
230
1.0
 70
     8
 71
     3
 72
     9
 73
     5
 74
     0
 42
0.00000001
 43
0.00000001
 40
0.0
 40
0.0
 40
0.0
 40
0.0
 40
0.2685299139547146
 40
1.0
 40
1.0
 40
1.0
 40
1.0
 10
2007.902589188596
 20
7471.551992575617
 30
0.0
 10
2007.976453285525
 20
7471.518615819795
 30
0.0
 10
2008.251521697236
 20
7471.39432145225
 30
0.0
 10
2008.531143262146
 20
7471.318660883649
 30
0.0
 10
2008.73567807229
 20
7471.263317441022
 30
0.0
  0
LINE
  5
159
330
1F
100
AcDbEntity
  8
0
  6
Continuous
 62
     7
370
    25
100
AcDbLine
 10
2006.5137418346
 20
7471.5519925756
 30
0.0
 11
2007.9025891886
 21
7471.5519925756
 31
0.0
  0
LINE
  5
15A
330
1F
100
AcDbEntity
  8
0
  6
Continuous
 62
     7
370
    25
100
AcDbLine
 10
2004.8475640672
 20
7471.263317441
 30
0.0
 11
2008.7356780723
 21
7471.263317441
 31
0.0
  0
SPLINE
  5
15B
330
1F
100
AcDbEntity
  8
0
  6
Continuous
 62
     7
370
    25
100
AcDbSpline
210
0.0
220
0.0
230
1.0
 70
     8
 71
     3
 72
     9
 73
     5
 74
     0
 42
0.00000001
 43
0.00000001
 40
0.0
 40
0.0
 40
0.0
 40
0.0
 40
0.1109049059610175
 40
1.0
 40
1.0
 40
1.0
 40
1.0
 10
1998.349373434814
 20
7471.263317441022
 30
0.0
 10
1998.380439636241
 20
7471.270377127625
 30
0.0
 10
1998.660555300725
 20
7471.33403244153
 30
0.0
 10
1998.936828855947
 20
7471.449410505225
 30
0.0
 10
1999.182462318508
 20
7471.551992575617
 30
0.0
  0
LINE
  5
15C
330
1F
100
AcDbEntity
  8
0
  6
Continuous
 62
     7
370
    25
100
AcDbLine
 10
1999.1824623185
 20
7471.5519925756
 30
0.0
 11
2000.5713096726
 21
7471.5519925756
 31
0.0
  0
LINE
  5
15D
330
1F
100
AcDbEntity
  8
0
  6
Continuous
 62
     7
370
    25
100
AcDbLine
 10
1998.3493734348
 20
7471.263317441
 30
0.0
 11
2002.2374874399
 21
7471.263317441
 31
0.0
  0
LINE
  5
15E
330
1F
100
AcDbEntity
  8
0
  6
Continuous
 62
     7
370
    25
100
AcDbLine
 10
2007.9025891886
 20
7472.513317441
 30
0.0
 11
2007.9025891886
 21
7471.5519925756
 31
0.0
  0
LINE
  5
15F
330
1F
100
AcDbEntity
  8
0
  6
Continuous
 62
     7
370
    25
100
AcDbLine
 10
1999.1824623185
 20
7471.5519925756
 30
0.0
 11
1999.1824623185
 21
7472.513317441
 31
0.0
  0
LINE
  5
160
330
1F
100
AcDbEntity
  8
0
  6
Continuous
 62
     7
370
    25
100
AcDbLine
 10
2010.8738052696
 20
7471.5519925756
 30
0.0
 11
2010.8738052696
 21
7472.513317441
 31
0.0
  0
SPLINE
  5
161
330
1F
100
AcDbEntity
  8
0
  6
Continuous
 62
     7
370
    25
100
AcDbSpline
210
0.0
220
0.0
230
1.0
 70
     8
 71
     3
 72
     9
 73
     5
 74
     0
 42
0.00000001
 43
0.00000001
 40
0.0
 40
0.0
 40
0.0
 40
0.0
 40
0.4414876113116181
 40
1.0
 40
1.0
 40
1.0
 40
1.0
 10
2010.040716385904
 20
7471.263317441022
 30
0.0
 10
2010.164290921059
 20
7471.294303555799
 30
0.0
 10
2010.444195797186
 20
7471.36448925067
 30
0.0
 10
2010.719849347026
 20
7471.484798416197
 30
0.0
 10
2010.873805269597
 20
7471.551992575617
 30
0.0
  0
LINE
  5
162
330
1F
100
AcDbEntity
  8
0
  6
Continuous
 62
     7
370
    25
100
AcDbLine
 10
2010.0407163859
 20
7471.263317441
 30
0.0
 11
2008.7356780723
 21
7471.263317441
 31
0.0
  0
LINE
  5
163
330
1F
100
AcDbEntity
  8
0
  6
Continuous
 62
     7
370
    25
100
AcDbLine
 10
1996.2112462375
 20
7471.5519925756
 30
0.0
 11
1997.0443351212
 21
7471.263317441
 31
0.0
  0
LINE
  5
164
330
1F
100
AcDbEntity
  8
0
  6
Continuous
 62
     7
370
    25
100
AcDbLine
 10
1996.2112462375
 20
7472.513317441
 30
0.0
 11
1996.2112462375
 21
7471.5519925756
 31
0.0
  0
LINE
  5
165
330
1F
100
AcDbEntity
  8
0
  6
Continuous
 62
     7
370
    25
100
AcDbLine
 10
1998.3493734348
 20
7471.263317441
 30
0.0
 11
1997.0443351212
 21
7471.263317441
 31
0.0
  0
LINE
  5
166
330
1F
100
AcDbEntity
  8
0
  6
Continuous
 62
     7
370
    25
100
AcDbLine
 10
2010.8738052696
 20
7471.5519925756
 30
0.0
 11
2010.9175257536
 21
7471.5519925756
 31
0.0
  0
LINE
  5
167
330
1F
100
AcDbEntity
  8
0
  6
Continuous
 62
     7
370
    25
100
AcDbLine
 10
2010.0407163859
 20
7471.263317441
 30
0.0
 11
2010.4175257536
 21
7471.263317441
 31
0.0
  0
LINE
  5
168
330
1F
100
AcDbEntity
  8
0
  6
Continuous
 62
     7
370
    25
100
AcDbLine
 10
1996.1675257536
 20
7471.5519925756
 30
0.0
 11
1996.2112462375
 21
7471.5519925756
 31
0.0
  0
LINE
  5
169
330
1F
100
AcDbEntity
  8
0
  6
Continuous
 62
     7
370
    25
100
AcDbLine
 10
1996.6675257536
 20
7471.263317441
 30
0.0
 11
1997.0443351212
 21
7471.263317441
 31
0.0
  0
LINE
  5
16A
330
1F
100
AcDbEntity
  8
0
  6
Continuous
 62
     8
370
    25
100
AcDbLine
 10
1982.2925257536
 20
7538.0501504215
 30
0.0
 11
1977.2925257536
 21
7538.0501504215
 31
0.0
  0
LINE
  5
16B
330
1F
100
AcDbEntity
  8
0
  6
Continuous
 62
     8
370
    25
100
AcDbLine
 10
1977.4848334459
 20
7538.2934025492
 30
0.0
 11
1982.1002180612
 21
7538.2934025492
 31
0.0
  0
ARC
  5
16C
330
1F
100
AcDbEntity
  8
0
  6
Continuous
 62
     8
370
    25
100
AcDbCircle
 10
1979.7925257536
 20
7526.513317441
 30
0.0
 40
14.14999999999984
100
AcDbArc
 50
297.4312028237
 51
309.0446816692
  0
ARC
  5
16D
330
1F
100
AcDbEntity
  8
0
  6
Continuous
 62
     8
370
    25
100
AcDbCircle
 10
1979.7925257536
 20
7526.513317441
 30
0.0
 40
14.15000000000015
100
AcDbArc
 50
309.0446816692
 51
242.5687971763
  0
LINE
  5
16E
330
1F
100
AcDbEntity
  8
0
  6
Continuous
 62
     7
370
    25
100
AcDbLine
 10
2149.3755156492
 20
7516.463317441
 30
0.0
 11
2165.7755156492
 21
7516.463317441
 31
0.0
  0
LINE
  5
16F
330
1F
100
AcDbEntity
  8
0
  6
Continuous
 62
     7
370
    25
100
AcDbLine
 10
2160.8755156492
 20
7536.563317441
 30
0.0
 11
2149.3755156492
 21
7536.563317441
 31
0.0
  0
LINE
  5
170
330
1F
100
AcDbEntity
  8
0
  6
Continuous
 62
     7
370
    25
100
AcDbLine
 10
2168.8755156492
 20
7536.563317441
 30
0.0
 11
2165.8422129892
 21
7536.563317441
 31
0.0
  0
ARC
  5
171
330
1F
100
AcDbEntity
  8
0
  6
Continuous
 62
     7
370
    25
100
AcDbCircle
 10
2168.8755156492
 20
7535.563317441
 30
0.0
 40
1.000000000000455
100
AcDbArc
 50
0.0
 51
90.0
  0
ARC
  5
172
330
1F
100
AcDbEntity
  8
0
  6
Continuous
 62
     7
370
    25
100
AcDbCircle
 10
2165.7755156492
 20
7514.963317441
 30
0.0
 40
1.5
100
AcDbArc
 50
0.0
 51
90.0
  0
ARC
  5
173
330
1F
100
AcDbEntity
  8
0
  6
Continuous
 62
     7
370
    25
100
AcDbCircle
 10
2167.5255156492
 20
7510.413317441
 30
0.0
 40
0.25
100
AcDbArc
 50
180.0
 51
270.0
  0
LINE
  5
174
330
1F
100
AcDbEntity
  8
0
  6
Continuous
 62
     7
370
    25
100
AcDbLine
 10
2167.5255156492
 20
7510.163317441
 30
0.0
 11
2168.8755156492
 21
7510.163317441
 31
0.0
  0
ARC
  5
175
330
1F
100
AcDbEntity
  8
0
  6
Continuous
 62
     7
370
    25
100
AcDbCircle
 10
2168.8755156492
 20
7511.163317441
 30
0.0
 40
1.000000000000455
100
AcDbArc
 50
270.0
 51
0.0
  0
ARC
  5
176
330
1F
100
AcDbEntity
  8
0
  6
Continuous
 62
     7
370
    25
100
AcDbCircle
 10
2165.6255156492
 20
7538.0501504215
 30
0.0
 40
0.2500000000004547
100
AcDbArc
 50
0.0
 51
76.6576362029
  0
ARC
  5
177
330
1F
100
AcDbEntity
  8
0
  6
Continuous
 62
     7
370
    25
100
AcDbCircle
 10
2161.1255156492
 20
7538.0501504215
 30
0.0
 40
0.2500000000004547
100
AcDbArc
 50
103.3423637972
 51
180.0
  0
LINE
  5
178
330
1F
100
AcDbEntity
  8
0
  6
Continuous
 62
     7
370
    25
100
AcDbLine
 10
2165.8755156492
 20
7536.5550997255
 30
0.0
 11
2165.8755156492
 21
7538.0501504215
 31
0.0
  0
LINE
  5
179
330
1F
100
AcDbEntity
  8
0
  6
Continuous
 62
     7
370
    25
100
AcDbLine
 10
2160.8755156492
 20
7538.0501504215
 30
0.0
 11
2160.8755156492
 21
7536.563317441
 31
0.0
  0
ARC
  5
17A
330
1F
100
AcDbEntity
  8
0
  6
Continuous
 62
     7
370
    25
100
AcDbCircle
 10
2163.3755156492
 20
7528.563317441
 30
0.0
 40
9.999999999999739
100
AcDbArc
 50
76.6576362029
 51
103.3423637971
  0
LINE
  5
17B
330
1F
100
AcDbEntity
  8
0
  6
Continuous
 62
     7
370
    25
100
AcDbLine
 10
2143.0250652469
 20
7512.263317441
 30
0.0
 11
2144.3250652469
 21
7512.263317441
 31
0.0
  0
LINE
  5
17C
330
1F
100
AcDbEntity
  8
0
  6
Continuous
 62
     7
370
    25
100
AcDbLine
 10
2144.3250652469
 20
7540.763317441
 30
0.0
 11
2143.0250652469
 21
7540.763317441
 31
0.0
  0
ARC
  5
17D
330
1F
100
AcDbEntity
  8
0
  6
Continuous
 62
     7
370
    25
100
AcDbCircle
 10
2143.0250652469
 20
7512.363317441
 30
0.0
 40
0.0999999999999091
100
AcDbArc
 50
180.0
 51
270.0
  0
ARC
  5
17E
330
1F
100
AcDbEntity
  8
0
  6
Continuous
 62
     7
370
    25
100
AcDbCircle
 10
2143.0250652469
 20
7540.663317441
 30
0.0
 40
0.1000000000003638
100
AcDbArc
 50
90.0
 51
180.0
  0
ARC
  5
17F
330
1F
100
AcDbEntity
  8
0
  6
Continuous
 62
     7
370
    25
100
AcDbCircle
 10
2144.3250652469
 20
7512.363317441
 30
0.0
 40
0.1000000000003638
100
AcDbArc
 50
270.0
 51
0.0
  0
ARC
  5
180
330
1F
100
AcDbEntity
  8
0
  6
Continuous
 62
     7
370
    25
100
AcDbCircle
 10
2144.3250652469
 20
7540.663317441
 30
0.0
 40
0.1000000000003638
100
AcDbArc
 50
0.0
 51
90.0
  0
LINE
  5
181
330
1F
100
AcDbEntity
  8
0
  6
Continuous
 62
     7
370
    25
100
AcDbLine
 10
2137.1750652468
 20
7496.763317441
 30
0.0
 11
2137.1500652468
 21
7496.763317441
 31
0.0
  0
LINE
  5
182
330
1F
100
AcDbEntity
  8
0
  6
Continuous
 62
     7
370
    25
100
AcDbLine
 10
2143.1750652468
 20
7484.513317441
 30
0.0
 11
2143.9250652468
 21
7485.263317441
 31
0.0
  0
LINE
  5
183
330
1F
100
AcDbEntity
  8
0
  6
Continuous
 62
     7
370
    25
100
AcDbLine
 10
2143.9250652468
 20
7497.763317441
 30
0.0
 11
2143.1750652468
 21
7498.513317441
 31
0.0
  0
LINE
  5
184
330
1F
100
AcDbEntity
  8
0
  6
Continuous
 62
     7
370
    25
100
AcDbLine
 10
2142.9250652468
 20
7484.513317441
 30
0.0
 11
2143.1750652468
 21
7484.513317441
 31
0.0
  0
LINE
  5
185
330
1F
100
AcDbEntity
  8
0
  6
Continuous
 62
     7
370
    25
100
AcDbLine
 10
2143.1750652468
 20
7498.513317441
 30
0.0
 11
2142.9250652468
 21
7498.513317441
 31
0.0
  0
LINE
  5
186
330
1F
100
AcDbEntity
  8
0
  6
Continuous
 62
     7
370
    25
100
AcDbLine
 10
2137.4250652468
 20
7496.713317441
 30
0.0
 11
2137.1750652468
 21
7496.713317441
 31
0.0
  0
LINE
  5
187
330
1F
100
AcDbEntity
  8
0
  6
Continuous
 62
     7
370
    25
100
AcDbLine
 10
2136.7750652468
 20
7486.313317441
 30
0.0
 11
2137.3425183177
 21
7486.313317441
 31
0.0
  0
SPLINE
  5
188
330
1F
100
AcDbEntity
  8
0
  6
Continuous
 62
     7
370
    25
100
AcDbSpline
210
0.0
220
0.0
230
1.0
 70
     8
 71
     3
 72
     9
 73
     5
 74
     0
 42
0.00000001
 43
0.00000001
 40
0.0
 40
0.0
 40
0.0
 40
0.0
 40
0.494740140439534
 40
1.0
 40
1.0
 40
1.0
 40
1.0
 10
2137.323765326391
 20
7486.412046329173
 30
0.0
 10
2137.339125226707
 20
7486.414897570196
 30
0.0
 10
2137.370171626746
 20
7486.420660678525
 30
0.0
 10
2137.40162380382
 20
7486.414937846485
 30
0.0
 10
2137.417515326391
 20
7486.412046329173
 30
0.0
  0
SPLINE
  5
189
330
1F
100
AcDbEntity
  8
0
  6
Continuous
 62
     7
370
    25
100
AcDbSpline
210
0.0
220
0.0
230
1.0
 70
     8
 71
     3
 72
    11
 73
     7
 74
     0
 42
0.00000001
 43
0.00000001
 40
0.0
 40
0.0
 40
0.0
 40
0.0
 40
0.3668716471771941
 40
0.6815585513841413
 40
0.9461549884404251
 40
1.0
 40
1.0
 40
1.0
 40
1.0
 10
2137.150030605279
 20
7539.327713407273
 30
0.0
 10
2137.14497206005
 20
7539.869615460044
 30
0.0
 10
2137.135574509751
 20
7540.876338058863
 30
0.0
 10
2137.069090751499
 20
7542.276875827287
 30
0.0
 10
2137.009742892001
 20
7543.216282874114
 30
0.0
 10
2136.963292900014
 20
7543.684198037741
 30
0.0
 10
2136.955438707771
 20
7543.763317441023
 30
0.0
  0
SPLINE
  5
18A
330
1F
100
AcDbEntity
  8
0
  6
Continuous
 62
     7
370
    25
100
AcDbSpline
210
0.0
220
0.0
230
1.0
 70
     8
 71
     3
 72
     9
 73
     5
 74
     0
 42
0.00000001
 43
0.00000001
 40
0.0
 40
0.0
 40
0.0
 40
0.0
 40
0.0242644025315056
 40
1.0
 40
1.0
 40
1.0
 40
1.0
 10
2132.23861583187
 20
7553.159764050429
 30
0.0
 10
2132.234774405295
 20
7553.161154294487
 30
0.0
 10
2132.076459088428
 20
7553.218449917419
 30
0.0
 10
2131.912591979959
 20
7553.241159192719
 30
0.0
 10
2131.752701008972
 20
7553.263317441023
 30
0.0
  0
SPLINE
  5
18B
330
1F
100
AcDbEntity
  8
0
  6
Continuous
 62
     7
370
    25
100
AcDbSpline
210
0.0
220
0.0
230
1.0
 70
     8
 71
     3
 72
     9
 73
     5
 74
     0
 42
0.00000001
 43
0.00000001
 40
0.0
 40
0.0
 40
0.0
 40
0.0
 40
0.323525337967764
 40
1.0
 40
1.0
 40
1.0
 40
1.0
 10
2130.302426381706
 20
7553.263317441023
 30
0.0
 10
2130.245325719237
 20
7553.256215201429
 30
0.0
 10
2130.068830540135
 20
7553.234262548082
 30
0.0
 10
2129.923643498122
 20
7553.189824955711
 30
0.0
 10
2129.825428142944
 20
7553.159764050429
 30
0.0
  0
LINE
  5
18C
330
1F
100
AcDbEntity
  8
0
  6
Continuous
 62
     7
370
    25
100
AcDbLine
 10
2125.6750652468
 20
7476.813317441
 30
0.0
 11
2125.6750652468
 21
7476.763317441
 31
0.0
  0
LINE
  5
18D
330
1F
100
AcDbEntity
  8
0
  6
Continuous
 62
     7
370
    25
100
AcDbLine
 10
2129.6750652468
 20
7476.763317441
 30
0.0
 11
2129.6750652468
 21
7476.813317441
 31
0.0
  0
LINE
  5
18E
330
1F
100
AcDbEntity
  8
0
  6
Continuous
 62
     7
370
    25
100
AcDbLine
 10
2137.3750652468
 20
7515.3049841077
 30
0.0
 11
2137.3750652468
 21
7519.513317441
 31
0.0
  0
LINE
  5
18F
330
1F
100
AcDbEntity
  8
0
  6
Continuous
 62
     7
370
    25
100
AcDbLine
 10
2136.7750652468
 20
7523.163317441
 30
0.0
 11
2137.4250652468
 21
7523.163317441
 31
0.0
  0
LINE
  5
190
330
1F
100
AcDbEntity
  8
0
  6
Continuous
 62
     7
370
    25
100
AcDbLine
 10
2137.4250652468
 20
7526.863317441
 30
0.0
 11
2137.1602258397
 21
7526.863317441
 31
0.0
  0
ARC
  5
191
330
1F
100
AcDbEntity
  8
0
  6
Continuous
 62
     7
370
    25
100
AcDbCircle
 10
2137.1602258397
 20
7527.113317441
 30
0.0
 40
0.2500000000003428
100
AcDbArc
 50
147.7243556855
 51
264.0042765243
  0
LINE
  5
192
330
1F
100
AcDbEntity
  8
0
  6
Continuous
 62
     7
370
    25
100
AcDbLine
 10
2137.4250652468
 20
7512.1286683658
 30
0.0
 11
2137.3210002468
 21
7512.2015354633
 31
0.0
  0
LINE
  5
193
330
1F
100
AcDbEntity
  8
0
  6
Continuous
 62
     7
370
    25
100
AcDbLine
 10
2137.3210002468
 20
7511.7844708473
 30
0.0
 11
2137.4250652468
 21
7511.8573379448
 31
0.0
  0
LINE
  5
194
330
1F
100
AcDbEntity
  8
0
  6
Continuous
 62
     7
370
    25
100
AcDbLine
 10
2137.4250652468
 20
7511.467361223
 30
0.0
 11
2137.3210002468
 21
7511.5402283204
 31
0.0
  0
LINE
  5
195
330
1F
100
AcDbEntity
  8
0
  6
Continuous
 62
     7
370
    25
100
AcDbLine
 10
2137.3210002468
 20
7512.4457779902
 30
0.0
 11
2137.4250652468
 21
7512.5186450876
 31
0.0
  0
LINE
  5
196
330
1F
100
AcDbEntity
  8
0
  6
Continuous
 62
     7
370
    25
100
AcDbLine
 10
2137.3210002468
 20
7513.107085133
 30
0.0
 11
2137.4250652468
 21
7513.1799522305
 31
0.0
  0
LINE
  5
197
330
1F
100
AcDbEntity
  8
0
  6
Continuous
 62
     7
370
    25
100
AcDbLine
 10
2137.4250652468
 20
7512.7899755087
 30
0.0
 11
2137.3210002468
 21
7512.8628426062
 31
0.0
  0
LINE
  5
198
330
1F
100
AcDbEntity
  8
0
  6
Continuous
 62
     7
370
    25
100
AcDbLine
 10
2137.3210002468
 20
7511.5402283204
 30
0.0
 11
2137.3210002468
 21
7511.7844708473
 31
0.0
  0
LINE
  5
199
330
1F
100
AcDbEntity
  8
0
  6
Continuous
 62
     7
370
    25
100
AcDbLine
 10
2137.3210002468
 20
7512.2015354633
 30
0.0
 11
2137.3210002468
 21
7512.4457779902
 31
0.0
  0
LINE
  5
19A
330
1F
100
AcDbEntity
  8
0
  6
Continuous
 62
     7
370
    25
100
AcDbLine
 10
2137.3210002468
 20
7512.8628426062
 30
0.0
 11
2137.3210002468
 21
7513.107085133
 31
0.0
  0
LINE
  5
19B
330
1F
100
AcDbEntity
  8
0
  6
Continuous
 62
     7
370
    25
100
AcDbLine
 10
2137.2750652468
 20
7532.0026800078
 30
0.0
 11
2137.2750652468
 21
7533.078317441
 31
0.0
  0
LINE
  5
19C
330
1F
100
AcDbEntity
  8
0
  6
Continuous
 62
     7
370
    25
100
AcDbLine
 10
2137.2750652468
 20
7513.328317441
 30
0.0
 11
2137.2750652468
 21
7515.3049841077
 31
0.0
  0
LINE
  5
19D
330
1F
100
AcDbEntity
  8
0
  6
Continuous
 62
     7
370
    25
100
AcDbLine
 10
2137.2750652468
 20
7519.513317441
 30
0.0
 11
2137.2750652468
 21
7523.163317441
 31
0.0
  0
LINE
  5
19E
330
1F
100
AcDbEntity
  8
0
  6
Continuous
 62
     7
370
    25
100
AcDbLine
 10
2137.2750652468
 20
7526.863317441
 30
0.0
 11
2137.2750652468
 21
7527.786191007
 31
0.0
  0
LINE
  5
19F
330
1F
100
AcDbEntity
  8
0
  6
Continuous
 62
     7
370
    25
100
AcDbLine
 10
2137.2750652468
 20
7531.4994823792
 30
0.0
 11
2137.27694392
 21
7531.6483873012
 31
0.0
  0
LINE
  5
1A0
330
1F
100
AcDbEntity
  8
0
  6
Continuous
 62
     7
370
    25
100
AcDbLine
 10
2137.2750652468
 20
7531.4994823792
 30
0.0
 11
2137.27694392
 21
7531.6483873011
 31
0.0
  0
LINE
  5
1A1
330
1F
100
AcDbEntity
  8
0
  6
Continuous
 62
     7
370
    25
100
AcDbLine
 10
2144.4250652469
 20
7514.888317441
 30
0.0
 11
2149.3755156492
 21
7514.888317441
 31
0.0
  0
LINE
  5
1A2
330
1F
100
AcDbEntity
  8
0
  6
Continuous
 62
     7
370
    25
100
AcDbLine
 10
2149.3755156492
 20
7538.138317441
 30
0.0
 11
2144.4250652469
 21
7538.138317441
 31
0.0
  0
LINE
  5
1A3
330
1F
100
AcDbEntity
  8
0
  6
Continuous
 62
     7
370
    25
100
AcDbLine
 10
2137.4250652468
 20
7521.513317441
 30
0.0
 11
2137.2750652468
 21
7521.513317441
 31
0.0
  0
LINE
  5
1A4
330
1F
100
AcDbEntity
  8
0
  6
Continuous
 62
     7
370
    25
100
AcDbLine
 10
2137.3750652468
 20
7516.513317441
 30
0.0
 11
2137.4250652468
 21
7516.513317441
 31
0.0
  0
SPLINE
  5
1A5
330
1F
100
AcDbEntity
  8
0
  6
Continuous
 62
     7
370
    25
100
AcDbSpline
210
0.0
220
0.0
230
1.0
 70
     8
 71
     3
 72
    13
 73
     9
 74
     0
 42
0.00000001
 43
0.00000001
 40
0.0
 40
0.0
 40
0.0
 40
0.0
 40
0.0000533831705804
 40
0.2348910609324814
 40
0.4707609054657159
 40
0.7070796424639453
 40
0.9320605815060161
 40
0.9999999999999999
 40
0.9999999999999999
 40
0.9999999999999999
 40
0.9999999999999999
 10
2111.469882043746
 20
7546.208722138444
 30
0.0
 10
2111.469855697893
 20
7546.208662046723
 30
0.0
 10
2111.353931423032
 20
7545.944252725
 30
0.0
 10
2111.186321565497
 20
7545.378399568484
 30
0.0
 10
2110.974565171835
 20
7544.51760907461
 30
0.0
 10
2110.848294950438
 20
7543.643251436668
 30
0.0
 10
2110.803476916693
 20
7542.971867122896
 30
0.0
 10
2110.800707565221
 20
7542.599649032418
 30
0.0
 10
2110.800065246844
 20
7542.513317441016
 30
0.0
  0
LINE
  5
1A6
330
1F
100
AcDbEntity
  8
0
  6
Continuous
 62
     7
370
    25
100
AcDbLine
 10
2110.8000652468
 20
7542.513317441
 30
0.0
 11
2110.8000652468
 21
7541.4612802997
 31
0.0
  0
LINE
  5
1A7
330
1F
100
AcDbEntity
  8
0
  6
Continuous
 62
     7
370
    25
100
AcDbLine
 10
2098.2750652468
 20
7559.6190714713
 30
0.0
 11
2098.2750652468
 21
7557.25811813
 31
0.0
  0
LINE
  5
1A8
330
1F
100
AcDbEntity
  8
0
  6
Continuous
 62
     7
370
    25
100
AcDbLine
 10
2109.2750652468
 20
7557.25811813
 30
0.0
 11
2109.2750652468
 21
7559.6190714713
 31
0.0
  0
LINE
  5
1A9
330
1F
100
AcDbEntity
  8
0
  6
Continuous
 62
     7
370
    25
100
AcDbLine
 10
2098.5250652468
 20
7553.263317441
 30
0.0
 11
2098.5250652468
 21
7552.9097640504
 31
0.0
  0
LINE
  5
1AA
330
1F
100
AcDbEntity
  8
0
  6
Continuous
 62
     7
370
    25
100
AcDbLine
 10
2109.0250652468
 20
7552.9097640504
 30
0.0
 11
2109.0250652468
 21
7553.263317441
 31
0.0
  0
LINE
  5
1AB
330
1F
100
AcDbEntity
  8
0
  6
Continuous
 62
     7
370
    25
100
AcDbLine
 10
2109.0250652468
 20
7555.763317441
 30
0.0
 11
2109.0250652468
 21
7557.25811813
 31
0.0
  0
LINE
  5
1AC
330
1F
100
AcDbEntity
  8
0
  6
Continuous
 62
     7
370
    25
100
AcDbLine
 10
2109.0250652468
 20
7559.6190714713
 30
0.0
 11
2109.0250652468
 21
7560.513317441
 31
0.0
  0
LINE
  5
1AD
330
1F
100
AcDbEntity
  8
0
  6
Continuous
 62
     7
370
    25
100
AcDbLine
 10
2098.5250652468
 20
7560.513317441
 30
0.0
 11
2098.5250652468
 21
7559.6190714713
 31
0.0
  0
LINE
  5
1AE
330
1F
100
AcDbEntity
  8
0
  6
Continuous
 62
     7
370
    25
100
AcDbLine
 10
2098.5250652468
 20
7557.25811813
 30
0.0
 11
2098.5250652468
 21
7555.763317441
 31
0.0
  0
LINE
  5
1AF
330
1F
100
AcDbEntity
  8
0
  6
Continuous
 62
     7
370
    25
100
AcDbLine
 10
2109.0250652468
 20
7560.513317441
 30
0.0
 11
2108.5250652468
 21
7561.013317441
 31
0.0
  0
LINE
  5
1B0
330
1F
100
AcDbEntity
  8
0
  6
Continuous
 62
     7
370
    25
100
AcDbLine
 10
2099.0250652468
 20
7561.013317441
 30
0.0
 11
2098.5250652468
 21
7560.513317441
 31
0.0
  0
ARC
  5
1B1
330
1F
100
AcDbEntity
  8
0
  6
Continuous
 62
     7
370
    25
100
AcDbCircle
 10
2137.4000652468
 20
7496.128317441
 30
0.0
 40
0.25
100
AcDbArc
 50
180.0
 51
270.0000000001
  0
LINE
  5
1B2
330
1F
100
AcDbEntity
  8
0
  6
Continuous
 62
     7
370
    25
100
AcDbLine
 10
2137.1500652468
 20
7496.128317441
 30
0.0
 11
2137.1500652468
 21
7499.603317441
 31
0.0
  0
ARC
  5
1B3
330
1F
100
AcDbEntity
  8
0
  6
Continuous
 62
     7
370
    25
100
AcDbCircle
 10
2136.5750652468
 20
7504.753317441
 30
0.0
 40
0.5749999999998452
100
AcDbArc
 50
290.3544063982
 51
69.6455936018
  0
ARC
  5
1B4
330
1F
100
AcDbEntity
  8
0
  6
Continuous
 62
     7
370
    25
100
AcDbCircle
 10
2136.5750652468
 20
7499.603317441
 30
0.0
 40
0.5749999999998452
100
AcDbArc
 50
359.9999999999
 51
69.6455936018
  0
SPLINE
  5
1B5
330
1F
100
AcDbEntity
  8
0
  6
Continuous
 62
     7
370
    25
100
AcDbSpline
210
0.0
220
0.0
230
1.0
 70
     8
 71
     3
 72
     9
 73
     5
 74
     0
 42
0.00000001
 43
0.00000001
 40
0.0
 40
0.0
 40
0.0
 40
0.0
 40
0.2468268742715516
 40
1.0
 40
1.0
 40
1.0
 40
1.0
 10
2136.775065246844
 20
7493.866449422824
 30
0.0
 10
2136.795733191866
 20
7494.028977947095
 30
0.0
 10
2136.879467773376
 20
7494.687449698804
 30
0.0
 10
2136.891205290338
 20
7495.360511104816
 30
0.0
 10
2136.900045672677
 20
7495.86744286779
 30
0.0
  0
SPLINE
  5
1B6
330
1F
100
AcDbEntity
  8
0
  6
Continuous
 62
     7
370
    25
100
AcDbSpline
210
0.0
220
0.0
230
1.0
 70
     8
 71
     3
 72
    11
 73
     7
 74
     0
 42
0.00000001
 43
0.00000001
 40
0.0
 40
0.0
 40
0.0
 40
0.0
 40
0.0625049903503882
 40
0.3464798869966769
 40
0.7232166229290529
 40
1.0
 40
1.0
 40
1.0
 40
1.0
 10
2111.551982636533
 20
7488.585830886905
 30
0.0
 10
2111.563479006247
 20
7488.514702049696
 30
0.0
 10
2111.627206091986
 20
7488.120418147878
 30
0.0
 10
2111.764973366081
 20
7487.302363168767
 30
0.0
 10
2111.945443180505
 20
7486.275543697912
 30
0.0
 10
2112.07143861682
 20
7485.615307663023
 30
0.0
 10
2112.124801079068
 20
7485.335679912071
 30
0.0
  0
SPLINE
  5
1B7
330
1F
100
AcDbEntity
  8
0
  6
Continuous
 62
     7
370
    25
100
AcDbSpline
210
0.0
220
0.0
230
1.0
 70
     8
 71
     3
 72
    15
 73
    11
 74
     0
 42
0.00000001
 43
0.00000001
 40
0.0
 40
0.0
 40
0.0
 40
0.0
 40
0.0723372787628355
 40
0.210088428835712
 40
0.3480658797670936
 40
0.4864475963543571
 40
0.6255620772931517
 40
0.7659148580792419
 40
0.9083940974171362
 40
1.0
 40
1.0
 40
1.0
 40
1.0
 10
2112.050065246844
 20
7488.513317441016
 30
0.0
 10
2112.050270886175
 20
7488.383985481049
 30
0.0
 10
2112.050868122406
 20
7488.008367974659
 30
0.0
 10
2112.057521528923
 20
7487.389560662285
 30
0.0
 10
2112.072385312843
 20
7486.671389841068
 30
0.0
 10
2112.094587298608
 20
7485.980198218326
 30
0.0
 10
2112.123756006355
 20
7485.32434760051
 30
0.0
 10
2112.160325117551
 20
7484.71434882943
 30
0.0
 10
2112.19756595337
 20
7484.215629482861
 30
0.0
 10
2112.226155890352
 20
7483.947740432382
 30
0.0
 10
2112.237344156983
 20
7483.842905849291
 30
0.0
  0
SPLINE
  5
1B8
330
1F
100
AcDbEntity
  8
0
  6
Continuous
 62
     7
370
    25
100
AcDbSpline
210
0.0
220
0.0
230
1.0
 70
     8
 71
     3
 72
     9
 73
     5
 74
     0
 42
0.00000001
 43
0.00000001
 40
0.0
 40
0.0
 40
0.0
 40
0.0
 40
0.4683862799836306
 40
1.0
 40
1.0
 40
1.0
 40
1.0
 10
2111.12544836562
 20
7488.627269293951
 30
0.0
 10
2111.388440500508
 20
7488.598964298774
 30
0.0
 10
2111.949926065153
 20
7488.538533418569
 30
0.0
 10
2112.518713189419
 20
7488.515065704574
 30
0.0
 10
2112.821088228447
 20
7488.502589945837
 30
0.0
  0
LINE
  5
1B9
330
1F
100
AcDbEntity
  8
0
  6
Continuous
 62
     7
370
    25
100
AcDbLine
 10
2097.1648152468
 20
7471.263317441
 30
0.0
 11
2097.1648152468
 21
7471.2631723853
 31
0.0
  0
LINE
  5
1BA
330
1F
100
AcDbEntity
  8
0
  6
Continuous
 62
     7
370
    25
100
AcDbLine
 10
2110.3853152468
 20
7471.2631723853
 30
0.0
 11
2110.3853152468
 21
7471.263317441
 31
0.0
  0
ARC
  5
1BB
330
1F
100
AcDbEntity
  8
0
  6
Continuous
 62
     7
370
    25
100
AcDbCircle
 10
2097.1500652468
 20
7470.513317441
 30
0.0
 40
0.7500000000003157
100
AcDbArc
 50
271.1268896477
 51
88.8731103523
  0
ARC
  5
1BC
330
1F
100
AcDbEntity
  8
0
  6
Continuous
 62
     7
370
    25
100
AcDbCircle
 10
2110.4000652468
 20
7470.513317441
 30
0.0
 40
0.7500000000003157
100
AcDbArc
 50
91.1268896477
 51
268.8731103523
  0
LINE
  5
1BD
330
1F
100
AcDbEntity
  8
0
  6
Continuous
 62
     7
370
    25
100
AcDbLine
 10
2097.1648152468
 20
7469.7634624967
 30
0.0
 11
2097.1648152468
 21
7467.263317441
 31
0.0
  0
LINE
  5
1BE
330
1F
100
AcDbEntity
  8
0
  6
Continuous
 62
     7
370
    25
100
AcDbLine
 10
2110.3853152468
 20
7467.263317441
 30
0.0
 11
2110.3853152468
 21
7469.7634624967
 31
0.0
  0
LINE
  5
1BF
330
1F
100
AcDbEntity
  8
0
  6
Continuous
 62
     7
370
    25
100
AcDbLine
 10
2097.1648152468
 20
7467.263317441
 30
0.0
 11
2097.6648152468
 21
7466.763317441
 31
0.0
  0
LINE
  5
1C0
330
1F
100
AcDbEntity
  8
0
  6
Continuous
 62
     7
370
    25
100
AcDbLine
 10
2109.8853152468
 20
7466.763317441
 30
0.0
 11
2110.3853152468
 21
7467.263317441
 31
0.0
  0
ARC
  5
1C1
330
1F
100
AcDbEntity
  8
0
  6
Continuous
 62
     7
370
    25
100
AcDbCircle
 10
2135.3500652468
 20
7553.863317441
 30
0.0
 40
0.1000000000005144
100
AcDbArc
 50
270.0
 51
32.7790806685
  0
ARC
  5
1C2
330
1F
100
AcDbEntity
  8
0
  6
Continuous
 62
     7
370
    25
100
AcDbCircle
 10
2132.2000652468
 20
7553.863317441
 30
0.0
 40
0.1000000000005144
100
AcDbArc
 50
147.2209193315
 51
270.0
  0
ARC
  5
1C3
330
1F
100
AcDbEntity
  8
0
  6
Continuous
 62
     7
370
    25
100
AcDbCircle
 10
2134.5250652468
 20
7553.332067441
 30
0.0
 40
1.081250000001091
100
AcDbArc
 50
32.7790806681
 51
90.0
  0
ARC
  5
1C4
330
1F
100
AcDbEntity
  8
0
  6
Continuous
 62
     7
370
    25
100
AcDbCircle
 10
2133.0250652468
 20
7553.332067441
 30
0.0
 40
1.081250000001091
100
AcDbArc
 50
90.0
 51
147.2209193319
  0
LINE
  5
1C5
330
1F
100
AcDbEntity
  8
0
  6
Continuous
 62
     7
370
    25
100
AcDbLine
 10
2134.5750652468
 20
7553.1597640504
 30
0.0
 11
2134.5750652468
 21
7553.263317441
 31
0.0
  0
LINE
  5
1C6
330
1F
100
AcDbEntity
  8
0
  6
Continuous
 62
     7
370
    25
100
AcDbLine
 10
2132.9750652468
 20
7553.263317441
 30
0.0
 11
2132.9750652468
 21
7553.1597640504
 31
0.0
  0
ARC
  5
1C7
330
1F
100
AcDbEntity
  8
0
  6
Continuous
 62
     7
370
    25
100
AcDbCircle
 10
2132.2000652468
 20
7476.163317441
 30
0.0
 40
0.1000000000008967
100
AcDbArc
 50
90.0000000003
 51
212.7790806684
  0
ARC
  5
1C8
330
1F
100
AcDbEntity
  8
0
  6
Continuous
 62
     7
370
    25
100
AcDbCircle
 10
2135.3500652468
 20
7476.163317441
 30
0.0
 40
0.1000000000005144
100
AcDbArc
 50
327.2209193315
 51
90.0
  0
ARC
  5
1C9
330
1F
100
AcDbEntity
  8
0
  6
Continuous
 62
     7
370
    25
100
AcDbCircle
 10
2133.0250652468
 20
7476.694567441
 30
0.0
 40
1.081250000001091
100
AcDbArc
 50
212.7790806681
 51
270.0
  0
ARC
  5
1CA
330
1F
100
AcDbEntity
  8
0
  6
Continuous
 62
     7
370
    25
100
AcDbCircle
 10
2134.5250652468
 20
7476.694567441
 30
0.0
 40
1.081250000001091
100
AcDbArc
 50
270.0
 51
327.2209193319
  0
LINE
  5
1CB
330
1F
100
AcDbEntity
  8
0
  6
Continuous
 62
     7
370
    25
100
AcDbLine
 10
2132.9750652468
 20
7476.8668708316
 30
0.0
 11
2132.9750652468
 21
7476.763317441
 31
0.0
  0
LINE
  5
1CC
330
1F
100
AcDbEntity
  8
0
  6
Continuous
 62
     7
370
    25
100
AcDbLine
 10
2134.5750652468
 20
7476.763317441
 30
0.0
 11
2134.5750652468
 21
7476.8668708316
 31
0.0
  0
LINE
  5
1CD
330
1F
100
AcDbEntity
  8
0
  6
Continuous
 62
     7
370
    25
100
AcDbLine
 10
2137.9250652468
 20
7477.763317441
 30
0.0
 11
2137.4250652468
 21
7477.763317441
 31
0.0
  0
LINE
  5
1CE
330
1F
100
AcDbEntity
  8
0
  6
Continuous
 62
     7
370
    25
100
AcDbLine
 10
2137.4250652468
 20
7552.263317441
 30
0.0
 11
2137.4250652468
 21
7477.763317441
 31
0.0
  0
LWPOLYLINE
  5
1CF
330
1F
100
AcDbEntity
  8
0
  6
Continuous
 62
     7
370
    25
100
AcDbPolyline
 90
        3
 70
   128
 43
0.0
 10
2137.9250652468
 20
7556.363317441
 10
2137.7982599264
 20
7556.3672631595
 10
2137.4250652468
 20
7556.363317441
  0
LINE
  5
1D0
330
1F
100
AcDbEntity
  8
0
  6
Continuous
 62
     7
370
    25
100
AcDbLine
 10
2137.4250652468
 20
7556.363317441
 30
0.0
 11
2137.4250652468
 21
7552.263317441
 31
0.0
  0
LWPOLYLINE
  5
1D1
330
1F
100
AcDbEntity
  8
0
  6
Continuous
 62
     7
370
    25
100
AcDbPolyline
 90
        9
 70
   128
 43
0.0
 10
2167.2755156492
 20
7517.8363343157
 10
2167.2803193291
 20
7517.8222811993
 10
2167.294545766
 20
7517.8087681362
 10
2167.3176482461
 20
7517.796314426
 10
2167.3487389539
 20
7517.7853986577
 10
2167.3866230909
 20
7517.7764403182
 10
2167.4298447911
 20
7517.7697836714
 10
2167.4767430687
 20
7517.7656845285
 10
2167.5255156492
 20
7517.7643004174
  0
SPLINE
  5
1D2
330
1F
100
AcDbEntity
  8
0
  6
Continuous
 62
     7
370
    25
100
AcDbSpline
210
0.0
220
0.0
230
1.0
 70
     8
 71
     3
 72
    12
 73
     8
 74
     0
 42
0.00000001
 43
0.00000001
 40
0.0
 40
0.0
 40
0.0
 40
0.0
 40
0.2146364248907235
 40
0.4298264924026063
 40
0.5348081238156397
 40
0.9977582290466527
 40
1.0
 40
1.0
 40
1.0
 40
1.0
 10
2167.275515649157
 20
7517.836334315667
 30
0.0
 10
2167.250733127779
 20
7518.260451557566
 30
0.0
 10
2167.2011041599
 20
7519.109780028005
 30
0.0
 10
2166.943595891188
 20
7520.14612963881
 30
0.0
 10
2166.50794291064
 20
7521.648598175011
 30
0.0
 10
2166.103818361535
 20
7522.727469143597
 30
0.0
 10
2165.777090160296
 20
7523.61328595641
 30
0.0
 10
2165.775515649157
 20
7523.617554729152
 30
0.0
  0
SPLINE
  5
1D3
330
1F
100
AcDbEntity
  8
0
  6
Continuous
 62
     7
370
    25
100
AcDbSpline
210
0.0
220
0.0
230
1.0
 70
     8
 71
     3
 72
    12
 73
     8
 74
     0
 42
0.00000001
 43
0.00000001
 40
0.0
 40
0.0
 40
0.0
 40
0.0
 40
0.0021885454915804
 40
0.2834367651916295
 40
0.5652202807658022
 40
0.7806850198194144
 40
1.0
 40
1.0
 40
1.0
 40
1.0
 10
2165.775515649157
 20
7523.617554729152
 30
0.0
 10
2165.777332130975
 20
7523.613438416446
 30
0.0
 10
2166.012583229264
 20
7523.080338070921
 30
0.0
 10
2166.483069536166
 20
7522.017255612363
 30
0.0
 10
2167.043276404032
 20
7520.520878214339
 30
0.0
 10
2167.436610417537
 20
7519.100267568015
 30
0.0
 10
2167.495706129024
 20
7518.212244131673
 30
0.0
 10
2167.525515649157
 20
7517.764300417361
 30
0.0
  0
LINE
  5
1D4
330
1F
100
AcDbEntity
  8
0
  6
Continuous
 62
     7
370
    25
100
AcDbLine
 10
2167.5255156492
 20
7517.7643004174
 30
0.0
 11
2167.5255156492
 21
7515.5023004919
 31
0.0
  0
LINE
  5
1D5
330
1F
100
AcDbEntity
  8
0
  6
Continuous
 62
     7
370
    25
100
AcDbLine
 10
2165.7755156492
 20
7523.6175547292
 30
0.0
 11
2168.8755156492
 21
7523.6175547292
 31
0.0
  0
LINE
  5
1D6
330
1F
100
AcDbEntity
  8
0
  6
Continuous
 62
     7
370
    25
100
AcDbLine
 10
2168.8755156492
 20
7515.5023004919
 30
0.0
 11
2168.8755156492
 21
7523.6175547292
 31
0.0
  0
LINE
  5
1D7
330
1F
100
AcDbEntity
  8
0
  6
Continuous
 62
     7
370
    25
100
AcDbLine
 10
2167.5255156492
 20
7515.5023004919
 30
0.0
 11
2168.8755156492
 21
7515.5023004919
 31
0.0
  0
SPLINE
  5
1D8
330
1F
100
AcDbEntity
  8
0
  6
Continuous
 62
     7
370
    25
100
AcDbSpline
210
0.0
220
0.0
230
1.0
 70
     8
 71
     3
 72
    17
 73
    13
 74
     0
 42
0.00000001
 43
0.00000001
 40
0.0
 40
0.0
 40
0.0
 40
0.0
 40
0.1051540693508022
 40
0.2102344868678576
 40
0.3172440854754627
 40
0.4257952706368519
 40
0.5321720161210265
 40
0.6360201297611295
 40
0.7409332627859595
 40
0.8487988057246914
 40
0.9569959920694229
 40
1.0
 40
1.0
 40
1.0
 40
1.0
 10
2160.875515649157
 20
7536.563317441017
 30
0.0
 10
2160.902302074537
 20
7536.556481990569
 30
0.0
 10
2160.955856163594
 20
7536.542815877347
 30
0.0
 10
2161.372311998776
 20
7536.447040525063
 30
0.0
 10
2161.992018518969
 20
7536.336789134429
 30
0.0
 10
2162.778943076951
 20
7536.253592662884
 30
0.0
 10
2163.62785364717
 20
7536.238643107131
 30
0.0
 10
2164.435537300816
 20
7536.295216968133
 30
0.0
 10
2165.132886819092
 20
7536.398881790684
 30
0.0
 10
2165.62985509688
 20
7536.502534471316
 30
0.0
 10
2165.879128197359
 20
7536.564189757705
 30
0.0
 10
2165.850387342303
 20
7536.557106876935
 30
0.0
 10
2165.842212989153
 20
7536.555092393767
 30
0.0
  0
LINE
  5
1D9
330
1F
100
AcDbEntity
  8
0
  6
Continuous
 62
     7
370
    25
100
AcDbLine
 10
2169.8755156492
 20
7535.563317441
 30
0.0
 11
2169.8755156492
 21
7523.9056903224
 31
0.0
  0
LWPOLYLINE
  5
1DA
330
1F
100
AcDbEntity
  8
0
  6
Continuous
 62
     7
370
    25
100
AcDbPolyline
 90
        9
 70
   128
 43
0.0
 10
2168.8755156492
 20
7523.6175547292
 10
2169.0706059712
 20
7523.6230911738
 10
2169.2581990815
 20
7523.6394877452
 10
2169.4310858822
 20
7523.6661143324
 10
2169.5826224303
 20
7523.7019476905
 10
2169.7069852615
 20
7523.7456107637
 10
2169.7993951817
 20
7523.7954256046
 10
2169.8563009296
 20
7523.8494778567
 10
2169.8755156492
 20
7523.9056903224
  0
LINE
  5
1DB
330
1F
100
AcDbEntity
  8
0
  6
Continuous
 62
     7
370
    25
100
AcDbLine
 10
2169.8755156492
 20
7523.9056903224
 30
0.0
 11
2169.8755156492
 21
7515.7904360851
 31
0.0
  0
LWPOLYLINE
  5
1DC
330
1F
100
AcDbEntity
  8
0
  6
Continuous
 62
     7
370
    25
100
AcDbPolyline
 90
        9
 70
   128
 43
0.0
 10
2169.8755156492
 20
7515.7904360851
 10
2169.8563009296
 20
7515.7342236194
 10
2169.7993951817
 20
7515.6801713673
 10
2169.7069852615
 20
7515.6303565264
 10
2169.5826224303
 20
7515.5866934532
 10
2169.4310858822
 20
7515.5508600951
 10
2169.2581990815
 20
7515.5242335079
 10
2169.0706059712
 20
7515.5078369365
 10
2168.8755156492
 20
7515.5023004919
  0
LINE
  5
1DD
330
1F
100
AcDbEntity
  8
0
  6
Continuous
 62
     7
370
    25
100
AcDbLine
 10
2167.2755156492
 20
7515.5743343902
 30
0.0
 11
2167.2755156492
 21
7517.8363343157
 31
0.0
  0
LWPOLYLINE
  5
1DE
330
1F
100
AcDbEntity
  8
0
  6
Continuous
 62
     7
370
    25
100
AcDbPolyline
 90
        9
 70
   128
 43
0.0
 10
2167.2755156492
 20
7515.5743343902
 10
2167.2803193291
 20
7515.5602812738
 10
2167.294545766
 20
7515.5467682107
 10
2167.3176482461
 20
7515.5343145005
 10
2167.3487389539
 20
7515.5233987322
 10
2167.3866230909
 20
7515.5144403927
 10
2167.4298447911
 20
7515.5077837459
 10
2167.4767430687
 20
7515.503684603
 10
2167.5255156492
 20
7515.5023004919
  0
LINE
  5
1DF
330
1F
100
AcDbEntity
  8
0
  6
Continuous
 62
     7
370
    25
100
AcDbLine
 10
2167.2755156492
 20
7510.413317441
 30
0.0
 11
2167.2755156492
 21
7515.5743343902
 31
0.0
  0
LINE
  5
1E0
330
1F
100
AcDbEntity
  8
0
  6
Continuous
 62
     7
370
    25
100
AcDbLine
 10
2169.8755156492
 20
7515.7904360851
 30
0.0
 11
2169.8755156492
 21
7511.163317441
 31
0.0
  0
LINE
  5
1E1
330
1F
100
AcDbEntity
  8
0
  6
Continuous
 62
     7
370
    25
100
AcDbLine
 10
2144.4250652469
 20
7512.363317441
 30
0.0
 11
2144.4250652469
 21
7540.663317441
 31
0.0
  0
LINE
  5
1E2
330
1F
100
AcDbEntity
  8
0
  6
Continuous
 62
     7
370
    25
100
AcDbLine
 10
2142.9750652468
 20
7484.513317441
 30
0.0
 11
2142.9750652468
 21
7482.013317441
 31
0.0
  0
LINE
  5
1E3
330
1F
100
AcDbEntity
  8
0
  6
Continuous
 62
     7
370
    25
100
AcDbLine
 10
2142.9750652468
 20
7482.013317441
 30
0.0
 11
2142.9250652468
 21
7482.013317441
 31
0.0
  0
LINE
  5
1E4
330
1F
100
AcDbEntity
  8
0
  6
Continuous
 62
     7
370
    25
100
AcDbLine
 10
2136.7785797674
 20
7493.8145568185
 30
0.0
 11
2136.7785797674
 21
7493.7283650199
 31
0.0
  0
LINE
  5
1E5
330
1F
100
AcDbEntity
  8
0
  6
Continuous
 62
     7
370
    25
100
AcDbLine
 10
2136.7785797674
 20
7494.1958838877
 30
0.0
 11
2136.7785797674
 21
7494.1118722155
 31
0.0
  0
LINE
  5
1E6
330
1F
100
AcDbEntity
  8
0
  6
Continuous
 62
     7
370
    25
100
AcDbLine
 10
2136.7750652468
 20
7492.6831038722
 30
0.0
 11
2136.7864745042
 21
7492.6207133338
 31
0.0
  0
LINE
  5
1E7
330
1F
100
AcDbEntity
  8
0
  6
Continuous
 62
     7
370
    25
100
AcDbLine
 10
2136.7750652468
 20
7493.4455684231
 30
0.0
 11
2136.7785797674
 21
7493.4455684231
 31
0.0
  0
LINE
  5
1E8
330
1F
100
AcDbEntity
  8
0
  6
Continuous
 62
     7
370
    25
100
AcDbLine
 10
2136.7785797674
 20
7493.4455684231
 30
0.0
 11
2136.7785797674
 21
7493.288621191
 31
0.0
  0
LINE
  5
1E9
330
1F
100
AcDbEntity
  8
0
  6
Continuous
 62
     7
370
    25
100
AcDbLine
 10
2136.7750652468
 20
7490.7599811756
 30
0.0
 11
2137.1750652468
 21
7490.7599811756
 31
0.0
  0
LINE
  5
1EA
330
1F
100
AcDbEntity
  8
0
  6
Continuous
 62
     7
370
    25
100
AcDbLine
 10
2137.1750652468
 20
7490.7599811756
 30
0.0
 11
2137.1750652468
 21
7495.878317441
 31
0.0
  0
LINE
  5
1EB
330
1F
100
AcDbEntity
  8
0
  6
Continuous
 62
     7
370
    25
100
AcDbLine
 10
2137.1750652468
 20
7496.0193449674
 30
0.0
 11
2137.1750652468
 21
7496.763317441
 31
0.0
  0
LINE
  5
1EC
330
1F
100
AcDbEntity
  8
0
  6
Continuous
 62
     7
370
    25
100
AcDbLine
 10
2136.7750652468
 20
7492.6819897899
 30
0.0
 11
2136.7864745042
 21
7492.619658671
 31
0.0
  0
LINE
  5
1ED
330
1F
100
AcDbEntity
  8
0
  6
Continuous
 62
     7
370
    25
100
AcDbLine
 10
2136.7750652468
 20
7493.443728184
 30
0.0
 11
2136.7785797674
 21
7493.443728184
 31
0.0
  0
LINE
  5
1EE
330
1F
100
AcDbEntity
  8
0
  6
Continuous
 62
     7
370
    25
100
AcDbLine
 10
2143.9250652468
 20
7497.763317441
 30
0.0
 11
2143.9250652468
 21
7485.263317441
 31
0.0
  0
LINE
  5
1EF
330
1F
100
AcDbEntity
  8
0
  6
Continuous
 62
     7
370
    25
100
AcDbLine
 10
2143.1750652468
 20
7484.513317441
 30
0.0
 11
2143.1750652468
 21
7498.513317441
 31
0.0
  0
SPLINE
  5
1F0
330
1F
100
AcDbEntity
  8
0
  6
Continuous
 62
     7
370
    25
100
AcDbSpline
210
0.0
220
0.0
230
1.0
 70
     8
 71
     3
 72
    11
 73
     7
 74
     0
 42
0.00000001
 43
0.00000001
 40
0.0
 40
0.0
 40
0.0
 40
0.0
 40
0.2469928338436495
 40
0.4979688192079366
 40
0.7514443222268051
 40
1.0
 40
1.0
 40
1.0
 40
1.0
 10
2137.231474927325
 20
7488.420392058082
 30
0.0
 10
2137.240322564475
 20
7488.114684875205
 30
0.0
 10
2137.25816052097
 20
7487.498340495848
 30
0.0
 10
2137.28618161076
 20
7486.834891022517
 30
0.0
 10
2137.315276937672
 20
7486.394606661254
 30
0.0
 10
2137.333497376789
 20
7486.340412675614
 30
0.0
 10
2137.342518317654
 20
7486.313581228988
 30
0.0
  0
SPLINE
  5
1F1
330
1F
100
AcDbEntity
  8
0
  6
Continuous
 62
     7
370
    25
100
AcDbSpline
210
0.0
220
0.0
230
1.0
 70
     8
 71
     3
 72
    11
 73
     7
 74
     0
 42
0.00000001
 43
0.00000001
 40
0.0
 40
0.0
 40
0.0
 40
0.0
 40
0.0851701462107368
 40
0.4428542844873852
 40
0.7942687666321482
 40
0.9999999999999999
 40
0.9999999999999999
 40
0.9999999999999999
 40
0.9999999999999999
 10
2137.417290564833
 20
7486.444658175986
 30
0.0
 10
2137.414809118371
 20
7486.455569577292
 30
0.0
 10
2137.401906484683
 20
7486.512304959739
 30
0.0
 10
2137.377038178745
 20
7486.967348534017
 30
0.0
 10
2137.350666060304
 20
7487.659593809984
 30
0.0
 10
2137.334594397244
 20
7488.217806655685
 30
0.0
 10
2137.328659786295
 20
7488.423931936793
 30
0.0
  0
SPLINE
  5
1F2
330
1F
100
AcDbEntity
  8
0
  6
Continuous
 62
     7
370
    25
100
AcDbSpline
210
0.0
220
0.0
230
1.0
 70
     8
 71
     3
 72
    11
 73
     7
 74
     0
 42
0.00000001
 43
0.00000001
 40
0.0
 40
0.0
 40
0.0
 40
0.0
 40
0.0992557313197907
 40
0.4030927578268944
 40
0.7039336423515925
 40
1.0
 40
1.0
 40
1.0
 40
1.0
 10
2137.425065246844
 20
7486.375600376027
 30
0.0
 10
2137.421981291158
 20
7486.399360119465
 30
0.0
 10
2137.409456873815
 20
7486.495852084015
 30
0.0
 10
2137.386814404119
 20
7486.833294695222
 30
0.0
 10
2137.358777088162
 20
7487.498731720926
 30
0.0
 10
2137.340941260969
 20
7488.114815391057
 30
0.0
 10
2137.33209467976
 20
7488.420393268717
 30
0.0
  0
LINE
  5
1F3
330
1F
100
AcDbEntity
  8
0
  6
Continuous
 62
     7
370
    25
100
AcDbLine
 10
2137.3320946798
 20
7488.4203932687
 30
0.0
 11
2137.2314749273
 21
7488.4203932687
 31
0.0
  0
ARC
  5
1F4
330
1F
100
AcDbEntity
  8
0
  6
Continuous
 62
     7
370
    25
100
AcDbCircle
 10
2137.9250652468
 20
7552.513317441
 30
0.0
 40
5.0
100
AcDbArc
 50
0.0
 51
90.0
  0
LINE
  5
1F5
330
1F
100
AcDbEntity
  8
0
  6
Continuous
 62
     7
370
    25
100
AcDbLine
 10
2137.9250652468
 20
7552.513317441
 30
0.0
 11
2142.9250652468
 21
7552.513317441
 31
0.0
  0
LINE
  5
1F6
330
1F
100
AcDbEntity
  8
0
  6
Continuous
 62
     7
370
    25
100
AcDbLine
 10
2137.9250652468
 20
7557.513317441
 30
0.0
 11
2137.9250652468
 21
7552.513317441
 31
0.0
  0
ARC
  5
1F7
330
1F
100
AcDbEntity
  8
0
  6
Continuous
 62
     7
370
    25
100
AcDbCircle
 10
2137.9250652468
 20
7477.513317441
 30
0.0
 40
5.0
100
AcDbArc
 50
270.0
 51
0.0
  0
LINE
  5
1F8
330
1F
100
AcDbEntity
  8
0
  6
Continuous
 62
     7
370
    25
100
AcDbLine
 10
2137.9250652468
 20
7477.513317441
 30
0.0
 11
2142.9250652468
 21
7477.513317441
 31
0.0
  0
LINE
  5
1F9
330
1F
100
AcDbEntity
  8
0
  6
Continuous
 62
     7
370
    25
100
AcDbLine
 10
2137.9250652468
 20
7477.513317441
 30
0.0
 11
2137.9250652468
 21
7472.513317441
 31
0.0
  0
LINE
  5
1FA
330
1F
100
AcDbEntity
  8
0
  6
Continuous
 62
     7
370
    25
100
AcDbLine
 10
2142.9250652468
 20
7552.513317441
 30
0.0
 11
2142.9250652468
 21
7477.513317441
 31
0.0
  0
LINE
  5
1FB
330
1F
100
AcDbEntity
  8
0
  6
Continuous
 62
     7
370
    25
100
AcDbLine
 10
2137.9250652468
 20
7552.513317441
 30
0.0
 11
2137.9250652468
 21
7477.513317441
 31
0.0
  0
LINE
  5
1FC
330
1F
100
AcDbEntity
  8
0
  6
Continuous
 62
     7
370
    25
100
AcDbLine
 10
2129.6750652468
 20
7476.813317441
 30
0.0
 11
2125.6750652468
 21
7476.813317441
 31
0.0
  0
LINE
  5
1FD
330
1F
100
AcDbEntity
  8
0
  6
Continuous
 62
     7
370
    25
100
AcDbLine
 10
2136.7750652468
 20
7539.328317441
 30
0.0
 11
2137.4250652468
 21
7539.328317441
 31
0.0
  0
LINE
  5
1FE
330
1F
100
AcDbEntity
  8
0
  6
Continuous
 62
     7
370
    25
100
AcDbLine
 10
2136.7750652468
 20
7533.078317441
 30
0.0
 11
2137.4250652468
 21
7533.078317441
 31
0.0
  0
LINE
  5
1FF
330
1F
100
AcDbEntity
  8
0
  6
Continuous
 62
     7
370
    25
100
AcDbLine
 10
2137.3750652468
 20
7515.3049841077
 30
0.0
 11
2137.2750652468
 21
7515.3049841077
 31
0.0
  0
ELLIPSE
  5
200
330
1F
100
AcDbEntity
  8
0
  6
Continuous
 62
     7
370
    25
100
AcDbEllipse
 10
2133.6500652468
 20
7515.3049841077
 30
0.0
 11
0.0
 21
6.214285714286234
 31
0.0
210
0.0
220
0.0
230
1.0
 40
0.5833333333
 41
4.712388980384698
 42
4.956175918853029
  0
LINE
  5
201
330
1F
100
AcDbEntity
  8
0
  6
Continuous
 62
     7
370
    25
100
AcDbLine
 10
2137.1678770667
 20
7516.8049841077
 30
0.0
 11
2137.2750652468
 21
7516.8049841077
 31
0.0
  0
LINE
  5
202
330
1F
100
AcDbEntity
  8
0
  6
Continuous
 62
     7
370
    25
100
AcDbLine
 10
2137.2750652468
 20
7516.8049841077
 30
0.0
 11
2137.2750652468
 21
7516.7746779534
 31
0.0
  0
ELLIPSE
  5
203
330
1F
100
AcDbEntity
  8
0
  6
Continuous
 62
     7
370
    25
100
AcDbEllipse
 10
2133.6500652468
 20
7515.3049841077
 30
0.0
 11
0.0
 21
6.38571428571413
 31
0.0
210
0.0
220
0.0
230
1.0
 40
0.5833333333
 41
4.712388980384698
 42
4.944624290647649
  0
ELLIPSE
  5
204
330
1F
100
AcDbEntity
  8
0
  6
Continuous
 62
     7
370
    25
100
AcDbEllipse
 10
2133.6500652468
 20
7512.013317441
 30
0.0
 11
4.547473508864641E-13
 21
43.49999999999909
 31
0.0
210
0.0
220
0.0
230
1.0
 40
0.0833333333
 41
4.822766224096856
 42
4.885668616802223
  0
ELLIPSE
  5
205
330
1F
100
AcDbEntity
  8
0
  6
Continuous
 62
     7
370
    25
100
AcDbEllipse
 10
2133.6500652468
 20
7512.013317441
 30
0.0
 11
4.547473508864641E-13
 21
44.69999999999891
 31
0.0
210
0.0
220
0.0
230
1.0
 40
0.0833333333
 41
4.813230946486229
 42
4.880971603876488
  0
LINE
  5
206
330
1F
100
AcDbEntity
  8
0
  6
Continuous
 62
     7
370
    25
100
AcDbLine
 10
2137.3750652468
 20
7519.513317441
 30
0.0
 11
2137.3222580522
 21
7519.513317441
 31
0.0
  0
ELLIPSE
  5
207
330
1F
100
AcDbEntity
  8
0
  6
Continuous
 62
     7
370
    25
100
AcDbEllipse
 10
2133.6500652468
 20
7516.294567441
 30
0.0
 11
3.724999999999909
 21
0.0
 31
0.0
210
0.0
220
0.0
230
1.0
 40
0.5833333333
 41
0.1008419661015433
 42
0.2322353102624468
  0
LINE
  5
208
330
1F
100
AcDbEntity
  8
0
  6
Continuous
 62
     7
370
    25
100
AcDbLine
 10
2137.3222580522
 20
7519.513317441
 30
0.0
 11
2137.2207794611
 21
7519.513317441
 31
0.0
  0
ARC
  5
209
330
1F
100
AcDbEntity
  8
0
  6
Continuous
 62
     7
370
    25
100
AcDbCircle
 10
2137.0529611273
 20
7526.9452201238
 30
0.0
 40
0.2504706733825878
100
AcDbArc
 50
153.7829470077
 51
266.94888565
  0
LWPOLYLINE
  5
20A
330
1F
100
AcDbEntity
  8
0
  6
Continuous
 62
     7
370
    25
100
AcDbPolyline
 90
        9
 70
   128
 43
0.0
 10
2137.0250652468
 20
7527.9442064927
 10
2137.0736716582
 20
7527.9165448402
 10
2137.1198147341
 20
7527.8847837554
 10
2137.1611559793
 20
7527.8505328657
 10
2137.1956002513
 20
7527.8155279795
 10
2137.221401941
 20
7527.7815431176
 10
2137.2372534388
 20
7527.7503006064
 10
2137.2423514029
 20
7527.7233837922
 10
2137.2364374726
 20
7527.7021567985
  0
LINE
  5
20B
330
1F
100
AcDbEntity
  8
0
  6
Continuous
 62
     7
370
    25
100
AcDbLine
 10
2137.2364374726
 20
7527.7021567985
 30
0.0
 11
2136.8282571425
 21
7527.0558712758
 31
0.0
  0
LINE
  5
20C
330
1F
100
AcDbEntity
  8
0
  6
Continuous
 62
     7
370
    25
100
AcDbLine
 10
2137.0250652468
 20
7527.9442064927
 30
0.0
 11
2137.0250652468
 21
7531.5088393482
 31
0.0
  0
LWPOLYLINE
  5
20D
330
1F
100
AcDbEntity
  8
0
  6
Continuous
 62
     7
370
    25
100
AcDbPolyline
 90
        9
 70
   128
 43
0.0
 10
2137.0250652468
 20
7527.9442064927
 10
2137.0738378273
 20
7527.9421207071
 10
2137.1207361049
 20
7527.9359435058
 10
2137.1639578051
 20
7527.9259122753
 10
2137.2018419421
 20
7527.9124125101
 10
2137.2329326499
 20
7527.8959629987
 10
2137.25603513
 20
7527.8771958864
 10
2137.2702615669
 20
7527.8568323829
 10
2137.2750652468
 20
7527.8356550463
  0
ARC
  5
20E
330
1F
100
AcDbEntity
  8
0
  6
Continuous
 62
     7
370
    25
100
AcDbCircle
 10
2137.0250652468
 20
7527.8356550463
 30
0.0
 40
0.2500000000002213
100
AcDbArc
 50
327.7243556853
 51
0.0
  0
SPLINE
  5
20F
330
1F
100
AcDbEntity
  8
0
  6
Continuous
 62
     7
370
    25
100
AcDbSpline
210
0.0
220
0.0
230
1.0
 70
     8
 71
     3
 72
    13
 73
     9
 74
     0
 42
0.00000001
 43
0.00000001
 40
0.0
 40
0.0
 40
0.0
 40
0.0
 40
0.0262433500488195
 40
0.0549912763526355
 40
0.1238779958115507
 40
0.3220440563008736
 40
0.6126436839132581
 40
1.0
 40
1.0
 40
1.0
 40
1.0
 10
2137.025065246844
 20
7531.508839348218
 30
0.0
 10
2137.026045359958
 20
7531.50923901865
 30
0.0
 10
2137.028099124854
 20
7531.510076502704
 30
0.0
 10
2137.0345377857
 20
7531.511430861563
 30
0.0
 10
2137.052690261787
 20
7531.512897715042
 30
0.0
 10
2137.090053367733
 20
7531.50859284277
 30
0.0
 10
2137.146505640354
 20
7531.489334033772
 30
0.0
 10
2137.181714321373
 20
7531.459840843557
 30
0.0
 10
2137.201831122621
 20
7531.442989640145
 30
0.0
  0
SPLINE
  5
210
330
1F
100
AcDbEntity
  8
0
  6
Continuous
 62
     7
370
    25
100
AcDbSpline
210
0.0
220
0.0
230
1.0
 70
     8
 71
     3
 72
    11
 73
     7
 74
     0
 42
0.00000001
 43
0.00000001
 40
0.0
 40
0.0
 40
0.0
 40
0.0
 40
0.2500179487530247
 40
0.5000246296583488
 40
0.7500188711046182
 40
1.0
 40
1.0
 40
1.0
 40
1.0
 10
2137.201831122621
 20
7531.442989640145
 30
0.0
 10
2137.212754157019
 20
7531.430833232684
 30
0.0
 10
2137.234599733535
 20
7531.406520965627
 30
0.0
 10
2137.257324294047
 20
7531.363128383703
 30
0.0
 10
2137.272293512297
 20
7531.316654931401
 30
0.0
 10
2137.274141351483
 20
7531.284394336951
 30
0.0
 10
2137.275065246844
 20
7531.268264462767
 30
0.0
  0
LINE
  5
211
330
1F
100
AcDbEntity
  8
0
  6
Continuous
 62
     7
370
    25
100
AcDbLine
 10
2137.2750652468
 20
7531.2682644628
 30
0.0
 11
2137.2750652468
 21
7527.8356550463
 31
0.0
  0
LINE
  5
212
330
1F
100
AcDbEntity
  8
0
  6
Continuous
 62
     7
370
    25
100
AcDbLine
 10
2136.7750652468
 20
7512.2015354633
 30
0.0
 11
2137.3210002468
 21
7512.2015354633
 31
0.0
  0
LINE
  5
213
330
1F
100
AcDbEntity
  8
0
  6
Continuous
 62
     7
370
    25
100
AcDbLine
 10
2136.7750652468
 20
7511.9930031553
 30
0.0
 11
2137.4250652468
 21
7511.9930031553
 31
0.0
  0
LINE
  5
214
330
1F
100
AcDbEntity
  8
0
  6
Continuous
 62
     7
370
    25
100
AcDbLine
 10
2136.7750652468
 20
7511.3316960124
 30
0.0
 11
2137.4250652468
 21
7511.3316960124
 31
0.0
  0
LINE
  5
215
330
1F
100
AcDbEntity
  8
0
  6
Continuous
 62
     7
370
    25
100
AcDbLine
 10
2136.7750652468
 20
7511.7844708473
 30
0.0
 11
2137.3210002468
 21
7511.7844708473
 31
0.0
  0
LINE
  5
216
330
1F
100
AcDbEntity
  8
0
  6
Continuous
 62
     7
370
    25
100
AcDbLine
 10
2136.7750652468
 20
7511.5402283204
 30
0.0
 11
2137.3210002468
 21
7511.5402283204
 31
0.0
  0
LINE
  5
217
330
1F
100
AcDbEntity
  8
0
  6
Continuous
 62
     7
370
    25
100
AcDbLine
 10
2137.4250652468
 20
7513.315617441
 30
0.0
 11
2136.7750652468
 21
7513.315617441
 31
0.0
  0
LINE
  5
218
330
1F
100
AcDbEntity
  8
0
  6
Continuous
 62
     7
370
    25
100
AcDbLine
 10
2137.4250652468
 20
7513.328317441
 30
0.0
 11
2136.7750652468
 21
7513.328317441
 31
0.0
  0
LINE
  5
219
330
1F
100
AcDbEntity
  8
0
  6
Continuous
 62
     7
370
    25
100
AcDbLine
 10
2136.7750652468
 20
7512.6543102982
 30
0.0
 11
2137.4250652468
 21
7512.6543102982
 31
0.0
  0
LINE
  5
21A
330
1F
100
AcDbEntity
  8
0
  6
Continuous
 62
     7
370
    25
100
AcDbLine
 10
2136.7750652468
 20
7512.4457779902
 30
0.0
 11
2137.3210002468
 21
7512.4457779902
 31
0.0
  0
LINE
  5
21B
330
1F
100
AcDbEntity
  8
0
  6
Continuous
 62
     7
370
    25
100
AcDbLine
 10
2137.3210002468
 20
7513.107085133
 30
0.0
 11
2136.7750652468
 21
7513.107085133
 31
0.0
  0
LINE
  5
21C
330
1F
100
AcDbEntity
  8
0
  6
Continuous
 62
     7
370
    25
100
AcDbLine
 10
2136.7750652468
 20
7512.8628426062
 30
0.0
 11
2137.3210002468
 21
7512.8628426062
 31
0.0
  0
SPLINE
  5
21D
330
1F
100
AcDbEntity
  8
0
  6
Continuous
 62
     7
370
    25
100
AcDbSpline
210
0.0
220
0.0
230
1.0
 70
     8
 71
     3
 72
     9
 73
     5
 74
     0
 42
0.00000001
 43
0.00000001
 40
0.0
 40
0.0
 40
0.0
 40
0.0
 40
0.4996711435634027
 40
1.0
 40
1.0
 40
1.0
 40
1.0
 10
2136.807323311361
 20
7531.749414233669
 30
0.0
 10
2136.81451924836
 20
7531.720675433936
 30
0.0
 10
2136.82892059431
 20
7531.66316000583
 30
0.0
 10
2136.868048685311
 20
7531.616546594475
 30
0.0
 10
2136.887625598337
 20
7531.593224559678
 30
0.0
  0
SPLINE
  5
21E
330
1F
100
AcDbEntity
  8
0
  6
Continuous
 62
     7
370
    25
100
AcDbSpline
210
0.0
220
0.0
230
1.0
 70
     8
 71
     3
 72
    13
 73
     9
 74
     0
 42
0.00000001
 43
0.00000001
 40
0.0
 40
0.0
 40
0.0
 40
0.0
 40
0.3883146229040051
 40
0.6795327264512727
 40
0.8774125664208228
 40
0.9457399648064403
 40
0.9741313528008728
 40
1.0
 40
1.0
 40
1.0
 40
1.0
 10
2136.887625598337
 20
7531.593224559678
 30
0.0
 10
2136.905648366686
 20
7531.577511140608
 30
0.0
 10
2136.937187382197
 20
7531.550013380103
 30
0.0
 10
2136.983036027846
 20
7531.527182782283
 30
0.0
 10
2137.011034344275
 20
7531.516960796496
 30
0.0
 10
2137.021882512476
 20
7531.512219645924
 30
0.0
 10
2137.024661377431
 20
7531.510189091737
 30
0.0
 10
2137.02493486213
 20
7531.509275097788
 30
0.0
 10
2137.025065246844
 20
7531.508839348218
 30
0.0
  0
SPLINE
  5
21F
330
1F
100
AcDbEntity
  8
0
  6
Continuous
 62
     7
370
    25
100
AcDbSpline
210
0.0
220
0.0
230
1.0
 70
     8
 71
     3
 72
     9
 73
     5
 74
     0
 42
0.00000001
 43
0.00000001
 40
0.0
 40
0.0
 40
0.0
 40
0.0
 40
0.4872389324931388
 40
0.9999999999999999
 40
0.9999999999999999
 40
0.9999999999999999
 40
0.9999999999999999
 10
2137.275065246844
 20
7532.002680007819
 30
0.0
 10
2137.254650573626
 20
7531.991084050367
 30
0.0
 10
2137.212751883154
 20
7531.96728472589
 30
0.0
 10
2136.944746194416
 20
7531.82326297857
 30
0.0
 10
2136.807323311361
 20
7531.749414233669
 30
0.0
  0
LINE
  5
220
330
1F
100
AcDbEntity
  8
0
  6
Continuous
 62
     7
370
    25
100
AcDbLine
 10
2137.2412836217
 20
7527.6490877402
 30
0.0
 11
2137.2027939273
 21
7527.5686585506
 31
0.0
  0
SPLINE
  5
221
330
1F
100
AcDbEntity
  8
0
  6
Continuous
 62
     7
370
    25
100
AcDbSpline
210
0.0
220
0.0
230
1.0
 70
     8
 71
     3
 72
    11
 73
     7
 74
     0
 42
0.00000001
 43
0.00000001
 40
0.0
 40
0.0
 40
0.0
 40
0.0
 40
0.0173256954859394
 40
0.2232113989207611
 40
0.4284347118891871
 40
1.0
 40
1.0
 40
1.0
 40
1.0
 10
2137.275065246844
 20
7527.763317441016
 30
0.0
 10
2137.275062990247
 20
7527.763000727696
 30
0.0
 10
2137.275033917918
 20
7527.758920428379
 30
0.0
 10
2137.273755154297
 20
7527.748998024515
 30
0.0
 10
2137.266646259788
 20
7527.719066909928
 30
0.0
 10
2137.252034807773
 20
7527.678751810293
 30
0.0
 10
2137.241283621711
 20
7527.649087740164
 30
0.0
  0
ARC
  5
222
330
1F
100
AcDbEntity
  8
0
  6
Continuous
 62
     7
370
    25
100
AcDbCircle
 10
2137.4255170669
 20
7527.5835174657
 30
0.0
 40
0.2232182435721177
100
AcDbArc
 50
147.893492699
 51
183.8168166994
  0
SPLINE
  5
223
330
1F
100
AcDbEntity
  8
0
  6
Continuous
 62
     7
370
    25
100
AcDbSpline
210
0.0
220
0.0
230
1.0
 70
     8
 71
     3
 72
     9
 73
     5
 74
     0
 42
0.00000001
 43
0.00000001
 40
0.0
 40
0.0
 40
0.0
 40
0.0
 40
0.5579817945757534
 40
1.0
 40
1.0
 40
1.0
 40
1.0
 10
2137.201831122621
 20
7531.442989640145
 30
0.0
 10
2137.217836241816
 20
7531.524355112585
 30
0.0
 10
2137.246520186975
 20
7531.670176129023
 30
0.0
 10
2137.266046099413
 20
7531.748549101235
 30
0.0
 10
2137.274676908188
 20
7531.783191381766
 30
0.0
  0
SPLINE
  5
224
330
1F
100
AcDbEntity
  8
0
  6
Continuous
 62
     7
370
    25
100
AcDbSpline
210
0.0
220
0.0
230
1.0
 70
     8
 71
     3
 72
     9
 73
     5
 74
     0
 42
0.00000001
 43
0.00000001
 40
0.0
 40
0.0
 40
0.0
 40
0.0
 40
0.5602791808350718
 40
1.0
 40
1.0
 40
1.0
 40
1.0
 10
2136.887625598337
 20
7531.593224559678
 30
0.0
 10
2137.01615776704
 20
7531.674096702956
 30
0.0
 10
2137.245565128761
 20
7531.81843928438
 30
0.0
 10
2137.265785562501
 20
7531.793956827682
 30
0.0
 10
2137.274676908188
 20
7531.783191381766
 30
0.0
  0
SPLINE
  5
225
330
1F
100
AcDbEntity
  8
0
  6
Continuous
 62
     7
370
    25
100
AcDbSpline
210
0.0
220
0.0
230
1.0
 70
    24
 71
     3
 72
     9
 73
     5
 74
     0
 42
0.00000001
 43
0.00000001
 40
0.0
 40
0.0
 40
0.0
 40
0.0
 40
0.667472356625535
 40
1.0
 40
1.0
 40
1.0
 40
1.0
 10
2137.275065246844
 20
7531.268264462767
 30
0.0
 10
2137.275065246844
 20
7531.343576093101
 30
0.0
 10
2137.275065246844
 20
7531.456407178294
 30
0.0
 10
2137.275065246844
 20
7531.477215796799
 30
0.0
 10
2137.275065246844
 20
7531.484135237672
 30
0.0
  0
SPLINE
  5
226
330
1F
100
AcDbEntity
  8
0
  6
Continuous
 62
     7
370
    25
100
AcDbSpline
210
0.0
220
0.0
230
1.0
 70
     8
 71
     3
 72
     9
 73
     5
 74
     0
 42
0.00000001
 43
0.00000001
 40
0.0
 40
0.0
 40
0.0
 40
0.0
 40
0.5171329566019385
 40
0.9999999999999999
 40
0.9999999999999999
 40
0.9999999999999999
 40
0.9999999999999999
 10
2137.275065246844
 20
7532.002680007819
 30
0.0
 10
2137.274339588053
 20
7531.964845974225
 30
0.0
 10
2137.27293635358
 20
7531.891684840106
 30
0.0
 10
2137.274110130161
 20
7531.818520183286
 30
0.0
 10
2137.274676908188
 20
7531.783191381766
 30
0.0
  0
ARC
  5
227
330
1F
100
AcDbEntity
  8
0
  6
Continuous
 62
     7
370
    25
100
AcDbCircle
 10
2137.4632891982
 20
7527.6596290133
 30
0.0
 40
0.2222556960697788
100
AcDbArc
 50
158.1434143939
 51
182.7184775769
  0
SPLINE
  5
228
330
1F
100
AcDbEntity
  8
0
  6
Continuous
 62
     7
370
    25
100
AcDbSpline
210
0.0
220
0.0
230
1.0
 70
     8
 71
     3
 72
    11
 73
     7
 74
     0
 42
0.00000001
 43
0.00000001
 40
0.0
 40
0.0
 40
0.0
 40
0.0
 40
0.5634018159145802
 40
0.876264556395594
 40
0.9828590626747281
 40
1.0
 40
1.0
 40
1.0
 40
1.0
 10
2137.257009550652
 20
7527.742371393238
 30
0.0
 10
2137.262602059246
 20
7527.754450104821
 30
0.0
 10
2137.271300144562
 20
7527.773236247405
 30
0.0
 10
2137.27462795675
 20
7527.769797174976
 30
0.0
 10
2137.275055222689
 20
7527.765192662426
 30
0.0
 10
2137.275064027169
 20
7527.763545605968
 30
0.0
 10
2137.275065246844
 20
7527.763317441016
 30
0.0
  0
LINE
  5
229
330
1F
100
AcDbEntity
  8
0
  6
Continuous
 62
     7
370
    25
100
AcDbLine
 10
2149.3755156492
 20
7517.7775470668
 30
0.0
 11
2149.3755156492
 21
7538.138317441
 31
0.0
  0
LINE
  5
22A
330
1F
100
AcDbEntity
  8
0
  6
Continuous
 62
     7
370
    25
100
AcDbLine
 10
2149.3755156492
 20
7514.888317441
 30
0.0
 11
2149.3755156492
 21
7517.7775470668
 31
0.0
  0
LINE
  5
22B
330
1F
100
AcDbEntity
  8
0
  6
Continuous
 62
     7
370
    25
100
AcDbLine
 10
2137.409330935
 20
7515.8090019884
 30
0.0
 11
2137.4250652468
 21
7515.6672532032
 31
0.0
  0
LINE
  5
22C
330
1F
100
AcDbEntity
  8
0
  6
Continuous
 62
     7
370
    25
100
AcDbLine
 10
2137.3750652468
 20
7515.9360424771
 30
0.0
 11
2137.409330935
 21
7515.8090019884
 31
0.0
  0
LINE
  5
22D
330
1F
100
AcDbEntity
  8
0
  6
Continuous
 62
     7
370
    25
100
AcDbLine
 10
2137.4250652468
 20
7514.9337832687
 30
0.0
 11
2137.2750652468
 21
7514.8488682665
 31
0.0
  0
LINE
  5
22E
330
1F
100
AcDbEntity
  8
0
  6
Continuous
 62
     7
370
    25
100
AcDbLine
 10
2109.2750652468
 20
7559.6190714713
 30
0.0
 11
2098.2750652468
 21
7559.6190714713
 31
0.0
  0
LINE
  5
22F
330
1F
100
AcDbEntity
  8
0
  6
Continuous
 62
     7
370
    25
100
AcDbLine
 10
2109.2750652468
 20
7557.25811813
 30
0.0
 11
2098.2750652468
 21
7557.25811813
 31
0.0
  0
LINE
  5
230
330
1F
100
AcDbEntity
  8
0
  6
Continuous
 62
     7
370
    25
100
AcDbLine
 10
2103.7750652468
 20
7553.763317441
 30
0.0
 11
2103.7750652468
 21
7555.763317441
 31
0.0
  0
LINE
  5
231
330
1F
100
AcDbEntity
  8
0
  6
Continuous
 62
     7
370
    25
100
AcDbLine
 10
2098.5250652468
 20
7553.763317441
 30
0.0
 11
2098.5250652468
 21
7555.763317441
 31
0.0
  0
LINE
  5
232
330
1F
100
AcDbEntity
  8
0
  6
Continuous
 62
     7
370
    25
100
AcDbLine
 10
2101.1500652468
 20
7555.763317441
 30
0.0
 11
2098.5250652468
 21
7555.763317441
 31
0.0
  0
LINE
  5
233
330
1F
100
AcDbEntity
  8
0
  6
Continuous
 62
     7
370
    25
100
AcDbLine
 10
2103.7750652468
 20
7555.763317441
 30
0.0
 11
2101.1500652468
 21
7555.763317441
 31
0.0
  0
LINE
  5
234
330
1F
100
AcDbEntity
  8
0
  6
Continuous
 62
     7
370
    25
100
AcDbLine
 10
2106.4000652468
 20
7560.513317441
 30
0.0
 11
2098.5250652468
 21
7560.513317441
 31
0.0
  0
LINE
  5
235
330
1F
100
AcDbEntity
  8
0
  6
Continuous
 62
     7
370
    25
100
AcDbLine
 10
2109.0250652468
 20
7560.513317441
 30
0.0
 11
2106.4000652468
 21
7560.513317441
 31
0.0
  0
LINE
  5
236
330
1F
100
AcDbEntity
  8
0
  6
Continuous
 62
     7
370
    25
100
AcDbLine
 10
2106.1500652468
 20
7561.013317441
 30
0.0
 11
2108.5250652468
 21
7561.013317441
 31
0.0
  0
LINE
  5
237
330
1F
100
AcDbEntity
  8
0
  6
Continuous
 62
     7
370
    25
100
AcDbLine
 10
2099.0250652468
 20
7561.013317441
 30
0.0
 11
2106.1500652468
 21
7561.013317441
 31
0.0
  0
LINE
  5
238
330
1F
100
AcDbEntity
  8
0
  6
Continuous
 62
     7
370
    25
100
AcDbLine
 10
2109.0250652468
 20
7553.763317441
 30
0.0
 11
2109.0250652468
 21
7555.763317441
 31
0.0
  0
LINE
  5
239
330
1F
100
AcDbEntity
  8
0
  6
Continuous
 62
     7
370
    25
100
AcDbLine
 10
2109.0250652468
 20
7555.763317441
 30
0.0
 11
2106.4000652468
 21
7555.763317441
 31
0.0
  0
LINE
  5
23A
330
1F
100
AcDbEntity
  8
0
  6
Continuous
 62
     7
370
    25
100
AcDbLine
 10
2106.4000652468
 20
7555.763317441
 30
0.0
 11
2103.7750652468
 21
7555.763317441
 31
0.0
  0
LINE
  5
23B
330
1F
100
AcDbEntity
  8
0
  6
Continuous
 62
     7
370
    25
100
AcDbLine
 10
2136.7750652468
 20
7505.328317441
 30
0.0
 11
2137.4250652468
 21
7505.328317441
 31
0.0
  0
LINE
  5
23C
330
1F
100
AcDbEntity
  8
0
  6
Continuous
 62
     7
370
    25
100
AcDbLine
 10
2136.7750652468
 20
7511.328317441
 30
0.0
 11
2137.4250652468
 21
7511.328317441
 31
0.0
  0
LINE
  5
23D
330
1F
100
AcDbEntity
  8
0
  6
Continuous
 62
     7
370
    25
100
AcDbLine
 10
2136.7750652468
 20
7495.878317441
 30
0.0
 11
2137.4000652468
 21
7495.878317441
 31
0.0
  0
LINE
  5
23E
330
1F
100
AcDbEntity
  8
0
  6
Continuous
 62
     7
370
    25
100
AcDbLine
 10
2136.9000467281
 20
7495.8675191699
 30
0.0
 11
2136.8967326182
 21
7495.878317441
 31
0.0
  0
LINE
  5
23F
330
1F
100
AcDbEntity
  8
0
  6
Continuous
 62
     7
370
    25
100
AcDbLine
 10
2101.5534286335
 20
7476.763317441
 30
0.0
 11
2101.5534286335
 21
7477.1168708316
 31
0.0
  0
LINE
  5
240
330
1F
100
AcDbEntity
  8
0
  6
Continuous
 62
     7
370
    25
100
AcDbLine
 10
2098.930850622
 20
7476.763317441
 30
0.0
 11
2098.930850622
 21
7477.1168708316
 31
0.0
  0
LINE
  5
241
330
1F
100
AcDbEntity
  8
0
  6
Continuous
 62
     7
370
    25
100
AcDbLine
 10
2106.3976432583
 20
7476.763317441
 30
0.0
 11
2106.3976432583
 21
7477.1168708316
 31
0.0
  0
LINE
  5
242
330
1F
100
AcDbEntity
  8
0
  6
Continuous
 62
     7
370
    25
100
AcDbLine
 10
2108.6192798717
 20
7476.763317441
 30
0.0
 11
2108.6192798717
 21
7477.1168708316
 31
0.0
  0
LINE
  5
243
330
1F
100
AcDbEntity
  8
0
  6
Continuous
 62
     7
370
    25
100
AcDbLine
 10
2106.0198689143
 20
7476.263317441
 30
0.0
 11
2104.5769166406
 21
7475.763317441
 31
0.0
  0
LINE
  5
244
330
1F
100
AcDbEntity
  8
0
  6
Continuous
 62
     7
370
    25
100
AcDbLine
 10
2102.9732138531
 20
7475.763317441
 30
0.0
 11
2104.5769166406
 21
7475.763317441
 31
0.0
  0
SPLINE
  5
245
330
1F
100
AcDbEntity
  8
0
  6
Continuous
 62
     7
370
    25
100
AcDbSpline
210
0.0
220
0.0
230
1.0
 70
     8
 71
     3
 72
     9
 73
     5
 74
     0
 42
0.00000001
 43
0.00000001
 40
0.0
 40
0.0
 40
0.0
 40
0.0
 40
0.7850241086892614
 40
1.0
 40
1.0
 40
1.0
 40
1.0
 10
2102.973213853122
 20
7475.763317441022
 30
0.0
 10
2102.601933191462
 20
7475.921228037838
 30
0.0
 10
2102.128978720954
 20
7476.122381856004
 30
0.0
 10
2101.636197632957
 20
7476.238380523982
 30
0.0
 10
2101.530261579344
 20
7476.263317441022
 30
0.0
  0
LINE
  5
246
330
1F
100
AcDbEntity
  8
0
  6
Continuous
 62
     7
370
    25
100
AcDbLine
 10
2104.5769166406
 20
7471.5519925756
 30
0.0
 11
2106.0198689143
 21
7471.263317441
 31
0.0
  0
LINE
  5
247
330
1F
100
AcDbEntity
  8
0
  6
Continuous
 62
     7
370
    25
100
AcDbLine
 10
2101.5302615793
 20
7471.263317441
 30
0.0
 11
2106.0198689143
 21
7471.263317441
 31
0.0
  0
SPLINE
  5
248
330
1F
100
AcDbEntity
  8
0
  6
Continuous
 62
     7
370
    25
100
AcDbSpline
210
0.0
220
0.0
230
1.0
 70
     8
 71
     3
 72
     9
 73
     5
 74
     0
 42
0.00000001
 43
0.00000001
 40
0.0
 40
0.0
 40
0.0
 40
0.0
 40
0.1109049059610148
 40
1.0
 40
1.0
 40
1.0
 40
1.0
 10
2101.530261579344
 20
7471.263317441022
 30
0.0
 10
2101.584069818615
 20
7471.270377127625
 30
0.0
 10
2102.069244381496
 20
7471.33403244153
 30
0.0
 10
2102.547764215928
 20
7471.449410505225
 30
0.0
 10
2102.973213853122
 20
7471.551992575617
 30
0.0
  0
LINE
  5
249
330
1F
100
AcDbEntity
  8
0
  6
Continuous
 62
     7
370
    25
100
AcDbLine
 10
2102.9732138531
 20
7471.5519925756
 30
0.0
 11
2104.5769166406
 21
7471.5519925756
 31
0.0
  0
LINE
  5
24A
330
1F
100
AcDbEntity
  8
0
  6
Continuous
 62
     7
370
    25
100
AcDbLine
 10
2104.5769166406
 20
7475.763317441
 30
0.0
 11
2104.5769166406
 21
7471.5519925756
 31
0.0
  0
LINE
  5
24B
330
1F
100
AcDbEntity
  8
0
  6
Continuous
 62
     7
370
    25
100
AcDbLine
 10
2102.9732138531
 20
7471.5519925756
 30
0.0
 11
2102.9732138531
 21
7475.763317441
 31
0.0
  0
SPLINE
  5
24C
330
1F
100
AcDbEntity
  8
0
  6
Continuous
 62
     7
370
    25
100
AcDbSpline
210
0.0
220
0.0
230
1.0
 70
     8
 71
     3
 72
     9
 73
     5
 74
     0
 42
0.00000001
 43
0.00000001
 40
0.0
 40
0.0
 40
0.0
 40
0.0
 40
0.7850241086892638
 40
1.0
 40
1.0
 40
1.0
 40
1.0
 10
2109.723213853122
 20
7475.763317441022
 30
0.0
 10
2109.351933191462
 20
7475.921228037838
 30
0.0
 10
2108.878978720955
 20
7476.122381856004
 30
0.0
 10
2108.386197632958
 20
7476.238380523982
 30
0.0
 10
2108.280261579343
 20
7476.263317441022
 30
0.0
  0
LINE
  5
24D
330
1F
100
AcDbEntity
  8
0
  6
Continuous
 62
     7
370
    25
100
AcDbLine
 10
2109.7232138531
 20
7471.5519925756
 30
0.0
 11
2109.7232138531
 21
7475.763317441
 31
0.0
  0
SPLINE
  5
24E
330
1F
100
AcDbEntity
  8
0
  6
Continuous
 62
     7
370
    25
100
AcDbSpline
210
0.0
220
0.0
230
1.0
 70
     8
 71
     3
 72
     9
 73
     5
 74
     0
 42
0.00000001
 43
0.00000001
 40
0.0
 40
0.0
 40
0.0
 40
0.0
 40
0.11090490596101
 40
1.0
 40
1.0
 40
1.0
 40
1.0
 10
2108.280261579343
 20
7471.263317441022
 30
0.0
 10
2108.334069818615
 20
7471.270377127625
 30
0.0
 10
2108.819244381496
 20
7471.33403244153
 30
0.0
 10
2109.297764215928
 20
7471.449410505225
 30
0.0
 10
2109.723213853122
 20
7471.551992575617
 30
0.0
  0
LINE
  5
24F
330
1F
100
AcDbEntity
  8
0
  6
Continuous
 62
     7
370
    25
100
AcDbLine
 10
2108.2802615793
 20
7471.263317441
 30
0.0
 11
2106.0198689143
 21
7471.263317441
 31
0.0
  0
LINE
  5
250
330
1F
100
AcDbEntity
  8
0
  6
Continuous
 62
     7
370
    25
100
AcDbLine
 10
2101.5302615793
 20
7471.263317441
 30
0.0
 11
2099.2698689143
 21
7471.263317441
 31
0.0
  0
LINE
  5
251
330
1F
100
AcDbEntity
  8
0
  6
Continuous
 62
     7
370
    25
100
AcDbLine
 10
2097.8269166406
 20
7471.5519925756
 30
0.0
 11
2099.2698689143
 21
7471.263317441
 31
0.0
  0
LINE
  5
252
330
1F
100
AcDbEntity
  8
0
  6
Continuous
 62
     7
370
    25
100
AcDbLine
 10
2097.8269166406
 20
7475.763317441
 30
0.0
 11
2097.8269166406
 21
7471.5519925756
 31
0.0
  0
LINE
  5
253
330
1F
100
AcDbEntity
  8
0
  6
Continuous
 62
     7
370
    25
100
AcDbLine
 10
2099.2698689143
 20
7476.263317441
 30
0.0
 11
2097.8269166406
 21
7475.763317441
 31
0.0
  0
LINE
  5
254
330
1F
100
AcDbEntity
  8
0
  6
Continuous
 62
     7
370
    25
100
AcDbLine
 10
2097.1648152468
 20
7471.2631723853
 30
0.0
 11
2110.3853152468
 21
7471.2631723853
 31
0.0
  0
LINE
  5
255
330
1F
100
AcDbEntity
  8
0
  6
Continuous
 62
     7
370
    25
100
AcDbLine
 10
2110.3853152468
 20
7469.7634624967
 30
0.0
 11
2097.1648152468
 21
7469.7634624967
 31
0.0
  0
LINE
  5
256
330
1F
100
AcDbEntity
  8
0
  6
Continuous
 62
     7
370
    25
100
AcDbLine
 10
2097.1648152468
 20
7467.263317441
 30
0.0
 11
2110.3853152468
 21
7467.263317441
 31
0.0
  0
LINE
  5
257
330
1F
100
AcDbEntity
  8
0
  6
Continuous
 62
     7
370
    25
100
AcDbLine
 10
2109.8853152468
 20
7466.763317441
 30
0.0
 11
2097.6648152468
 21
7466.763317441
 31
0.0
  0
SPLINE
  5
258
330
1F
100
AcDbEntity
  8
0
  6
Continuous
 62
     7
370
    25
100
AcDbSpline
210
0.0
220
0.0
230
1.0
 70
    24
 71
     3
 72
     9
 73
     5
 74
     0
 42
0.00000001
 43
0.00000001
 40
0.0
 40
0.0
 40
0.0
 40
0.0
 40
0.3448012052667314
 40
1.0
 40
1.0
 40
1.0
 40
1.0
 10
2110.525065246843
 20
7476.263317441022
 30
0.0
 10
2110.525065246843
 20
7476.221737203949
 30
0.0
 10
2110.525065246843
 20
7476.101145290583
 30
0.0
 10
2110.525065246843
 20
7475.897044217868
 30
0.0
 10
2110.525065246842
 20
7475.763317441022
 30
0.0
  0
LINE
  5
259
330
1F
100
AcDbEntity
  8
0
  6
Continuous
 62
     7
370
    25
100
AcDbLine
 10
2109.7232138531
 20
7475.763317441
 30
0.0
 11
2110.5250652468
 21
7475.763317441
 31
0.0
  0
SPLINE
  5
25A
330
1F
100
AcDbEntity
  8
0
  6
Continuous
 62
     7
370
    25
100
AcDbSpline
210
0.0
220
0.0
230
1.0
 70
    24
 71
     3
 72
     9
 73
     5
 74
     0
 42
0.00000001
 43
0.00000001
 40
0.0
 40
0.0
 40
0.0
 40
0.0
 40
0.2685299139547136
 40
1.0
 40
1.0
 40
1.0
 40
1.0
 10
2110.525065246842
 20
7471.551992575617
 30
0.0
 10
2110.525065246842
 20
7471.518615819795
 30
0.0
 10
2110.525065246842
 20
7471.39432145225
 30
0.0
 10
2110.525065246843
 20
7471.318660883648
 30
0.0
 10
2110.525065246843
 20
7471.263317441022
 30
0.0
  0
LINE
  5
25B
330
1F
100
AcDbEntity
  8
0
  6
Continuous
 62
     7
370
    25
100
AcDbLine
 10
2109.7232138531
 20
7471.5519925756
 30
0.0
 11
2110.5250652468
 21
7471.5519925756
 31
0.0
  0
LINE
  5
25C
330
1F
100
AcDbEntity
  8
0
  6
Continuous
 62
     7
370
    25
100
AcDbLine
 10
2108.2802615793
 20
7471.263317441
 30
0.0
 11
2110.5250652468
 21
7471.263317441
 31
0.0
  0
SPLINE
  5
25D
330
1F
100
AcDbEntity
  8
0
  6
Continuous
 62
     7
370
    25
100
AcDbSpline
210
0.0
220
0.0
230
1.0
 70
    24
 71
     3
 72
     9
 73
     5
 74
     0
 42
0.00000001
 43
0.00000001
 40
0.0
 40
0.0
 40
0.0
 40
0.0
 40
0.4414876113116216
 40
0.9999999999999999
 40
0.9999999999999999
 40
0.9999999999999999
 40
0.9999999999999999
 10
2097.025065246843
 20
7471.263317441022
 30
0.0
 10
2097.025065246843
 20
7471.294303555798
 30
0.0
 10
2097.025065246843
 20
7471.36448925067
 30
0.0
 10
2097.025065246843
 20
7471.484798416197
 30
0.0
 10
2097.025065246843
 20
7471.551992575617
 30
0.0
  0
LINE
  5
25E
330
1F
100
AcDbEntity
  8
0
  6
Continuous
 62
     7
370
    25
100
AcDbLine
 10
2097.0250652468
 20
7471.5519925756
 30
0.0
 11
2097.8269166406
 21
7471.5519925756
 31
0.0
  0
LINE
  5
25F
330
1F
100
AcDbEntity
  8
0
  6
Continuous
 62
     7
370
    25
100
AcDbLine
 10
2097.0250652468
 20
7471.263317441
 30
0.0
 11
2099.2698689143
 21
7471.263317441
 31
0.0
  0
LINE
  5
260
330
1F
100
AcDbEntity
  8
0
  6
Continuous
 62
     7
370
    25
100
AcDbLine
 10
2097.0250652468
 20
7475.763317441
 30
0.0
 11
2097.0250652468
 21
7476.263317441
 31
0.0
  0
LINE
  5
261
330
1F
100
AcDbEntity
  8
0
  6
Continuous
 62
     7
370
    25
100
AcDbLine
 10
2097.0250652468
 20
7475.763317441
 30
0.0
 11
2097.8269166406
 21
7475.763317441
 31
0.0
  0
LINE
  5
262
330
1F
100
AcDbEntity
  8
0
  6
Continuous
 62
     7
370
    25
100
AcDbLine
 10
2097.0250652468
 20
7476.263317441
 30
0.0
 11
2097.6527815991
 21
7476.263317441
 31
0.0
  0
LINE
  5
263
330
1F
100
AcDbEntity
  8
0
  6
Continuous
 62
     7
370
    25
100
AcDbLine
 10
2110.5250652468
 20
7475.763317441
 30
0.0
 11
2110.5250652468
 21
7471.5519925756
 31
0.0
  0
LINE
  5
264
330
1F
100
AcDbEntity
  8
0
  6
Continuous
 62
     7
370
    25
100
AcDbLine
 10
2097.0250652468
 20
7471.5519925756
 30
0.0
 11
2097.0250652468
 21
7475.763317441
 31
0.0
  0
LINE
  5
265
330
1F
100
AcDbEntity
  8
0
  6
Continuous
 62
     7
370
    25
100
AcDbLine
 10
2134.4364540901
 20
7554.413317441
 30
0.0
 11
2133.0250652468
 21
7554.413317441
 31
0.0
  0
LINE
  5
266
330
1F
100
AcDbEntity
  8
0
  6
Continuous
 62
     7
370
    25
100
AcDbLine
 10
2134.5250652468
 20
7554.413317441
 30
0.0
 11
2134.4364540901
 21
7554.413317441
 31
0.0
  0
LINE
  5
267
330
1F
100
AcDbEntity
  8
0
  6
Continuous
 62
     7
370
    25
100
AcDbLine
 10
2133.7342633642
 20
7475.613317441
 30
0.0
 11
2134.5250652468
 21
7475.613317441
 31
0.0
  0
LINE
  5
268
330
1F
100
AcDbEntity
  8
0
  6
Continuous
 62
     7
370
    25
100
AcDbLine
 10
2133.0250652468
 20
7475.613317441
 30
0.0
 11
2133.7342633642
 21
7475.613317441
 31
0.0
  0
LINE
  5
269
330
1F
100
AcDbEntity
  8
0
  6
Continuous
 62
     7
370
    25
100
AcDbLine
 10
2097.6750652468
 20
7552.9097640504
 30
0.0
 11
2136.7750652468
 21
7552.9097640504
 31
0.0
  0
LINE
  5
26A
330
1F
100
AcDbEntity
  8
0
  6
Continuous
 62
     7
370
    25
100
AcDbLine
 10
2136.7750652468
 20
7552.2597640504
 30
0.0
 11
2136.7750652468
 21
7552.9097640504
 31
0.0
  0
LINE
  5
26B
330
1F
100
AcDbEntity
  8
0
  6
Continuous
 62
     7
370
    25
100
AcDbLine
 10
2136.7750652468
 20
7543.763317441
 30
0.0
 11
2136.7750652468
 21
7552.2597640504
 31
0.0
  0
LINE
  5
26C
330
1F
100
AcDbEntity
  8
0
  6
Continuous
 62
     7
370
    25
100
AcDbLine
 10
2136.7750652468
 20
7543.763317441
 30
0.0
 11
2136.7750652468
 21
7486.263317441
 31
0.0
  0
LINE
  5
26D
330
1F
100
AcDbEntity
  8
0
  6
Continuous
 62
     7
370
    25
100
AcDbLine
 10
2136.7750652468
 20
7477.7668708316
 30
0.0
 11
2136.7750652468
 21
7486.263317441
 31
0.0
  0
LINE
  5
26E
330
1F
100
AcDbEntity
  8
0
  6
Continuous
 62
     7
370
    25
100
AcDbLine
 10
2136.7750652468
 20
7477.1168708316
 30
0.0
 11
2136.7750652468
 21
7477.7668708316
 31
0.0
  0
LINE
  5
26F
330
1F
100
AcDbEntity
  8
0
  6
Continuous
 62
     7
370
    25
100
AcDbLine
 10
2097.6750652468
 20
7477.1168708316
 30
0.0
 11
2136.7750652468
 21
7477.1168708316
 31
0.0
  0
LINE
  5
270
330
1F
100
AcDbEntity
  8
0
  6
Continuous
 62
     7
370
    25
100
AcDbLine
 10
2097.6750652468
 20
7477.1168708316
 30
0.0
 11
2097.6750652468
 21
7552.9097640504
 31
0.0
  0
CIRCLE
  5
271
330
1F
100
AcDbEntity
  8
0
  6
Continuous
 62
     7
370
    25
100
AcDbCircle
 10
2111.7750652468
 20
7543.763317441
 30
0.0
 40
2.5
  0
CIRCLE
  5
272
330
1F
100
AcDbEntity
  8
0
  6
Continuous
 62
     7
370
    25
100
AcDbCircle
 10
2111.7750652468
 20
7486.263317441
 30
0.0
 40
2.5
  0
LINE
  5
273
330
1F
100
AcDbEntity
  8
0
  6
Continuous
 62
     7
370
    25
100
AcDbLine
 10
2136.7750652468
 20
7552.2597640504
 30
0.0
 11
2137.4250652468
 21
7552.2597640504
 31
0.0
  0
LINE
  5
274
330
1F
100
AcDbEntity
  8
0
  6
Continuous
 62
     7
370
    25
100
AcDbLine
 10
2137.4250652468
 20
7543.763317441
 30
0.0
 11
2136.7750652468
 21
7543.763317441
 31
0.0
  0
LINE
  5
275
330
1F
100
AcDbEntity
  8
0
  6
Continuous
 62
     7
370
    25
100
AcDbLine
 10
2137.4250652468
 20
7477.7668708316
 30
0.0
 11
2136.7750652468
 21
7477.7668708316
 31
0.0
  0
LINE
  5
276
330
1F
100
AcDbEntity
  8
0
  6
Continuous
 62
     7
370
    25
100
AcDbLine
 10
2136.7750652468
 20
7486.263317441
 30
0.0
 11
2137.4250652468
 21
7486.263317441
 31
0.0
  0
SPLINE
  5
277
330
1F
100
AcDbEntity
  8
0
  6
Continuous
 62
     7
370
    25
100
AcDbSpline
210
0.0
220
0.0
230
1.0
 70
     8
 71
     3
 72
    11
 73
     7
 74
     0
 42
0.00000001
 43
0.00000001
 40
0.0
 40
0.0
 40
0.0
 40
0.0
 40
0.2500000000000075
 40
0.5000000000000071
 40
0.7500000000000143
 40
1.0
 40
1.0
 40
1.0
 40
1.0
 10
2096.775065246844
 20
7552.863317441023
 30
0.0
 10
2096.788593662352
 20
7552.867187991807
 30
0.0
 10
2096.81565049337
 20
7552.874929093375
 30
0.0
 10
2097.02377478518
 20
7552.886540745726
 30
0.0
 10
2097.321265228567
 20
7552.898152398078
 30
0.0
 10
2097.557131907418
 20
7552.905893499646
 30
0.0
 10
2097.675065246844
 20
7552.90976405043
 30
0.0
  0
SPLINE
  5
278
330
1F
100
AcDbEntity
  8
0
  6
Continuous
 62
     7
370
    25
100
AcDbSpline
210
0.0
220
0.0
230
1.0
 70
     8
 71
     3
 72
    11
 73
     7
 74
     0
 42
0.00000001
 43
0.00000001
 40
0.0
 40
0.0
 40
0.0
 40
0.0
 40
0.2500000000000021
 40
0.5000000000000043
 40
0.7499999999999989
 40
1.0
 40
1.0
 40
1.0
 40
1.0
 10
2097.675065246844
 20
7477.116870831615
 30
0.0
 10
2097.557131907418
 20
7477.1207413824
 30
0.0
 10
2097.321265228567
 20
7477.128482483967
 30
0.0
 10
2097.02377478518
 20
7477.140094136319
 30
0.0
 10
2096.81565049337
 20
7477.15170578867
 30
0.0
 10
2096.788593662353
 20
7477.159446890238
 30
0.0
 10
2096.775065246844
 20
7477.163317441022
 30
0.0
  0
LINE
  5
279
330
1F
100
AcDbEntity
  8
0
  6
Continuous
 62
     7
370
    25
100
AcDbLine
 10
2096.7750652468
 20
7477.163317441
 30
0.0
 11
2096.7750652468
 21
7552.863317441
 31
0.0
  0
SPLINE
  5
27A
330
1F
100
AcDbEntity
  8
0
  6
Continuous
 62
     7
370
    25
100
AcDbSpline
210
0.0
220
0.0
230
1.0
 70
     8
 71
     3
 72
    11
 73
     7
 74
     0
 42
0.00000001
 43
0.00000001
 40
0.0
 40
0.0
 40
0.0
 40
0.0
 40
0.2500000000000637
 40
0.5000000000000457
 40
0.7500000000000289
 40
1.0
 40
1.0
 40
1.0
 40
1.0
 10
2096.775065246844
 20
7477.163317441022
 30
0.0
 10
2096.788593662353
 20
7477.045384101596
 30
0.0
 10
2096.81565049337
 20
7476.809517422746
 30
0.0
 10
2097.02377478518
 20
7476.512026979358
 30
0.0
 10
2097.321265228567
 20
7476.303902687549
 30
0.0
 10
2097.557131907418
 20
7476.276845856531
 30
0.0
 10
2097.675065246844
 20
7476.263317441022
 30
0.0
  0
SPLINE
  5
27B
330
1F
100
AcDbEntity
  8
0
  6
Continuous
 62
     7
370
    25
100
AcDbSpline
210
0.0
220
0.0
230
1.0
 70
     8
 71
     3
 72
    11
 73
     7
 74
     0
 42
0.00000001
 43
0.00000001
 40
0.0
 40
0.0
 40
0.0
 40
0.0
 40
0.2500000000001242
 40
0.50000000000009
 40
0.7500000000000365
 40
1.0
 40
1.0
 40
1.0
 40
1.0
 10
2097.275065246843
 20
7477.163317441022
 30
0.0
 10
2097.281077875959
 20
7477.1109026235
 30
0.0
 10
2097.293103134189
 20
7477.006072988454
 30
0.0
 10
2097.385602819438
 20
7476.873855013616
 30
0.0
 10
2097.517820794276
 20
7476.781355328367
 30
0.0
 10
2097.622650429321
 20
7476.769330070138
 30
0.0
 10
2097.675065246844
 20
7476.763317441022
 30
0.0
  0
LINE
  5
27C
330
1F
100
AcDbEntity
  8
0
  6
Continuous
 62
     7
370
    25
100
AcDbLine
 10
2097.6750652468
 20
7476.263317441
 30
0.0
 11
2097.6750652468
 21
7476.763317441
 31
0.0
  0
LINE
  5
27D
330
1F
100
AcDbEntity
  8
0
  6
Continuous
 62
     7
370
    25
100
AcDbLine
 10
2097.6750652468
 20
7476.763317441
 30
0.0
 11
2136.7750652468
 21
7476.763317441
 31
0.0
  0
LINE
  5
27E
330
1F
100
AcDbEntity
  8
0
  6
Continuous
 62
     7
370
    25
100
AcDbLine
 10
2136.7750652468
 20
7476.263317441
 30
0.0
 11
2136.7750652468
 21
7476.763317441
 31
0.0
  0
LINE
  5
27F
330
1F
100
AcDbEntity
  8
0
  6
Continuous
 62
     7
370
    25
100
AcDbLine
 10
2097.6750652468
 20
7476.263317441
 30
0.0
 11
2136.7750652468
 21
7476.263317441
 31
0.0
  0
LINE
  5
280
330
1F
100
AcDbEntity
  8
0
  6
Continuous
 62
     7
370
    25
100
AcDbLine
 10
2097.6750652468
 20
7553.263317441
 30
0.0
 11
2136.7750652468
 21
7553.263317441
 31
0.0
  0
LINE
  5
281
330
1F
100
AcDbEntity
  8
0
  6
Continuous
 62
     7
370
    25
100
AcDbLine
 10
2097.6750652468
 20
7553.763317441
 30
0.0
 11
2097.6750652468
 21
7553.263317441
 31
0.0
  0
LINE
  5
282
330
1F
100
AcDbEntity
  8
0
  6
Continuous
 62
     7
370
    25
100
AcDbLine
 10
2097.6750652468
 20
7553.763317441
 30
0.0
 11
2136.7750652468
 21
7553.763317441
 31
0.0
  0
LINE
  5
283
330
1F
100
AcDbEntity
  8
0
  6
Continuous
 62
     7
370
    25
100
AcDbLine
 10
2136.7750652468
 20
7553.763317441
 30
0.0
 11
2136.7750652468
 21
7553.263317441
 31
0.0
  0
SPLINE
  5
284
330
1F
100
AcDbEntity
  8
0
  6
Continuous
 62
     7
370
    25
100
AcDbSpline
210
0.0
220
0.0
230
1.0
 70
     8
 71
     3
 72
    11
 73
     7
 74
     0
 42
0.00000001
 43
0.00000001
 40
0.0
 40
0.0
 40
0.0
 40
0.0
 40
0.250000000000029
 40
0.5000000000000425
 40
0.7500000000000532
 40
0.9999999999999999
 40
0.9999999999999999
 40
0.9999999999999999
 40
0.9999999999999999
 10
2097.675065246844
 20
7553.763317441023
 30
0.0
 10
2097.557131907418
 20
7553.749789025514
 30
0.0
 10
2097.321265228567
 20
7553.722732194497
 30
0.0
 10
2097.02377478518
 20
7553.514607902686
 30
0.0
 10
2096.81565049337
 20
7553.2171174593
 30
0.0
 10
2096.788593662352
 20
7552.981250780448
 30
0.0
 10
2096.775065246844
 20
7552.863317441023
 30
0.0
  0
SPLINE
  5
285
330
1F
100
AcDbEntity
  8
0
  6
Continuous
 62
     7
370
    25
100
AcDbSpline
210
0.0
220
0.0
230
1.0
 70
     8
 71
     3
 72
    11
 73
     7
 74
     0
 42
0.00000001
 43
0.00000001
 40
0.0
 40
0.0
 40
0.0
 40
0.0
 40
0.2500000000000355
 40
0.5000000000000774
 40
0.7500000000001132
 40
1.0
 40
1.0
 40
1.0
 40
1.0
 10
2097.675065246844
 20
7553.263317441022
 30
0.0
 10
2097.622650429321
 20
7553.257304811907
 30
0.0
 10
2097.517820794276
 20
7553.245279553677
 30
0.0
 10
2097.385602819438
 20
7553.152779868429
 30
0.0
 10
2097.293103134189
 20
7553.020561893591
 30
0.0
 10
2097.281077875959
 20
7552.915732258545
 30
0.0
 10
2097.275065246843
 20
7552.863317441023
 30
0.0
  0
LINE
  5
286
330
1F
100
AcDbEntity
  8
0
  6
Continuous
 62
     7
370
    25
100
AcDbLine
 10
2127.6750652468
 20
7553.1597640504
 30
0.0
 11
2127.6750652468
 21
7552.9097640504
 31
0.0
  0
LINE
  5
287
330
1F
100
AcDbEntity
  8
0
  6
Continuous
 62
     7
370
    25
100
AcDbLine
 10
2136.7750652468
 20
7553.1597640504
 30
0.0
 11
2127.6750652468
 21
7553.1597640504
 31
0.0
  0
LINE
  5
288
330
1F
100
AcDbEntity
  8
0
  6
Continuous
 62
     7
370
    25
100
AcDbLine
 10
2127.6750652468
 20
7476.8668708316
 30
0.0
 11
2127.6750652468
 21
7477.1168708316
 31
0.0
  0
LINE
  5
289
330
1F
100
AcDbEntity
  8
0
  6
Continuous
 62
     7
370
    25
100
AcDbLine
 10
2127.6750652468
 20
7476.8668708316
 30
0.0
 11
2136.7750652468
 21
7476.8668708316
 31
0.0
  0
ARC
  5
28A
330
1F
100
AcDbEntity
  8
0
  6
Continuous
 62
     7
370
    25
100
AcDbCircle
 10
2136.7750652468
 20
7477.7668708316
 30
0.0
 40
0.8999999999996362
100
AcDbArc
 50
270.0
 51
0.0
  0
ARC
  5
28B
330
1F
100
AcDbEntity
  8
0
  6
Continuous
 62
     7
370
    25
100
AcDbCircle
 10
2136.7750652468
 20
7477.7668708316
 30
0.0
 40
0.4000000000005457
100
AcDbArc
 50
270.0
 51
0.0
  0
ARC
  5
28C
330
1F
100
AcDbEntity
  8
0
  6
Continuous
 62
     7
370
    25
100
AcDbCircle
 10
2136.7750652468
 20
7552.2597640504
 30
0.0
 40
0.9000000000000054
100
AcDbArc
 50
43.7617426926
 51
90.0
  0
ARC
  5
28D
330
1F
100
AcDbEntity
  8
0
  6
Continuous
 62
     7
370
    25
100
AcDbCircle
 10
2136.7750652468
 20
7552.2597640504
 30
0.0
 40
0.4000000000005457
100
AcDbArc
 50
0.0
 51
90.0
  0
LINE
  5
28E
330
1F
100
AcDbEntity
  8
0
  6
Continuous
 62
     8
370
    25
100
AcDbLine
 10
2137.9250652468
 20
7552.263317441
 30
0.0
 11
2137.4250652468
 21
7552.263317441
 31
0.0
  0
LINE
  5
28F
330
1F
100
AcDbEntity
  8
0
  6
Continuous
 62
     8
370
    25
100
AcDbLine
 10
2165.7755156492
 20
7516.463317441
 30
0.0
 11
2165.7755156492
 21
7523.6175547292
 31
0.0
  0
LINE
  5
290
330
1F
100
AcDbEntity
  8
0
  6
Continuous
 62
     8
370
    25
100
AcDbLine
 10
2168.8755156492
 20
7523.6175547292
 30
0.0
 11
2168.8755156492
 21
7536.563317441
 31
0.0
  0
LINE
  5
291
330
1F
100
AcDbEntity
  8
0
  6
Continuous
 62
     8
370
    25
100
AcDbLine
 10
2167.5255156492
 20
7515.5023004919
 30
0.0
 11
2167.5255156492
 21
7510.163317441
 31
0.0
  0
LINE
  5
292
330
1F
100
AcDbEntity
  8
0
  6
Continuous
 62
     8
370
    25
100
AcDbLine
 10
2168.8755156492
 20
7510.163317441
 30
0.0
 11
2168.8755156492
 21
7515.5023004919
 31
0.0
  0
LINE
  5
293
330
1F
100
AcDbEntity
  8
0
  6
Continuous
 62
     8
370
    25
100
AcDbLine
 10
2165.8755156492
 20
7538.0501504215
 30
0.0
 11
2160.8755156492
 21
7538.0501504215
 31
0.0
  0
LINE
  5
294
330
1F
100
AcDbEntity
  8
0
  6
Continuous
 62
     8
370
    25
100
AcDbLine
 10
2161.0678233415
 20
7538.2934025492
 30
0.0
 11
2165.6832079568
 21
7538.2934025492
 31
0.0
  0
LINE
  5
295
330
1F
100
AcDbEntity
  8
0
  6
Continuous
 62
     8
370
    25
100
AcDbLine
 10
2144.3250652469
 20
7512.263317441
 30
0.0
 11
2144.3250652469
 21
7540.763317441
 31
0.0
  0
LINE
  5
296
330
1F
100
AcDbEntity
  8
0
  6
Continuous
 62
     8
370
    25
100
AcDbLine
 10
2143.0250652469
 20
7512.263317441
 30
0.0
 11
2143.0250652469
 21
7540.763317441
 31
0.0
  0
LINE
  5
297
330
1F
100
AcDbEntity
  8
0
  6
Continuous
 62
     8
370
    25
100
AcDbLine
 10
2137.4250652468
 20
7538.828317441
 30
0.0
 11
2136.7750652468
 21
7538.828317441
 31
0.0
  0
SPLINE
  5
298
330
1F
100
AcDbEntity
  8
0
  6
Continuous
 62
     8
370
    25
100
AcDbSpline
210
0.0
220
0.0
230
1.0
 70
     8
 71
     3
 72
     9
 73
     5
 74
     0
 42
0.00000001
 43
0.00000001
 40
0.0
 40
0.0
 40
0.0
 40
0.0
 40
0.4793583928806113
 40
1.0
 40
1.0
 40
1.0
 40
1.0
 10
2137.039629368278
 20
7526.695104505731
 30
0.0
 10
2137.010972287261
 20
7526.663515839715
 30
0.0
 10
2136.95119012543
 20
7526.597618034471
 30
0.0
 10
2136.835367384712
 20
7526.527765918789
 30
0.0
 10
2136.775065246844
 20
7526.491398001019
 30
0.0
  0
LINE
  5
299
330
1F
100
AcDbEntity
  8
0
  6
Continuous
 62
     8
370
    25
100
AcDbLine
 10
2137.1602258397
 20
7526.863317441
 30
0.0
 11
2137.0396293683
 21
7526.6951045057
 31
0.0
  0
LINE
  5
29A
330
1F
100
AcDbEntity
  8
0
  6
Continuous
 62
     8
370
    25
100
AcDbLine
 10
2136.7750652468
 20
7526.984487479
 30
0.0
 11
2136.8282571425
 21
7527.0558712758
 31
0.0
  0
LINE
  5
29B
330
1F
100
AcDbEntity
  8
0
  6
Continuous
 62
     8
370
    25
100
AcDbLine
 10
2136.7750652468
 20
7527.5331488004
 30
0.0
 11
2137.0250652468
 21
7527.9442064927
 31
0.0
  0
LINE
  5
29C
330
1F
100
AcDbEntity
  8
0
  6
Continuous
 62
     8
370
    25
100
AcDbLine
 10
2137.0250652468
 20
7531.5088393482
 30
0.0
 11
2136.7750652468
 21
7531.3918696735
 31
0.0
  0
LINE
  5
29D
330
1F
100
AcDbEntity
  8
0
  6
Continuous
 62
     8
370
    25
100
AcDbLine
 10
2137.2027939273
 20
7527.5686585506
 30
0.0
 11
2136.9127650698
 21
7527.0777763751
 31
0.0
  0
SPLINE
  5
29E
330
1F
100
AcDbEntity
  8
0
  6
Continuous
 62
     8
370
    25
100
AcDbSpline
210
0.0
220
0.0
230
1.0
 70
     8
 71
     3
 72
     9
 73
     5
 74
     0
 42
0.00000001
 43
0.00000001
 40
0.0
 40
0.0
 40
0.0
 40
0.0
 40
0.131195391859056
 40
1.0
 40
1.0
 40
1.0
 40
1.0
 10
2137.276083451609
 20
7531.648393382675
 30
0.0
 10
2137.276136455127
 20
7531.65428865832
 30
0.0
 10
2137.276540459544
 20
7531.699223739971
 30
0.0
 10
2137.275543270567
 20
7531.744154944351
 30
0.0
 10
2137.274676908188
 20
7531.783191381766
 30
0.0
  0
LINE
  5
29F
330
1F
100
AcDbEntity
  8
0
  6
Continuous
 62
     8
370
    25
100
AcDbLine
 10
2113.9401287563
 20
7542.513317441
 30
0.0
 11
2110.8000653637
 21
7542.513317441
 31
0.0
  0
LINE
  5
2A0
330
1F
100
AcDbEntity
  8
0
  6
Continuous
 62
     8
370
    25
100
AcDbLine
 10
2136.7750652468
 20
7496.128317441
 30
0.0
 11
2137.1500652468
 21
7496.128317441
 31
0.0
  0
LINE
  5
2A1
330
1F
100
AcDbEntity
  8
0
  6
Continuous
 62
     8
370
    25
100
AcDbLine
 10
2136.7750652468
 20
7499.603317441
 30
0.0
 11
2137.1500652468
 21
7499.603317441
 31
0.0
  0
LINE
  5
2A2
330
1F
100
AcDbEntity
  8
0
  6
Continuous
 62
     8
370
    25
100
AcDbLine
 10
2135.2381247707
 20
7553.9174575684
 30
0.0
 11
2132.1159888137
 21
7553.9174575684
 31
0.0
  0
LINE
  5
2A3
330
1F
100
AcDbEntity
  8
0
  6
Continuous
 62
     8
370
    25
100
AcDbLine
 10
2135.43414168
 20
7553.9174575684
 30
0.0
 11
2135.2381247707
 21
7553.9174575684
 31
0.0
  0
LINE
  5
2A4
330
1F
100
AcDbEntity
  8
0
  6
Continuous
 62
     8
370
    25
100
AcDbLine
 10
2133.6848073242
 20
7476.1091773136
 30
0.0
 11
2135.43414168
 21
7476.1091773136
 31
0.0
  0
LINE
  5
2A5
330
1F
100
AcDbEntity
  8
0
  6
Continuous
 62
     8
370
    25
100
AcDbLine
 10
2132.1159888137
 20
7476.1091773136
 30
0.0
 11
2133.6848073242
 21
7476.1091773136
 31
0.0
  0
LINE
  5
2A6
330
1F
100
AcDbEntity
  8
0
  6
Continuous
 62
     8
370
    25
100
AcDbLine
 10
2136.7750652468
 20
7552.9097640504
 30
0.0
 11
2136.7750652468
 21
7553.1597640504
 31
0.0
  0
LINE
  5
2A7
330
1F
100
AcDbEntity
  8
0
  6
Continuous
 62
     8
370
    25
100
AcDbLine
 10
2136.7750652468
 20
7477.1168708316
 30
0.0
 11
2136.7750652468
 21
7476.8668708316
 31
0.0
  0
LINE
  5
2A8
330
1F
100
AcDbEntity
  8
0
  6
Continuous
 62
     7
370
    25
100
AcDbLine
 10
1969.7425257536
 20
7342.1329510178
 30
0.0
 11
1969.7425257536
 21
7322.6329510178
 31
0.0
  0
LINE
  5
2A9
330
1F
100
AcDbEntity
  8
0
  6
Continuous
 62
     7
370
    25
100
AcDbLine
 10
1989.8425257536
 20
7322.6329510178
 30
0.0
 11
1989.8425257536
 21
7342.1329510178
 31
0.0
  0
ARC
  5
2AA
330
1F
100
AcDbEntity
  8
0
  6
Continuous
 62
     7
370
    25
100
AcDbCircle
 10
1988.8425257536
 20
7322.6329510178
 30
0.0
 40
1.000000000000909
100
AcDbArc
 50
270.0
 51
0.0
  0
ARC
  5
2AB
330
1F
100
AcDbEntity
  8
0
  6
Continuous
 62
     7
370
    25
100
AcDbCircle
 10
1970.7425257536
 20
7322.6329510178
 30
0.0
 40
1.000000000000909
100
AcDbArc
 50
180.0
 51
270.0
  0
LINE
  5
2AC
330
1F
100
AcDbEntity
  8
0
  6
Continuous
 62
     7
370
    25
100
AcDbLine
 10
1965.5425257536
 20
7348.4834014201
 30
0.0
 11
1965.5425257536
 21
7347.1834014201
 31
0.0
  0
LINE
  5
2AD
330
1F
100
AcDbEntity
  8
0
  6
Continuous
 62
     7
370
    25
100
AcDbLine
 10
1994.0425257536
 20
7347.1834014201
 30
0.0
 11
1994.0425257536
 21
7348.4834014201
 31
0.0
  0
ARC
  5
2AE
330
1F
100
AcDbEntity
  8
0
  6
Continuous
 62
     7
370
    25
100
AcDbCircle
 10
1965.6425257536
 20
7348.4834014201
 30
0.0
 40
0.0999999999999091
100
AcDbArc
 50
90.0
 51
180.0
  0
ARC
  5
2AF
330
1F
100
AcDbEntity
  8
0
  6
Continuous
 62
     7
370
    25
100
AcDbCircle
 10
1993.9425257536
 20
7348.4834014201
 30
0.0
 40
0.1000000000001364
100
AcDbArc
 50
0.0
 51
90.0
  0
ARC
  5
2B0
330
1F
100
AcDbEntity
  8
0
  6
Continuous
 62
     7
370
    25
100
AcDbCircle
 10
1965.6425257536
 20
7347.1834014201
 30
0.0
 40
0.1000000000003638
100
AcDbArc
 50
180.0
 51
270.0
  0
ARC
  5
2B1
330
1F
100
AcDbEntity
  8
0
  6
Continuous
 62
     7
370
    25
100
AcDbCircle
 10
1993.9425257536
 20
7347.1834014201
 30
0.0
 40
0.1000000000003638
100
AcDbArc
 50
270.0
 51
0.0
  0
LINE
  5
2B2
330
1F
100
AcDbEntity
  8
0
  6
Continuous
 62
     7
370
    25
100
AcDbLine
 10
1969.4315808718
 20
7378.4834695583
 30
0.0
 11
1969.1740837336
 21
7378.9334014201
 31
0.0
  0
LINE
  5
2B3
330
1F
100
AcDbEntity
  8
0
  6
Continuous
 62
     7
370
    25
100
AcDbLine
 10
1969.5905575555
 20
7377.5970745091
 30
0.0
 11
1969.5231123323
 21
7378.2079472619
 31
0.0
  0
SPLINE
  5
2B4
330
1F
100
AcDbEntity
  8
0
  6
Continuous
 62
     7
370
    25
100
AcDbSpline
210
0.0
220
0.0
230
1.0
 70
     8
 71
     3
 72
    14
 73
    10
 74
     0
 42
0.00000001
 43
0.00000001
 40
0.0
 40
0.0
 40
0.0
 40
0.0
 40
0.0249131347669689
 40
0.2132231015833483
 40
0.4106224376884952
 40
0.5525054694779309
 40
0.7059468201151993
 40
0.8909216806517215
 40
1.0
 40
1.0
 40
1.0
 40
1.0
 10
1968.194040071783
 20
7381.233401420082
 30
0.0
 10
1968.194583046961
 20
7381.244616185592
 30
0.0
 10
1968.199230188021
 20
7381.340599573795
 30
0.0
 10
1968.243677797625
 20
7381.4917131127
 30
0.0
 10
1968.32357303926
 20
7381.659257495088
 30
0.0
 10
1968.421995743018
 20
7381.774782790074
 30
0.0
 10
1968.582994772418
 20
7381.903250927527
 30
0.0
 10
1968.809133737343
 20
7382.031220285848
 30
0.0
 10
1968.980721935724
 20
7382.10436449252
 30
0.0
 10
1969.044372164934
 20
7382.131497159942
 30
0.0
  0
SPLINE
  5
2B5
330
1F
100
AcDbEntity
  8
0
  6
Continuous
 62
     7
370
    25
100
AcDbSpline
210
0.0
220
0.0
230
1.0
 70
     8
 71
     3
 72
     9
 73
     5
 74
     0
 42
0.00000001
 43
0.00000001
 40
0.0
 40
0.0
 40
0.0
 40
0.0
 40
0.4443341091166156
 40
1.0
 40
1.0
 40
1.0
 40
1.0
 10
1951.042525753552
 20
7354.637375461954
 30
0.0
 10
1951.23471468035
 20
7354.559826460802
 30
0.0
 10
1951.667247143771
 20
7354.385297880706
 30
0.0
 10
1952.08606059567
 20
7354.368071828569
 30
0.0
 10
1952.318780945533
 20
7354.358499898962
 30
0.0
  0
ARC
  5
2B6
330
1F
100
AcDbEntity
  8
0
  6
Continuous
 62
     7
370
    25
100
AcDbCircle
 10
1958.1478148533
 20
7354.4834014201
 30
0.0
 40
0.2500000000009095
100
AcDbArc
 50
270.0
 51
322.6494692133
  0
SPLINE
  5
2B7
330
1F
100
AcDbEntity
  8
0
  6
Continuous
 62
     7
370
    25
100
AcDbSpline
210
0.0
220
0.0
230
1.0
 70
     8
 71
     3
 72
     9
 73
     5
 74
     0
 42
0.00000001
 43
0.00000001
 40
0.0
 40
0.0
 40
0.0
 40
0.0
 40
0.6277842234746257
 40
1.0
 40
1.0
 40
1.0
 40
1.0
 10
1958.346549536575
 20
7354.331728991251
 30
0.0
 10
1958.408714881371
 20
7354.413866146537
 30
0.0
 10
1958.507738307688
 20
7354.544702749645
 30
0.0
 10
1958.578058687555
 20
7354.682216596712
 30
0.0
 10
1958.604233042353
 20
7354.733401420081
 30
0.0
  0
LINE
  5
2B8
330
1F
100
AcDbEntity
  8
0
  6
Continuous
 62
     7
370
    25
100
AcDbLine
 10
1959.3925257536
 20
7354.0834014201
 30
0.0
 11
1959.3925257536
 21
7354.7334014201
 31
0.0
  0
LINE
  5
2B9
330
1F
100
AcDbEntity
  8
0
  6
Continuous
 62
     7
370
    25
100
AcDbLine
 10
1968.1675257536
 20
7347.0834014201
 30
0.0
 11
1968.1675257536
 21
7342.1329510178
 31
0.0
  0
LINE
  5
2BA
330
1F
100
AcDbEntity
  8
0
  6
Continuous
 62
     7
370
    25
100
AcDbLine
 10
1991.4175257536
 20
7342.1329510178
 30
0.0
 11
1991.4175257536
 21
7347.0834014201
 31
0.0
  0
LINE
  5
2BB
330
1F
100
AcDbEntity
  8
0
  6
Continuous
 62
     7
370
    25
100
AcDbLine
 10
1994.7925257536
 20
7354.0834014201
 30
0.0
 11
1994.7925257536
 21
7354.7334014201
 31
0.0
  0
LINE
  5
2BC
330
1F
100
AcDbEntity
  8
0
  6
Continuous
 62
     7
370
    25
100
AcDbLine
 10
1989.7925257536
 20
7354.7334014201
 30
0.0
 11
1989.7925257536
 21
7354.0834014201
 31
0.0
  0
LINE
  5
2BD
330
1F
100
AcDbEntity
  8
0
  6
Continuous
 62
     7
370
    25
100
AcDbLine
 10
1964.7925257536
 20
7354.7334014201
 30
0.0
 11
1964.7925257536
 21
7354.0834014201
 31
0.0
  0
ARC
  5
2BE
330
1F
100
AcDbEntity
  8
0
  6
Continuous
 62
     7
370
    25
100
AcDbCircle
 10
1968.7925257536
 20
7355.0821506379
 30
0.0
 40
1.000000000000556
100
AcDbArc
 50
272.8659839826
 51
339.5891692404
  0
SPLINE
  5
2BF
330
1F
100
AcDbEntity
  8
0
  6
Continuous
 62
     7
370
    25
100
AcDbSpline
210
0.0
220
0.0
230
1.0
 70
     8
 71
     3
 72
    10
 73
     6
 74
     0
 42
0.00000001
 43
0.00000001
 40
0.0
 40
0.0
 40
0.0
 40
0.0
 40
0.3724562185163529
 40
0.7711106590517691
 40
1.0
 40
1.0
 40
1.0
 40
1.0
 10
1989.134866988101
 20
7381.271359094851
 30
0.0
 10
1989.684136234109
 20
7381.069036534336
 30
0.0
 10
1990.82130981111
 20
7380.650160233652
 30
0.0
 10
1992.286313325215
 20
7380.095804204755
 30
0.0
 10
1993.200712882125
 20
7379.75009373204
 30
0.0
 10
1993.53422955159
 20
7379.623999832948
 30
0.0
  0
LINE
  5
2C0
330
1F
100
AcDbEntity
  8
0
  6
Continuous
 62
     7
370
    25
100
AcDbLine
 10
1991.0827561883
 20
7378.5924883863
 30
0.0
 11
1990.8833509017
 21
7378.6079004492
 31
0.0
  0
ARC
  5
2C1
330
1F
100
AcDbEntity
  8
0
  6
Continuous
 62
     7
370
    25
100
AcDbCircle
 10
1991.0673441254
 20
7378.3930830997
 30
0.0
 40
0.2000000000008751
100
AcDbArc
 50
355.5803876653
 51
85.580387665
  0
LINE
  5
2C2
330
1F
100
AcDbEntity
  8
0
  6
Continuous
 62
     7
370
    25
100
AcDbLine
 10
1990.6839456152
 20
7378.6233125121
 30
0.0
 11
1988.7339319786
 21
7378.774029343
 31
0.0
  0
ARC
  5
2C3
330
1F
100
AcDbEntity
  8
0
  6
Continuous
 62
     7
370
    25
100
AcDbCircle
 10
1990.8679388388
 20
7378.4084951626
 30
0.0
 40
0.2000000000001074
100
AcDbArc
 50
85.5803876648
 51
175.5803876653
  0
LINE
  5
2C4
330
1F
100
AcDbEntity
  8
0
  6
Continuous
 62
     7
370
    25
100
AcDbLine
 10
1991.4675257535
 20
7378.5627494919
 30
0.0
 11
1991.3818641182
 21
7378.5693702919
 31
0.0
  0
ARC
  5
2C5
330
1F
100
AcDbEntity
  8
0
  6
Continuous
 62
     7
370
    25
100
AcDbCircle
 10
1991.3741580867
 20
7378.4696676486
 30
0.0
 40
0.1000000000009172
100
AcDbArc
 50
85.5803876648
 51
175.5803876638
  0
SPLINE
  5
2C6
330
1F
100
AcDbEntity
  8
0
  6
Continuous
 62
     7
370
    25
100
AcDbSpline
210
0.0
220
0.0
230
1.0
 70
     8
 71
     3
 72
    15
 73
    11
 74
     0
 42
0.00000001
 43
0.00000001
 40
0.0
 40
0.0
 40
0.0
 40
0.0
 40
0.0411835793182411
 40
0.1963945155681183
 40
0.3545570291833909
 40
0.5294721760780576
 40
0.7001107541110322
 40
0.8438958409147541
 40
0.9666158358376364
 40
0.9999999999999999
 40
0.9999999999999999
 40
0.9999999999999999
 40
0.9999999999999999
 10
1941.896079144145
 20
7390.816891873236
 30
0.0
 10
1941.885597621788
 20
7390.787207801132
 30
0.0
 10
1941.835613780174
 20
7390.645651650418
 30
0.0
 10
1941.810912086004
 20
7390.468088518045
 30
0.0
 10
1941.789278409079
 20
7390.226813148807
 30
0.0
 10
1941.793559632584
 20
7390.004163738627
 30
0.0
 10
1941.772309121903
 20
7389.636739024189
 30
0.0
 10
1941.77659065217
 20
7389.166543756177
 30
0.0
 10
1941.819806183207
 20
7388.74941751142
 30
0.0
 10
1941.882641329057
 20
7388.504909591579
 30
0.0
 10
1941.896079144145
 20
7388.452619552781
 30
0.0
  0
CIRCLE
  5
2C7
330
1F
100
AcDbEntity
  8
0
  6
Continuous
 62
     7
370
    25
100
AcDbCircle
 10
1947.0425257536
 20
7357.7334014201
 30
0.0
 40
1.675000000000691
  0
CIRCLE
  5
2C8
330
1F
100
AcDbEntity
  8
0
  6
Continuous
 62
     7
370
    25
100
AcDbCircle
 10
2012.5425257536
 20
7357.7334014201
 30
0.0
 40
1.674999999999837
  0
LWPOLYLINE
  5
2C9
330
1F
100
AcDbEntity
  8
0
  6
Continuous
 62
     7
370
    25
100
AcDbPolyline
 90
        3
 70
   128
 43
0.0
 10
2021.1425257536
 20
7353.5834014201
 10
2021.146471472
 20
7353.7102067405
 10
2021.1425257536
 20
7354.0834014201
  0
LINE
  5
2CA
330
1F
100
AcDbEntity
  8
0
  6
Continuous
 62
     7
370
    25
100
AcDbLine
 10
2021.1425257536
 20
7354.0834014201
 30
0.0
 11
2017.0425257536
 21
7354.0834014201
 31
0.0
  0
LINE
  5
2CB
330
1F
100
AcDbEntity
  8
0
  6
Continuous
 62
     7
370
    25
100
AcDbLine
 10
2017.0425257536
 20
7354.0834014201
 30
0.0
 11
1942.5425257536
 21
7354.0834014201
 31
0.0
  0
LWPOLYLINE
  5
2CC
330
1F
100
AcDbEntity
  8
0
  6
Continuous
 62
     7
370
    25
100
AcDbPolyline
 90
        3
 70
   128
 43
0.0
 10
1938.4425257536
 20
7353.5834014201
 10
1938.4385800351
 20
7353.7102067405
 10
1938.4425257536
 20
7354.0834014201
  0
LINE
  5
2CD
330
1F
100
AcDbEntity
  8
0
  6
Continuous
 62
     7
370
    25
100
AcDbLine
 10
1942.5425257536
 20
7354.0834014201
 30
0.0
 11
1938.4425257536
 21
7354.0834014201
 31
0.0
  0
CIRCLE
  5
2CE
330
1F
100
AcDbEntity
  8
0
  6
Continuous
 62
     7
370
    25
100
AcDbCircle
 10
1979.7925257536
 20
7328.1329510178
 30
0.0
 40
2.307692307693287
  0
CIRCLE
  5
2CF
330
1F
100
AcDbEntity
  8
0
  6
Continuous
 62
     7
370
    25
100
AcDbCircle
 10
1979.7925257536
 20
7328.1329510178
 30
0.0
 40
2.500000000000909
  0
LINE
  5
2D0
330
1F
100
AcDbEntity
  8
0
  6
Continuous
 62
     7
370
    25
100
AcDbLine
 10
1988.8425257536
 20
7321.6329510178
 30
0.0
 11
1970.7425257536
 21
7321.6329510178
 31
0.0
  0
LINE
  5
2D1
330
1F
100
AcDbEntity
  8
0
  6
Continuous
 62
     7
370
    25
100
AcDbLine
 10
1965.6425257536
 20
7347.0834014201
 30
0.0
 11
1993.9425257536
 21
7347.0834014201
 31
0.0
  0
LINE
  5
2D2
330
1F
100
AcDbEntity
  8
0
  6
Continuous
 62
     7
370
    25
100
AcDbLine
 10
2009.7925257536
 20
7348.5334014201
 30
0.0
 11
2009.7925257536
 21
7348.5834014201
 31
0.0
  0
LINE
  5
2D3
330
1F
100
AcDbEntity
  8
0
  6
Continuous
 62
     7
370
    25
100
AcDbLine
 10
2009.7925257536
 20
7348.5334014201
 30
0.0
 11
1998.2925257536
 21
7348.5334014201
 31
0.0
  0
LINE
  5
2D4
330
1F
100
AcDbEntity
  8
0
  6
Continuous
 62
     7
370
    25
100
AcDbLine
 10
1998.2925257536
 20
7348.5334014201
 30
0.0
 11
1998.2925257536
 21
7348.5834014201
 31
0.0
  0
LWPOLYLINE
  5
2D5
330
1F
100
AcDbEntity
  8
0
  6
Continuous
 62
     7
370
    25
100
AcDbPolyline
 90
        7
 70
   128
 43
0.0
 10
1969.4315808718
 20
7378.4834695583
 10
1969.5002924793
 20
7378.3226155291
 10
1969.5221570164
 20
7378.050600416
 10
1969.4342245186
 20
7377.7749397578
 10
1969.2412354497
 20
7377.5104944918
 10
1968.9535939004
 20
7377.2715209309
 10
1968.9454626243
 20
7377.2660867101
  0
LINE
  5
2D6
330
1F
100
AcDbEntity
  8
0
  6
Continuous
 62
     7
370
    25
100
AcDbLine
 10
1969.5905575555
 20
7377.5970745091
 30
0.0
 11
1969.5921412228
 21
7377.4644132388
 31
0.0
  0
LINE
  5
2D7
330
1F
100
AcDbEntity
  8
0
  6
Continuous
 62
     7
370
    25
100
AcDbLine
 10
1968.4530029997
 20
7381.2334014201
 30
0.0
 11
1968.4530029997
 21
7378.9334014201
 31
0.0
  0
LINE
  5
2D8
330
1F
100
AcDbEntity
  8
0
  6
Continuous
 62
     7
370
    25
100
AcDbLine
 10
1968.4530029997
 20
7378.9334014201
 30
0.0
 11
1966.1739818971
 21
7378.9334014201
 31
0.0
  0
LINE
  5
2D9
330
1F
100
AcDbEntity
  8
0
  6
Continuous
 62
     7
370
    25
100
AcDbLine
 10
1968.4530029997
 20
7381.2334014201
 30
0.0
 11
1966.5425257535
 21
7381.2334014201
 31
0.0
  0
LINE
  5
2DA
330
1F
100
AcDbEntity
  8
0
  6
Continuous
 62
     7
370
    25
100
AcDbLine
 10
1970.91106961
 20
7378.9334014201
 30
0.0
 11
1968.4530029997
 21
7378.9334014201
 31
0.0
  0
LINE
  5
2DB
330
1F
100
AcDbEntity
  8
0
  6
Continuous
 62
     7
370
    25
100
AcDbLine
 10
1970.5425257536
 20
7381.2334014201
 30
0.0
 11
1968.4530029997
 21
7381.2334014201
 31
0.0
  0
LWPOLYLINE
  5
2DC
330
1F
100
AcDbEntity
  8
0
  6
Continuous
 62
     7
370
    25
100
AcDbPolyline
 90
        3
 70
   128
 43
0.0
 10
1999.5771613664
 20
7354.0834014201
 10
1999.1360616163
 20
7354.3688571941
 10
1998.6324021559
 20
7354.7334014201
  0
ARC
  5
2DD
330
1F
100
AcDbEntity
  8
0
  6
Continuous
 62
     7
370
    25
100
AcDbCircle
 10
2005.3312360097
 20
7363.4584014201
 30
0.0
 40
9.875000000000554
100
AcDbArc
 50
242.0729117415
 51
251.6893484535
  0
LINE
  5
2DE
330
1F
100
AcDbEntity
  8
0
  6
Continuous
 62
     7
370
    25
100
AcDbLine
 10
2008.4336544211
 20
7354.0834014201
 30
0.0
 11
2008.5425257536
 21
7354.1201337445
 31
0.0
  0
LINE
  5
2DF
330
1F
100
AcDbEntity
  8
0
  6
Continuous
 62
     7
370
    25
100
AcDbLine
 10
2017.2925257536
 20
7353.5834014201
 30
0.0
 11
2017.2925257536
 21
7348.5834014201
 31
0.0
  0
ARC
  5
2E0
330
1F
100
AcDbEntity
  8
0
  6
Continuous
 62
     7
370
    25
100
AcDbCircle
 10
2017.2925257536
 20
7353.5834014201
 30
0.0
 40
5.0
100
AcDbArc
 50
270.0
 51
0.0
  0
LINE
  5
2E1
330
1F
100
AcDbEntity
  8
0
  6
Continuous
 62
     7
370
    25
100
AcDbLine
 10
2022.2925257536
 20
7353.5834014201
 30
0.0
 11
2017.2925257536
 21
7353.5834014201
 31
0.0
  0
LINE
  5
2E2
330
1F
100
AcDbEntity
  8
0
  6
Continuous
 62
     7
370
    25
100
AcDbLine
 10
2017.2925257536
 20
7348.5834014201
 30
0.0
 11
1942.2925257536
 21
7348.5834014201
 31
0.0
  0
LINE
  5
2E3
330
1F
100
AcDbEntity
  8
0
  6
Continuous
 62
     7
370
    25
100
AcDbLine
 10
1942.2925257536
 20
7353.5834014201
 30
0.0
 11
1942.2925257536
 21
7348.5834014201
 31
0.0
  0
LINE
  5
2E4
330
1F
100
AcDbEntity
  8
0
  6
Continuous
 62
     7
370
    25
100
AcDbLine
 10
2017.2925257536
 20
7353.5834014201
 30
0.0
 11
1942.2925257536
 21
7353.5834014201
 31
0.0
  0
ARC
  5
2E5
330
1F
100
AcDbEntity
  8
0
  6
Continuous
 62
     7
370
    25
100
AcDbCircle
 10
1942.2925257536
 20
7353.5834014201
 30
0.0
 40
5.0
100
AcDbArc
 50
180.0
 51
270.0
  0
LINE
  5
2E6
330
1F
100
AcDbEntity
  8
0
  6
Continuous
 62
     7
370
    25
100
AcDbLine
 10
1942.2925257536
 20
7353.5834014201
 30
0.0
 11
1937.2925257536
 21
7353.5834014201
 31
0.0
  0
ARC
  5
2E7
330
1F
100
AcDbEntity
  8
0
  6
Continuous
 62
     7
370
    25
100
AcDbCircle
 10
1952.2925245325
 20
7357.8579165646
 30
0.0
 40
3.499515166312395
100
AcDbArc
 50
270.4298344677
 51
296.7673898633
  0
ARC
  5
2E8
330
1F
100
AcDbEntity
  8
0
  6
Continuous
 62
     7
370
    25
100
AcDbCircle
 10
1952.2925257536
 20
7357.8584014201
 30
0.0
 40
3.500000000000492
100
AcDbArc
 50
249.0751675724
 51
296.7655005768
  0
LINE
  5
2E9
330
1F
100
AcDbEntity
  8
0
  6
Continuous
 62
     7
370
    25
100
AcDbLine
 10
1956.4732337279
 20
7354.7334014201
 30
0.0
 11
1956.4114996819
 21
7354.4499725869
 31
0.0
  0
LINE
  5
2EA
330
1F
100
AcDbEntity
  8
0
  6
Continuous
 62
     7
370
    25
100
AcDbLine
 10
1956.4114996819
 20
7354.4499725869
 30
0.0
 11
1955.9229541478
 21
7354.5563833996
 31
0.0
  0
ARC
  5
2EB
330
1F
100
AcDbEntity
  8
0
  6
Continuous
 62
     7
370
    25
100
AcDbCircle
 10
1955.9229541478
 20
7354.5563833996
 30
0.0
 40
0.5000000000012538
100
AcDbArc
 50
288.9214619444
 51
347.7122418507
  0
ARC
  5
2EC
330
1F
100
AcDbEntity
  8
0
  6
Continuous
 62
     7
370
    25
100
AcDbCircle
 10
1958.134733995
 20
7354.4716180036
 30
0.0
 40
0.2385754587287774
100
AcDbArc
 50
273.1430475072
 51
2.8310323024
  0
LINE
  5
2ED
330
1F
100
AcDbEntity
  8
0
  6
Continuous
 62
     7
370
    25
100
AcDbLine
 10
1958.1478148533
 20
7354.2334014201
 30
0.0
 11
1956.304638102
 21
7354.2334014201
 31
0.0
  0
LINE
  5
2EE
330
1F
100
AcDbEntity
  8
0
  6
Continuous
 62
     7
370
    25
100
AcDbLine
 10
1968.1675257536
 20
7342.1329510178
 30
0.0
 11
1991.4175257536
 21
7342.1329510178
 31
0.0
  0
CIRCLE
  5
2EF
330
1F
100
AcDbEntity
  8
0
  6
Continuous
 62
     7
370
    25
100
AcDbCircle
 10
1979.7925257536
 20
7387.7334014201
 30
0.0
 40
5.500000000000316
  0
CIRCLE
  5
2F0
330
1F
100
AcDbEntity
  8
0
  6
Continuous
 62
     7
370
    25
100
AcDbCircle
 10
1979.7925257536
 20
7387.7334014201
 30
0.0
 40
4.750000000000095
  0
CIRCLE
  5
2F1
330
1F
100
AcDbEntity
  8
0
  6
Continuous
 62
     7
370
    25
100
AcDbCircle
 10
1979.7925257536
 20
7387.7334014201
 30
0.0
 40
5.250000000000787
  0
CIRCLE
  5
2F2
330
1F
100
AcDbEntity
  8
0
  6
Continuous
 62
     7
370
    25
100
AcDbCircle
 10
1979.7925257536
 20
7387.7334014201
 30
0.0
 40
3.750000000000664
  0
LINE
  5
2F3
330
1F
100
AcDbEntity
  8
0
  6
Continuous
 62
     7
370
    25
100
AcDbLine
 10
1976.0655721992
 20
7391.7781285065
 30
0.0
 11
1976.7614368403
 21
7392.9834014201
 31
0.0
  0
LINE
  5
2F4
330
1F
100
AcDbEntity
  8
0
  6
Continuous
 62
     7
370
    25
100
AcDbLine
 10
1976.7614368403
 20
7392.9834014201
 30
0.0
 11
1978.1531661225
 21
7392.9834014201
 31
0.0
  0
LINE
  5
2F5
330
1F
100
AcDbEntity
  8
0
  6
Continuous
 62
     7
370
    25
100
AcDbLine
 10
1974.4262125681
 20
7386.5281285065
 30
0.0
 11
1973.7303479271
 21
7387.7334014201
 31
0.0
  0
LINE
  5
2F6
330
1F
100
AcDbEntity
  8
0
  6
Continuous
 62
     7
370
    25
100
AcDbLine
 10
1973.7303479271
 20
7387.7334014201
 30
0.0
 11
1974.4262125681
 21
7388.9386743336
 31
0.0
  0
LINE
  5
2F7
330
1F
100
AcDbEntity
  8
0
  6
Continuous
 62
     7
370
    25
100
AcDbLine
 10
1978.1531661225
 20
7382.4834014201
 30
0.0
 11
1976.7614368403
 21
7382.4834014201
 31
0.0
  0
LINE
  5
2F8
330
1F
100
AcDbEntity
  8
0
  6
Continuous
 62
     7
370
    25
100
AcDbLine
 10
1976.7614368403
 20
7382.4834014201
 30
0.0
 11
1976.0655721992
 21
7383.6886743336
 31
0.0
  0
LINE
  5
2F9
330
1F
100
AcDbEntity
  8
0
  6
Continuous
 62
     7
370
    25
100
AcDbLine
 10
1983.5194793079
 20
7383.6886743336
 30
0.0
 11
1982.8236146668
 21
7382.4834014201
 31
0.0
  0
LINE
  5
2FA
330
1F
100
AcDbEntity
  8
0
  6
Continuous
 62
     7
370
    25
100
AcDbLine
 10
1982.8236146668
 20
7382.4834014201
 30
0.0
 11
1981.4318853846
 21
7382.4834014201
 31
0.0
  0
LINE
  5
2FB
330
1F
100
AcDbEntity
  8
0
  6
Continuous
 62
     7
370
    25
100
AcDbLine
 10
1982.8236146668
 20
7392.9834014201
 30
0.0
 11
1983.5194793079
 21
7391.7781285065
 31
0.0
  0
LINE
  5
2FC
330
1F
100
AcDbEntity
  8
0
  6
Continuous
 62
     7
370
    25
100
AcDbLine
 10
1981.4318853846
 20
7392.9834014201
 30
0.0
 11
1982.8236146668
 21
7392.9834014201
 31
0.0
  0
LINE
  5
2FD
330
1F
100
AcDbEntity
  8
0
  6
Continuous
 62
     7
370
    25
100
AcDbLine
 10
1985.85470358
 20
7387.7334014201
 30
0.0
 11
1985.158838939
 21
7386.5281285065
 31
0.0
  0
LINE
  5
2FE
330
1F
100
AcDbEntity
  8
0
  6
Continuous
 62
     7
370
    25
100
AcDbLine
 10
1985.158838939
 20
7388.9386743336
 30
0.0
 11
1985.85470358
 21
7387.7334014201
 31
0.0
  0
CIRCLE
  5
2FF
330
1F
100
AcDbEntity
  8
0
  6
Continuous
 62
     7
370
    25
100
AcDbCircle
 10
1979.7925257536
 20
7387.7334014201
 30
0.0
 40
2.249999999999889
  0
LINE
  5
300
330
1F
100
AcDbEntity
  8
0
  6
Continuous
 62
     7
370
    25
100
AcDbLine
 10
1990.5798570007
 20
7377.2765868921
 30
0.0
 11
1990.6839456152
 21
7378.6233125121
 31
0.0
  0
LINE
  5
301
330
1F
100
AcDbEntity
  8
0
  6
Continuous
 62
     7
370
    25
100
AcDbLine
 10
1991.1785950663
 20
7377.2371071381
 30
0.0
 11
1991.2744554434
 21
7378.4773736801
 31
0.0
  0
LINE
  5
302
330
1F
100
AcDbEntity
  8
0
  6
Continuous
 62
     7
370
    25
100
AcDbLine
 10
1991.4675257535
 20
7377.2697912642
 30
0.0
 11
1991.4675257535
 21
7380.4038220744
 31
0.0
  0
CIRCLE
  5
303
330
1F
100
AcDbEntity
  8
0
  6
Continuous
 62
     7
370
    25
100
AcDbCircle
 10
1947.0425257536
 20
7357.7334014201
 30
0.0
 40
0.749999999998853
  0
CIRCLE
  5
304
330
1F
100
AcDbEntity
  8
0
  6
Continuous
 62
     7
370
    25
100
AcDbCircle
 10
1947.0425257536
 20
7357.7334014201
 30
0.0
 40
1.65907643312054
  0
CIRCLE
  5
305
330
1F
100
AcDbEntity
  8
0
  6
Continuous
 62
     7
370
    25
100
AcDbCircle
 10
1947.0425257536
 20
7357.7334014201
 30
0.0
 40
0.6249999999994631
  0
CIRCLE
  5
306
330
1F
100
AcDbEntity
  8
0
  6
Continuous
 62
     7
370
    25
100
AcDbCircle
 10
1947.0425257536
 20
7357.7334014201
 30
0.0
 40
0.5249999999991705
  0
CIRCLE
  5
307
330
1F
100
AcDbEntity
  8
0
  6
Continuous
 62
     7
370
    25
100
AcDbCircle
 10
2012.5425257536
 20
7357.7334014201
 30
0.0
 40
0.7500000000007981
  0
CIRCLE
  5
308
330
1F
100
AcDbEntity
  8
0
  6
Continuous
 62
     7
370
    25
100
AcDbCircle
 10
2012.5425257536
 20
7357.7334014201
 30
0.0
 40
1.659076433121038
  0
CIRCLE
  5
309
330
1F
100
AcDbEntity
  8
0
  6
Continuous
 62
     7
370
    25
100
AcDbCircle
 10
2012.5425257536
 20
7357.7334014201
 30
0.0
 40
0.6250000000007888
  0
CIRCLE
  5
30A
330
1F
100
AcDbEntity
  8
0
  6
Continuous
 62
     7
370
    25
100
AcDbCircle
 10
2012.5425257536
 20
7357.7334014201
 30
0.0
 40
0.52499999999945
  0
LINE
  5
30B
330
1F
100
AcDbEntity
  8
0
  6
Continuous
 62
     7
370
    25
100
AcDbLine
 10
2017.688972363
 20
7393.8334014201
 30
0.0
 11
2017.688972363
 21
7354.7334014201
 31
0.0
  0
LINE
  5
30C
330
1F
100
AcDbEntity
  8
0
  6
Continuous
 62
     7
370
    25
100
AcDbLine
 10
1941.8960791441
 20
7354.7334014201
 30
0.0
 11
2017.688972363
 21
7354.7334014201
 31
0.0
  0
LINE
  5
30D
330
1F
100
AcDbEntity
  8
0
  6
Continuous
 62
     7
370
    25
100
AcDbLine
 10
1941.8960791441
 20
7393.8334014201
 30
0.0
 11
1941.8960791441
 21
7354.7334014201
 31
0.0
  0
LINE
  5
30E
330
1F
100
AcDbEntity
  8
0
  6
Continuous
 62
     7
370
    25
100
AcDbLine
 10
1941.8960791441
 20
7393.8334014201
 30
0.0
 11
2017.688972363
 21
7393.8334014201
 31
0.0
  0
CIRCLE
  5
30F
330
1F
100
AcDbEntity
  8
0
  6
Continuous
 62
     7
370
    25
100
AcDbCircle
 10
1991.0425257536
 20
7379.7334014201
 30
0.0
 40
2.499999999999091
  0
CIRCLE
  5
310
330
1F
100
AcDbEntity
  8
0
  6
Continuous
 62
     7
370
    25
100
AcDbCircle
 10
1968.5425257536
 20
7379.7334014201
 30
0.0
 40
2.499999999999091
  0
SPLINE
  5
311
330
1F
100
AcDbEntity
  8
0
  6
Continuous
 62
     7
370
    25
100
AcDbSpline
210
0.0
220
0.0
230
1.0
 70
     8
 71
     3
 72
    11
 73
     7
 74
     0
 42
0.00000001
 43
0.00000001
 40
0.0
 40
0.0
 40
0.0
 40
0.0
 40
0.2499999999999453
 40
0.4999999999999598
 40
0.7499999999999714
 40
1.0
 40
1.0
 40
1.0
 40
1.0
 10
2017.642525753552
 20
7394.733401420081
 30
0.0
 10
2017.646396304336
 20
7394.719873004573
 30
0.0
 10
2017.654137405904
 20
7394.692816173556
 30
0.0
 10
2017.665749058255
 20
7394.484691881746
 30
0.0
 10
2017.677360710607
 20
7394.187201438359
 30
0.0
 10
2017.685101812175
 20
7393.951334759508
 30
0.0
 10
2017.688972362959
 20
7393.833401420082
 30
0.0
  0
SPLINE
  5
312
330
1F
100
AcDbEntity
  8
0
  6
Continuous
 62
     7
370
    25
100
AcDbSpline
210
0.0
220
0.0
230
1.0
 70
     8
 71
     3
 72
    11
 73
     7
 74
     0
 42
0.00000001
 43
0.00000001
 40
0.0
 40
0.0
 40
0.0
 40
0.0
 40
0.250000000000029
 40
0.5000000000000425
 40
0.7500000000000532
 40
0.9999999999999999
 40
0.9999999999999999
 40
0.9999999999999999
 40
0.9999999999999999
 10
1941.896079144145
 20
7393.833401420082
 30
0.0
 10
1941.899949694929
 20
7393.951334759508
 30
0.0
 10
1941.907690796497
 20
7394.187201438359
 30
0.0
 10
1941.919302448848
 20
7394.484691881746
 30
0.0
 10
1941.9309141012
 20
7394.692816173556
 30
0.0
 10
1941.938655202768
 20
7394.719873004573
 30
0.0
 10
1941.942525753552
 20
7394.733401420081
 30
0.0
  0
LINE
  5
313
330
1F
100
AcDbEntity
  8
0
  6
Continuous
 62
     7
370
    25
100
AcDbLine
 10
1941.9425257536
 20
7394.7334014201
 30
0.0
 11
2017.6425257536
 21
7394.7334014201
 31
0.0
  0
LINE
  5
314
330
1F
100
AcDbEntity
  8
0
  6
Continuous
 62
     7
370
    25
100
AcDbLine
 10
2008.5425257536
 20
7354.0834014201
 30
0.0
 11
2008.5425257536
 21
7354.7334014201
 31
0.0
  0
LINE
  5
315
330
1F
100
AcDbEntity
  8
0
  6
Continuous
 62
     7
370
    25
100
AcDbLine
 10
2017.6425257536
 20
7354.7334014201
 30
0.0
 11
2017.6425257536
 21
7354.0834014201
 31
0.0
  0
LINE
  5
316
330
1F
100
AcDbEntity
  8
0
  6
Continuous
 62
     7
370
    25
100
AcDbLine
 10
1941.9425257536
 20
7354.0834014201
 30
0.0
 11
1941.9425257536
 21
7354.7334014201
 31
0.0
  0
LINE
  5
317
330
1F
100
AcDbEntity
  8
0
  6
Continuous
 62
     7
370
    25
100
AcDbLine
 10
1951.0425257536
 20
7354.7334014201
 30
0.0
 11
1951.0425257536
 21
7354.0916419955
 31
0.0
  0
SPLINE
  5
318
330
1F
100
AcDbEntity
  8
0
  6
Continuous
 62
     7
370
    25
100
AcDbSpline
210
0.0
220
0.0
230
1.0
 70
     8
 71
     3
 72
    11
 73
     7
 74
     0
 42
0.00000001
 43
0.00000001
 40
0.0
 40
0.0
 40
0.0
 40
0.0
 40
0.2500000000000351
 40
0.5000000000000482
 40
0.7500000000000417
 40
1.0
 40
1.0
 40
1.0
 40
1.0
 10
1941.942525753552
 20
7394.233401420081
 30
0.0
 10
1941.890110936029
 20
7394.227388790967
 30
0.0
 10
1941.785281300984
 20
7394.215363532738
 30
0.0
 10
1941.653063326145
 20
7394.122863847488
 30
0.0
 10
1941.560563640897
 20
7393.990645872649
 30
0.0
 10
1941.548538382667
 20
7393.885816237605
 30
0.0
 10
1941.542525753552
 20
7393.833401420082
 30
0.0
  0
LINE
  5
319
330
1F
100
AcDbEntity
  8
0
  6
Continuous
 62
     7
370
    25
100
AcDbLine
 10
1941.0425257536
 20
7393.8334014201
 30
0.0
 11
1941.5425257536
 21
7393.8334014201
 31
0.0
  0
SPLINE
  5
31A
330
1F
100
AcDbEntity
  8
0
  6
Continuous
 62
     7
370
    25
100
AcDbSpline
210
0.0
220
0.0
230
1.0
 70
     8
 71
     3
 72
    11
 73
     7
 74
     0
 42
0.00000001
 43
0.00000001
 40
0.0
 40
0.0
 40
0.0
 40
0.0
 40
0.2500000000000075
 40
0.5000000000000071
 40
0.7500000000000143
 40
1.0
 40
1.0
 40
1.0
 40
1.0
 10
1941.942525753552
 20
7394.733401420081
 30
0.0
 10
1941.824592414126
 20
7394.719873004573
 30
0.0
 10
1941.588725735275
 20
7394.692816173556
 30
0.0
 10
1941.291235291888
 20
7394.484691881746
 30
0.0
 10
1941.083111000077
 20
7394.187201438359
 30
0.0
 10
1941.05605416906
 20
7393.951334759508
 30
0.0
 10
1941.042525753552
 20
7393.833401420082
 30
0.0
  0
LINE
  5
31B
330
1F
100
AcDbEntity
  8
0
  6
Continuous
 62
     7
370
    25
100
AcDbLine
 10
2018.5425257536
 20
7393.8334014201
 30
0.0
 11
2018.0425257536
 21
7393.8334014201
 31
0.0
  0
SPLINE
  5
31C
330
1F
100
AcDbEntity
  8
0
  6
Continuous
 62
     7
370
    25
100
AcDbSpline
210
0.0
220
0.0
230
1.0
 70
     8
 71
     3
 72
    11
 73
     7
 74
     0
 42
0.00000001
 43
0.00000001
 40
0.0
 40
0.0
 40
0.0
 40
0.0
 40
0.2500000000000084
 40
0.5000000000000124
 40
0.7500000000000153
 40
1.0
 40
1.0
 40
1.0
 40
1.0
 10
2018.042525753552
 20
7393.833401420082
 30
0.0
 10
2018.036513124437
 20
7393.885816237605
 30
0.0
 10
2018.024487866207
 20
7393.990645872649
 30
0.0
 10
2017.931988180958
 20
7394.122863847488
 30
0.0
 10
2017.79977020612
 20
7394.215363532738
 30
0.0
 10
2017.694940571075
 20
7394.227388790967
 30
0.0
 10
2017.642525753552
 20
7394.233401420081
 30
0.0
  0
SPLINE
  5
31D
330
1F
100
AcDbEntity
  8
0
  6
Continuous
 62
     7
370
    25
100
AcDbSpline
210
0.0
220
0.0
230
1.0
 70
     8
 71
     3
 72
    11
 73
     7
 74
     0
 42
0.00000001
 43
0.00000001
 40
0.0
 40
0.0
 40
0.0
 40
0.0
 40
0.2500000000000039
 40
0.500000000000005
 40
0.7500000000000057
 40
1.0
 40
1.0
 40
1.0
 40
1.0
 10
2018.542525753552
 20
7393.833401420082
 30
0.0
 10
2018.528997338044
 20
7393.951334759508
 30
0.0
 10
2018.501940507026
 20
7394.187201438359
 30
0.0
 10
2018.293816215216
 20
7394.484691881746
 30
0.0
 10
2017.996325771829
 20
7394.692816173556
 30
0.0
 10
2017.760459092978
 20
7394.719873004573
 30
0.0
 10
2017.642525753552
 20
7394.733401420081
 30
0.0
  0
LINE
  5
31E
330
1F
100
AcDbEntity
  8
0
  6
Continuous
 62
     7
370
    25
100
AcDbLine
 10
2018.5425257536
 20
7354.7334014201
 30
0.0
 11
2018.0425257536
 21
7354.7334014201
 31
0.0
  0
LINE
  5
31F
330
1F
100
AcDbEntity
  8
0
  6
Continuous
 62
     7
370
    25
100
AcDbLine
 10
2018.0425257536
 20
7393.8334014201
 30
0.0
 11
2018.0425257536
 21
7354.7334014201
 31
0.0
  0
LINE
  5
320
330
1F
100
AcDbEntity
  8
0
  6
Continuous
 62
     7
370
    25
100
AcDbLine
 10
2018.5425257536
 20
7393.8334014201
 30
0.0
 11
2018.5425257536
 21
7354.7334014201
 31
0.0
  0
LINE
  5
321
330
1F
100
AcDbEntity
  8
0
  6
Continuous
 62
     7
370
    25
100
AcDbLine
 10
1941.5425257536
 20
7393.8334014201
 30
0.0
 11
1941.5425257536
 21
7354.7334014201
 31
0.0
  0
LINE
  5
322
330
1F
100
AcDbEntity
  8
0
  6
Continuous
 62
     7
370
    25
100
AcDbLine
 10
1941.0425257536
 20
7354.7334014201
 30
0.0
 11
1941.5425257536
 21
7354.7334014201
 31
0.0
  0
LINE
  5
323
330
1F
100
AcDbEntity
  8
0
  6
Continuous
 62
     7
370
    25
100
AcDbLine
 10
1941.0425257536
 20
7393.8334014201
 30
0.0
 11
1941.0425257536
 21
7354.7334014201
 31
0.0
  0
ARC
  5
324
330
1F
100
AcDbEntity
  8
0
  6
Continuous
 62
     7
370
    25
100
AcDbCircle
 10
1941.9425257536
 20
7354.7334014201
 30
0.0
 40
0.3999999999998636
100
AcDbArc
 50
180.0
 51
270.0
  0
ARC
  5
325
330
1F
100
AcDbEntity
  8
0
  6
Continuous
 62
     7
370
    25
100
AcDbCircle
 10
1941.9425257536
 20
7354.7334014201
 30
0.0
 40
0.9000000000001627
100
AcDbArc
 50
180.0
 51
226.2382573074
  0
ARC
  5
326
330
1F
100
AcDbEntity
  8
0
  6
Continuous
 62
     7
370
    25
100
AcDbCircle
 10
2017.6425257536
 20
7354.7334014201
 30
0.0
 40
0.3999999999998636
100
AcDbArc
 50
270.0
 51
0.0
  0
ARC
  5
327
330
1F
100
AcDbEntity
  8
0
  6
Continuous
 62
     7
370
    25
100
AcDbCircle
 10
2017.6425257536
 20
7354.7334014201
 30
0.0
 40
0.9000000000001627
100
AcDbArc
 50
313.7617426926
 51
0.0
  0
LINE
  5
328
330
1F
100
AcDbEntity
  8
0
  6
Continuous
 62
     8
370
    25
100
AcDbLine
 10
2017.0425257536
 20
7353.5834014201
 30
0.0
 11
2017.0425257536
 21
7354.0834014201
 31
0.0
  0
LINE
  5
329
330
1F
100
AcDbEntity
  8
0
  6
Continuous
 62
     8
370
    25
100
AcDbLine
 10
1942.5425257536
 20
7353.5834014201
 30
0.0
 11
1942.5425257536
 21
7354.0834014201
 31
0.0
  0
LINE
  5
32A
330
1F
100
AcDbEntity
  8
0
  6
Continuous
 62
     8
370
    25
100
AcDbLine
 10
1969.7425257536
 20
7322.6329510178
 30
0.0
 11
1989.8425257536
 21
7322.6329510178
 31
0.0
  0
LINE
  5
32B
330
1F
100
AcDbEntity
  8
0
  6
Continuous
 62
     8
370
    25
100
AcDbLine
 10
1965.5425257536
 20
7347.1834014201
 30
0.0
 11
1994.0425257536
 21
7347.1834014201
 31
0.0
  0
LINE
  5
32C
330
1F
100
AcDbEntity
  8
0
  6
Continuous
 62
     8
370
    25
100
AcDbLine
 10
1965.5425257536
 20
7348.4834014201
 30
0.0
 11
1994.0425257536
 21
7348.4834014201
 31
0.0
  0
LINE
  5
32D
330
1F
100
AcDbEntity
  8
0
  6
Continuous
 62
     8
370
    25
100
AcDbLine
 10
1955.9229541478
 20
7354.5563833996
 30
0.0
 11
1955.9615107
 21
7354.7334014201
 31
0.0
  0
LINE
  5
32E
330
1F
100
AcDbEntity
  8
0
  6
Continuous
 62
     8
370
    25
100
AcDbLine
 10
1954.4419982808
 20
7354.0834014201
 30
0.0
 11
1955.9229541478
 21
7354.5563833996
 31
0.0
  0
LINE
  5
32F
330
1F
100
AcDbEntity
  8
0
  6
Continuous
 62
     8
370
    25
100
AcDbLine
 10
1956.0740133102
 20
7354.0834014201
 30
0.0
 11
1955.9229541478
 21
7354.5563833996
 31
0.0
  0
ELLIPSE
  5
330
330
1F
100
AcDbEntity
  8
0
  6
Continuous
 62
     8
370
    25
100
AcDbEllipse
 10
1952.2925257536
 20
7356.265930434
 30
0.0
 11
6.75
 21
0.0
 31
0.0
210
0.0
220
0.0
230
1.0
 40
0.6081871345
 41
5.834028881449315
 42
5.900612677494904
  0
LINE
  5
331
330
1F
100
AcDbEntity
  8
0
  6
Continuous
 62
     8
370
    25
100
AcDbLine
 10
1956.4187808646
 20
7354.4834014201
 30
0.0
 11
1958.3730182802
 21
7354.4834014201
 31
0.0
  0
ARC
  5
332
330
1F
100
AcDbEntity
  8
0
  6
Continuous
 62
     8
370
    25
100
AcDbCircle
 10
1958.2048835
 20
7354.4345972723
 30
0.0
 40
0.1750746959459668
100
AcDbArc
 50
324.015387828
 51
16.1863225141
  0
SPLINE
  5
333
330
1F
100
AcDbEntity
  8
0
  6
Continuous
 62
     8
370
    25
100
AcDbSpline
210
0.0
220
0.0
230
1.0
 70
     8
 71
     3
 72
     9
 73
     5
 74
     0
 42
0.00000001
 43
0.00000001
 40
0.0
 40
0.0
 40
0.0
 40
0.0
 40
0.8994550066808132
 40
1.0
 40
1.0
 40
1.0
 40
1.0
 10
1958.637715573113
 20
7354.733401420081
 30
0.0
 10
1958.612465085426
 20
7354.68693395669
 30
0.0
 10
1958.584391988384
 20
7354.635272158104
 30
0.0
 10
1958.536997389753
 20
7354.603399988158
 30
0.0
 10
1958.53223210015
 20
7354.600195401044
 30
0.0
  0
LINE
  5
334
330
1F
100
AcDbEntity
  8
0
  6
Continuous
 62
     8
370
    25
100
AcDbLine
 10
1990.9777769808
 20
7377.2342400415
 30
0.0
 11
1991.0827561883
 21
7378.5924883863
 31
0.0
  0
LINE
  5
335
330
1F
100
AcDbEntity
  8
0
  6
Continuous
 62
     8
370
    25
100
AcDbLine
 10
1990.7781987454
 20
7377.2474144465
 30
0.0
 11
1990.8833509017
 21
7378.6079004492
 31
0.0
  0
LINE
  5
336
330
1F
100
AcDbEntity
  8
0
  6
Continuous
 62
     8
370
    25
100
AcDbLine
 10
1991.4314062618
 20
7377.2638322369
 30
0.0
 11
1991.4675257535
 21
7377.7311556338
 31
0.0
  0
LINE
  5
337
330
1F
100
AcDbEntity
  8
0
  6
Continuous
 62
     8
370
    25
100
AcDbLine
 10
1991.2794767553
 20
7377.2446559082
 30
0.0
 11
1991.3818641182
 21
7378.5693702919
 31
0.0
  0
LINE
  5
338
330
1F
100
AcDbEntity
  8
0
  6
Continuous
 62
     8
370
    25
100
AcDbLine
 10
1991.7175257535
 20
7380.3096752976
 30
0.0
 11
1991.7175257535
 21
7377.3262506147
 31
0.0
  0
ENDSEC
  0
SECTION
  2
OBJECTS
  0
DICTIONARY
  5
C
330
0
100
AcDbDictionary
281
     1
  3
ACAD_GROUP
350
D
  3
ACAD_LAYOUT
350
1A
  3
ACAD_MLINESTYLE
350
17
  3
ACAD_PLOTSETTINGS
350
19
  3
ACAD_PLOTSTYLENAME
350
E
  3
ACAD_SCALELIST
350
47
  3
DWGPROPS
350
339
  0
DICTIONARY
  5
D
102
{ACAD_REACTORS
330
C
102
}
330
C
100
AcDbDictionary
281
     1
  0
DICTIONARY
  5
1A
102
{ACAD_REACTORS
330
C
102
}
330
C
100
AcDbDictionary
281
     1
  3
Layout1
350
1E
  3
Layout2
350
26
  3
Model
350
22
  0
DICTIONARY
  5
17
102
{ACAD_REACTORS
330
C
102
}
330
C
100
AcDbDictionary
281
     1
  3
Standard
350
18
  0
DICTIONARY
  5
19
102
{ACAD_REACTORS
330
C
102
}
330
C
100
AcDbDictionary
281
     1
  0
ACDBDICTIONARYWDFLT
  5
E
102
{ACAD_REACTORS
330
C
102
}
330
C
100
AcDbDictionary
281
     1
  3
Normal
350
F
100
AcDbDictionaryWithDefault
340
F
  0
DICTIONARY
  5
47
102
{ACAD_REACTORS
330
C
102
}
330
C
100
AcDbDictionary
281
     1
  3
A0
350
48
  3
A1
350
49
  3
A2
350
4A
  3
A3
350
4B
  3
A4
350
4C
  3
A5
350
4D
  3
A6
350
4E
  3
A7
350
4F
  3
A8
350
50
  3
A9
350
51
  3
B0
350
52
  3
B1
350
53
  3
B2
350
54
  3
B3
350
55
  3
B4
350
56
  3
B5
350
57
  3
B6
350
58
  3
B7
350
59
  3
B8
350
5A
  3
B9
350
5B
  3
C0
350
5C
  3
C1
350
5D
  3
C2
350
5E
  3
C3
350
5F
  3
C4
350
60
  3
C5
350
61
  3
C6
350
62
  3
C7
350
63
  3
C8
350
64
  3
C9
350
65
  3
D0
350
66
  3
D1
350
67
  3
D2
350
68
  0
XRECORD
  5
339
102
{ACAD_REACTORS
330
C
102
}
330
C
100
AcDbXrecord
280
     1
  1
DWGPROPS COOKIE
  2

  3

  4

  6

  7

  8
radek.stransky
  9

300
=
301
=
302
=
303
=
304
=
305
=
306
=
307
=
308
=
309
=
 40
0.0
 41
2459095.471741227
 42
2459095.471741632
  1

 90
        0
  0
LAYOUT
  5
1E
102
{ACAD_REACTORS
330
1A
102
}
330
1A
100
AcDbPlotSettings
  1

  2
none_device
  4

  6

 40
0.0
 41
0.0
 42
0.0
 43
0.0
 44
0.0
 45
0.0
 46
0.0
 47
0.0
 48
0.0
 49
0.0
140
0.0
141
0.0
142
1.0
143
1.0
 70
   688
 72
     1
 73
     0
 74
     5
  7

 75
    16
147
1.0
148
0.0
149
0.0
100
AcDbLayout
  1
Layout1
 70
     1
 71
     1
 10
0.0
 20
0.0
 11
420.0
 21
297.0
 12
0.0
 22
0.0
 32
0.0
 14
1.0000000000E+20
 24
1.0000000000E+20
 34
1.0000000000E+20
 15
-1.0000000000E+20
 25
-1.0000000000E+20
 35
-1.0000000000E+20
146
0.0
 13
0.0
 23
0.0
 33
0.0
 16
1.0
 26
0.0
 36
0.0
 17
0.0
 27
1.0
 37
0.0
 76
     0
330
1B
  0
LAYOUT
  5
26
102
{ACAD_REACTORS
330
1A
102
}
330
1A
100
AcDbPlotSettings
  1

  2
none_device
  4

  6

 40
0.0
 41
0.0
 42
0.0
 43
0.0
 44
0.0
 45
0.0
 46
0.0
 47
0.0
 48
0.0
 49
0.0
140
0.0
141
0.0
142
1.0
143
1.0
 70
   688
 72
     1
 73
     0
 74
     5
  7

 75
    16
147
1.0
148
0.0
149
0.0
100
AcDbLayout
  1
Layout2
 70
     1
 71
     2
 10
0.0
 20
0.0
 11
0.0
 21
0.0
 12
0.0
 22
0.0
 32
0.0
 14
0.0
 24
0.0
 34
0.0
 15
0.0
 25
0.0
 35
0.0
146
0.0
 13
0.0
 23
0.0
 33
0.0
 16
1.0
 26
0.0
 36
0.0
 17
0.0
 27
1.0
 37
0.0
 76
     0
330
23
  0
LAYOUT
  5
22
102
{ACAD_REACTORS
330
1A
102
}
330
1A
100
AcDbPlotSettings
  1

  2
none_device
  4
Letter_(8.50_x_11.00_Inches)
  6

 40
6.35
 41
6.35
 42
6.35000508
 43
6.35000508
 44
215.9
 45
279.4
 46
0.0
 47
0.0
 48
0.0
 49
0.0
140
0.0
141
0.0
142
1.0
143
1.0
 70
  1712
 72
     1
 73
     0
 74
     0
  7

 75
     0
147
1.0
148
0.0
149
0.0
100
AcDbLayout
  1
Model
 70
     1
 71
     0
 10
0.0
 20
0.0
 11
20000.0
 21
10000.0
 12
0.0
 22
0.0
 32
0.0
 14
0.0
 24
0.0
 34
0.0
 15
20000.0
 25
10000.0
 35
0.0
146
0.0
 13
0.0
 23
0.0
 33
0.0
 16
1.0
 26
0.0
 36
0.0
 17
0.0
 27
1.0
 37
0.0
 76
     0
330
1F
331
29
  0
MLINESTYLE
  5
18
102
{ACAD_REACTORS
330
17
102
}
330
17
100
AcDbMlineStyle
  2
Standard
 70
     0
  3

 62
   256
 51
90.0
 52
90.0
 71
     2
 49
0.5
 62
   256
  6
BYLAYER
 49
-0.5
 62
   256
  6
BYLAYER
  0
ACDBPLACEHOLDER
  5
F
102
{ACAD_REACTORS
330
E
102
}
330
E
  0
SCALE
  5
48
102
{ACAD_REACTORS
330
47
102
}
330
47
100
AcDbScale
 70
     0
300
1:1
140
1.0
141
1.0
290
     1
  0
SCALE
  5
49
102
{ACAD_REACTORS
330
47
102
}
330
47
100
AcDbScale
 70
     0
300
1:2
140
1.0
141
2.0
290
     0
  0
SCALE
  5
4A
102
{ACAD_REACTORS
330
47
102
}
330
47
100
AcDbScale
 70
     0
300
1:4
140
1.0
141
4.0
290
     0
  0
SCALE
  5
4B
102
{ACAD_REACTORS
330
47
102
}
330
47
100
AcDbScale
 70
     0
300
1:5
140
1.0
141
5.0
290
     0
  0
SCALE
  5
4C
102
{ACAD_REACTORS
330
47
102
}
330
47
100
AcDbScale
 70
     0
300
1:8
140
1.0
141
8.0
290
     0
  0
SCALE
  5
4D
102
{ACAD_REACTORS
330
47
102
}
330
47
100
AcDbScale
 70
     0
300
1:10
140
1.0
141
10.0
290
     0
  0
SCALE
  5
4E
102
{ACAD_REACTORS
330
47
102
}
330
47
100
AcDbScale
 70
     0
300
1:16
140
1.0
141
16.0
290
     0
  0
SCALE
  5
4F
102
{ACAD_REACTORS
330
47
102
}
330
47
100
AcDbScale
 70
     0
300
1:20
140
1.0
141
20.0
290
     0
  0
SCALE
  5
50
102
{ACAD_REACTORS
330
47
102
}
330
47
100
AcDbScale
 70
     0
300
1:30
140
1.0
141
30.0
290
     0
  0
SCALE
  5
51
102
{ACAD_REACTORS
330
47
102
}
330
47
100
AcDbScale
 70
     0
300
1:40
140
1.0
141
40.0
290
     0
  0
SCALE
  5
52
102
{ACAD_REACTORS
330
47
102
}
330
47
100
AcDbScale
 70
     0
300
1:50
140
1.0
141
50.0
290
     0
  0
SCALE
  5
53
102
{ACAD_REACTORS
330
47
102
}
330
47
100
AcDbScale
 70
     0
300
1:100
140
1.0
141
100.0
290
     0
  0
SCALE
  5
54
102
{ACAD_REACTORS
330
47
102
}
330
47
100
AcDbScale
 70
     0
300
2:1
140
2.0
141
1.0
290
     0
  0
SCALE
  5
55
102
{ACAD_REACTORS
330
47
102
}
330
47
100
AcDbScale
 70
     0
300
4:1
140
4.0
141
1.0
290
     0
  0
SCALE
  5
56
102
{ACAD_REACTORS
330
47
102
}
330
47
100
AcDbScale
 70
     0
300
8:1
140
8.0
141
1.0
290
     0
  0
SCALE
  5
57
102
{ACAD_REACTORS
330
47
102
}
330
47
100
AcDbScale
 70
     0
300
10:1
140
10.0
141
1.0
290
     0
  0
SCALE
  5
58
102
{ACAD_REACTORS
330
47
102
}
330
47
100
AcDbScale
 70
     0
300
100:1
140
100.0
141
1.0
290
     0
  0
SCALE
  5
59
102
{ACAD_REACTORS
330
47
102
}
330
47
100
AcDbScale
 70
     0
300
1/128" = 1'-0"
140
0.0078125
141
12.0
290
     0
  0
SCALE
  5
5A
102
{ACAD_REACTORS
330
47
102
}
330
47
100
AcDbScale
 70
     0
300
1/64" = 1'-0"
140
0.015625
141
12.0
290
     0
  0
SCALE
  5
5B
102
{ACAD_REACTORS
330
47
102
}
330
47
100
AcDbScale
 70
     0
300
1/32" = 1'-0"
140
0.03125
141
12.0
290
     0
  0
SCALE
  5
5C
102
{ACAD_REACTORS
330
47
102
}
330
47
100
AcDbScale
 70
     0
300
1/16" = 1'-0"
140
0.0625
141
12.0
290
     0
  0
SCALE
  5
5D
102
{ACAD_REACTORS
330
47
102
}
330
47
100
AcDbScale
 70
     0
300
3/32" = 1'-0"
140
0.09375
141
12.0
290
     0
  0
SCALE
  5
5E
102
{ACAD_REACTORS
330
47
102
}
330
47
100
AcDbScale
 70
     0
300
1/8" = 1'-0"
140
0.125
141
12.0
290
     0
  0
SCALE
  5
5F
102
{ACAD_REACTORS
330
47
102
}
330
47
100
AcDbScale
 70
     0
300
3/16" = 1'-0"
140
0.1875
141
12.0
290
     0
  0
SCALE
  5
60
102
{ACAD_REACTORS
330
47
102
}
330
47
100
AcDbScale
 70
     0
300
1/4" = 1'-0"
140
0.25
141
12.0
290
     0
  0
SCALE
  5
61
102
{ACAD_REACTORS
330
47
102
}
330
47
100
AcDbScale
 70
     0
300
3/8" = 1'-0"
140
0.375
141
12.0
290
     0
  0
SCALE
  5
62
102
{ACAD_REACTORS
330
47
102
}
330
47
100
AcDbScale
 70
     0
300
1/2" = 1'-0"
140
0.5
141
12.0
290
     0
  0
SCALE
  5
63
102
{ACAD_REACTORS
330
47
102
}
330
47
100
AcDbScale
 70
     0
300
3/4" = 1'-0"
140
0.75
141
12.0
290
     0
  0
SCALE
  5
64
102
{ACAD_REACTORS
330
47
102
}
330
47
100
AcDbScale
 70
     0
300
1" = 1'-0"
140
1.0
141
12.0
290
     0
  0
SCALE
  5
65
102
{ACAD_REACTORS
330
47
102
}
330
47
100
AcDbScale
 70
     0
300
1-1/2" = 1'-0"
140
1.5
141
12.0
290
     0
  0
SCALE
  5
66
102
{ACAD_REACTORS
330
47
102
}
330
47
100
AcDbScale
 70
     0
300
3" = 1'-0"
140
3.0
141
12.0
290
     0
  0
SCALE
  5
67
102
{ACAD_REACTORS
330
47
102
}
330
47
100
AcDbScale
 70
     0
300
6" = 1'-0"
140
6.0
141
12.0
290
     0
  0
SCALE
  5
68
102
{ACAD_REACTORS
330
47
102
}
330
47
100
AcDbScale
 70
     0
300
1'-0" = 1'-0"
140
12.0
141
12.0
290
     0
  0
ENDSEC
  0
EOF
