  0
SECTION
  2
HEADER
  9
$ACADVER
  1
AC1015
  9
$ACADMAINTVER
 70
     6
  9
$DWGCODEPAGE
  3
ANSI_1250
  9
$INSBASE
 10
0.0
 20
0.0
 30
0.0
  9
$EXTMIN
 10
0.0
 20
0.0
 30
0.0
  9
$EXTMAX
 10
20000.0
 20
10000.0
 30
0.0
  9
$LIMMIN
 10
0.0
 20
0.0
  9
$LIMMAX
 10
20000.0
 20
10000.0
  9
$ORTHOMODE
 70
     0
  9
$REGENMODE
 70
     1
  9
$FILLMODE
 70
     1
  9
$QTEXTMODE
 70
     0
  9
$MIRRTEXT
 70
     1
  9
$LTSCALE
 40
1.0
  9
$ATTMODE
 70
     1
  9
$TEXTSIZE
 40
2.0
  9
$TRACEWID
 40
1.0
  9
$TEXTSTYLE
  7
Standard
  9
$CLAYER
  8
0
  9
$CELTYPE
  6
ByLayer
  9
$CECOLOR
 62
   256
  9
$CELTSCALE
 40
1.0
  9
$DISPSILH
 70
     0
  9
$DIMSCALE
 40
1.0
  9
$DIMASZ
 40
2.0
  9
$DIMEXO
 40
1.0
  9
$DIMDLI
 40
3.75
  9
$DIMRND
 40
0.0
  9
$DIMDLE
 40
0.0
  9
$DIMEXE
 40
1.0
  9
$DIMTP
 40
0.0
  9
$DIMTM
 40
0.0
  9
$DIMTXT
 40
2.0
  9
$DIMCEN
 40
2.5
  9
$DIMTSZ
 40
0.0
  9
$DIMTOL
 70
     0
  9
$DIMLIM
 70
     0
  9
$DIMTIH
 70
     1
  9
$DIMTOH
 70
     1
  9
$DIMSE1
 70
     0
  9
$DIMSE2
 70
     0
  9
$DIMTAD
 70
     1
  9
$DIMZIN
 70
     0
  9
$DIMBLK
  1

  9
$DIMASO
 70
     1
  9
$DIMSHO
 70
     1
  9
$DIMPOST
  1

  9
$DIMAPOST
  1

  9
$DIMALT
 70
     0
  9
$DIMALTD
 70
     3
  9
$DIMALTF
 40
0.0393700787
  9
$DIMLFAC
 40
1.0
  9
$DIMTOFL
 70
     1
  9
$DIMTVP
 40
0.0
  9
$DIMTIX
 70
     0
  9
$DIMSOXD
 70
     0
  9
$DIMSAH
 70
     0
  9
$DIMBLK1
  1

  9
$DIMBLK2
  1

  9
$DIMSTYLE
  2
ISO-25
  9
$DIMCLRD
 70
     0
  9
$DIMCLRE
 70
     0
  9
$DIMCLRT
 70
     0
  9
$DIMTFAC
 40
1.0
  9
$DIMGAP
 40
1.524
  9
$DIMJUST
 70
     0
  9
$DIMSD1
 70
     0
  9
$DIMSD2
 70
     0
  9
$DIMTOLJ
 70
     0
  9
$DIMTZIN
 70
     0
  9
$DIMALTZ
 70
     0
  9
$DIMALTTZ
 70
     0
  9
$DIMUPT
 70
     0
  9
$DIMDEC
 70
     2
  9
$DIMTDEC
 70
     0
  9
$DIMALTU
 70
     2
  9
$DIMALTTD
 70
     3
  9
$DIMTXSTY
  7
Standard
  9
$DIMAUNIT
 70
     0
  9
$DIMADEC
 70
     2
  9
$DIMALTRND
 40
0.0
  9
$DIMAZIN
 70
     0
  9
$DIMDSEP
 70
    44
  9
$DIMATFIT
 70
     3
  9
$DIMFRAC
 70
     0
  9
$DIMLDRBLK
  1

  9
$DIMLUNIT
 70
     2
  9
$DIMLWD
 70
    -2
  9
$DIMLWE
 70
    -2
  9
$DIMTMOVE
 70
     0
  9
$LUNITS
 70
     2
  9
$LUPREC
 70
     3
  9
$SKETCHINC
 40
1.0
  9
$FILLETRAD
 40
10.0
  9
$AUNITS
 70
     0
  9
$AUPREC
 70
     2
  9
$MENU
  1
.
  9
$ELEVATION
 40
0.0
  9
$PELEVATION
 40
0.0
  9
$THICKNESS
 40
0.0
  9
$LIMCHECK
 70
     0
  9
$CHAMFERA
 40
0.0
  9
$CHAMFERB
 40
0.0
  9
$CHAMFERC
 40
0.0
  9
$CHAMFERD
 40
0.0
  9
$SKPOLY
 70
     0
  9
$TDCREATE
 40
2459094.623349907
  9
$TDUCREATE
 40
2459094.540016574
  9
$TDUPDATE
 40
2459094.623350255
  9
$TDUUPDATE
 40
2459094.540016921
  9
$TDINDWG
 40
0.0000000116
  9
$TDUSRTIMER
 40
0.0000000116
  9
$USRTIMER
 70
     1
  9
$ANGBASE
 50
0.0
  9
$ANGDIR
 70
     0
  9
$PDMODE
 70
     0
  9
$PDSIZE
 40
-1.0
  9
$PLINEWID
 40
0.0
  9
$SPLFRAME
 70
     0
  9
$SPLINETYPE
 70
     6
  9
$SPLINESEGS
 70
     8
  9
$HANDSEED
  5
2B5
  9
$SURFTAB1
 70
     6
  9
$SURFTAB2
 70
     6
  9
$SURFTYPE
 70
     6
  9
$SURFU
 70
     6
  9
$SURFV
 70
     6
  9
$UCSBASE
  2

  9
$UCSNAME
  2

  9
$UCSORG
 10
0.0
 20
0.0
 30
0.0
  9
$UCSXDIR
 10
1.0
 20
0.0
 30
0.0
  9
$UCSYDIR
 10
0.0
 20
1.0
 30
0.0
  9
$UCSORTHOREF
  2

  9
$UCSORTHOVIEW
 70
     0
  9
$UCSORGTOP
 10
0.0
 20
0.0
 30
0.0
  9
$UCSORGBOTTOM
 10
0.0
 20
0.0
 30
0.0
  9
$UCSORGLEFT
 10
0.0
 20
0.0
 30
0.0
  9
$UCSORGRIGHT
 10
0.0
 20
0.0
 30
0.0
  9
$UCSORGFRONT
 10
0.0
 20
0.0
 30
0.0
  9
$UCSORGBACK
 10
0.0
 20
0.0
 30
0.0
  9
$PUCSBASE
  2

  9
$PUCSNAME
  2

  9
$PUCSORG
 10
0.0
 20
0.0
 30
0.0
  9
$PUCSXDIR
 10
1.0
 20
0.0
 30
0.0
  9
$PUCSYDIR
 10
0.0
 20
1.0
 30
0.0
  9
$PUCSORTHOREF
  2

  9
$PUCSORTHOVIEW
 70
     0
  9
$PUCSORGTOP
 10
0.0
 20
0.0
 30
0.0
  9
$PUCSORGBOTTOM
 10
0.0
 20
0.0
 30
0.0
  9
$PUCSORGLEFT
 10
0.0
 20
0.0
 30
0.0
  9
$PUCSORGRIGHT
 10
0.0
 20
0.0
 30
0.0
  9
$PUCSORGFRONT
 10
0.0
 20
0.0
 30
0.0
  9
$PUCSORGBACK
 10
0.0
 20
0.0
 30
0.0
  9
$USERI1
 70
     0
  9
$USERI2
 70
     0
  9
$USERI3
 70
     0
  9
$USERI4
 70
     0
  9
$USERI5
 70
     0
  9
$USERR1
 40
0.0
  9
$USERR2
 40
0.0
  9
$USERR3
 40
0.0
  9
$USERR4
 40
0.0
  9
$USERR5
 40
0.0
  9
$WORLDVIEW
 70
     1
  9
$SHADEDGE
 70
     3
  9
$SHADEDIF
 70
    70
  9
$TILEMODE
 70
     1
  9
$MAXACTVP
 70
    64
  9
$PINSBASE
 10
0.0
 20
0.0
 30
0.0
  9
$PLIMCHECK
 70
     0
  9
$PEXTMIN
 10
1.0000000000E+20
 20
1.0000000000E+20
 30
1.0000000000E+20
  9
$PEXTMAX
 10
-1.0000000000E+20
 20
-1.0000000000E+20
 30
-1.0000000000E+20
  9
$PLIMMIN
 10
0.0
 20
0.0
  9
$PLIMMAX
 10
420.0
 20
297.0
  9
$UNITMODE
 70
     0
  9
$VISRETAIN
 70
     1
  9
$PLINEGEN
 70
     0
  9
$PSLTSCALE
 70
     1
  9
$TREEDEPTH
 70
  3020
  9
$CMLSTYLE
  2
Standard
  9
$CMLJUST
 70
     0
  9
$CMLSCALE
 40
20.0
  9
$PROXYGRAPHICS
 70
     1
  9
$MEASUREMENT
 70
     1
  9
$CELWEIGHT
370
    -1
  9
$ENDCAPS
280
     0
  9
$JOINSTYLE
280
     0
  9
$LWDISPLAY
290
     1
  9
$INSUNITS
 70
     4
  9
$HYPERLINKBASE
  1

  9
$STYLESHEET
  1

  9
$XEDIT
290
     1
  9
$CEPSNTYPE
380
     0
  9
$PSTYLEMODE
290
     1
  9
$FINGERPRINTGUID
  2
{0eed18ee-0742-4032-9fc8-d5ab1d4fef55}
  9
$VERSIONGUID
  2
{FAEB1C32-E019-11D5-929B-00C0DF256EC4}
  9
$EXTNAMES
290
     1
  9
$PSVPSCALE
 40
0.0
  9
$OLESTARTUP
290
     0
  0
ENDSEC
  0
SECTION
  2
CLASSES
  0
CLASS
  1
ACDBDICTIONARYWDFLT
  2
AcDbDictionaryWithDefault
  3
ObjectDBX Classes
 90
        0
280
     0
281
     0
  0
CLASS
  1
VISUALSTYLE
  2
AcDbVisualStyle
  3
ObjectDBX Classes
 90
     4095
280
     0
281
     0
  0
CLASS
  1
MATERIAL
  2
AcDbMaterial
  3
ObjectDBX Classes
 90
     1153
280
     0
281
     0
  0
CLASS
  1
SCALE
  2
AcDbScale
  3
ObjectDBX Classes
 90
     1153
280
     0
281
     0
  0
CLASS
  1
TABLESTYLE
  2
AcDbTableStyle
  3
ObjectDBX Classes
 90
     4095
280
     0
281
     0
  0
CLASS
  1
MLEADERSTYLE
  2
AcDbMLeaderStyle
  3
ACDB_MLEADERSTYLE_CLASS
 90
     4095
280
     0
281
     0
  0
CLASS
  1
SUN
  2
AcDbSun
  3
SCENEOE
 90
     1153
280
     0
281
     0
  0
CLASS
  1
ACDBPLACEHOLDER
  2
AcDbPlaceHolder
  3
ObjectDBX Classes
 90
        0
280
     0
281
     0
  0
CLASS
  1
LAYOUT
  2
AcDbLayout
  3
ObjectDBX Classes
 90
        0
280
     0
281
     0
  0
ENDSEC
  0
SECTION
  2
TABLES
  0
TABLE
  2
VPORT
  5
8
330
0
100
AcDbSymbolTable
 70
     1
  0
VPORT
  5
29
330
8
100
AcDbSymbolTableRecord
100
AcDbViewportTableRecord
  2
*Active
 70
     0
 10
0.0
 20
0.0
 11
1.0
 21
1.0
 12
10000.0
 22
5000.0
 13
0.0
 23
0.0
 14
10.0
 24
10.0
 15
10.0
 25
10.0
 16
0.0
 26
0.0
 36
1.0
 17
0.0
 27
0.0
 37
0.0
 40
10000.0
 41
2.0
 42
50.0
 43
0.0
 44
0.0
 50
0.0
 51
0.0
 71
     0
 72
  2000
 73
     1
 74
     3
 75
     0
 76
     0
 77
     0
 78
     0
281
     0
 65
     1
110
0.0
120
0.0
130
0.0
111
1.0
121
0.0
131
0.0
112
0.0
122
1.0
132
0.0
 79
     0
146
0.0
  0
ENDTAB
  0
TABLE
  2
LTYPE
  5
5
330
0
100
AcDbSymbolTable
 70
     6
  0
LTYPE
  5
14
330
5
100
AcDbSymbolTableRecord
100
AcDbLinetypeTableRecord
  2
ByBlock
 70
     0
  3

 72
    65
 73
     0
 40
0.0
  0
LTYPE
  5
15
330
5
100
AcDbSymbolTableRecord
100
AcDbLinetypeTableRecord
  2
ByLayer
 70
     0
  3

 72
    65
 73
     0
 40
0.0
  0
LTYPE
  5
16
330
5
100
AcDbSymbolTableRecord
100
AcDbLinetypeTableRecord
  2
Continuous
 70
     0
  3
Solid line
 72
    65
 73
     0
 40
0.0
  0
LTYPE
  5
6E
330
5
100
AcDbSymbolTableRecord
100
AcDbLinetypeTableRecord
  2
HIDDEN
 70
     0
  3
Hidden __ __ __ __ __ __ __ __ __ __ __ __ __ __
 72
    65
 73
     2
 40
1.905
 49
1.27
 74
     0
 49
-0.635
 74
     0
  0
LTYPE
  5
6F
330
5
100
AcDbSymbolTableRecord
100
AcDbLinetypeTableRecord
  2
PHANTOM
 70
     0
  3
Phantom ______  __  __  ______  __  __  ______
 72
    65
 73
     6
 40
12.7
 49
6.35
 74
     0
 49
-1.27
 74
     0
 49
1.27
 74
     0
 49
-1.27
 74
     0
 49
1.27
 74
     0
 49
-1.27
 74
     0
  0
LTYPE
  5
70
330
5
100
AcDbSymbolTableRecord
100
AcDbLinetypeTableRecord
  2
CENTER
 70
     0
  3
Center ____ _ ____ _ ____ _ ____ _ ____ _ ____
 72
    65
 73
     4
 40
10.16
 49
6.35
 74
     0
 49
-1.27
 74
     0
 49
1.27
 74
     0
 49
-1.27
 74
     0
  0
LTYPE
  5
71
330
5
100
AcDbSymbolTableRecord
100
AcDbLinetypeTableRecord
  2
CENTERX2
 70
     0
  3
Center (2x) ________  __  ________  __  _____
 72
    65
 73
     4
 40
20.32
 49
12.7
 74
     0
 49
-2.54
 74
     0
 49
2.54
 74
     0
 49
-2.54
 74
     0
  0
LTYPE
  5
72
330
5
100
AcDbSymbolTableRecord
100
AcDbLinetypeTableRecord
  2
DOT2
 70
     0
  3
Dot (.5x) ........................................
 72
    65
 73
     2
 40
0.635
 49
0.0
 74
     0
 49
-0.635
 74
     0
  0
ENDTAB
  0
TABLE
  2
LAYER
  5
2
330
0
100
AcDbSymbolTable
 70
    13
  0
LAYER
  5
10
330
2
100
AcDbSymbolTableRecord
100
AcDbLayerTableRecord
  2
0
 70
     0
 62
     7
  6
Continuous
370
    -3
390
F
  0
LAYER
  5
73
330
2
100
AcDbSymbolTableRecord
100
AcDbLayerTableRecord
  2
FORMAT
 70
     0
 62
     7
  6
Continuous
370
    -3
390
F
  0
LAYER
  5
74
330
2
100
AcDbSymbolTableRecord
100
AcDbLayerTableRecord
  2
OSA
 70
     0
 62
     7
  6
CENTER
370
    -3
390
F
  0
LAYER
  5
75
330
2
100
AcDbSymbolTableRecord
100
AcDbLayerTableRecord
  2
0_35
 70
     0
 62
     7
  6
Continuous
370
    35
390
F
  0
LAYER
  5
76
330
2
100
AcDbSymbolTableRecord
100
AcDbLayerTableRecord
  2
0_5
 70
     0
 62
     7
  6
Continuous
370
    50
390
F
  0
LAYER
  5
77
330
2
100
AcDbSymbolTableRecord
100
AcDbLayerTableRecord
  2
0_25
 70
     0
 62
     7
  6
Continuous
370
    25
390
F
  0
LAYER
  5
78
330
2
100
AcDbSymbolTableRecord
100
AcDbLayerTableRecord
  2
0_18
 70
     0
 62
     7
  6
Continuous
370
    -3
390
F
  0
LAYER
  5
79
330
2
100
AcDbSymbolTableRecord
100
AcDbLayerTableRecord
  2
SLD-0
 70
     0
 62
   179
  6
Continuous
370
    -3
390
F
  0
LAYER
  5
7A
330
2
100
AcDbSymbolTableRecord
100
AcDbLayerTableRecord
  2
KOTY
 70
     0
 62
     7
  6
Continuous
370
    -3
390
F
  0
LAYER
  5
7B
330
2
100
AcDbSymbolTableRecord
100
AcDbLayerTableRecord
  2
SILNA
 70
     0
 62
   179
  6
Continuous
370
    -3
390
F
  0
LAYER
  5
7C
330
2
100
AcDbSymbolTableRecord
100
AcDbLayerTableRecord
  2
0_18_1
 70
     0
 62
   179
  6
Continuous
370
    -3
390
F
  0
LAYER
  5
7D
330
2
100
AcDbSymbolTableRecord
100
AcDbLayerTableRecord
  2
0_35_1
 70
     0
 62
   179
  6
Continuous
370
    35
390
F
  0
LAYER
  5
7E
330
2
100
AcDbSymbolTableRecord
100
AcDbLayerTableRecord
  2
0_5_1
 70
     0
 62
   179
  6
Continuous
370
    50
390
F
  0
ENDTAB
  0
TABLE
  2
STYLE
  5
3
330
0
100
AcDbSymbolTable
 70
     1
  0
STYLE
  5
11
330
3
100
AcDbSymbolTableRecord
100
AcDbTextStyleTableRecord
  2
Standard
 70
     0
 40
0.0
 41
1.0
 50
0.0
 71
     0
 42
2.0
  3
txt
  4

  0
ENDTAB
  0
TABLE
  2
VIEW
  5
6
330
0
100
AcDbSymbolTable
 70
     0
  0
ENDTAB
  0
TABLE
  2
UCS
  5
7
330
0
100
AcDbSymbolTable
 70
     0
  0
ENDTAB
  0
TABLE
  2
APPID
  5
9
330
0
100
AcDbSymbolTable
 70
     1
  0
APPID
  5
12
330
9
100
AcDbSymbolTableRecord
100
AcDbRegAppTableRecord
  2
ACAD
 70
     0
  0
ENDTAB
  0
TABLE
  2
DIMSTYLE
  5
A
330
0
100
AcDbSymbolTable
 70
     1
100
AcDbDimStyleTable
  0
DIMSTYLE
105
27
330
A
100
AcDbSymbolTableRecord
100
AcDbDimStyleTableRecord
  2
ISO-25
 70
     0
 41
2.5
 42
0.625
 43
3.75
 44
1.25
 73
     0
 74
     0
 77
     1
 78
     8
140
2.5
141
2.5
143
0.0393700787
147
0.625
171
     3
172
     1
178
     0
271
     2
272
     2
274
     3
278
    44
283
     0
284
     8
340
11
  0
ENDTAB
  0
TABLE
  2
BLOCK_RECORD
  5
1
330
0
100
AcDbSymbolTable
 70
     1
  0
BLOCK_RECORD
  5
1F
330
1
100
AcDbSymbolTableRecord
100
AcDbBlockTableRecord
  2
*Model_Space
340
22
  0
BLOCK_RECORD
  5
1B
330
1
100
AcDbSymbolTableRecord
100
AcDbBlockTableRecord
  2
*Paper_Space
340
1E
  0
BLOCK_RECORD
  5
23
330
1
100
AcDbSymbolTableRecord
100
AcDbBlockTableRecord
  2
*Paper_Space0
340
26
  0
ENDTAB
  0
ENDSEC
  0
SECTION
  2
BLOCKS
  0
BLOCK
  5
20
330
1F
100
AcDbEntity
  8
0
100
AcDbBlockBegin
  2
*Model_Space
 70
     0
 10
0.0
 20
0.0
 30
0.0
  3
*Model_Space
  1

  0
ENDBLK
  5
21
330
1F
100
AcDbEntity
  8
0
100
AcDbBlockEnd
  0
BLOCK
  5
1C
330
1B
100
AcDbEntity
 67
     1
  8
0
100
AcDbBlockBegin
  2
*Paper_Space
 70
     0
 10
0.0
 20
0.0
 30
0.0
  3
*Paper_Space
  1

  0
ENDBLK
  5
1D
330
1B
100
AcDbEntity
 67
     1
  8
0
100
AcDbBlockEnd
  0
BLOCK
  5
24
330
23
100
AcDbEntity
  8
0
100
AcDbBlockBegin
  2
*Paper_Space0
 70
     0
 10
0.0
 20
0.0
 30
0.0
  3
*Paper_Space0
  1

  0
ENDBLK
  5
25
330
23
100
AcDbEntity
  8
0
100
AcDbBlockEnd
  0
ENDSEC
  0
SECTION
  2
ENTITIES
  0
ARC
  5
7F
330
1F
100
AcDbEntity
  8
0
  6
Continuous
 62
     7
370
    25
100
AcDbCircle
 10
3037.3060535415
 20
5878.934776381
 30
0.0
 40
74.84375000000009
100
AcDbArc
 50
187.6322195188
 51
352.3338926169
  0
ARC
  5
80
330
1F
100
AcDbEntity
  8
0
  6
Continuous
 62
     7
370
    25
100
AcDbCircle
 10
3037.3060535415
 20
5878.934776381
 30
0.0
 40
74.84375000000024
100
AcDbArc
 50
7.6680734644
 51
172.3137921742
  0
ARC
  5
81
330
1F
100
AcDbEntity
  8
0
  6
Continuous
 62
     7
370
    25
100
AcDbCircle
 10
3037.3060535415
 20
5878.934776381
 30
0.0
 40
67.50000000000053
100
AcDbArc
 50
188.5351242409
 51
351.4975607594
  0
ARC
  5
82
330
1F
100
AcDbEntity
  8
0
  6
Continuous
 62
     7
370
    25
100
AcDbCircle
 10
3037.3060535415
 20
5878.934776381
 30
0.0
 40
67.49999999999996
100
AcDbArc
 50
8.5168925256
 51
171.5164450928
  0
LINE
  5
83
330
1F
100
AcDbEntity
  8
0
  6
Continuous
 62
     7
370
    25
100
AcDbLine
 10
3172.3060535415
 20
5868.934776381
 30
0.0
 11
3172.3060535415
 21
5861.434776381
 31
0.0
  0
LINE
  5
84
330
1F
100
AcDbEntity
  8
0
  6
Continuous
 62
     7
370
    25
100
AcDbLine
 10
3222.3060535415
 20
5861.434776381
 30
0.0
 11
3222.3060535415
 21
5868.934776381
 31
0.0
  0
ARC
  5
85
330
1F
100
AcDbEntity
  8
0
  6
Continuous
 62
     7
370
    25
100
AcDbCircle
 10
3212.3060535415
 20
5861.434776381
 30
0.0
 40
10.00000000000091
100
AcDbArc
 50
270.0
 51
0.0
  0
ARC
  5
86
330
1F
100
AcDbEntity
  8
0
  6
Continuous
 62
     7
370
    25
100
AcDbCircle
 10
3182.3060535415
 20
5861.434776381
 30
0.0
 40
10.00000000000091
100
AcDbArc
 50
180.0
 51
270.0
  0
LINE
  5
87
330
1F
100
AcDbEntity
  8
0
  6
Continuous
 62
     7
370
    25
100
AcDbLine
 10
2852.3060535415
 20
5868.934776381
 30
0.0
 11
2852.3060535415
 21
5861.434776381
 31
0.0
  0
ARC
  5
88
330
1F
100
AcDbEntity
  8
0
  6
Continuous
 62
     7
370
    25
100
AcDbCircle
 10
2862.3060535415
 20
5861.434776381
 30
0.0
 40
10.00000000000091
100
AcDbArc
 50
180.0
 51
270.0
  0
LINE
  5
89
330
1F
100
AcDbEntity
  8
0
  6
Continuous
 62
     7
370
    25
100
AcDbLine
 10
3209.8060535415
 20
5888.934776381
 30
0.0
 11
3209.8060535415
 21
5943.934776381
 31
0.0
  0
LINE
  5
8A
330
1F
100
AcDbEntity
  8
0
  6
Continuous
 62
     7
370
    25
100
AcDbLine
 10
3184.8060535415
 20
5943.934776381
 30
0.0
 11
3184.8060535415
 21
5888.934776381
 31
0.0
  0
LINE
  5
8B
330
1F
100
AcDbEntity
  8
0
  6
Continuous
 62
     7
370
    25
100
AcDbLine
 10
2864.8060535415
 20
5943.934776381
 30
0.0
 11
2864.8060535415
 21
5888.934776381
 31
0.0
  0
ARC
  5
8C
330
1F
100
AcDbEntity
  8
0
  6
Continuous
 62
     7
370
    25
100
AcDbCircle
 10
2677.3060535415
 20
5878.934776381
 30
0.0
 40
124.8437499999999
100
AcDbArc
 50
184.5787221185
 51
355.4105290268
  0
ARC
  5
8D
330
1F
100
AcDbEntity
  8
0
  6
Continuous
 62
     7
370
    25
100
AcDbCircle
 10
2677.3060535415
 20
5878.934776381
 30
0.0
 40
124.8437499999999
100
AcDbArc
 50
4.5882297786
 51
175.4051539956
  0
ARC
  5
8E
330
1F
100
AcDbEntity
  8
0
  6
Continuous
 62
     7
370
    25
100
AcDbCircle
 10
2677.3060535415
 20
5878.934776381
 30
0.0
 40
117.5
100
AcDbArc
 50
4.8804078444
 51
175.1275907075
  0
ARC
  5
8F
330
1F
100
AcDbEntity
  8
0
  6
Continuous
 62
     7
370
    25
100
AcDbCircle
 10
2677.3060535415
 20
5878.934776381
 30
0.0
 40
117.5
100
AcDbArc
 50
184.8770419663
 51
355.1289737622
  0
LINE
  5
90
330
1F
100
AcDbEntity
  8
0
  6
Continuous
 62
     7
370
    25
100
AcDbLine
 10
2912.3060535415
 20
5861.434776381
 30
0.0
 11
2912.3060535415
 21
5868.934776381
 31
0.0
  0
ARC
  5
91
330
1F
100
AcDbEntity
  8
0
  6
Continuous
 62
     7
370
    25
100
AcDbCircle
 10
2902.3060535415
 20
5861.434776381
 30
0.0
 40
10.00000000000091
100
AcDbArc
 50
270.0
 51
0.0
  0
ARC
  5
92
330
1F
100
AcDbEntity
  8
0
  6
Continuous
 62
     7
370
    25
100
AcDbCircle
 10
2482.3060535415
 20
5861.434776381
 30
0.0
 40
10.00000000000091
100
AcDbArc
 50
270.0
 51
0.0
  0
ARC
  5
93
330
1F
100
AcDbEntity
  8
0
  6
Continuous
 62
     7
370
    25
100
AcDbCircle
 10
2452.3060535415
 20
5861.434776381
 30
0.0
 40
10.00000000000091
100
AcDbArc
 50
180.0
 51
270.0
  0
LINE
  5
94
330
1F
100
AcDbEntity
  8
0
  6
Continuous
 62
     7
370
    25
100
AcDbLine
 10
2442.3060535415
 20
5868.934776381
 30
0.0
 11
2442.3060535415
 21
5861.434776381
 31
0.0
  0
LINE
  5
95
330
1F
100
AcDbEntity
  8
0
  6
Continuous
 62
     7
370
    25
100
AcDbLine
 10
2492.3060535415
 20
5861.434776381
 30
0.0
 11
2492.3060535415
 21
5868.934776381
 31
0.0
  0
LINE
  5
96
330
1F
100
AcDbEntity
  8
0
  6
Continuous
 62
     7
370
    25
100
AcDbLine
 10
2899.8060535415
 20
5888.934776381
 30
0.0
 11
2899.8060535415
 21
5943.934776381
 31
0.0
  0
LINE
  5
97
330
1F
100
AcDbEntity
  8
0
  6
Continuous
 62
     7
370
    25
100
AcDbLine
 10
2479.8060535415
 20
5888.934776381
 30
0.0
 11
2479.8060535415
 21
5943.934776381
 31
0.0
  0
LINE
  5
98
330
1F
100
AcDbEntity
  8
0
  6
Continuous
 62
     7
370
    25
100
AcDbLine
 10
2454.8060535415
 20
5943.934776381
 30
0.0
 11
2454.8060535415
 21
5888.934776381
 31
0.0
  0
LINE
  5
99
330
1F
100
AcDbEntity
  8
0
  6
Continuous
 62
     7
370
    25
100
AcDbLine
 10
3057.3060535414
 20
6058.934776381
 30
0.0
 11
3057.3060535414
 21
7291.434776381
 31
0.0
  0
LINE
  5
9A
330
1F
100
AcDbEntity
  8
0
  6
Continuous
 62
     7
370
    25
100
AcDbLine
 10
3057.3060535415
 20
7391.434776381
 30
0.0
 11
3057.3060535415
 21
7498.934776381
 31
0.0
  0
LINE
  5
9B
330
1F
100
AcDbEntity
  8
0
  6
Continuous
 62
     7
370
    25
100
AcDbLine
 10
3017.3060535415
 20
7498.934776381
 30
0.0
 11
3017.3060535415
 21
7391.434776381
 31
0.0
  0
LINE
  5
9C
330
1F
100
AcDbEntity
  8
0
  6
Continuous
 62
     7
370
    25
100
AcDbLine
 10
3017.3060535414
 20
7291.434776381
 30
0.0
 11
3017.3060535414
 21
6058.934776381
 31
0.0
  0
LINE
  5
9D
330
1F
100
AcDbEntity
  8
0
  6
Continuous
 62
     7
370
    25
100
AcDbLine
 10
3056.0560535414
 20
6043.934776381
 30
0.0
 11
3056.0560535414
 21
6058.934776381
 31
0.0
  0
LINE
  5
9E
330
1F
100
AcDbEntity
  8
0
  6
Continuous
 62
     7
370
    25
100
AcDbLine
 10
3018.5560535414
 20
6058.934776381
 30
0.0
 11
3018.5560535414
 21
6043.934776381
 31
0.0
  0
LINE
  5
9F
330
1F
100
AcDbEntity
  8
0
  6
Continuous
 62
     7
370
    25
100
AcDbLine
 10
2697.3060535414
 20
6058.934776381
 30
0.0
 11
2697.3060535415
 21
7291.434776381
 31
0.0
  0
LINE
  5
A0
330
1F
100
AcDbEntity
  8
0
  6
Continuous
 62
     7
370
    25
100
AcDbLine
 10
2697.3060535415
 20
7391.434776381
 30
0.0
 11
2697.3060535415
 21
7498.934776381
 31
0.0
  0
LINE
  5
A1
330
1F
100
AcDbEntity
  8
0
  6
Continuous
 62
     7
370
    25
100
AcDbLine
 10
2657.3060535415
 20
7498.934776381
 30
0.0
 11
2657.3060535415
 21
7391.434776381
 31
0.0
  0
LINE
  5
A2
330
1F
100
AcDbEntity
  8
0
  6
Continuous
 62
     7
370
    25
100
AcDbLine
 10
2657.3060535415
 20
7291.434776381
 30
0.0
 11
2657.3060535414
 21
6058.934776381
 31
0.0
  0
LINE
  5
A3
330
1F
100
AcDbEntity
  8
0
  6
Continuous
 62
     7
370
    25
100
AcDbLine
 10
2696.0560535414
 20
6048.934776381
 30
0.0
 11
2696.0560535414
 21
6058.934776381
 31
0.0
  0
LINE
  5
A4
330
1F
100
AcDbEntity
  8
0
  6
Continuous
 62
     7
370
    25
100
AcDbLine
 10
2658.5560535414
 20
6058.934776381
 30
0.0
 11
2658.5560535414
 21
6048.934776381
 31
0.0
  0
LINE
  5
A5
330
1F
100
AcDbEntity
  8
0
  6
Continuous
 62
     7
370
    25
100
AcDbLine
 10
2271.6204453766
 20
8046.0012553047
 30
0.0
 11
2276.1445277489
 21
8046.4167835022
 31
0.0
  0
ARC
  5
A6
330
1F
100
AcDbEntity
  8
0
  6
Continuous
 62
     7
370
    25
100
AcDbCircle
 10
2277.3060535415
 20
8008.934776381
 30
0.0
 40
37.50000000000097
100
AcDbArc
 50
271.1669473006
 51
87.8257722788
  0
ARC
  5
A7
330
1F
100
AcDbEntity
  8
0
  6
Continuous
 62
     7
370
    25
100
AcDbCircle
 10
2277.3060535415
 20
8008.934776381
 30
0.0
 40
37.50000000000031
100
AcDbArc
 50
211.6197364383
 51
268.1213785842
  0
ARC
  5
A8
330
1F
100
AcDbEntity
  8
0
  6
Continuous
 62
     7
370
    25
100
AcDbCircle
 10
2277.3060535415
 20
8008.934776381
 30
0.0
 40
37.50000000000023
100
AcDbArc
 50
151.9639021696
 51
209.0862997653
  0
ARC
  5
A9
330
1F
100
AcDbEntity
  8
0
  6
Continuous
 62
     7
370
    25
100
AcDbCircle
 10
2277.3060535415
 20
8008.934776381
 30
0.0
 40
37.50000000000049
100
AcDbArc
 50
98.7206003665
 51
147.8560216911
  0
LINE
  5
AA
330
1F
100
AcDbEntity
  8
0
  6
Continuous
 62
     7
370
    25
100
AcDbLine
 10
3071.6204453766
 20
8046.0012553047
 30
0.0
 11
3076.1445277489
 21
8046.4167835022
 31
0.0
  0
ARC
  5
AB
330
1F
100
AcDbEntity
  8
0
  6
Continuous
 62
     7
370
    25
100
AcDbCircle
 10
3077.3060535415
 20
8008.934776381
 30
0.0
 40
37.50000000000068
100
AcDbArc
 50
271.1669473006
 51
87.8257722788
  0
ARC
  5
AC
330
1F
100
AcDbEntity
  8
0
  6
Continuous
 62
     7
370
    25
100
AcDbCircle
 10
3077.3060535415
 20
8008.934776381
 30
0.0
 40
37.50000000000037
100
AcDbArc
 50
211.6197364383
 51
268.1213785842
  0
ARC
  5
AD
330
1F
100
AcDbEntity
  8
0
  6
Continuous
 62
     7
370
    25
100
AcDbCircle
 10
3077.3060535415
 20
8008.934776381
 30
0.0
 40
37.50000000000048
100
AcDbArc
 50
151.9639021696
 51
209.0862997653
  0
ARC
  5
AE
330
1F
100
AcDbEntity
  8
0
  6
Continuous
 62
     7
370
    25
100
AcDbCircle
 10
3077.3060535415
 20
8008.934776381
 30
0.0
 40
37.49999999999944
100
AcDbArc
 50
98.7206003665
 51
147.8560216911
  0
LINE
  5
AF
330
1F
100
AcDbEntity
  8
0
  6
Continuous
 62
     7
370
    25
100
AcDbLine
 10
2177.3060535415
 20
8161.3420564256
 30
0.0
 11
2377.3060535415
 21
8161.3420564256
 31
0.0
  0
LINE
  5
B0
330
1F
100
AcDbEntity
  8
0
  6
Continuous
 62
     7
370
    25
100
AcDbLine
 10
2177.3060535415
 20
8284.4162323899
 30
0.0
 11
2177.3060535415
 21
8161.3420564256
 31
0.0
  0
LINE
  5
B1
330
1F
100
AcDbEntity
  8
0
  6
Continuous
 62
     7
370
    25
100
AcDbLine
 10
2177.3060535415
 20
8284.4162323899
 30
0.0
 11
2377.3060535415
 21
8284.4162323899
 31
0.0
  0
LINE
  5
B2
330
1F
100
AcDbEntity
  8
0
  6
Continuous
 62
     7
370
    25
100
AcDbLine
 10
2377.3060535415
 20
8284.4162323899
 30
0.0
 11
2377.3060535415
 21
8161.3420564256
 31
0.0
  0
LINE
  5
B3
330
1F
100
AcDbEntity
  8
0
  6
Continuous
 62
     7
370
    25
100
AcDbLine
 10
2177.3060535415
 20
8157.6281496621
 30
0.0
 11
2377.3060535415
 21
8157.6281496621
 31
0.0
  0
LINE
  5
B4
330
1F
100
AcDbEntity
  8
0
  6
Continuous
 62
     7
370
    25
100
AcDbLine
 10
2377.3060535415
 20
8161.3420564256
 30
0.0
 11
2377.3060535415
 21
8157.6281496621
 31
0.0
  0
LINE
  5
B5
330
1F
100
AcDbEntity
  8
0
  6
Continuous
 62
     7
370
    25
100
AcDbLine
 10
2177.3060535415
 20
8161.3420564256
 30
0.0
 11
2177.3060535415
 21
8157.6281496621
 31
0.0
  0
LINE
  5
B6
330
1F
100
AcDbEntity
  8
0
  6
Continuous
 62
     7
370
    25
100
AcDbLine
 10
2177.3060535415
 20
8110.3102737539
 30
0.0
 11
2377.3060535415
 21
8110.3102737539
 31
0.0
  0
LINE
  5
B7
330
1F
100
AcDbEntity
  8
0
  6
Continuous
 62
     7
370
    25
100
AcDbLine
 10
2377.3060535415
 20
8157.6281496621
 30
0.0
 11
2377.3060535415
 21
8110.3102737539
 31
0.0
  0
LINE
  5
B8
330
1F
100
AcDbEntity
  8
0
  6
Continuous
 62
     7
370
    25
100
AcDbLine
 10
2177.3060535415
 20
8157.6281496621
 30
0.0
 11
2177.3060535415
 21
8110.3102737539
 31
0.0
  0
LINE
  5
B9
330
1F
100
AcDbEntity
  8
0
  6
Continuous
 62
     7
370
    25
100
AcDbLine
 10
2177.3060535415
 20
8108.4533203721
 30
0.0
 11
2377.3060535415
 21
8108.4533203721
 31
0.0
  0
LINE
  5
BA
330
1F
100
AcDbEntity
  8
0
  6
Continuous
 62
     7
370
    25
100
AcDbLine
 10
2377.3060535415
 20
8110.3102737539
 30
0.0
 11
2377.3060535415
 21
8108.4533203721
 31
0.0
  0
LINE
  5
BB
330
1F
100
AcDbEntity
  8
0
  6
Continuous
 62
     7
370
    25
100
AcDbLine
 10
2177.3060535415
 20
8110.3102737539
 30
0.0
 11
2177.3060535415
 21
8108.4533203721
 31
0.0
  0
LINE
  5
BC
330
1F
100
AcDbEntity
  8
0
  6
Continuous
 62
     7
370
    25
100
AcDbLine
 10
2177.3060535415
 20
7909.4162323899
 30
0.0
 11
2377.3060535415
 21
7909.4162323899
 31
0.0
  0
LINE
  5
BD
330
1F
100
AcDbEntity
  8
0
  6
Continuous
 62
     7
370
    25
100
AcDbLine
 10
2177.3060535415
 20
8108.4533203721
 30
0.0
 11
2177.3060535415
 21
7909.4162323899
 31
0.0
  0
LINE
  5
BE
330
1F
100
AcDbEntity
  8
0
  6
Continuous
 62
     7
370
    25
100
AcDbLine
 10
2377.3060535415
 20
8108.4533203721
 30
0.0
 11
2377.3060535415
 21
7909.4162323899
 31
0.0
  0
LINE
  5
BF
330
1F
100
AcDbEntity
  8
0
  6
Continuous
 62
     7
370
    25
100
AcDbLine
 10
2977.3060535415
 20
8157.6281496621
 30
0.0
 11
3177.3060535415
 21
8157.6281496621
 31
0.0
  0
LINE
  5
C0
330
1F
100
AcDbEntity
  8
0
  6
Continuous
 62
     7
370
    25
100
AcDbLine
 10
2977.3060535415
 20
8161.3420564256
 30
0.0
 11
2977.3060535415
 21
8157.6281496621
 31
0.0
  0
LINE
  5
C1
330
1F
100
AcDbEntity
  8
0
  6
Continuous
 62
     7
370
    25
100
AcDbLine
 10
2977.3060535415
 20
8161.3420564256
 30
0.0
 11
3177.3060535415
 21
8161.3420564256
 31
0.0
  0
LINE
  5
C2
330
1F
100
AcDbEntity
  8
0
  6
Continuous
 62
     7
370
    25
100
AcDbLine
 10
3177.3060535415
 20
8161.3420564256
 30
0.0
 11
3177.3060535415
 21
8157.6281496621
 31
0.0
  0
LINE
  5
C3
330
1F
100
AcDbEntity
  8
0
  6
Continuous
 62
     7
370
    25
100
AcDbLine
 10
2977.3060535415
 20
8284.4162323899
 30
0.0
 11
2977.3060535415
 21
8161.3420564256
 31
0.0
  0
LINE
  5
C4
330
1F
100
AcDbEntity
  8
0
  6
Continuous
 62
     7
370
    25
100
AcDbLine
 10
3177.3060535415
 20
8284.4162323899
 30
0.0
 11
3177.3060535415
 21
8161.3420564256
 31
0.0
  0
LINE
  5
C5
330
1F
100
AcDbEntity
  8
0
  6
Continuous
 62
     7
370
    25
100
AcDbLine
 10
2977.3060535415
 20
8284.4162323899
 30
0.0
 11
3177.3060535415
 21
8284.4162323899
 31
0.0
  0
LINE
  5
C6
330
1F
100
AcDbEntity
  8
0
  6
Continuous
 62
     7
370
    25
100
AcDbLine
 10
2977.3060535415
 20
8110.3102737539
 30
0.0
 11
3177.3060535415
 21
8110.3102737539
 31
0.0
  0
LINE
  5
C7
330
1F
100
AcDbEntity
  8
0
  6
Continuous
 62
     7
370
    25
100
AcDbLine
 10
2977.3060535415
 20
8157.6281496621
 30
0.0
 11
2977.3060535415
 21
8110.3102737539
 31
0.0
  0
LINE
  5
C8
330
1F
100
AcDbEntity
  8
0
  6
Continuous
 62
     7
370
    25
100
AcDbLine
 10
3177.3060535415
 20
8157.6281496621
 30
0.0
 11
3177.3060535415
 21
8110.3102737539
 31
0.0
  0
LINE
  5
C9
330
1F
100
AcDbEntity
  8
0
  6
Continuous
 62
     7
370
    25
100
AcDbLine
 10
2977.3060535415
 20
8108.4533203721
 30
0.0
 11
3177.3060535415
 21
8108.4533203721
 31
0.0
  0
LINE
  5
CA
330
1F
100
AcDbEntity
  8
0
  6
Continuous
 62
     7
370
    25
100
AcDbLine
 10
2977.3060535415
 20
8110.3102737539
 30
0.0
 11
2977.3060535415
 21
8108.4533203721
 31
0.0
  0
LINE
  5
CB
330
1F
100
AcDbEntity
  8
0
  6
Continuous
 62
     7
370
    25
100
AcDbLine
 10
3177.3060535415
 20
8110.3102737539
 30
0.0
 11
3177.3060535415
 21
8108.4533203721
 31
0.0
  0
LINE
  5
CC
330
1F
100
AcDbEntity
  8
0
  6
Continuous
 62
     7
370
    25
100
AcDbLine
 10
2977.3060535415
 20
7909.4162323899
 30
0.0
 11
3177.3060535415
 21
7909.4162323899
 31
0.0
  0
LINE
  5
CD
330
1F
100
AcDbEntity
  8
0
  6
Continuous
 62
     7
370
    25
100
AcDbLine
 10
2977.3060535415
 20
8108.4533203721
 30
0.0
 11
2977.3060535415
 21
7909.4162323899
 31
0.0
  0
LINE
  5
CE
330
1F
100
AcDbEntity
  8
0
  6
Continuous
 62
     7
370
    25
100
AcDbLine
 10
3177.3060535415
 20
8108.4533203721
 30
0.0
 11
3177.3060535415
 21
7909.4162323899
 31
0.0
  0
ARC
  5
CF
330
1F
100
AcDbEntity
  8
0
  6
Continuous
 62
     7
370
    25
100
AcDbCircle
 10
3037.3060535415
 20
5878.934776381
 30
0.0
 40
92.50000000000014
100
AcDbArc
 50
186.206267751
 51
353.793732249
  0
SPLINE
  5
D0
330
1F
100
AcDbEntity
  8
0
  6
Continuous
 62
     7
370
    25
100
AcDbSpline
210
0.0
220
0.0
230
1.0
 70
    24
 71
     3
 72
    13
 73
     9
 74
     0
 42
0.00000001
 43
0.00000001
 40
0.0
 40
0.0
 40
0.0
 40
0.0
 40
0.1172165890542574
 40
0.3335102480423724
 40
0.5498379682506187
 40
0.7651898088381516
 40
0.8994928720237967
 40
1.0
 40
1.0
 40
1.0
 40
1.0
 10
2945.348182752753
 20
5868.934776381006
 30
0.0
 10
2946.432700499312
 20
5868.934776381006
 30
0.0
 10
2949.518422286473
 20
5868.934776381006
 30
0.0
 10
2954.386196785559
 20
5868.934776381006
 30
0.0
 10
2959.118230879074
 20
5868.934776381006
 30
0.0
 10
2961.812148738044
 20
5868.934776381006
 30
0.0
 10
2963.055057963492
 20
5868.934776381006
 30
0.0
 10
2962.978955602161
 20
5868.934776381006
 30
0.0
 10
2962.946381080025
 20
5868.934776381006
 30
0.0
  0
SPLINE
  5
D1
330
1F
100
AcDbEntity
  8
0
  6
Continuous
 62
     7
370
    25
100
AcDbSpline
210
0.0
220
0.0
230
1.0
 70
    24
 71
     3
 72
    13
 73
     9
 74
     0
 42
0.00000001
 43
0.00000001
 40
0.0
 40
0.0
 40
0.0
 40
0.0
 40
0.1957212459272072
 40
0.4069482828504061
 40
0.6193573633865078
 40
0.7526317729897554
 40
0.9681723475117735
 40
1.0
 40
1.0
 40
1.0
 40
1.0
 10
3111.547301172126
 20
5868.934776381006
 30
0.0
 10
3111.673378972423
 20
5868.934776381006
 30
0.0
 10
3111.935522941991
 20
5868.934776381006
 30
0.0
 10
3114.738905873944
 20
5868.934776381006
 30
0.0
 10
3118.523235729361
 20
5868.934776381006
 30
0.0
 10
3123.145638418823
 20
5868.934776381006
 30
0.0
 10
3126.674058309436
 20
5868.934776381006
 30
0.0
 10
3128.968685891022
 20
5868.934776381006
 30
0.0
 10
3129.263924330248
 20
5868.934776381006
 30
0.0
  0
SPLINE
  5
D2
330
1F
100
AcDbEntity
  8
0
  6
Continuous
 62
     7
370
    25
100
AcDbSpline
210
0.0
220
0.0
230
1.0
 70
    24
 71
     3
 72
    13
 73
     9
 74
     0
 42
0.00000001
 43
0.00000001
 40
0.0
 40
0.0
 40
0.0
 40
0.0
 40
0.1018490866852534
 40
0.3147068308620474
 40
0.5275180236036068
 40
0.7415262943949216
 40
0.9570702588312875
 40
1.0
 40
1.0
 40
1.0
 40
1.0
 10
2963.067327963416
 20
5888.934776381006
 30
0.0
 10
2963.04927619043
 20
5888.934776381006
 30
0.0
 10
2962.993497425468
 20
5888.934776381006
 30
0.0
 10
2961.270915881822
 20
5888.934776381006
 30
0.0
 10
2957.581881496556
 20
5888.934776381006
 30
0.0
 10
2952.478088639793
 20
5888.934776381006
 30
0.0
 10
2948.136295753341
 20
5888.934776381006
 30
0.0
 10
2945.74530153406
 20
5888.934776381006
 30
0.0
 10
2945.348182752753
 20
5888.934776381006
 30
0.0
  0
ARC
  5
D3
330
1F
100
AcDbEntity
  8
0
  6
Continuous
 62
     7
370
    25
100
AcDbCircle
 10
3037.3060535415
 20
5878.934776381
 30
0.0
 40
92.5000000000005
100
AcDbArc
 50
6.206267751
 51
173.793732249
  0
SPLINE
  5
D4
330
1F
100
AcDbEntity
  8
0
  6
Continuous
 62
     7
370
    25
100
AcDbSpline
210
0.0
220
0.0
230
1.0
 70
    24
 71
     3
 72
    13
 73
     9
 74
     0
 42
0.00000001
 43
0.00000001
 40
0.0
 40
0.0
 40
0.0
 40
0.0
 40
0.1123080070706376
 40
0.2489694020458588
 40
0.4644400644524302
 40
0.6799523635376313
 40
0.8943482876673521
 40
1.0
 40
1.0
 40
1.0
 40
1.0
 10
3129.263924330249
 20
5888.934776381006
 30
0.0
 10
3128.224507730644
 20
5888.934776381006
 30
0.0
 10
3125.920282626575
 20
5888.934776381006
 30
0.0
 10
3121.769090312123
 20
5888.934776381006
 30
0.0
 10
3117.200594355254
 20
5888.934776381006
 30
0.0
 10
3113.458606573885
 20
5888.934776381006
 30
0.0
 10
3111.563386684458
 20
5888.934776381006
 30
0.0
 10
3111.647733873244
 20
5888.934776381006
 30
0.0
 10
3111.675577931161
 20
5888.934776381006
 30
0.0
  0
ARC
  5
D5
330
1F
100
AcDbEntity
  8
0
  6
Continuous
 62
     7
370
    25
100
AcDbCircle
 10
3037.3060535415
 20
5878.934776381
 30
0.0
 40
102.5000000000003
100
AcDbArc
 50
185.5987378162
 51
354.4012621838
  0
LINE
  5
D6
330
1F
100
AcDbEntity
  8
0
  6
Continuous
 62
     7
370
    25
100
AcDbLine
 10
3129.2639243302
 20
5868.934776381
 30
0.0
 11
3139.317082357
 21
5868.934776381
 31
0.0
  0
LINE
  5
D7
330
1F
100
AcDbEntity
  8
0
  6
Continuous
 62
     7
370
    25
100
AcDbLine
 10
2935.295024726
 20
5868.934776381
 30
0.0
 11
2945.3481827528
 21
5868.934776381
 31
0.0
  0
ARC
  5
D8
330
1F
100
AcDbEntity
  8
0
  6
Continuous
 62
     7
370
    25
100
AcDbCircle
 10
3037.3060535415
 20
5878.934776381
 30
0.0
 40
102.5000000000002
100
AcDbArc
 50
5.5987378162
 51
174.4012621838
  0
LINE
  5
D9
330
1F
100
AcDbEntity
  8
0
  6
Continuous
 62
     7
370
    25
100
AcDbLine
 10
2945.3481827528
 20
5888.934776381
 30
0.0
 11
2935.295024726
 21
5888.934776381
 31
0.0
  0
LINE
  5
DA
330
1F
100
AcDbEntity
  8
0
  6
Continuous
 62
     7
370
    25
100
AcDbLine
 10
3139.317082357
 20
5888.934776381
 30
0.0
 11
3129.2639243302
 21
5888.934776381
 31
0.0
  0
LINE
  5
DB
330
1F
100
AcDbEntity
  8
0
  6
Continuous
 62
     7
370
    25
100
AcDbLine
 10
3139.317082357
 20
5868.934776381
 30
0.0
 11
3237.3060535415
 21
5868.934776381
 31
0.0
  0
LINE
  5
DC
330
1F
100
AcDbEntity
  8
0
  6
Continuous
 62
     7
370
    25
100
AcDbLine
 10
3116.6363972781
 20
5888.934776381
 30
0.0
 11
3116.6363972781
 21
5868.934776381
 31
0.0
  0
LINE
  5
DD
330
1F
100
AcDbEntity
  8
0
  6
Continuous
 62
     7
370
    25
100
AcDbLine
 10
3237.3060535415
 20
5888.934776381
 30
0.0
 11
3139.317082357
 21
5888.934776381
 31
0.0
  0
LINE
  5
DE
330
1F
100
AcDbEntity
  8
0
  6
Continuous
 62
     7
370
    25
100
AcDbLine
 10
3237.3060535415
 20
5868.934776381
 30
0.0
 11
3237.3060535415
 21
5888.934776381
 31
0.0
  0
LINE
  5
DF
330
1F
100
AcDbEntity
  8
0
  6
Continuous
 62
     7
370
    25
100
AcDbLine
 10
2837.3060535415
 20
5888.934776381
 30
0.0
 11
2837.3060535415
 21
5868.934776381
 31
0.0
  0
LINE
  5
E0
330
1F
100
AcDbEntity
  8
0
  6
Continuous
 62
     7
370
    25
100
AcDbLine
 10
2935.295024726
 20
5888.934776381
 30
0.0
 11
2837.3060535415
 21
5888.934776381
 31
0.0
  0
LINE
  5
E1
330
1F
100
AcDbEntity
  8
0
  6
Continuous
 62
     7
370
    25
100
AcDbLine
 10
2957.9757098049
 20
5868.934776381
 30
0.0
 11
2957.9757098049
 21
5888.934776381
 31
0.0
  0
LINE
  5
E2
330
1F
100
AcDbEntity
  8
0
  6
Continuous
 62
     7
370
    25
100
AcDbLine
 10
2837.3060535415
 20
5868.934776381
 30
0.0
 11
2935.295024726
 21
5868.934776381
 31
0.0
  0
SPLINE
  5
E3
330
1F
100
AcDbEntity
  8
0
  6
Continuous
 62
     7
370
    25
100
AcDbSpline
210
0.0
220
0.0
230
1.0
 70
    24
 71
     3
 72
    13
 73
     9
 74
     0
 42
0.00000001
 43
0.00000001
 40
0.0
 40
0.0
 40
0.0
 40
0.0
 40
0.1239142553096542
 40
0.3348888262230069
 40
0.5467564964516399
 40
0.7606397903134391
 40
0.976582655629795
 40
1.0
 40
1.0
 40
1.0
 40
1.0
 10
3104.164215278743
 20
5868.934776381006
 30
0.0
 10
3104.1505901624
 20
5868.934776381006
 30
0.0
 10
3104.11376712531
 20
5868.934776381006
 30
0.0
 10
3104.990427366801
 20
5868.934776381006
 30
0.0
 10
3106.603107503332
 20
5868.934776381006
 30
0.0
 10
3108.818715371454
 20
5868.934776381006
 30
0.0
 10
3110.602276714375
 20
5868.934776381006
 30
0.0
 10
3111.544241928495
 20
5868.934776381006
 30
0.0
 10
3111.636397278093
 20
5868.934776381006
 30
0.0
  0
SPLINE
  5
E4
330
1F
100
AcDbEntity
  8
0
  6
Continuous
 62
     7
370
    25
100
AcDbSpline
210
0.0
220
0.0
230
1.0
 70
    24
 71
     3
 72
    12
 73
     8
 74
     0
 42
0.00000001
 43
0.00000001
 40
0.0
 40
0.0
 40
0.0
 40
0.0
 40
0.1371482862753904
 40
0.3545838907848504
 40
0.5715910147146858
 40
0.7869072517327839
 40
1.0
 40
1.0
 40
1.0
 40
1.0
 10
2962.975709804908
 20
5868.934776381006
 30
0.0
 10
2963.515346352883
 20
5868.934776381006
 30
0.0
 10
2964.91052548335
 20
5868.934776381006
 30
0.0
 10
2967.042356382614
 20
5868.934776381006
 30
0.0
 10
2968.986223647924
 20
5868.934776381006
 30
0.0
 10
2970.30061348311
 20
5868.934776381006
 30
0.0
 10
2970.467762215793
 20
5868.934776381006
 30
0.0
 10
2970.550902822177
 20
5868.934776381006
 30
0.0
  0
SPLINE
  5
E5
330
1F
100
AcDbEntity
  8
0
  6
Continuous
 62
     7
370
    25
100
AcDbSpline
210
0.0
220
0.0
230
1.0
 70
    24
 71
     3
 72
    13
 73
     9
 74
     0
 42
0.00000001
 43
0.00000001
 40
0.0
 40
0.0
 40
0.0
 40
0.0
 40
0.0819303919323192
 40
0.2936699880411194
 40
0.5060180645314466
 40
0.7202561650491984
 40
0.9366378823064929
 40
1.0
 40
1.0
 40
1.0
 40
1.0
 10
2970.450426284779
 20
5888.934776381006
 30
0.0
 10
2970.475211742713
 20
5888.934776381006
 30
0.0
 10
2970.564052342191
 20
5888.934776381006
 30
0.0
 10
2969.836159672096
 20
5888.934776381006
 30
0.0
 10
2968.359882019778
 20
5888.934776381006
 30
0.0
 10
2966.228284860517
 20
5888.934776381006
 30
0.0
 10
2964.321370194018
 20
5888.934776381006
 30
0.0
 10
2963.224215816815
 20
5888.934776381006
 30
0.0
 10
2962.975709804918
 20
5888.934776381006
 30
0.0
  0
SPLINE
  5
E6
330
1F
100
AcDbEntity
  8
0
  6
Continuous
 62
     7
370
    25
100
AcDbSpline
210
0.0
220
0.0
230
1.0
 70
    24
 71
     3
 72
    13
 73
     9
 74
     0
 42
0.00000001
 43
0.00000001
 40
0.0
 40
0.0
 40
0.0
 40
0.0
 40
0.1032203154139083
 40
0.3208156041040951
 40
0.538196736359688
 40
0.7540536477479436
 40
0.9676943780222776
 40
1.0
 40
1.0
 40
1.0
 40
1.0
 10
3111.636397278093
 20
5888.934776381006
 30
0.0
 10
3111.230826571512
 20
5888.934776381006
 30
0.0
 10
3109.970285846395
 20
5888.934776381005
 30
0.0
 10
3107.931795187847
 20
5888.934776381006
 30
0.0
 10
3105.867398762539
 20
5888.934776381006
 30
0.0
 10
3104.546860466419
 20
5888.934776381006
 30
0.0
 10
3103.966928649052
 20
5888.934776381006
 30
0.0
 10
3104.098385716729
 20
5888.934776381006
 30
0.0
 10
3104.115652906487
 20
5888.934776381006
 30
0.0
  0
LINE
  5
E7
330
1F
100
AcDbEntity
  8
0
  6
Continuous
 62
     7
370
    25
100
AcDbLine
 10
3056.0699372902
 20
6043.934776381
 30
0.0
 11
3056.0699372902
 21
5979.7026614767
 31
0.0
  0
LINE
  5
E8
330
1F
100
AcDbEntity
  8
0
  6
Continuous
 62
     7
370
    25
100
AcDbLine
 10
3056.0699372902
 20
6043.934776381
 30
0.0
 11
3074.8338210388
 21
6043.934776381
 31
0.0
  0
LINE
  5
E9
330
1F
100
AcDbEntity
  8
0
  6
Continuous
 62
     7
370
    25
100
AcDbLine
 10
3074.8338210388
 20
6043.934776381
 30
0.0
 11
3074.8338210388
 21
5974.3177762639
 31
0.0
  0
LINE
  5
EA
330
1F
100
AcDbEntity
  8
0
  6
Continuous
 62
     7
370
    25
100
AcDbLine
 10
3018.5421697928
 20
6043.934776381
 30
0.0
 11
3018.5421697928
 21
5979.7026614767
 31
0.0
  0
LINE
  5
EB
330
1F
100
AcDbEntity
  8
0
  6
Continuous
 62
     7
370
    25
100
AcDbLine
 10
3018.5421697928
 20
6043.934776381
 30
0.0
 11
3056.0699372902
 21
6043.934776381
 31
0.0
  0
LINE
  5
EC
330
1F
100
AcDbEntity
  8
0
  6
Continuous
 62
     7
370
    25
100
AcDbLine
 10
2999.7782860442
 20
6043.934776381
 30
0.0
 11
2999.7782860442
 21
5974.3177762639
 31
0.0
  0
LINE
  5
ED
330
1F
100
AcDbEntity
  8
0
  6
Continuous
 62
     7
370
    25
100
AcDbLine
 10
2999.7782860442
 20
6043.934776381
 30
0.0
 11
3018.5421697928
 21
6043.934776381
 31
0.0
  0
LINE
  5
EE
330
1F
100
AcDbEntity
  8
0
  6
Continuous
 62
     7
370
    25
100
AcDbLine
 10
3197.3060535415
 20
5851.434776381
 30
0.0
 11
3182.3060535415
 21
5851.434776381
 31
0.0
  0
LINE
  5
EF
330
1F
100
AcDbEntity
  8
0
  6
Continuous
 62
     7
370
    25
100
AcDbLine
 10
3212.3060535415
 20
5851.434776381
 30
0.0
 11
3197.3060535415
 21
5851.434776381
 31
0.0
  0
LINE
  5
F0
330
1F
100
AcDbEntity
  8
0
  6
Continuous
 62
     7
370
    25
100
AcDbLine
 10
2882.3060535415
 20
5851.434776381
 30
0.0
 11
2862.3060535415
 21
5851.434776381
 31
0.0
  0
LINE
  5
F1
330
1F
100
AcDbEntity
  8
0
  6
Continuous
 62
     7
370
    25
100
AcDbLine
 10
3184.8060535415
 20
5943.934776381
 30
0.0
 11
3209.8060535415
 21
5943.934776381
 31
0.0
  0
LINE
  5
F2
330
1F
100
AcDbEntity
  8
0
  6
Continuous
 62
     7
370
    25
100
AcDbLine
 10
2882.3060535415
 20
5943.934776381
 30
0.0
 11
2864.8060535415
 21
5943.934776381
 31
0.0
  0
CIRCLE
  5
F3
330
1F
100
AcDbEntity
  8
0
  6
Continuous
 62
     7
370
    25
100
AcDbCircle
 10
2277.3060535415
 20
8008.934776381
 30
0.0
 40
20.0
  0
CIRCLE
  5
F4
330
1F
100
AcDbEntity
  8
0
  6
Continuous
 62
     7
370
    25
100
AcDbCircle
 10
3077.3060535415
 20
8008.934776381
 30
0.0
 40
20.0
  0
ARC
  5
F5
330
1F
100
AcDbEntity
  8
0
  6
Continuous
 62
     7
370
    25
100
AcDbCircle
 10
3077.3060535415
 20
8008.934776381
 30
0.0
 40
32.5000000000009
100
AcDbArc
 50
240.0
 51
300.0
  0
ARC
  5
F6
330
1F
100
AcDbEntity
  8
0
  6
Continuous
 62
     7
370
    25
100
AcDbCircle
 10
3077.3060535415
 20
8008.934776381
 30
0.0
 40
32.5000000000009
100
AcDbArc
 50
180.0
 51
240.0
  0
ARC
  5
F7
330
1F
100
AcDbEntity
  8
0
  6
Continuous
 62
     7
370
    25
100
AcDbCircle
 10
3077.3060535415
 20
8008.934776381
 30
0.0
 40
32.50000000000045
100
AcDbArc
 50
120.0
 51
180.0
  0
ARC
  5
F8
330
1F
100
AcDbEntity
  8
0
  6
Continuous
 62
     7
370
    25
100
AcDbCircle
 10
3077.3060535415
 20
8008.934776381
 30
0.0
 40
32.50000000000033
100
AcDbArc
 50
60.0
 51
120.0
  0
ARC
  5
F9
330
1F
100
AcDbEntity
  8
0
  6
Continuous
 62
     7
370
    25
100
AcDbCircle
 10
3077.3060535415
 20
8008.934776381
 30
0.0
 40
32.50000000000011
100
AcDbArc
 50
0.0
 51
60.0
  0
ARC
  5
FA
330
1F
100
AcDbEntity
  8
0
  6
Continuous
 62
     7
370
    25
100
AcDbCircle
 10
3077.3060535415
 20
8008.934776381
 30
0.0
 40
32.50000000000056
100
AcDbArc
 50
300.0
 51
0.0
  0
LINE
  5
FB
330
1F
100
AcDbEntity
  8
0
  6
Continuous
 62
     7
370
    25
100
AcDbLine
 10
3077.3060535415
 20
7971.4070088837
 30
0.0
 11
3093.5560535415
 21
7980.788950758
 31
0.0
  0
SPLINE
  5
FC
330
1F
100
AcDbEntity
  8
0
  6
Continuous
 62
     7
370
    25
100
AcDbSpline
210
0.0
220
0.0
230
1.0
 70
    24
 71
     3
 72
     9
 73
     5
 74
     0
 42
0.00000001
 43
0.00000001
 40
0.0
 40
0.0
 40
0.0
 40
0.0
 40
0.3722772596761345
 40
1.0
 40
1.0
 40
1.0
 40
1.0
 10
3061.056053541501
 20
7980.788950758044
 30
0.0
 10
3063.096820878596
 20
7979.610713186618
 30
0.0
 10
3068.578668840169
 20
7976.445766790347
 30
0.0
 10
3073.940383390888
 20
7973.350179451173
 30
0.0
 10
3077.3060535415
 20
7971.407008883715
 30
0.0
  0
SPLINE
  5
FD
330
1F
100
AcDbEntity
  8
0
  6
Continuous
 62
     7
370
    25
100
AcDbSpline
210
0.0
220
0.0
230
1.0
 70
    24
 71
     3
 72
     9
 73
     5
 74
     0
 42
0.00000001
 43
0.00000001
 40
0.0
 40
0.0
 40
0.0
 40
0.0
 40
0.7443471667480476
 40
1.0
 40
1.0
 40
1.0
 40
1.0
 10
3044.8060535415
 20
8008.934776381039
 30
0.0
 10
3044.8060535415
 20
8004.2234635636
 30
0.0
 10
3044.8060535415
 20
7997.894007326098
 30
0.0
 10
3044.8060535415
 20
7991.743330571188
 30
0.0
 10
3044.8060535415
 20
7990.170892632379
 30
0.0
  0
LINE
  5
FE
330
1F
100
AcDbEntity
  8
0
  6
Continuous
 62
     7
370
    25
100
AcDbLine
 10
3044.8060535415
 20
7990.1708926324
 30
0.0
 11
3061.0560535415
 21
7980.788950758
 31
0.0
  0
SPLINE
  5
FF
330
1F
100
AcDbEntity
  8
0
  6
Continuous
 62
     7
370
    25
100
AcDbSpline
210
0.0
220
0.0
230
1.0
 70
    24
 71
     3
 72
     9
 73
     5
 74
     0
 42
0.00000001
 43
0.00000001
 40
0.0
 40
0.0
 40
0.0
 40
0.0
 40
0.5156102819444153
 40
1.0
 40
1.0
 40
1.0
 40
1.0
 10
3109.8060535415
 20
8008.934776381039
 30
0.0
 10
3109.8060535415
 20
8012.199572500393
 30
0.0
 10
3109.8060535415
 20
8018.531479046247
 30
0.0
 10
3109.8060535415
 20
8024.707202962917
 30
0.0
 10
3109.8060535415
 20
8027.698660129703
 30
0.0
  0
LINE
  5
100
330
1F
100
AcDbEntity
  8
0
  6
Continuous
 62
     7
370
    25
100
AcDbLine
 10
3109.8060535415
 20
8027.6986601297
 30
0.0
 11
3093.5560535415
 21
8037.080602004
 31
0.0
  0
SPLINE
  5
101
330
1F
100
AcDbEntity
  8
0
  6
Continuous
 62
     7
370
    25
100
AcDbSpline
210
0.0
220
0.0
230
1.0
 70
    24
 71
     3
 72
     9
 73
     5
 74
     0
 42
0.00000001
 43
0.00000001
 40
0.0
 40
0.0
 40
0.0
 40
0.0
 40
0.2556528332520092
 40
1.0
 40
1.0
 40
1.0
 40
1.0
 10
3109.8060535415
 20
7990.170892632379
 30
0.0
 10
3109.8060535415
 20
7991.743330571188
 30
0.0
 10
3109.8060535415
 20
7997.894007326098
 30
0.0
 10
3109.8060535415
 20
8004.2234635636
 30
0.0
 10
3109.8060535415
 20
8008.934776381039
 30
0.0
  0
SPLINE
  5
102
330
1F
100
AcDbEntity
  8
0
  6
Continuous
 62
     7
370
    25
100
AcDbSpline
210
0.0
220
0.0
230
1.0
 70
    24
 71
     3
 72
     9
 73
     5
 74
     0
 42
0.00000001
 43
0.00000001
 40
0.0
 40
0.0
 40
0.0
 40
0.0
 40
0.3722772596760391
 40
0.9999999999999999
 40
0.9999999999999999
 40
0.9999999999999999
 40
0.9999999999999999
 10
3093.556053541501
 20
7980.788950758045
 30
0.0
 10
3095.596820878597
 20
7981.96718832947
 30
0.0
 10
3101.078668840171
 20
7985.132134725742
 30
0.0
 10
3106.440383390889
 20
7988.227722064918
 30
0.0
 10
3109.8060535415
 20
7990.170892632379
 30
0.0
  0
LINE
  5
103
330
1F
100
AcDbEntity
  8
0
  6
Continuous
 62
     7
370
    25
100
AcDbLine
 10
3077.3060535415
 20
8046.4625438784
 30
0.0
 11
3061.0560535415
 21
8037.080602004
 31
0.0
  0
SPLINE
  5
104
330
1F
100
AcDbEntity
  8
0
  6
Continuous
 62
     7
370
    25
100
AcDbSpline
210
0.0
220
0.0
230
1.0
 70
    24
 71
     3
 72
     9
 73
     5
 74
     0
 42
0.00000001
 43
0.00000001
 40
0.0
 40
0.0
 40
0.0
 40
0.0
 40
0.3722772596761814
 40
1.0
 40
1.0
 40
1.0
 40
1.0
 10
3093.556053541501
 20
8037.080602004034
 30
0.0
 10
3091.515286204404
 20
8038.258839575459
 30
0.0
 10
3086.033438242831
 20
8041.423785971732
 30
0.0
 10
3080.671723692112
 20
8044.519373310907
 30
0.0
 10
3077.3060535415
 20
8046.462543878366
 30
0.0
  0
SPLINE
  5
105
330
1F
100
AcDbEntity
  8
0
  6
Continuous
 62
     7
370
    25
100
AcDbSpline
210
0.0
220
0.0
230
1.0
 70
    24
 71
     3
 72
     9
 73
     5
 74
     0
 42
0.00000001
 43
0.00000001
 40
0.0
 40
0.0
 40
0.0
 40
0.0
 40
0.4843897180556437
 40
1.0
 40
1.0
 40
1.0
 40
1.0
 10
3044.8060535415
 20
8027.698660129703
 30
0.0
 10
3044.8060535415
 20
8024.707202962917
 30
0.0
 10
3044.8060535415
 20
8018.531479046247
 30
0.0
 10
3044.8060535415
 20
8012.199572500393
 30
0.0
 10
3044.8060535415
 20
8008.934776381039
 30
0.0
  0
SPLINE
  5
106
330
1F
100
AcDbEntity
  8
0
  6
Continuous
 62
     7
370
    25
100
AcDbSpline
210
0.0
220
0.0
230
1.0
 70
    24
 71
     3
 72
     9
 73
     5
 74
     0
 42
0.00000001
 43
0.00000001
 40
0.0
 40
0.0
 40
0.0
 40
0.0
 40
0.3722772596761733
 40
1.0
 40
1.0
 40
1.0
 40
1.0
 10
3061.0560535415
 20
8037.080602004034
 30
0.0
 10
3059.015286204405
 20
8035.902364432609
 30
0.0
 10
3053.533438242831
 20
8032.737418036335
 30
0.0
 10
3048.171723692112
 20
8029.641830697161
 30
0.0
 10
3044.8060535415
 20
8027.698660129703
 30
0.0
  0
ARC
  5
107
330
1F
100
AcDbEntity
  8
0
  6
Continuous
 62
     7
370
    25
100
AcDbCircle
 10
2277.3060535415
 20
8008.934776381
 30
0.0
 40
32.50000000000146
100
AcDbArc
 50
240.0
 51
300.0
  0
ARC
  5
108
330
1F
100
AcDbEntity
  8
0
  6
Continuous
 62
     7
370
    25
100
AcDbCircle
 10
2277.3060535415
 20
8008.934776381
 30
0.0
 40
32.50000000000146
100
AcDbArc
 50
180.0
 51
240.0
  0
ARC
  5
109
330
1F
100
AcDbEntity
  8
0
  6
Continuous
 62
     7
370
    25
100
AcDbCircle
 10
2277.3060535415
 20
8008.934776381
 30
0.0
 40
32.50000000000045
100
AcDbArc
 50
120.0
 51
180.0
  0
ARC
  5
10A
330
1F
100
AcDbEntity
  8
0
  6
Continuous
 62
     7
370
    25
100
AcDbCircle
 10
2277.3060535415
 20
8008.934776381
 30
0.0
 40
32.50000000000011
100
AcDbArc
 50
60.0
 51
120.0
  0
ARC
  5
10B
330
1F
100
AcDbEntity
  8
0
  6
Continuous
 62
     7
370
    25
100
AcDbCircle
 10
2277.3060535415
 20
8008.934776381
 30
0.0
 40
32.49999999999955
100
AcDbArc
 50
0.0
 51
60.0
  0
ARC
  5
10C
330
1F
100
AcDbEntity
  8
0
  6
Continuous
 62
     7
370
    25
100
AcDbCircle
 10
2277.3060535415
 20
8008.934776381
 30
0.0
 40
32.50000000000056
100
AcDbArc
 50
300.0
 51
0.0
  0
SPLINE
  5
10D
330
1F
100
AcDbEntity
  8
0
  6
Continuous
 62
     7
370
    25
100
AcDbSpline
210
0.0
220
0.0
230
1.0
 70
    24
 71
     3
 72
     9
 73
     5
 74
     0
 42
0.00000001
 43
0.00000001
 40
0.0
 40
0.0
 40
0.0
 40
0.0
 40
0.2556528332520092
 40
1.0
 40
1.0
 40
1.0
 40
1.0
 10
2309.8060535415
 20
7990.170892632378
 30
0.0
 10
2309.8060535415
 20
7991.743330571187
 30
0.0
 10
2309.8060535415
 20
7997.894007326097
 30
0.0
 10
2309.8060535415
 20
8004.2234635636
 30
0.0
 10
2309.8060535415
 20
8008.934776381039
 30
0.0
  0
SPLINE
  5
10E
330
1F
100
AcDbEntity
  8
0
  6
Continuous
 62
     7
370
    25
100
AcDbSpline
210
0.0
220
0.0
230
1.0
 70
    24
 71
     3
 72
     9
 73
     5
 74
     0
 42
0.00000001
 43
0.00000001
 40
0.0
 40
0.0
 40
0.0
 40
0.0
 40
0.3722772596760391
 40
1.0
 40
1.0
 40
1.0
 40
1.0
 10
2293.556053541501
 20
7980.788950758045
 30
0.0
 10
2295.596820878597
 20
7981.96718832947
 30
0.0
 10
2301.078668840171
 20
7985.132134725741
 30
0.0
 10
2306.440383390889
 20
7988.227722064918
 30
0.0
 10
2309.8060535415
 20
7990.170892632378
 30
0.0
  0
SPLINE
  5
10F
330
1F
100
AcDbEntity
  8
0
  6
Continuous
 62
     7
370
    25
100
AcDbSpline
210
0.0
220
0.0
230
1.0
 70
    24
 71
     3
 72
     9
 73
     5
 74
     0
 42
0.00000001
 43
0.00000001
 40
0.0
 40
0.0
 40
0.0
 40
0.0
 40
0.5156102819444154
 40
0.9999999999999999
 40
0.9999999999999999
 40
0.9999999999999999
 40
0.9999999999999999
 10
2309.8060535415
 20
8008.934776381039
 30
0.0
 10
2309.8060535415
 20
8012.199572500393
 30
0.0
 10
2309.8060535415
 20
8018.531479046247
 30
0.0
 10
2309.8060535415
 20
8024.707202962917
 30
0.0
 10
2309.8060535415
 20
8027.698660129701
 30
0.0
  0
LINE
  5
110
330
1F
100
AcDbEntity
  8
0
  6
Continuous
 62
     7
370
    25
100
AcDbLine
 10
2309.8060535415
 20
8027.6986601297
 30
0.0
 11
2293.5560535415
 21
8037.080602004
 31
0.0
  0
LINE
  5
111
330
1F
100
AcDbEntity
  8
0
  6
Continuous
 62
     7
370
    25
100
AcDbLine
 10
2244.8060535415
 20
7990.1708926324
 30
0.0
 11
2261.0560535415
 21
7980.788950758
 31
0.0
  0
SPLINE
  5
112
330
1F
100
AcDbEntity
  8
0
  6
Continuous
 62
     7
370
    25
100
AcDbSpline
210
0.0
220
0.0
230
1.0
 70
    24
 71
     3
 72
     9
 73
     5
 74
     0
 42
0.00000001
 43
0.00000001
 40
0.0
 40
0.0
 40
0.0
 40
0.0
 40
0.7443471667480476
 40
1.0
 40
1.0
 40
1.0
 40
1.0
 10
2244.8060535415
 20
8008.934776381039
 30
0.0
 10
2244.8060535415
 20
8004.223463563598
 30
0.0
 10
2244.8060535415
 20
7997.894007326097
 30
0.0
 10
2244.8060535415
 20
7991.743330571187
 30
0.0
 10
2244.8060535415
 20
7990.170892632378
 30
0.0
  0
LINE
  5
113
330
1F
100
AcDbEntity
  8
0
  6
Continuous
 62
     7
370
    25
100
AcDbLine
 10
2277.3060535415
 20
7971.4070088837
 30
0.0
 11
2293.5560535415
 21
7980.788950758
 31
0.0
  0
SPLINE
  5
114
330
1F
100
AcDbEntity
  8
0
  6
Continuous
 62
     7
370
    25
100
AcDbSpline
210
0.0
220
0.0
230
1.0
 70
    24
 71
     3
 72
     9
 73
     5
 74
     0
 42
0.00000001
 43
0.00000001
 40
0.0
 40
0.0
 40
0.0
 40
0.0
 40
0.3722772596761345
 40
1.0
 40
1.0
 40
1.0
 40
1.0
 10
2261.056053541501
 20
7980.788950758043
 30
0.0
 10
2263.096820878596
 20
7979.610713186617
 30
0.0
 10
2268.578668840169
 20
7976.445766790346
 30
0.0
 10
2273.940383390889
 20
7973.350179451172
 30
0.0
 10
2277.3060535415
 20
7971.407008883714
 30
0.0
  0
LINE
  5
115
330
1F
100
AcDbEntity
  8
0
  6
Continuous
 62
     7
370
    25
100
AcDbLine
 10
2277.3060535415
 20
8046.4625438784
 30
0.0
 11
2261.0560535415
 21
8037.080602004
 31
0.0
  0
SPLINE
  5
116
330
1F
100
AcDbEntity
  8
0
  6
Continuous
 62
     7
370
    25
100
AcDbSpline
210
0.0
220
0.0
230
1.0
 70
    24
 71
     3
 72
     9
 73
     5
 74
     0
 42
0.00000001
 43
0.00000001
 40
0.0
 40
0.0
 40
0.0
 40
0.0
 40
0.3722772596761814
 40
1.0
 40
1.0
 40
1.0
 40
1.0
 10
2293.5560535415
 20
8037.080602004032
 30
0.0
 10
2291.515286204404
 20
8038.258839575459
 30
0.0
 10
2286.033438242831
 20
8041.423785971732
 30
0.0
 10
2280.671723692111
 20
8044.519373310907
 30
0.0
 10
2277.3060535415
 20
8046.462543878364
 30
0.0
  0
SPLINE
  5
117
330
1F
100
AcDbEntity
  8
0
  6
Continuous
 62
     7
370
    25
100
AcDbSpline
210
0.0
220
0.0
230
1.0
 70
    24
 71
     3
 72
     9
 73
     5
 74
     0
 42
0.00000001
 43
0.00000001
 40
0.0
 40
0.0
 40
0.0
 40
0.0
 40
0.4843897180556435
 40
1.0
 40
1.0
 40
1.0
 40
1.0
 10
2244.8060535415
 20
8027.698660129701
 30
0.0
 10
2244.8060535415
 20
8024.707202962917
 30
0.0
 10
2244.8060535415
 20
8018.531479046247
 30
0.0
 10
2244.8060535415
 20
8012.199572500393
 30
0.0
 10
2244.8060535415
 20
8008.934776381039
 30
0.0
  0
SPLINE
  5
118
330
1F
100
AcDbEntity
  8
0
  6
Continuous
 62
     7
370
    25
100
AcDbSpline
210
0.0
220
0.0
230
1.0
 70
    24
 71
     3
 72
     9
 73
     5
 74
     0
 42
0.00000001
 43
0.00000001
 40
0.0
 40
0.0
 40
0.0
 40
0.0
 40
0.3722772596761733
 40
1.0
 40
1.0
 40
1.0
 40
1.0
 10
2261.056053541501
 20
8037.080602004034
 30
0.0
 10
2259.015286204405
 20
8035.902364432607
 30
0.0
 10
2253.533438242831
 20
8032.737418036335
 30
0.0
 10
2248.171723692112
 20
8029.641830697161
 30
0.0
 10
2244.8060535415
 20
8027.698660129701
 30
0.0
  0
ARC
  5
119
330
1F
100
AcDbEntity
  8
0
  6
Continuous
 62
     7
370
    25
100
AcDbCircle
 10
2677.3060535415
 20
5878.934776381
 30
0.0
 40
142.5000000000018
100
AcDbArc
 50
184.0240638894
 51
355.9759361106
  0
SPLINE
  5
11A
330
1F
100
AcDbEntity
  8
0
  6
Continuous
 62
     7
370
    25
100
AcDbSpline
210
0.0
220
0.0
230
1.0
 70
    24
 71
     3
 72
    13
 73
     9
 74
     0
 42
0.00000001
 43
0.00000001
 40
0.0
 40
0.0
 40
0.0
 40
0.0
 40
0.1313083640451995
 40
0.3448867624506869
 40
0.5584479789291581
 40
0.7724495343311987
 40
0.9870254306076456
 40
0.9999999999999999
 40
0.9999999999999999
 40
0.9999999999999999
 40
0.9999999999999999
 10
2801.753228888908
 20
5868.934776381006
 30
0.0
 10
2801.821300831587
 20
5868.934776381006
 30
0.0
 10
2802.000094559577
 20
5868.934776381006
 30
0.0
 10
2803.990484824161
 20
5868.934776381006
 30
0.0
 10
2807.899990933729
 20
5868.934776381006
 30
0.0
 10
2813.134685419177
 20
5868.934776381004
 30
0.0
 10
2817.231759985871
 20
5868.934776381012
 30
0.0
 10
2819.334829581638
 20
5868.934776381006
 30
0.0
 10
2819.454743299797
 20
5868.934776381006
 30
0.0
  0
SPLINE
  5
11B
330
1F
100
AcDbEntity
  8
0
  6
Continuous
 62
     7
370
    25
100
AcDbSpline
210
0.0
220
0.0
230
1.0
 70
    24
 71
     3
 72
    13
 73
     9
 74
     0
 42
0.00000001
 43
0.00000001
 40
0.0
 40
0.0
 40
0.0
 40
0.0
 40
0.1436294925444544
 40
0.3589919333848269
 40
0.5742476886567379
 40
0.7890362718423102
 40
0.923191220413293
 40
1.0
 40
1.0
 40
1.0
 40
1.0
 10
2535.157363783204
 20
5868.934776381006
 30
0.0
 10
2536.484134221813
 20
5868.934776381006
 30
0.0
 10
2539.800304713514
 20
5868.934776381006
 30
0.0
 10
2544.78671177194
 20
5868.934776381006
 30
0.0
 10
2549.322125489532
 20
5868.934776381006
 30
0.0
 10
2551.808184405123
 20
5868.934776381006
 30
0.0
 10
2552.835921456296
 20
5868.934776381006
 30
0.0
 10
2552.751852058132
 20
5868.934776381006
 30
0.0
 10
2552.721243631131
 20
5868.934776381006
 30
0.0
  0
SPLINE
  5
11C
330
1F
100
AcDbEntity
  8
0
  6
Continuous
 62
     7
370
    25
100
AcDbSpline
210
0.0
220
0.0
230
1.0
 70
    24
 71
     3
 72
    13
 73
     9
 74
     0
 42
0.00000001
 43
0.00000001
 40
0.0
 40
0.0
 40
0.0
 40
0.0
 40
0.0774356510827955
 40
0.2913552831730965
 40
0.505259495278487
 40
0.7195724882586487
 40
0.9344981429470968
 40
1.0
 40
1.0
 40
1.0
 40
1.0
 10
2552.769020589617
 20
5888.934776381006
 30
0.0
 10
2552.778905835914
 20
5888.934776381006
 30
0.0
 10
2552.816099540541
 20
5888.934776381006
 30
0.0
 10
2551.303076961213
 20
5888.934776381006
 30
0.0
 10
2547.811782109604
 20
5888.934776381006
 30
0.0
 10
2542.836163502623
 20
5888.934776381006
 30
0.0
 10
2538.347837353615
 20
5888.934776381006
 30
0.0
 10
2535.761481162624
 20
5888.934776381006
 30
0.0
 10
2535.157363783204
 20
5888.934776381006
 30
0.0
  0
ARC
  5
11D
330
1F
100
AcDbEntity
  8
0
  6
Continuous
 62
     7
370
    25
100
AcDbCircle
 10
2677.3060535415
 20
5878.934776381
 30
0.0
 40
142.5000000000018
100
AcDbArc
 50
4.0240638894
 51
175.9759361106
  0
SPLINE
  5
11E
330
1F
100
AcDbEntity
  8
0
  6
Continuous
 62
     7
370
    25
100
AcDbSpline
210
0.0
220
0.0
230
1.0
 70
    24
 71
     3
 72
    13
 73
     9
 74
     0
 42
0.00000001
 43
0.00000001
 40
0.0
 40
0.0
 40
0.0
 40
0.0
 40
0.091370461559378
 40
0.3066477062920617
 40
0.5219098636007243
 40
0.7367831426478733
 40
0.871186410219328
 40
0.9999999999999999
 40
0.9999999999999999
 40
0.9999999999999999
 40
0.9999999999999999
 10
2819.454743299797
 20
5888.934776381006
 30
0.0
 10
2818.611654138688
 20
5888.934776381006
 30
0.0
 10
2815.782169061766
 20
5888.934776381006
 30
0.0
 10
2811.106692987174
 20
5888.934776381006
 30
0.0
 10
2806.25679010077
 20
5888.934776381006
 30
0.0
 10
2803.389282588555
 20
5888.934776381006
 30
0.0
 10
2801.897483997544
 20
5888.934776381006
 30
0.0
 10
2801.957021084534
 20
5888.934776381006
 30
0.0
 10
2801.986157462717
 20
5888.934776381006
 30
0.0
  0
ARC
  5
11F
330
1F
100
AcDbEntity
  8
0
  6
Continuous
 62
     7
370
    25
100
AcDbCircle
 10
2677.3060535415
 20
5878.934776381
 30
0.0
 40
152.5000000000015
100
AcDbArc
 50
183.7597980573
 51
356.2402019427
  0
LINE
  5
120
330
1F
100
AcDbEntity
  8
0
  6
Continuous
 62
     7
370
    25
100
AcDbLine
 10
2819.4547432998
 20
5868.934776381
 30
0.0
 11
2829.4778314768
 21
5868.934776381
 31
0.0
  0
LINE
  5
121
330
1F
100
AcDbEntity
  8
0
  6
Continuous
 62
     7
370
    25
100
AcDbLine
 10
2525.1342756062
 20
5868.934776381
 30
0.0
 11
2535.1573637832
 21
5868.934776381
 31
0.0
  0
ARC
  5
122
330
1F
100
AcDbEntity
  8
0
  6
Continuous
 62
     7
370
    25
100
AcDbCircle
 10
2677.3060535415
 20
5878.934776381
 30
0.0
 40
152.5000000000019
100
AcDbArc
 50
3.7597980573
 51
176.2402019427
  0
LINE
  5
123
330
1F
100
AcDbEntity
  8
0
  6
Continuous
 62
     7
370
    25
100
AcDbLine
 10
2535.1573637832
 20
5888.934776381
 30
0.0
 11
2525.1342756062
 21
5888.934776381
 31
0.0
  0
LINE
  5
124
330
1F
100
AcDbEntity
  8
0
  6
Continuous
 62
     7
370
    25
100
AcDbLine
 10
2829.4778314768
 20
5888.934776381
 30
0.0
 11
2819.4547432998
 21
5888.934776381
 31
0.0
  0
LINE
  5
125
330
1F
100
AcDbEntity
  8
0
  6
Continuous
 62
     7
370
    25
100
AcDbLine
 10
2806.9054114853
 20
5888.934776381
 30
0.0
 11
2806.9054114853
 21
5868.934776381
 31
0.0
  0
LINE
  5
126
330
1F
100
AcDbEntity
  8
0
  6
Continuous
 62
     7
370
    25
100
AcDbLine
 10
2927.3060535415
 20
5888.934776381
 30
0.0
 11
2829.4778314768
 21
5888.934776381
 31
0.0
  0
LINE
  5
127
330
1F
100
AcDbEntity
  8
0
  6
Continuous
 62
     7
370
    25
100
AcDbLine
 10
2927.3060535415
 20
5868.934776381
 30
0.0
 11
2927.3060535415
 21
5888.934776381
 31
0.0
  0
LINE
  5
128
330
1F
100
AcDbEntity
  8
0
  6
Continuous
 62
     7
370
    25
100
AcDbLine
 10
2829.4778314768
 20
5868.934776381
 30
0.0
 11
2927.3060535415
 21
5868.934776381
 31
0.0
  0
LINE
  5
129
330
1F
100
AcDbEntity
  8
0
  6
Continuous
 62
     7
370
    25
100
AcDbLine
 10
2427.3060535415
 20
5868.934776381
 30
0.0
 11
2525.1342756062
 21
5868.934776381
 31
0.0
  0
LINE
  5
12A
330
1F
100
AcDbEntity
  8
0
  6
Continuous
 62
     7
370
    25
100
AcDbLine
 10
2427.3060535415
 20
5888.934776381
 30
0.0
 11
2427.3060535415
 21
5868.934776381
 31
0.0
  0
LINE
  5
12B
330
1F
100
AcDbEntity
  8
0
  6
Continuous
 62
     7
370
    25
100
AcDbLine
 10
2525.1342756062
 20
5888.934776381
 30
0.0
 11
2427.3060535415
 21
5888.934776381
 31
0.0
  0
LINE
  5
12C
330
1F
100
AcDbEntity
  8
0
  6
Continuous
 62
     7
370
    25
100
AcDbLine
 10
2547.7066955977
 20
5868.934776381
 30
0.0
 11
2547.7066955977
 21
5888.934776381
 31
0.0
  0
SPLINE
  5
12D
330
1F
100
AcDbEntity
  8
0
  6
Continuous
 62
     7
370
    25
100
AcDbSpline
210
0.0
220
0.0
230
1.0
 70
    24
 71
     3
 72
    12
 73
     8
 74
     0
 42
0.00000001
 43
0.00000001
 40
0.0
 40
0.0
 40
0.0
 40
0.0
 40
0.1901077015489761
 40
0.4024029504201587
 40
0.6151188750619182
 40
0.8285454721536459
 40
0.9999999999999999
 40
0.9999999999999999
 40
0.9999999999999999
 40
0.9999999999999999
 10
2560.192342054261
 20
5888.934776381006
 30
0.0
 10
2560.149659327712
 20
5888.934776381006
 30
0.0
 10
2560.059312356206
 20
5888.934776381006
 30
0.0
 10
2558.900988717059
 20
5888.934776381006
 30
0.0
 10
2557.083797172257
 20
5888.934776381006
 30
0.0
 10
2554.904141342629
 20
5888.934776381006
 30
0.0
 10
2553.383916302126
 20
5888.934776381006
 30
0.0
 10
2552.706695597729
 20
5888.934776381006
 30
0.0
  0
SPLINE
  5
12E
330
1F
100
AcDbEntity
  8
0
  6
Continuous
 62
     7
370
    25
100
AcDbSpline
210
0.0
220
0.0
230
1.0
 70
    24
 71
     3
 72
    13
 73
     9
 74
     0
 42
0.00000001
 43
0.00000001
 40
0.0
 40
0.0
 40
0.0
 40
0.0
 40
0.1162146370570118
 40
0.3330544225099092
 40
0.5497369572315984
 40
0.765845821235682
 40
0.9812111335298133
 40
1.0
 40
1.0
 40
1.0
 40
1.0
 10
2801.905411485274
 20
5888.934776381006
 30
0.0
 10
2801.452179322476
 20
5888.934776381006
 30
0.0
 10
2800.153281179642
 20
5888.934776381006
 30
0.0
 10
2798.103302700969
 20
5888.934776381006
 30
0.0
 10
2796.090104047763
 20
5888.934776381008
 30
0.0
 10
2794.825510208081
 20
5888.934776381005
 30
0.0
 10
2794.273047442449
 20
5888.934776381006
 30
0.0
 10
2794.40331326174
 20
5888.934776381006
 30
0.0
 10
2794.413765977542
 20
5888.934776381006
 30
0.0
  0
SPLINE
  5
12F
330
1F
100
AcDbEntity
  8
0
  6
Continuous
 62
     7
370
    25
100
AcDbSpline
210
0.0
220
0.0
230
1.0
 70
    24
 71
     3
 72
    13
 73
     9
 74
     0
 42
0.00000001
 43
0.00000001
 40
0.0
 40
0.0
 40
0.0
 40
0.0
 40
0.1077211556546987
 40
0.3213180157208803
 40
0.5351659635205942
 40
0.7496609671927255
 40
0.9648740344404163
 40
1.0
 40
1.0
 40
1.0
 40
1.0
 10
2794.486097670071
 20
5868.934776381006
 30
0.0
 10
2794.465906068897
 20
5868.934776381006
 30
0.0
 10
2794.405677182716
 20
5868.934776381006
 30
0.0
 10
2795.223934961991
 20
5868.934776381006
 30
0.0
 10
2796.791068451396
 20
5868.934776381006
 30
0.0
 10
2798.975645912555
 20
5868.934776381007
 30
0.0
 10
2800.787710462997
 20
5868.934776381006
 30
0.0
 10
2801.767880341914
 20
5868.934776381006
 30
0.0
 10
2801.905411485273
 20
5868.934776381006
 30
0.0
  0
SPLINE
  5
130
330
1F
100
AcDbEntity
  8
0
  6
Continuous
 62
     7
370
    25
100
AcDbSpline
210
0.0
220
0.0
230
1.0
 70
    24
 71
     3
 72
    13
 73
     9
 74
     0
 42
0.00000001
 43
0.00000001
 40
0.0
 40
0.0
 40
0.0
 40
0.0
 40
0.0348448104212908
 40
0.2506117401650064
 40
0.4663964296399182
 40
0.6817470943079834
 40
0.8963811306165713
 40
1.0
 40
1.0
 40
1.0
 40
1.0
 10
2552.706695597737
 20
5868.934776381006
 30
0.0
 10
2552.843060231601
 20
5868.934776381006
 30
0.0
 10
2553.823825452491
 20
5868.934776381006
 30
0.0
 10
2555.641227822648
 20
5868.934776381006
 30
0.0
 10
2557.835310210976
 20
5868.934776381006
 30
0.0
 10
2559.403622432249
 20
5868.934776381006
 30
0.0
 10
2560.212772244286
 20
5868.934776381006
 30
0.0
 10
2560.147398669477
 20
5868.934776381006
 30
0.0
 10
2560.126113912014
 20
5868.934776381006
 30
0.0
  0
LINE
  5
131
330
1F
100
AcDbEntity
  8
0
  6
Continuous
 62
     7
370
    25
100
AcDbLine
 10
2658.5421697928
 20
6048.934776381
 30
0.0
 11
2658.5421697928
 21
6030.2760023132
 31
0.0
  0
LINE
  5
132
330
1F
100
AcDbEntity
  8
0
  6
Continuous
 62
     7
370
    25
100
AcDbLine
 10
2696.0699372902
 20
6048.934776381
 30
0.0
 11
2696.0699372902
 21
6030.2760023132
 31
0.0
  0
LINE
  5
133
330
1F
100
AcDbEntity
  8
0
  6
Continuous
 62
     7
370
    25
100
AcDbLine
 10
2658.5421697928
 20
6048.934776381
 30
0.0
 11
2696.0699372902
 21
6048.934776381
 31
0.0
  0
LINE
  5
134
330
1F
100
AcDbEntity
  8
0
  6
Continuous
 62
     7
370
    25
100
AcDbLine
 10
2714.8338210388
 20
6048.934776381
 30
0.0
 11
2714.8338210388
 21
6026.7451842238
 31
0.0
  0
LINE
  5
135
330
1F
100
AcDbEntity
  8
0
  6
Continuous
 62
     7
370
    25
100
AcDbLine
 10
2696.0699372902
 20
6048.934776381
 30
0.0
 11
2714.8338210388
 21
6048.934776381
 31
0.0
  0
LINE
  5
136
330
1F
100
AcDbEntity
  8
0
  6
Continuous
 62
     7
370
    25
100
AcDbLine
 10
2639.7782860442
 20
6048.934776381
 30
0.0
 11
2639.7782860442
 21
6026.7451842238
 31
0.0
  0
LINE
  5
137
330
1F
100
AcDbEntity
  8
0
  6
Continuous
 62
     7
370
    25
100
AcDbLine
 10
2639.7782860442
 20
6048.934776381
 30
0.0
 11
2658.5421697928
 21
6048.934776381
 31
0.0
  0
LINE
  5
138
330
1F
100
AcDbEntity
  8
0
  6
Continuous
 62
     7
370
    25
100
AcDbLine
 10
2887.3060535415
 20
5851.434776381
 30
0.0
 11
2882.3060535415
 21
5851.434776381
 31
0.0
  0
LINE
  5
139
330
1F
100
AcDbEntity
  8
0
  6
Continuous
 62
     7
370
    25
100
AcDbLine
 10
2902.3060535415
 20
5851.434776381
 30
0.0
 11
2887.3060535415
 21
5851.434776381
 31
0.0
  0
LINE
  5
13A
330
1F
100
AcDbEntity
  8
0
  6
Continuous
 62
     7
370
    25
100
AcDbLine
 10
2467.3060535415
 20
5851.434776381
 30
0.0
 11
2452.3060535415
 21
5851.434776381
 31
0.0
  0
LINE
  5
13B
330
1F
100
AcDbEntity
  8
0
  6
Continuous
 62
     7
370
    25
100
AcDbLine
 10
2482.3060535415
 20
5851.434776381
 30
0.0
 11
2467.3060535415
 21
5851.434776381
 31
0.0
  0
LINE
  5
13C
330
1F
100
AcDbEntity
  8
0
  6
Continuous
 62
     7
370
    25
100
AcDbLine
 10
2882.3060535415
 20
5943.934776381
 30
0.0
 11
2899.8060535415
 21
5943.934776381
 31
0.0
  0
LINE
  5
13D
330
1F
100
AcDbEntity
  8
0
  6
Continuous
 62
     7
370
    25
100
AcDbLine
 10
2479.8060535415
 20
5943.934776381
 30
0.0
 11
2454.8060535415
 21
5943.934776381
 31
0.0
  0
LINE
  5
13E
330
1F
100
AcDbEntity
  8
0
  6
Continuous
 62
     7
370
    25
100
AcDbLine
 10
3057.3060535414
 20
6058.934776381
 30
0.0
 11
3017.3060535414
 21
6058.934776381
 31
0.0
  0
LINE
  5
13F
330
1F
100
AcDbEntity
  8
0
  6
Continuous
 62
     7
370
    25
100
AcDbLine
 10
3054.2086882047
 20
7498.934776381
 30
0.0
 11
3057.3060535415
 21
7498.934776381
 31
0.0
  0
LINE
  5
140
330
1F
100
AcDbEntity
  8
0
  6
Continuous
 62
     7
370
    25
100
AcDbLine
 10
3017.3060535415
 20
7498.934776381
 30
0.0
 11
3054.2086882047
 21
7498.934776381
 31
0.0
  0
LINE
  5
141
330
1F
100
AcDbEntity
  8
0
  6
Continuous
 62
     7
370
    25
100
AcDbLine
 10
2657.4346708529
 20
6058.934776381
 30
0.0
 11
2657.3060535414
 21
6058.934776381
 31
0.0
  0
LINE
  5
142
330
1F
100
AcDbEntity
  8
0
  6
Continuous
 62
     7
370
    25
100
AcDbLine
 10
2697.3060535414
 20
6058.934776381
 30
0.0
 11
2657.4346708529
 21
6058.934776381
 31
0.0
  0
LINE
  5
143
330
1F
100
AcDbEntity
  8
0
  6
Continuous
 62
     7
370
    25
100
AcDbLine
 10
2657.3060535415
 20
7498.934776381
 30
0.0
 11
2697.3060535415
 21
7498.934776381
 31
0.0
  0
LINE
  5
144
330
1F
100
AcDbEntity
  8
0
  6
Continuous
 62
     7
370
    25
100
AcDbLine
 10
3552.3060535415
 20
8046.434776381
 30
0.0
 11
3552.3060535415
 21
8036.434776381
 31
0.0
  0
LINE
  5
145
330
1F
100
AcDbEntity
  8
0
  6
Continuous
 62
     7
370
    25
100
AcDbLine
 10
3552.3060535415
 20
8036.434776381
 30
0.0
 11
3177.3060535415
 21
8036.434776381
 31
0.0
  0
LINE
  5
146
330
1F
100
AcDbEntity
  8
0
  6
Continuous
 62
     7
370
    25
100
AcDbLine
 10
2977.3060535415
 20
8036.434776381
 30
0.0
 11
2377.3060535415
 21
8036.434776381
 31
0.0
  0
LINE
  5
147
330
1F
100
AcDbEntity
  8
0
  6
Continuous
 62
     7
370
    25
100
AcDbLine
 10
2177.3060535415
 20
8036.434776381
 30
0.0
 11
1802.3060535415
 21
8036.434776381
 31
0.0
  0
LINE
  5
148
330
1F
100
AcDbEntity
  8
0
  6
Continuous
 62
     7
370
    25
100
AcDbLine
 10
1802.3060535415
 20
8046.434776381
 30
0.0
 11
1802.3060535415
 21
8036.434776381
 31
0.0
  0
LINE
  5
149
330
1F
100
AcDbEntity
  8
0
  6
Continuous
 62
     7
370
    25
100
AcDbLine
 10
2952.3060535415
 20
7931.434776381
 30
0.0
 11
2402.3060535415
 21
7931.434776381
 31
0.0
  0
LINE
  5
14A
330
1F
100
AcDbEntity
  8
0
  6
Continuous
 62
     7
370
    25
100
AcDbLine
 10
2952.3060535415
 20
8081.434776381
 30
0.0
 11
2402.3060535415
 21
8081.434776381
 31
0.0
  0
LINE
  5
14B
330
1F
100
AcDbEntity
  8
0
  6
Continuous
 62
     7
370
    25
100
AcDbLine
 10
3552.3060535415
 20
7976.434776381
 30
0.0
 11
3177.3060535415
 21
7976.434776381
 31
0.0
  0
LINE
  5
14C
330
1F
100
AcDbEntity
  8
0
  6
Continuous
 62
     7
370
    25
100
AcDbLine
 10
2977.3060535415
 20
7976.434776381
 30
0.0
 11
2377.3060535415
 21
7976.434776381
 31
0.0
  0
LINE
  5
14D
330
1F
100
AcDbEntity
  8
0
  6
Continuous
 62
     7
370
    25
100
AcDbLine
 10
2177.3060535415
 20
7976.434776381
 30
0.0
 11
1802.3060535415
 21
7976.434776381
 31
0.0
  0
LINE
  5
14E
330
1F
100
AcDbEntity
  8
0
  6
Continuous
 62
     7
370
    25
100
AcDbLine
 10
3552.3060535415
 20
7976.434776381
 30
0.0
 11
3552.3060535415
 21
7961.434776381
 31
0.0
  0
LINE
  5
14F
330
1F
100
AcDbEntity
  8
0
  6
Continuous
 62
     7
370
    25
100
AcDbLine
 10
1802.3060535415
 20
7976.434776381
 30
0.0
 11
1802.3060535415
 21
7961.434776381
 31
0.0
  0
LINE
  5
150
330
1F
100
AcDbEntity
  8
0
  6
Continuous
 62
     7
370
    25
100
AcDbLine
 10
3552.3060535415
 20
8036.434776381
 30
0.0
 11
3552.3060535415
 21
7976.434776381
 31
0.0
  0
LINE
  5
151
330
1F
100
AcDbEntity
  8
0
  6
Continuous
 62
     7
370
    25
100
AcDbLine
 10
1802.3060535415
 20
8036.434776381
 30
0.0
 11
1802.3060535415
 21
7976.434776381
 31
0.0
  0
LINE
  5
152
330
1F
100
AcDbEntity
  8
0
  6
Continuous
 62
     7
370
    25
100
AcDbLine
 10
3664.8060535415
 20
7376.434776381
 30
0.0
 11
1689.8060535415
 21
7376.434776381
 31
0.0
  0
LINE
  5
153
330
1F
100
AcDbEntity
  8
0
  6
Continuous
 62
     7
370
    25
100
AcDbLine
 10
3664.8060535415
 20
7376.434776381
 30
0.0
 11
3664.8060535415
 21
7306.434776381
 31
0.0
  0
LINE
  5
154
330
1F
100
AcDbEntity
  8
0
  6
Continuous
 62
     7
370
    25
100
AcDbLine
 10
3664.8060535415
 20
7306.434776381
 30
0.0
 11
1689.8060535415
 21
7306.434776381
 31
0.0
  0
LINE
  5
155
330
1F
100
AcDbEntity
  8
0
  6
Continuous
 62
     7
370
    25
100
AcDbLine
 10
1689.8060535415
 20
7376.434776381
 30
0.0
 11
1689.8060535415
 21
7306.434776381
 31
0.0
  0
LINE
  5
156
330
1F
100
AcDbEntity
  8
0
  6
Continuous
 62
     7
370
    25
100
AcDbLine
 10
3664.8060535415
 20
7306.434776381
 30
0.0
 11
3664.8060535415
 21
7291.434776381
 31
0.0
  0
LINE
  5
157
330
1F
100
AcDbEntity
  8
0
  6
Continuous
 62
     7
370
    25
100
AcDbLine
 10
3664.8060535415
 20
7291.434776381
 30
0.0
 11
1689.8060535415
 21
7291.434776381
 31
0.0
  0
LINE
  5
158
330
1F
100
AcDbEntity
  8
0
  6
Continuous
 62
     7
370
    25
100
AcDbLine
 10
1689.8060535415
 20
7306.434776381
 30
0.0
 11
1689.8060535415
 21
7291.434776381
 31
0.0
  0
LINE
  5
159
330
1F
100
AcDbEntity
  8
0
  6
Continuous
 62
     7
370
    25
100
AcDbLine
 10
3664.8060535415
 20
7391.434776381
 30
0.0
 11
1689.8060535415
 21
7391.434776381
 31
0.0
  0
LINE
  5
15A
330
1F
100
AcDbEntity
  8
0
  6
Continuous
 62
     7
370
    25
100
AcDbLine
 10
3664.8060535415
 20
7391.434776381
 30
0.0
 11
3664.8060535415
 21
7376.434776381
 31
0.0
  0
LINE
  5
15B
330
1F
100
AcDbEntity
  8
0
  6
Continuous
 62
     7
370
    25
100
AcDbLine
 10
1689.8060535415
 20
7391.434776381
 30
0.0
 11
1689.8060535415
 21
7376.434776381
 31
0.0
  0
LINE
  5
15C
330
1F
100
AcDbEntity
  8
0
  6
Continuous
 62
     7
370
    25
100
AcDbLine
 10
3927.3060535415
 20
8351.434776381
 30
0.0
 11
3912.3060535415
 21
8351.434776381
 31
0.0
  0
LINE
  5
15D
330
1F
100
AcDbEntity
  8
0
  6
Continuous
 62
     7
370
    25
100
AcDbLine
 10
3927.3060535415
 20
8351.434776381
 30
0.0
 11
3927.3060535415
 21
7101.434776381
 31
0.0
  0
LINE
  5
15E
330
1F
100
AcDbEntity
  8
0
  6
Continuous
 62
     7
370
    25
100
AcDbLine
 10
3927.3060535415
 20
7101.434776381
 30
0.0
 11
3912.3060535415
 21
7101.434776381
 31
0.0
  0
LINE
  5
15F
330
1F
100
AcDbEntity
  8
0
  6
Continuous
 62
     7
370
    25
100
AcDbLine
 10
3912.3060535415
 20
7931.434776381
 30
0.0
 11
3912.3060535415
 21
7101.434776381
 31
0.0
  0
LINE
  5
160
330
1F
100
AcDbEntity
  8
0
  6
Continuous
 62
     7
370
    25
100
AcDbLine
 10
2952.3060535415
 20
7931.434776381
 30
0.0
 11
2952.3060535415
 21
7961.434776381
 31
0.0
  0
LINE
  5
161
330
1F
100
AcDbEntity
  8
0
  6
Continuous
 62
     7
370
    25
100
AcDbLine
 10
2952.3060535415
 20
7961.434776381
 30
0.0
 11
2977.3060535415
 21
7961.434776381
 31
0.0
  0
LINE
  5
162
330
1F
100
AcDbEntity
  8
0
  6
Continuous
 62
     7
370
    25
100
AcDbLine
 10
3177.3060535415
 20
7961.434776381
 30
0.0
 11
3912.3060535415
 21
7961.434776381
 31
0.0
  0
LINE
  5
163
330
1F
100
AcDbEntity
  8
0
  6
Continuous
 62
     7
370
    25
100
AcDbLine
 10
3912.3060535415
 20
8046.434776381
 30
0.0
 11
3912.3060535415
 21
7961.434776381
 31
0.0
  0
LINE
  5
164
330
1F
100
AcDbEntity
  8
0
  6
Continuous
 62
     7
370
    25
100
AcDbLine
 10
2952.3060535415
 20
8046.434776381
 30
0.0
 11
2977.3060535415
 21
8046.434776381
 31
0.0
  0
LINE
  5
165
330
1F
100
AcDbEntity
  8
0
  6
Continuous
 62
     7
370
    25
100
AcDbLine
 10
3177.3060535415
 20
8046.434776381
 30
0.0
 11
3912.3060535415
 21
8046.434776381
 31
0.0
  0
LINE
  5
166
330
1F
100
AcDbEntity
  8
0
  6
Continuous
 62
     7
370
    25
100
AcDbLine
 10
2952.3060535415
 20
8046.434776381
 30
0.0
 11
2952.3060535415
 21
8076.434776381
 31
0.0
  0
LINE
  5
167
330
1F
100
AcDbEntity
  8
0
  6
Continuous
 62
     7
370
    25
100
AcDbLine
 10
3912.3060535415
 20
8351.434776381
 30
0.0
 11
3912.3060535415
 21
8076.434776381
 31
0.0
  0
LINE
  5
168
330
1F
100
AcDbEntity
  8
0
  6
Continuous
 62
     7
370
    25
100
AcDbLine
 10
2952.3060535415
 20
8091.434776381
 30
0.0
 11
2977.3060535415
 21
8091.434776381
 31
0.0
  0
LINE
  5
169
330
1F
100
AcDbEntity
  8
0
  6
Continuous
 62
     7
370
    25
100
AcDbLine
 10
3177.3060535415
 20
8091.434776381
 30
0.0
 11
3912.3060535415
 21
8091.434776381
 31
0.0
  0
LINE
  5
16A
330
1F
100
AcDbEntity
  8
0
  6
Continuous
 62
     7
370
    25
100
AcDbLine
 10
2952.3060535415
 20
8076.434776381
 30
0.0
 11
2952.3060535415
 21
8091.434776381
 31
0.0
  0
LINE
  5
16B
330
1F
100
AcDbEntity
  8
0
  6
Continuous
 62
     7
370
    25
100
AcDbLine
 10
2952.3060535415
 20
7916.434776381
 30
0.0
 11
2977.3060535415
 21
7916.434776381
 31
0.0
  0
LINE
  5
16C
330
1F
100
AcDbEntity
  8
0
  6
Continuous
 62
     7
370
    25
100
AcDbLine
 10
3177.3060535415
 20
7916.434776381
 30
0.0
 11
3912.3060535415
 21
7916.434776381
 31
0.0
  0
LINE
  5
16D
330
1F
100
AcDbEntity
  8
0
  6
Continuous
 62
     7
370
    25
100
AcDbLine
 10
2952.3060535415
 20
7916.434776381
 30
0.0
 11
2952.3060535415
 21
7931.434776381
 31
0.0
  0
LINE
  5
16E
330
1F
100
AcDbEntity
  8
0
  6
Continuous
 62
     7
370
    25
100
AcDbLine
 10
3664.8060535415
 20
7301.434776381
 30
0.0
 11
3912.3060535415
 21
7301.434776381
 31
0.0
  0
LINE
  5
16F
330
1F
100
AcDbEntity
  8
0
  6
Continuous
 62
     7
370
    25
100
AcDbLine
 10
3664.8060535415
 20
7378.934776381
 30
0.0
 11
3912.3060535415
 21
7378.934776381
 31
0.0
  0
LINE
  5
170
330
1F
100
AcDbEntity
  8
0
  6
Continuous
 62
     7
370
    25
100
AcDbLine
 10
2402.3060535415
 20
8046.434776381
 30
0.0
 11
2402.3060535415
 21
8076.434776381
 31
0.0
  0
LINE
  5
171
330
1F
100
AcDbEntity
  8
0
  6
Continuous
 62
     7
370
    25
100
AcDbLine
 10
2402.3060535415
 20
8046.434776381
 30
0.0
 11
2377.3060535415
 21
8046.434776381
 31
0.0
  0
LINE
  5
172
330
1F
100
AcDbEntity
  8
0
  6
Continuous
 62
     7
370
    25
100
AcDbLine
 10
2177.3060535415
 20
8046.434776381
 30
0.0
 11
1442.3060535415
 21
8046.434776381
 31
0.0
  0
LINE
  5
173
330
1F
100
AcDbEntity
  8
0
  6
Continuous
 62
     7
370
    25
100
AcDbLine
 10
1442.3060535415
 20
8046.434776381
 30
0.0
 11
1442.3060535415
 21
7961.434776381
 31
0.0
  0
LINE
  5
174
330
1F
100
AcDbEntity
  8
0
  6
Continuous
 62
     7
370
    25
100
AcDbLine
 10
2402.3060535415
 20
7961.434776381
 30
0.0
 11
2377.3060535415
 21
7961.434776381
 31
0.0
  0
LINE
  5
175
330
1F
100
AcDbEntity
  8
0
  6
Continuous
 62
     7
370
    25
100
AcDbLine
 10
2177.3060535415
 20
7961.434776381
 30
0.0
 11
1442.3060535415
 21
7961.434776381
 31
0.0
  0
LINE
  5
176
330
1F
100
AcDbEntity
  8
0
  6
Continuous
 62
     7
370
    25
100
AcDbLine
 10
2402.3060535415
 20
7931.434776381
 30
0.0
 11
2402.3060535415
 21
7961.434776381
 31
0.0
  0
LINE
  5
177
330
1F
100
AcDbEntity
  8
0
  6
Continuous
 62
     7
370
    25
100
AcDbLine
 10
1442.3060535415
 20
7931.434776381
 30
0.0
 11
1442.3060535415
 21
7101.434776381
 31
0.0
  0
LINE
  5
178
330
1F
100
AcDbEntity
  8
0
  6
Continuous
 62
     7
370
    25
100
AcDbLine
 10
1427.3060535415
 20
7101.434776381
 30
0.0
 11
1442.3060535415
 21
7101.434776381
 31
0.0
  0
LINE
  5
179
330
1F
100
AcDbEntity
  8
0
  6
Continuous
 62
     7
370
    25
100
AcDbLine
 10
1427.3060535415
 20
8351.434776381
 30
0.0
 11
1427.3060535415
 21
7101.434776381
 31
0.0
  0
LINE
  5
17A
330
1F
100
AcDbEntity
  8
0
  6
Continuous
 62
     7
370
    25
100
AcDbLine
 10
1442.3060535415
 20
8351.434776381
 30
0.0
 11
1442.3060535415
 21
8076.434776381
 31
0.0
  0
LINE
  5
17B
330
1F
100
AcDbEntity
  8
0
  6
Continuous
 62
     7
370
    25
100
AcDbLine
 10
1427.3060535415
 20
8351.434776381
 30
0.0
 11
1442.3060535415
 21
8351.434776381
 31
0.0
  0
LINE
  5
17C
330
1F
100
AcDbEntity
  8
0
  6
Continuous
 62
     7
370
    25
100
AcDbLine
 10
2402.3060535415
 20
8091.434776381
 30
0.0
 11
2377.3060535415
 21
8091.434776381
 31
0.0
  0
LINE
  5
17D
330
1F
100
AcDbEntity
  8
0
  6
Continuous
 62
     7
370
    25
100
AcDbLine
 10
2177.3060535415
 20
8091.434776381
 30
0.0
 11
1442.3060535415
 21
8091.434776381
 31
0.0
  0
LINE
  5
17E
330
1F
100
AcDbEntity
  8
0
  6
Continuous
 62
     7
370
    25
100
AcDbLine
 10
2402.3060535415
 20
8076.434776381
 30
0.0
 11
2402.3060535415
 21
8091.434776381
 31
0.0
  0
LINE
  5
17F
330
1F
100
AcDbEntity
  8
0
  6
Continuous
 62
     7
370
    25
100
AcDbLine
 10
2402.3060535415
 20
7916.434776381
 30
0.0
 11
2402.3060535415
 21
7931.434776381
 31
0.0
  0
LINE
  5
180
330
1F
100
AcDbEntity
  8
0
  6
Continuous
 62
     7
370
    25
100
AcDbLine
 10
2402.3060535415
 20
7916.434776381
 30
0.0
 11
2377.3060535415
 21
7916.434776381
 31
0.0
  0
LINE
  5
181
330
1F
100
AcDbEntity
  8
0
  6
Continuous
 62
     7
370
    25
100
AcDbLine
 10
2177.3060535415
 20
7916.434776381
 30
0.0
 11
1442.3060535415
 21
7916.434776381
 31
0.0
  0
LINE
  5
182
330
1F
100
AcDbEntity
  8
0
  6
Continuous
 62
     7
370
    25
100
AcDbLine
 10
1689.8060535415
 20
7301.434776381
 30
0.0
 11
1442.3060535415
 21
7301.434776381
 31
0.0
  0
LINE
  5
183
330
1F
100
AcDbEntity
  8
0
  6
Continuous
 62
     7
370
    25
100
AcDbLine
 10
1689.8060535415
 20
7378.934776381
 30
0.0
 11
1442.3060535415
 21
7378.934776381
 31
0.0
  0
LINE
  5
184
330
1F
100
AcDbEntity
  8
0
  6
Continuous
 62
     8
370
    25
100
AcDbLine
 10
3197.3060535415
 20
5861.434776381
 30
0.0
 11
3222.3060535415
 21
5861.434776381
 31
0.0
  0
LINE
  5
185
330
1F
100
AcDbEntity
  8
0
  6
Continuous
 62
     8
370
    25
100
AcDbLine
 10
3172.3060535415
 20
5861.434776381
 30
0.0
 11
3197.3060535415
 21
5861.434776381
 31
0.0
  0
LINE
  5
186
330
1F
100
AcDbEntity
  8
0
  6
Continuous
 62
     8
370
    25
100
AcDbLine
 10
2877.3060535415
 20
5861.434776381
 30
0.0
 11
2882.3060535415
 21
5861.434776381
 31
0.0
  0
LINE
  5
187
330
1F
100
AcDbEntity
  8
0
  6
Continuous
 62
     8
370
    25
100
AcDbLine
 10
2852.3060535415
 20
5861.434776381
 30
0.0
 11
2877.3060535415
 21
5861.434776381
 31
0.0
  0
LINE
  5
188
330
1F
100
AcDbEntity
  8
0
  6
Continuous
 62
     8
370
    25
100
AcDbLine
 10
2882.3060535415
 20
5861.434776381
 30
0.0
 11
2912.3060535415
 21
5861.434776381
 31
0.0
  0
LINE
  5
189
330
1F
100
AcDbEntity
  8
0
  6
Continuous
 62
     8
370
    25
100
AcDbLine
 10
2467.3060535415
 20
5861.434776381
 30
0.0
 11
2492.3060535415
 21
5861.434776381
 31
0.0
  0
LINE
  5
18A
330
1F
100
AcDbEntity
  8
0
  6
Continuous
 62
     8
370
    25
100
AcDbLine
 10
2442.3060535415
 20
5861.434776381
 30
0.0
 11
2467.3060535415
 21
5861.434776381
 31
0.0
  0
LINE
  5
18B
330
1F
100
AcDbEntity
  8
0
  6
Continuous
 62
     8
370
    25
100
AcDbLine
 10
2952.3060535415
 20
8066.434776381
 30
0.0
 11
2402.3060535415
 21
8066.434776381
 31
0.0
  0
LINE
  5
18C
330
1F
100
AcDbEntity
  8
0
  6
Continuous
 62
     8
370
    25
100
AcDbLine
 10
2952.3060535415
 20
7946.434776381
 30
0.0
 11
2402.3060535415
 21
7946.434776381
 31
0.0
  0
LINE
  5
18D
330
1F
100
AcDbEntity
  8
0
  6
Continuous
 62
     8
370
    25
100
AcDbLine
 10
2952.3060535415
 20
7931.434776381
 30
0.0
 11
2977.3060535415
 21
7931.434776381
 31
0.0
  0
LINE
  5
18E
330
1F
100
AcDbEntity
  8
0
  6
Continuous
 62
     8
370
    25
100
AcDbLine
 10
3177.3060535415
 20
7931.434776381
 30
0.0
 11
3912.3060535415
 21
7931.434776381
 31
0.0
  0
LINE
  5
18F
330
1F
100
AcDbEntity
  8
0
  6
Continuous
 62
     8
370
    25
100
AcDbLine
 10
2952.3060535415
 20
8076.434776381
 30
0.0
 11
2977.3060535415
 21
8076.434776381
 31
0.0
  0
LINE
  5
190
330
1F
100
AcDbEntity
  8
0
  6
Continuous
 62
     8
370
    25
100
AcDbLine
 10
3177.3060535415
 20
8076.434776381
 30
0.0
 11
3912.3060535415
 21
8076.434776381
 31
0.0
  0
LINE
  5
191
330
1F
100
AcDbEntity
  8
0
  6
Continuous
 62
     8
370
    25
100
AcDbLine
 10
2402.3060535415
 20
8076.434776381
 30
0.0
 11
2377.3060535415
 21
8076.434776381
 31
0.0
  0
LINE
  5
192
330
1F
100
AcDbEntity
  8
0
  6
Continuous
 62
     8
370
    25
100
AcDbLine
 10
2177.3060535415
 20
8076.434776381
 30
0.0
 11
1442.3060535415
 21
8076.434776381
 31
0.0
  0
LINE
  5
193
330
1F
100
AcDbEntity
  8
0
  6
Continuous
 62
     8
370
    25
100
AcDbLine
 10
2402.3060535415
 20
7931.434776381
 30
0.0
 11
2377.3060535415
 21
7931.434776381
 31
0.0
  0
LINE
  5
194
330
1F
100
AcDbEntity
  8
0
  6
Continuous
 62
     8
370
    25
100
AcDbLine
 10
2177.3060535415
 20
7931.434776381
 30
0.0
 11
1442.3060535415
 21
7931.434776381
 31
0.0
  0
LINE
  5
195
330
1F
100
AcDbEntity
  8
0
  6
Continuous
 62
     7
370
    25
100
AcDbLine
 10
5323.4602647178
 20
8046.434776381
 30
0.0
 11
5315.4602647178
 21
8046.434776381
 31
0.0
  0
LINE
  5
196
330
1F
100
AcDbEntity
  8
0
  6
Continuous
 62
     7
370
    25
100
AcDbLine
 10
5315.4602647178
 20
7971.434776381
 30
0.0
 11
5323.4602647178
 21
7971.434776381
 31
0.0
  0
LINE
  5
197
330
1F
100
AcDbEntity
  8
0
  6
Continuous
 62
     7
370
    25
100
AcDbLine
 10
5173.103467154
 20
7988.934776381
 30
0.0
 11
5310.4602647178
 21
7988.934776381
 31
0.0
  0
LINE
  5
198
330
1F
100
AcDbEntity
  8
0
  6
Continuous
 62
     7
370
    25
100
AcDbLine
 10
5355.9602647178
 20
7988.934776381
 30
0.0
 11
5594.6034671539
 21
7988.934776381
 31
0.0
  0
LINE
  5
199
330
1F
100
AcDbEntity
  8
0
  6
Continuous
 62
     7
370
    25
100
AcDbLine
 10
5594.6034671539
 20
8028.934776381
 30
0.0
 11
5355.9602647178
 21
8028.934776381
 31
0.0
  0
LINE
  5
19A
330
1F
100
AcDbEntity
  8
0
  6
Continuous
 62
     7
370
    25
100
AcDbLine
 10
5310.4602647178
 20
8028.934776381
 30
0.0
 11
5173.103467154
 21
8028.934776381
 31
0.0
  0
LINE
  5
19B
330
1F
100
AcDbEntity
  8
0
  6
Continuous
 62
     7
370
    25
100
AcDbLine
 10
5173.103467154
 20
8041.434776381
 30
0.0
 11
5170.603467154
 21
8046.4625438784
 31
0.0
  0
LINE
  5
19C
330
1F
100
AcDbEntity
  8
0
  6
Continuous
 62
     7
370
    25
100
AcDbLine
 10
5143.103467154
 20
8046.4625438784
 30
0.0
 11
5140.603467154
 21
8041.434776381
 31
0.0
  0
LINE
  5
19D
330
1F
100
AcDbEntity
  8
0
  6
Continuous
 62
     7
370
    25
100
AcDbLine
 10
5170.603467154
 20
7971.4070088837
 30
0.0
 11
5173.103467154
 21
7976.434776381
 31
0.0
  0
LINE
  5
19E
330
1F
100
AcDbEntity
  8
0
  6
Continuous
 62
     7
370
    25
100
AcDbLine
 10
5140.603467154
 20
7976.434776381
 30
0.0
 11
5143.103467154
 21
7971.4070088837
 31
0.0
  0
LINE
  5
19F
330
1F
100
AcDbEntity
  8
0
  6
Continuous
 62
     7
370
    25
100
AcDbLine
 10
5355.9602647178
 20
8041.434776381
 30
0.0
 11
5353.4602647178
 21
8046.4625438784
 31
0.0
  0
LINE
  5
1A0
330
1F
100
AcDbEntity
  8
0
  6
Continuous
 62
     7
370
    25
100
AcDbLine
 10
5325.9602647178
 20
8046.4625438784
 30
0.0
 11
5323.4602647178
 21
8041.434776381
 31
0.0
  0
LINE
  5
1A1
330
1F
100
AcDbEntity
  8
0
  6
Continuous
 62
     7
370
    25
100
AcDbLine
 10
5353.4602647178
 20
7971.4070088837
 30
0.0
 11
5355.9602647178
 21
7976.434776381
 31
0.0
  0
LINE
  5
1A2
330
1F
100
AcDbEntity
  8
0
  6
Continuous
 62
     7
370
    25
100
AcDbLine
 10
5323.4602647178
 20
7976.434776381
 30
0.0
 11
5325.9602647178
 21
7971.4070088837
 31
0.0
  0
LINE
  5
1A3
330
1F
100
AcDbEntity
  8
0
  6
Continuous
 62
     7
370
    25
100
AcDbLine
 10
5140.603467154
 20
8068.934776381
 30
0.0
 11
5130.603467154
 21
8068.934776381
 31
0.0
  0
LINE
  5
1A4
330
1F
100
AcDbEntity
  8
0
  6
Continuous
 62
     7
370
    25
100
AcDbLine
 10
5130.603467154
 20
7948.934776381
 30
0.0
 11
5140.603467154
 21
7948.934776381
 31
0.0
  0
ARC
  5
1A5
330
1F
100
AcDbEntity
  8
0
  6
Continuous
 62
     7
370
    25
100
AcDbCircle
 10
5077.603467154
 20
5861.434776381
 30
0.0
 40
10.0
100
AcDbArc
 50
270.0
 51
0.0
  0
ARC
  5
1A6
330
1F
100
AcDbEntity
  8
0
  6
Continuous
 62
     7
370
    25
100
AcDbCircle
 10
5047.603467154
 20
5861.434776381
 30
0.0
 40
10.0
100
AcDbArc
 50
180.0
 51
270.0
  0
LINE
  5
1A7
330
1F
100
AcDbEntity
  8
0
  6
Continuous
 62
     7
370
    25
100
AcDbLine
 10
5037.603467154
 20
5868.934776381
 30
0.0
 11
5037.603467154
 21
5861.434776381
 31
0.0
  0
LINE
  5
1A8
330
1F
100
AcDbEntity
  8
0
  6
Continuous
 62
     7
370
    25
100
AcDbLine
 10
5087.603467154
 20
5861.434776381
 30
0.0
 11
5087.603467154
 21
5868.934776381
 31
0.0
  0
LINE
  5
1A9
330
1F
100
AcDbEntity
  8
0
  6
Continuous
 62
     7
370
    25
100
AcDbLine
 10
5075.103467154
 20
5888.934776381
 30
0.0
 11
5075.103467154
 21
5943.934776381
 31
0.0
  0
LINE
  5
1AA
330
1F
100
AcDbEntity
  8
0
  6
Continuous
 62
     7
370
    25
100
AcDbLine
 10
5050.1034671539
 20
5943.934776381
 30
0.0
 11
5050.1034671539
 21
5888.934776381
 31
0.0
  0
LINE
  5
1AB
330
1F
100
AcDbEntity
  8
0
  6
Continuous
 62
     7
370
    25
100
AcDbLine
 10
5030.1034671539
 20
6026.4526335239
 30
0.0
 11
5006.8534671539
 21
6031.434776381
 31
0.0
  0
LINE
  5
1AC
330
1F
100
AcDbEntity
  8
0
  6
Continuous
 62
     7
370
    25
100
AcDbLine
 10
5006.853467154
 20
5726.434776381
 30
0.0
 11
5041.8534671539
 21
5733.934776381
 31
0.0
  0
LINE
  5
1AD
330
1F
100
AcDbEntity
  8
0
  6
Continuous
 62
     7
370
    25
100
AcDbLine
 10
5118.353467154
 20
6031.434776381
 30
0.0
 11
5095.103467154
 21
6026.4526335239
 31
0.0
  0
LINE
  5
1AE
330
1F
100
AcDbEntity
  8
0
  6
Continuous
 62
     7
370
    25
100
AcDbLine
 10
5083.353467154
 20
5733.934776381
 30
0.0
 11
5118.353467154
 21
5726.434776381
 31
0.0
  0
LINE
  5
1AF
330
1F
100
AcDbEntity
  8
0
  6
Continuous
 62
     7
370
    25
100
AcDbLine
 10
5041.853467154
 20
5738.934776381
 30
0.0
 11
5083.353467154
 21
5738.934776381
 31
0.0
  0
LINE
  5
1B0
330
1F
100
AcDbEntity
  8
0
  6
Continuous
 62
     7
370
    25
100
AcDbLine
 10
5082.6034671539
 20
6058.934776381
 30
0.0
 11
5082.603467154
 21
7101.434776381
 31
0.0
  0
LINE
  5
1B1
330
1F
100
AcDbEntity
  8
0
  6
Continuous
 62
     7
370
    25
100
AcDbLine
 10
5042.603467154
 20
7232.7889328851
 30
0.0
 11
5042.603467154
 21
7190.080619877
 31
0.0
  0
LINE
  5
1B2
330
1F
100
AcDbEntity
  8
0
  6
Continuous
 62
     7
370
    25
100
AcDbLine
 10
5042.603467154
 20
7101.434776381
 30
0.0
 11
5042.6034671539
 21
6058.934776381
 31
0.0
  0
LINE
  5
1B3
330
1F
100
AcDbEntity
  8
0
  6
Continuous
 62
     7
370
    25
100
AcDbLine
 10
5081.3534671539
 20
6048.934776381
 30
0.0
 11
5081.3534671539
 21
6058.934776381
 31
0.0
  0
LINE
  5
1B4
330
1F
100
AcDbEntity
  8
0
  6
Continuous
 62
     7
370
    25
100
AcDbLine
 10
5043.8534671539
 20
6058.934776381
 30
0.0
 11
5043.8534671539
 21
6048.934776381
 31
0.0
  0
LINE
  5
1B5
330
1F
100
AcDbEntity
  8
0
  6
Continuous
 62
     7
370
    25
100
AcDbLine
 10
4980.603467154
 20
7352.684776381
 30
0.0
 11
4975.603467154
 21
7352.684776381
 31
0.0
  0
LINE
  5
1B6
330
1F
100
AcDbEntity
  8
0
  6
Continuous
 62
     7
370
    25
100
AcDbLine
 10
4975.603467154
 20
7327.684776381
 30
0.0
 11
4980.603467154
 21
7327.684776381
 31
0.0
  0
LINE
  5
1B7
330
1F
100
AcDbEntity
  8
0
  6
Continuous
 62
     7
370
    25
100
AcDbLine
 10
4980.603467154
 20
7353.934776381
 30
0.0
 11
4975.603467154
 21
7353.934776381
 31
0.0
  0
LINE
  5
1B8
330
1F
100
AcDbEntity
  8
0
  6
Continuous
 62
     7
370
    25
100
AcDbLine
 10
5323.4602647178
 20
8046.0012553047
 30
0.0
 11
5323.4602647178
 21
8046.434776381
 31
0.0
  0
LINE
  5
1B9
330
1F
100
AcDbEntity
  8
0
  6
Continuous
 62
     7
370
    25
100
AcDbLine
 10
5323.4602647178
 20
7971.434776381
 30
0.0
 11
5323.4602647178
 21
8046.0012553047
 31
0.0
  0
ARC
  5
1BA
330
1F
100
AcDbEntity
  8
0
  6
Continuous
 62
     7
370
    25
100
AcDbCircle
 10
5320.4602647178
 20
8108.4533203721
 30
0.0
 40
10.0
100
AcDbArc
 50
158.1985905137
 51
180.0
  0
LINE
  5
1BB
330
1F
100
AcDbEntity
  8
0
  6
Continuous
 62
     7
370
    25
100
AcDbLine
 10
5311.1754978089
 20
8112.1672271356
 30
0.0
 11
5315.8178812634
 21
8110.3102737539
 31
0.0
  0
LINE
  5
1BC
330
1F
100
AcDbEntity
  8
0
  6
Continuous
 62
     7
370
    25
100
AcDbLine
 10
5315.4602647178
 20
8108.4533203721
 30
0.0
 11
5310.4602647178
 21
8108.4533203721
 31
0.0
  0
ARC
  5
1BD
330
1F
100
AcDbEntity
  8
0
  6
Continuous
 62
     7
370
    25
100
AcDbCircle
 10
5320.4602647178
 20
8108.4533203721
 30
0.0
 40
5.0
100
AcDbArc
 50
158.1985905137
 51
180.0
  0
LINE
  5
1BE
330
1F
100
AcDbEntity
  8
0
  6
Continuous
 62
     7
370
    25
100
AcDbLine
 10
5334.7450316266
 20
8157.6281496621
 30
0.0
 11
5330.1026481722
 21
8159.4851030438
 31
0.0
  0
LINE
  5
1BF
330
1F
100
AcDbEntity
  8
0
  6
Continuous
 62
     7
370
    25
100
AcDbLine
 10
5334.7450316266
 20
8157.6281496621
 30
0.0
 11
5315.8178812634
 21
8110.3102737539
 31
0.0
  0
LINE
  5
1C0
330
1F
100
AcDbEntity
  8
0
  6
Continuous
 62
     7
370
    25
100
AcDbLine
 10
5330.1026481722
 20
8159.4851030438
 30
0.0
 11
5311.1754978089
 21
8112.1672271356
 31
0.0
  0
LINE
  5
1C1
330
1F
100
AcDbEntity
  8
0
  6
Continuous
 62
     7
370
    25
100
AcDbLine
 10
5315.4602647178
 20
7909.4162323899
 30
0.0
 11
5310.4602647178
 21
7909.4162323899
 31
0.0
  0
LINE
  5
1C2
330
1F
100
AcDbEntity
  8
0
  6
Continuous
 62
     7
370
    25
100
AcDbLine
 10
5310.4602647178
 20
8108.4533203721
 30
0.0
 11
5310.4602647178
 21
7909.4162323899
 31
0.0
  0
LINE
  5
1C3
330
1F
100
AcDbEntity
  8
0
  6
Continuous
 62
     7
370
    25
100
AcDbLine
 10
5315.4602647178
 20
8108.4533203721
 30
0.0
 11
5315.4602647178
 21
7909.4162323899
 31
0.0
  0
LINE
  5
1C4
330
1F
100
AcDbEntity
  8
0
  6
Continuous
 62
     7
370
    25
100
AcDbLine
 10
5330.4602647178
 20
8161.3420564256
 30
0.0
 11
5335.4602647178
 21
8161.3420564256
 31
0.0
  0
ARC
  5
1C5
330
1F
100
AcDbEntity
  8
0
  6
Continuous
 62
     7
370
    25
100
AcDbCircle
 10
5325.4602647178
 20
8161.3420564256
 30
0.0
 40
10.00000000000002
100
AcDbArc
 50
338.1985905136
 51
0.0
  0
ARC
  5
1C6
330
1F
100
AcDbEntity
  8
0
  6
Continuous
 62
     7
370
    25
100
AcDbCircle
 10
5325.4602647178
 20
8161.3420564256
 30
0.0
 40
5.0
100
AcDbArc
 50
338.1985905137
 51
0.0
  0
LINE
  5
1C7
330
1F
100
AcDbEntity
  8
0
  6
Continuous
 62
     7
370
    25
100
AcDbLine
 10
5330.4602647178
 20
8284.4162323899
 30
0.0
 11
5330.4602647178
 21
8161.3420564256
 31
0.0
  0
LINE
  5
1C8
330
1F
100
AcDbEntity
  8
0
  6
Continuous
 62
     7
370
    25
100
AcDbLine
 10
5335.4602647178
 20
8284.4162323899
 30
0.0
 11
5335.4602647178
 21
8161.3420564256
 31
0.0
  0
LINE
  5
1C9
330
1F
100
AcDbEntity
  8
0
  6
Continuous
 62
     7
370
    25
100
AcDbLine
 10
5330.4602647178
 20
8284.4162323899
 30
0.0
 11
5335.4602647178
 21
8284.4162323899
 31
0.0
  0
LINE
  5
1CA
330
1F
100
AcDbEntity
  8
0
  6
Continuous
 62
     7
370
    25
100
AcDbLine
 10
4980.603467154
 20
7951.434776381
 30
0.0
 11
4975.6034671539
 21
7951.434776381
 31
0.0
  0
LINE
  5
1CB
330
1F
100
AcDbEntity
  8
0
  6
Continuous
 62
     7
370
    25
100
AcDbLine
 10
4980.603467154
 20
8066.434776381
 30
0.0
 11
4975.6034671539
 21
8066.434776381
 31
0.0
  0
LINE
  5
1CC
330
1F
100
AcDbEntity
  8
0
  6
Continuous
 62
     7
370
    25
100
AcDbLine
 10
5594.6034671539
 20
7988.934776381
 30
0.0
 11
5594.6034671539
 21
8028.934776381
 31
0.0
  0
LINE
  5
1CD
330
1F
100
AcDbEntity
  8
0
  6
Continuous
 62
     7
370
    25
100
AcDbLine
 10
5143.103467154
 20
8027.6986601297
 30
0.0
 11
5140.603467154
 21
8037.080602004
 31
0.0
  0
SPLINE
  5
1CE
330
1F
100
AcDbEntity
  8
0
  6
Continuous
 62
     7
370
    25
100
AcDbSpline
210
0.0
220
0.0
230
1.0
 70
     8
 71
     3
 72
     9
 73
     5
 74
     0
 42
0.00000001
 43
0.00000001
 40
0.0
 40
0.0
 40
0.0
 40
0.0
 40
0.5156102819445775
 40
1.0
 40
1.0
 40
1.0
 40
1.0
 10
5140.603467153954
 20
8008.934776381036
 30
0.0
 10
5140.738408589801
 20
8012.199572500391
 30
0.0
 10
5141.000120662996
 20
8018.531479046245
 30
0.0
 10
5142.417097933435
 20
8024.707202962915
 30
0.0
 10
5143.103467153954
 20
8027.698660129698
 30
0.0
  0
SPLINE
  5
1CF
330
1F
100
AcDbEntity
  8
0
  6
Continuous
 62
     7
370
    25
100
AcDbSpline
210
0.0
220
0.0
230
1.0
 70
     8
 71
     3
 72
     9
 73
     5
 74
     0
 42
0.00000001
 43
0.00000001
 40
0.0
 40
0.0
 40
0.0
 40
0.0
 40
0.3722772596762038
 40
1.0
 40
1.0
 40
1.0
 40
1.0
 10
5140.603467153953
 20
8037.080602004032
 30
0.0
 10
5140.673914831048
 20
8038.258839575457
 30
0.0
 10
5140.863149266576
 20
8041.42378597173
 30
0.0
 10
5142.23950030713
 20
8044.519373310904
 30
0.0
 10
5143.103467153954
 20
8046.462543878361
 30
0.0
  0
LINE
  5
1D0
330
1F
100
AcDbEntity
  8
0
  6
Continuous
 62
     7
370
    25
100
AcDbLine
 10
5170.603467154
 20
8046.4625438784
 30
0.0
 11
5143.103467154
 21
8046.4625438784
 31
0.0
  0
LINE
  5
1D1
330
1F
100
AcDbEntity
  8
0
  6
Continuous
 62
     7
370
    25
100
AcDbLine
 10
5170.603467154
 20
8046.4625438784
 30
0.0
 11
5173.103467154
 21
8037.080602004
 31
0.0
  0
SPLINE
  5
1D2
330
1F
100
AcDbEntity
  8
0
  6
Continuous
 62
     7
370
    25
100
AcDbSpline
210
0.0
220
0.0
230
1.0
 70
     8
 71
     3
 72
     9
 73
     5
 74
     0
 42
0.00000001
 43
0.00000001
 40
0.0
 40
0.0
 40
0.0
 40
0.0
 40
0.3722772596761733
 40
1.0
 40
1.0
 40
1.0
 40
1.0
 10
5173.103467153953
 20
8037.080602004032
 30
0.0
 10
5173.033019476858
 20
8035.902364432605
 30
0.0
 10
5172.843785041332
 20
8032.737418036332
 30
0.0
 10
5171.467434000778
 20
8029.641830697157
 30
0.0
 10
5170.603467153954
 20
8027.698660129699
 30
0.0
  0
LINE
  5
1D3
330
1F
100
AcDbEntity
  8
0
  6
Continuous
 62
     7
370
    25
100
AcDbLine
 10
5170.603467154
 20
8027.6986601297
 30
0.0
 11
5143.103467154
 21
8027.6986601297
 31
0.0
  0
SPLINE
  5
1D4
330
1F
100
AcDbEntity
  8
0
  6
Continuous
 62
     7
370
    25
100
AcDbSpline
210
0.0
220
0.0
230
1.0
 70
     8
 71
     3
 72
     9
 73
     5
 74
     0
 42
0.00000001
 43
0.00000001
 40
0.0
 40
0.0
 40
0.0
 40
0.0
 40
0.4843897180556436
 40
1.0
 40
1.0
 40
1.0
 40
1.0
 10
5170.603467153954
 20
8027.698660129699
 30
0.0
 10
5171.289836374473
 20
8024.707202962915
 30
0.0
 10
5172.706813644912
 20
8018.531479046243
 30
0.0
 10
5172.968525718105
 20
8012.199572500389
 30
0.0
 10
5173.103467153953
 20
8008.934776381036
 30
0.0
  0
SPLINE
  5
1D5
330
1F
100
AcDbEntity
  8
0
  6
Continuous
 62
     7
370
    25
100
AcDbSpline
210
0.0
220
0.0
230
1.0
 70
     8
 71
     3
 72
     9
 73
     5
 74
     0
 42
0.00000001
 43
0.00000001
 40
0.0
 40
0.0
 40
0.0
 40
0.0
 40
0.7443471667480476
 40
1.0
 40
1.0
 40
1.0
 40
1.0
 10
5173.103467153953
 20
8008.934776381036
 30
0.0
 10
5172.825675635693
 20
8004.223463563596
 30
0.0
 10
5172.452474083154
 20
7997.894007326095
 30
0.0
 10
5170.979927786729
 20
7991.743330571185
 30
0.0
 10
5170.603467153952
 20
7990.170892632376
 30
0.0
  0
LINE
  5
1D6
330
1F
100
AcDbEntity
  8
0
  6
Continuous
 62
     7
370
    25
100
AcDbLine
 10
5170.603467154
 20
7990.1708926324
 30
0.0
 11
5143.103467154
 21
7990.1708926324
 31
0.0
  0
SPLINE
  5
1D7
330
1F
100
AcDbEntity
  8
0
  6
Continuous
 62
     7
370
    25
100
AcDbSpline
210
0.0
220
0.0
230
1.0
 70
     8
 71
     3
 72
     9
 73
     5
 74
     0
 42
0.00000001
 43
0.00000001
 40
0.0
 40
0.0
 40
0.0
 40
0.0
 40
0.2556528332520024
 40
1.0
 40
1.0
 40
1.0
 40
1.0
 10
5143.103467153952
 20
7990.170892632374
 30
0.0
 10
5142.727006521177
 20
7991.743330571184
 30
0.0
 10
5141.254460224758
 20
7997.894007326096
 30
0.0
 10
5140.881258672214
 20
8004.223463563596
 30
0.0
 10
5140.603467153954
 20
8008.934776381036
 30
0.0
  0
SPLINE
  5
1D8
330
1F
100
AcDbEntity
  8
0
  6
Continuous
 62
     7
370
    25
100
AcDbSpline
210
0.0
220
0.0
230
1.0
 70
     8
 71
     3
 72
     9
 73
     5
 74
     0
 42
0.00000001
 43
0.00000001
 40
0.0
 40
0.0
 40
0.0
 40
0.0
 40
0.3722772596761976
 40
1.0
 40
1.0
 40
1.0
 40
1.0
 10
5140.603467153954
 20
7980.788950758044
 30
0.0
 10
5140.673914831048
 20
7981.96718832947
 30
0.0
 10
5140.863149266575
 20
7985.132134725738
 30
0.0
 10
5142.239500307128
 20
7988.227722064915
 30
0.0
 10
5143.103467153952
 20
7990.170892632374
 30
0.0
  0
LINE
  5
1D9
330
1F
100
AcDbEntity
  8
0
  6
Continuous
 62
     7
370
    25
100
AcDbLine
 10
5173.103467154
 20
8008.934776381
 30
0.0
 11
5173.103467154
 21
7980.788950758
 31
0.0
  0
LINE
  5
1DA
330
1F
100
AcDbEntity
  8
0
  6
Continuous
 62
     7
370
    25
100
AcDbLine
 10
5170.603467154
 20
7990.1708926324
 30
0.0
 11
5173.103467154
 21
7980.788950758
 31
0.0
  0
LINE
  5
1DB
330
1F
100
AcDbEntity
  8
0
  6
Continuous
 62
     7
370
    25
100
AcDbLine
 10
5173.103467154
 20
8037.080602004
 30
0.0
 11
5173.103467154
 21
8008.934776381
 31
0.0
  0
SPLINE
  5
1DC
330
1F
100
AcDbEntity
  8
0
  6
Continuous
 62
     7
370
    25
100
AcDbSpline
210
0.0
220
0.0
230
1.0
 70
     8
 71
     3
 72
     9
 73
     5
 74
     0
 42
0.00000001
 43
0.00000001
 40
0.0
 40
0.0
 40
0.0
 40
0.0
 40
0.3722772596761345
 40
1.0
 40
1.0
 40
1.0
 40
1.0
 10
5173.103467153952
 20
7980.788950758041
 30
0.0
 10
5173.033019476858
 20
7979.610713186615
 30
0.0
 10
5172.843785041331
 20
7976.445766790343
 30
0.0
 10
5171.467434000778
 20
7973.350179451169
 30
0.0
 10
5170.603467153953
 20
7971.407008883712
 30
0.0
  0
LINE
  5
1DD
330
1F
100
AcDbEntity
  8
0
  6
Continuous
 62
     7
370
    25
100
AcDbLine
 10
5170.603467154
 20
7971.4070088837
 30
0.0
 11
5143.103467154
 21
7971.4070088837
 31
0.0
  0
LINE
  5
1DE
330
1F
100
AcDbEntity
  8
0
  6
Continuous
 62
     7
370
    25
100
AcDbLine
 10
5143.103467154
 20
7971.4070088837
 30
0.0
 11
5140.603467154
 21
7980.788950758
 31
0.0
  0
LINE
  5
1DF
330
1F
100
AcDbEntity
  8
0
  6
Continuous
 62
     7
370
    25
100
AcDbLine
 10
5173.103467154
 20
8041.434776381
 30
0.0
 11
5173.103467154
 21
8037.080602004
 31
0.0
  0
LINE
  5
1E0
330
1F
100
AcDbEntity
  8
0
  6
Continuous
 62
     7
370
    25
100
AcDbLine
 10
5173.103467154
 20
7980.788950758
 30
0.0
 11
5173.103467154
 21
7976.434776381
 31
0.0
  0
SPLINE
  5
1E1
330
1F
100
AcDbEntity
  8
0
  6
Continuous
 62
     7
370
    25
100
AcDbSpline
210
0.0
220
0.0
230
1.0
 70
     8
 71
     3
 72
     9
 73
     5
 74
     0
 42
0.00000001
 43
0.00000001
 40
0.0
 40
0.0
 40
0.0
 40
0.0
 40
0.3722772596762038
 40
1.0
 40
1.0
 40
1.0
 40
1.0
 10
5323.460264717779
 20
8037.080602004032
 30
0.0
 10
5323.530712394873
 20
8038.258839575459
 30
0.0
 10
5323.719946830403
 20
8041.423785971732
 30
0.0
 10
5325.096297870957
 20
8044.519373310905
 30
0.0
 10
5325.960264717781
 20
8046.462543878362
 30
0.0
  0
LINE
  5
1E2
330
1F
100
AcDbEntity
  8
0
  6
Continuous
 62
     7
370
    25
100
AcDbLine
 10
5353.4602647178
 20
8046.4625438784
 30
0.0
 11
5325.9602647178
 21
8046.4625438784
 31
0.0
  0
LINE
  5
1E3
330
1F
100
AcDbEntity
  8
0
  6
Continuous
 62
     7
370
    25
100
AcDbLine
 10
5353.4602647178
 20
8046.4625438784
 30
0.0
 11
5355.9602647178
 21
8037.080602004
 31
0.0
  0
SPLINE
  5
1E4
330
1F
100
AcDbEntity
  8
0
  6
Continuous
 62
     7
370
    25
100
AcDbSpline
210
0.0
220
0.0
230
1.0
 70
     8
 71
     3
 72
     9
 73
     5
 74
     0
 42
0.00000001
 43
0.00000001
 40
0.0
 40
0.0
 40
0.0
 40
0.0
 40
0.3722772596761733
 40
1.0
 40
1.0
 40
1.0
 40
1.0
 10
5355.96026471778
 20
8037.080602004032
 30
0.0
 10
5355.889817040686
 20
8035.902364432607
 30
0.0
 10
5355.700582605157
 20
8032.737418036333
 30
0.0
 10
5354.324231564604
 20
8029.641830697159
 30
0.0
 10
5353.46026471778
 20
8027.698660129701
 30
0.0
  0
LINE
  5
1E5
330
1F
100
AcDbEntity
  8
0
  6
Continuous
 62
     7
370
    25
100
AcDbLine
 10
5353.4602647178
 20
8027.6986601297
 30
0.0
 11
5325.9602647178
 21
8027.6986601297
 31
0.0
  0
LINE
  5
1E6
330
1F
100
AcDbEntity
  8
0
  6
Continuous
 62
     7
370
    25
100
AcDbLine
 10
5325.9602647178
 20
8027.6986601297
 30
0.0
 11
5323.4602647178
 21
8037.080602004
 31
0.0
  0
SPLINE
  5
1E7
330
1F
100
AcDbEntity
  8
0
  6
Continuous
 62
     7
370
    25
100
AcDbSpline
210
0.0
220
0.0
230
1.0
 70
     8
 71
     3
 72
     9
 73
     5
 74
     0
 42
0.00000001
 43
0.00000001
 40
0.0
 40
0.0
 40
0.0
 40
0.0
 40
0.3722772596761976
 40
1.0
 40
1.0
 40
1.0
 40
1.0
 10
5323.46026471778
 20
7980.788950758046
 30
0.0
 10
5323.530712394874
 20
7981.967188329471
 30
0.0
 10
5323.719946830402
 20
7985.13213472574
 30
0.0
 10
5325.096297870955
 20
7988.227722064916
 30
0.0
 10
5325.960264717779
 20
7990.170892632375
 30
0.0
  0
SPLINE
  5
1E8
330
1F
100
AcDbEntity
  8
0
  6
Continuous
 62
     7
370
    25
100
AcDbSpline
210
0.0
220
0.0
230
1.0
 70
     8
 71
     3
 72
     9
 73
     5
 74
     0
 42
0.00000001
 43
0.00000001
 40
0.0
 40
0.0
 40
0.0
 40
0.0
 40
0.2556528332520024
 40
1.0
 40
1.0
 40
1.0
 40
1.0
 10
5325.960264717779
 20
7990.170892632375
 30
0.0
 10
5325.583804085004
 20
7991.743330571185
 30
0.0
 10
5324.111257788584
 20
7997.894007326096
 30
0.0
 10
5323.738056236041
 20
8004.223463563598
 30
0.0
 10
5323.46026471778
 20
8008.934776381037
 30
0.0
  0
SPLINE
  5
1E9
330
1F
100
AcDbEntity
  8
0
  6
Continuous
 62
     7
370
    25
100
AcDbSpline
210
0.0
220
0.0
230
1.0
 70
     8
 71
     3
 72
     9
 73
     5
 74
     0
 42
0.00000001
 43
0.00000001
 40
0.0
 40
0.0
 40
0.0
 40
0.0
 40
0.5156102819445775
 40
1.0
 40
1.0
 40
1.0
 40
1.0
 10
5323.46026471778
 20
8008.934776381037
 30
0.0
 10
5323.595206153627
 20
8012.199572500393
 30
0.0
 10
5323.856918226822
 20
8018.531479046245
 30
0.0
 10
5325.273895497261
 20
8024.707202962915
 30
0.0
 10
5325.960264717781
 20
8027.698660129699
 30
0.0
  0
SPLINE
  5
1EA
330
1F
100
AcDbEntity
  8
0
  6
Continuous
 62
     7
370
    25
100
AcDbSpline
210
0.0
220
0.0
230
1.0
 70
     8
 71
     3
 72
     9
 73
     5
 74
     0
 42
0.00000001
 43
0.00000001
 40
0.0
 40
0.0
 40
0.0
 40
0.0
 40
0.4843897180556435
 40
1.0
 40
1.0
 40
1.0
 40
1.0
 10
5353.46026471778
 20
8027.698660129701
 30
0.0
 10
5354.1466339383
 20
8024.707202962915
 30
0.0
 10
5355.563611208738
 20
8018.531479046245
 30
0.0
 10
5355.825323281932
 20
8012.199572500391
 30
0.0
 10
5355.96026471778
 20
8008.934776381037
 30
0.0
  0
SPLINE
  5
1EB
330
1F
100
AcDbEntity
  8
0
  6
Continuous
 62
     7
370
    25
100
AcDbSpline
210
0.0
220
0.0
230
1.0
 70
     8
 71
     3
 72
     9
 73
     5
 74
     0
 42
0.00000001
 43
0.00000001
 40
0.0
 40
0.0
 40
0.0
 40
0.0
 40
0.7443471667480476
 40
1.0
 40
1.0
 40
1.0
 40
1.0
 10
5355.96026471778
 20
8008.934776381037
 30
0.0
 10
5355.68247319952
 20
8004.223463563598
 30
0.0
 10
5355.309271646981
 20
7997.894007326096
 30
0.0
 10
5353.836725350555
 20
7991.743330571187
 30
0.0
 10
5353.460264717778
 20
7990.170892632378
 30
0.0
  0
LINE
  5
1EC
330
1F
100
AcDbEntity
  8
0
  6
Continuous
 62
     7
370
    25
100
AcDbLine
 10
5353.4602647178
 20
7990.1708926324
 30
0.0
 11
5325.9602647178
 21
7990.1708926324
 31
0.0
  0
LINE
  5
1ED
330
1F
100
AcDbEntity
  8
0
  6
Continuous
 62
     7
370
    25
100
AcDbLine
 10
5355.9602647178
 20
8008.934776381
 30
0.0
 11
5355.9602647178
 21
7980.788950758
 31
0.0
  0
LINE
  5
1EE
330
1F
100
AcDbEntity
  8
0
  6
Continuous
 62
     7
370
    25
100
AcDbLine
 10
5353.4602647178
 20
7990.1708926324
 30
0.0
 11
5355.9602647178
 21
7980.788950758
 31
0.0
  0
LINE
  5
1EF
330
1F
100
AcDbEntity
  8
0
  6
Continuous
 62
     7
370
    25
100
AcDbLine
 10
5355.9602647178
 20
8037.080602004
 30
0.0
 11
5355.9602647178
 21
8008.934776381
 31
0.0
  0
SPLINE
  5
1F0
330
1F
100
AcDbEntity
  8
0
  6
Continuous
 62
     7
370
    25
100
AcDbSpline
210
0.0
220
0.0
230
1.0
 70
     8
 71
     3
 72
     9
 73
     5
 74
     0
 42
0.00000001
 43
0.00000001
 40
0.0
 40
0.0
 40
0.0
 40
0.0
 40
0.3722772596761345
 40
1.0
 40
1.0
 40
1.0
 40
1.0
 10
5355.960264717779
 20
7980.788950758042
 30
0.0
 10
5355.889817040686
 20
7979.610713186617
 30
0.0
 10
5355.700582605157
 20
7976.445766790345
 30
0.0
 10
5354.324231564604
 20
7973.350179451171
 30
0.0
 10
5353.460264717779
 20
7971.407008883713
 30
0.0
  0
LINE
  5
1F1
330
1F
100
AcDbEntity
  8
0
  6
Continuous
 62
     7
370
    25
100
AcDbLine
 10
5353.4602647178
 20
7971.4070088837
 30
0.0
 11
5325.9602647178
 21
7971.4070088837
 31
0.0
  0
LINE
  5
1F2
330
1F
100
AcDbEntity
  8
0
  6
Continuous
 62
     7
370
    25
100
AcDbLine
 10
5325.9602647178
 20
7971.4070088837
 30
0.0
 11
5323.4602647178
 21
7980.788950758
 31
0.0
  0
LINE
  5
1F3
330
1F
100
AcDbEntity
  8
0
  6
Continuous
 62
     7
370
    25
100
AcDbLine
 10
5355.9602647178
 20
8041.434776381
 30
0.0
 11
5355.9602647178
 21
8037.080602004
 31
0.0
  0
LINE
  5
1F4
330
1F
100
AcDbEntity
  8
0
  6
Continuous
 62
     7
370
    25
100
AcDbLine
 10
5355.9602647178
 20
7980.788950758
 30
0.0
 11
5355.9602647178
 21
7976.434776381
 31
0.0
  0
LINE
  5
1F5
330
1F
100
AcDbEntity
  8
0
  6
Continuous
 62
     7
370
    25
100
AcDbLine
 10
5140.603467154
 20
7948.934776381
 30
0.0
 11
5140.603467154
 21
8068.934776381
 31
0.0
  0
LINE
  5
1F6
330
1F
100
AcDbEntity
  8
0
  6
Continuous
 62
     7
370
    25
100
AcDbLine
 10
5112.603467154
 20
5888.934776381
 30
0.0
 11
5012.603467154
 21
5888.934776381
 31
0.0
  0
LINE
  5
1F7
330
1F
100
AcDbEntity
  8
0
  6
Continuous
 62
     7
370
    25
100
AcDbLine
 10
5112.603467154
 20
5888.934776381
 30
0.0
 11
5112.603467154
 21
5868.934776381
 31
0.0
  0
LINE
  5
1F8
330
1F
100
AcDbEntity
  8
0
  6
Continuous
 62
     7
370
    25
100
AcDbLine
 10
5012.603467154
 20
5888.934776381
 30
0.0
 11
5012.603467154
 21
5868.934776381
 31
0.0
  0
LINE
  5
1F9
330
1F
100
AcDbEntity
  8
0
  6
Continuous
 62
     7
370
    25
100
AcDbLine
 10
5112.603467154
 20
5868.934776381
 30
0.0
 11
5012.603467154
 21
5868.934776381
 31
0.0
  0
LINE
  5
1FA
330
1F
100
AcDbEntity
  8
0
  6
Continuous
 62
     7
370
    25
100
AcDbLine
 10
5077.603467154
 20
5851.434776381
 30
0.0
 11
5047.603467154
 21
5851.434776381
 31
0.0
  0
LINE
  5
1FB
330
1F
100
AcDbEntity
  8
0
  6
Continuous
 62
     7
370
    25
100
AcDbLine
 10
5075.103467154
 20
5943.934776381
 30
0.0
 11
5050.1034671539
 21
5943.934776381
 31
0.0
  0
ELLIPSE
  5
1FC
330
1F
100
AcDbEntity
  8
0
  6
Continuous
 62
     7
370
    25
100
AcDbEllipse
 10
4882.427431651
 20
5878.934776381
 30
0.0
 11
310.3189371418602
 21
0.0
 31
0.0
210
0.0
220
0.0
230
1.0
 40
0.5361109642
 41
1.031247488784157
 42
1.074826660447566
  0
LINE
  5
1FD
330
1F
100
AcDbEntity
  8
0
  6
Continuous
 62
     7
370
    25
100
AcDbLine
 10
5041.853467154
 20
5888.934776381
 30
0.0
 11
5041.853467154
 21
6021.6663864049
 31
0.0
  0
LINE
  5
1FE
330
1F
100
AcDbEntity
  8
0
  6
Continuous
 62
     7
370
    25
100
AcDbLine
 10
5006.853467154
 20
5888.934776381
 30
0.0
 11
5006.8534671539
 21
6031.434776381
 31
0.0
  0
LINE
  5
1FF
330
1F
100
AcDbEntity
  8
0
  6
Continuous
 62
     7
370
    25
100
AcDbLine
 10
5012.603467154
 20
5888.934776381
 30
0.0
 11
5006.853467154
 21
5888.934776381
 31
0.0
  0
LINE
  5
200
330
1F
100
AcDbEntity
  8
0
  6
Continuous
 62
     7
370
    25
100
AcDbLine
 10
5041.8534671539
 20
5733.934776381
 30
0.0
 11
5041.8534671539
 21
5853.253242295
 31
0.0
  0
LINE
  5
201
330
1F
100
AcDbEntity
  8
0
  6
Continuous
 62
     7
370
    25
100
AcDbLine
 10
5006.853467154
 20
5726.434776381
 30
0.0
 11
5006.853467154
 21
5868.934776381
 31
0.0
  0
LINE
  5
202
330
1F
100
AcDbEntity
  8
0
  6
Continuous
 62
     7
370
    25
100
AcDbLine
 10
5006.853467154
 20
5868.934776381
 30
0.0
 11
5012.603467154
 21
5868.934776381
 31
0.0
  0
LINE
  5
203
330
1F
100
AcDbEntity
  8
0
  6
Continuous
 62
     7
370
    25
100
AcDbLine
 10
5118.353467154
 20
5888.934776381
 30
0.0
 11
5118.353467154
 21
6031.434776381
 31
0.0
  0
LINE
  5
204
330
1F
100
AcDbEntity
  8
0
  6
Continuous
 62
     7
370
    25
100
AcDbLine
 10
5083.353467154
 20
5888.934776381
 30
0.0
 11
5083.353467154
 21
6021.6663864049
 31
0.0
  0
ELLIPSE
  5
205
330
1F
100
AcDbEntity
  8
0
  6
Continuous
 62
     7
370
    25
100
AcDbEllipse
 10
5242.7795026569
 20
5878.934776381
 30
0.0
 11
310.3189371418594
 21
9.094947017729282E-13
 31
0.0
210
0.0
220
0.0
230
1.0
 40
0.5361109642
 41
2.066765993142221
 42
2.110345164805629
  0
LINE
  5
206
330
1F
100
AcDbEntity
  8
0
  6
Continuous
 62
     7
370
    25
100
AcDbLine
 10
5118.353467154
 20
5888.934776381
 30
0.0
 11
5112.603467154
 21
5888.934776381
 31
0.0
  0
LINE
  5
207
330
1F
100
AcDbEntity
  8
0
  6
Continuous
 62
     7
370
    25
100
AcDbLine
 10
5083.353467154
 20
5733.934776381
 30
0.0
 11
5083.353467154
 21
5853.253242295
 31
0.0
  0
LINE
  5
208
330
1F
100
AcDbEntity
  8
0
  6
Continuous
 62
     7
370
    25
100
AcDbLine
 10
5118.353467154
 20
5726.434776381
 30
0.0
 11
5118.353467154
 21
5868.934776381
 31
0.0
  0
LINE
  5
209
330
1F
100
AcDbEntity
  8
0
  6
Continuous
 62
     7
370
    25
100
AcDbLine
 10
5112.603467154
 20
5868.934776381
 30
0.0
 11
5118.353467154
 21
5868.934776381
 31
0.0
  0
ELLIPSE
  5
20A
330
1F
100
AcDbEntity
  8
0
  6
Continuous
 62
     7
370
    25
100
AcDbEllipse
 10
4997.6034671539
 20
5878.934776381
 30
0.0
 11
242.487113059643
 21
0.0
 31
0.0
210
0.0
220
0.0
230
1.0
 40
0.5773502692
 41
1.299422247474155
 42
1.387284120242601
  0
ELLIPSE
  5
20B
330
1F
100
AcDbEntity
  8
0
  6
Continuous
 62
     7
370
    25
100
AcDbEllipse
 10
5127.603467154
 20
5878.934776381
 30
0.0
 11
242.487113059643
 21
9.094947017729280E-13
 31
0.0
210
0.0
220
0.0
230
1.0
 40
0.5773502692
 41
1.75430853334719
 42
1.842170406115643
  0
LINE
  5
20C
330
1F
100
AcDbEntity
  8
0
  6
Continuous
 62
     7
370
    25
100
AcDbLine
 10
5030.103467154
 20
6048.934776381
 30
0.0
 11
5030.103467154
 21
6025.2544088392
 31
0.0
  0
LINE
  5
20D
330
1F
100
AcDbEntity
  8
0
  6
Continuous
 62
     7
370
    25
100
AcDbLine
 10
5030.103467154
 20
6048.934776381
 30
0.0
 11
5062.603467154
 21
6048.934776381
 31
0.0
  0
LINE
  5
20E
330
1F
100
AcDbEntity
  8
0
  6
Continuous
 62
     7
370
    25
100
AcDbLine
 10
5062.603467154
 20
6048.934776381
 30
0.0
 11
5062.6034671539
 21
6013.8112630889
 31
0.0
  0
LINE
  5
20F
330
1F
100
AcDbEntity
  8
0
  6
Continuous
 62
     7
370
    25
100
AcDbLine
 10
5095.103467154
 20
6048.934776381
 30
0.0
 11
5095.103467154
 21
6025.2544088392
 31
0.0
  0
LINE
  5
210
330
1F
100
AcDbEntity
  8
0
  6
Continuous
 62
     7
370
    25
100
AcDbLine
 10
5062.603467154
 20
6048.934776381
 30
0.0
 11
5095.103467154
 21
6048.934776381
 31
0.0
  0
LINE
  5
211
330
1F
100
AcDbEntity
  8
0
  6
Continuous
 62
     7
370
    25
100
AcDbLine
 10
5064.8680090609
 20
6058.934776381
 30
0.0
 11
5042.6034671539
 21
6058.934776381
 31
0.0
  0
LINE
  5
212
330
1F
100
AcDbEntity
  8
0
  6
Continuous
 62
     7
370
    25
100
AcDbLine
 10
5082.6034671539
 20
6058.934776381
 30
0.0
 11
5064.8680090609
 21
6058.934776381
 31
0.0
  0
ARC
  5
213
330
1F
100
AcDbEntity
  8
0
  6
Continuous
 62
     7
370
    25
100
AcDbCircle
 10
4980.603467154
 20
8066.434776381
 30
0.0
 40
5.000000000000909
100
AcDbArc
 50
90.0
 51
180.0
  0
LINE
  5
214
330
1F
100
AcDbEntity
  8
0
  6
Continuous
 62
     7
370
    25
100
AcDbLine
 10
4975.603467154
 20
8066.434776381
 30
0.0
 11
4975.603467154
 21
7946.434776381
 31
0.0
  0
ARC
  5
215
330
1F
100
AcDbEntity
  8
0
  6
Continuous
 62
     7
370
    25
100
AcDbCircle
 10
4980.603467154
 20
8066.434776381
 30
0.0
 40
15.00000000000091
100
AcDbArc
 50
90.0
 51
180.0
  0
ARC
  5
216
330
1F
100
AcDbEntity
  8
0
  6
Continuous
 62
     7
370
    25
100
AcDbCircle
 10
4980.603467154
 20
7946.434776381
 30
0.0
 40
5.0
100
AcDbArc
 50
180.0
 51
270.0
  0
ARC
  5
217
330
1F
100
AcDbEntity
  8
0
  6
Continuous
 62
     7
370
    25
100
AcDbCircle
 10
4980.603467154
 20
7946.434776381
 30
0.0
 40
15.0
100
AcDbArc
 50
180.0
 51
270.0
  0
CIRCLE
  5
218
330
1F
100
AcDbEntity
  8
0
  6
Continuous
 62
     7
370
    25
100
AcDbCircle
 10
5055.603467154
 20
8241.434776381
 30
0.0
 40
25.00000000000091
  0
LINE
  5
219
330
1F
100
AcDbEntity
  8
0
  6
Continuous
 62
     7
370
    25
100
AcDbLine
 10
5130.603467154
 20
7101.434776381
 30
0.0
 11
4980.603467154
 21
7101.434776381
 31
0.0
  0
LINE
  5
21A
330
1F
100
AcDbEntity
  8
0
  6
Continuous
 62
     7
370
    25
100
AcDbLine
 10
4980.603467154
 20
7101.434776381
 30
0.0
 11
4980.603467154
 21
8351.434776381
 31
0.0
  0
LINE
  5
21B
330
1F
100
AcDbEntity
  8
0
  6
Continuous
 62
     7
370
    25
100
AcDbLine
 10
5130.603467154
 20
8351.434776381
 30
0.0
 11
5130.603467154
 21
7101.434776381
 31
0.0
  0
CIRCLE
  5
21C
330
1F
100
AcDbEntity
  8
0
  6
Continuous
 62
     7
370
    25
100
AcDbCircle
 10
5055.603467154
 20
7211.434776381
 30
0.0
 40
25.00000000000091
  0
LINE
  5
21D
330
1F
100
AcDbEntity
  8
0
  6
Continuous
 62
     7
370
    25
100
AcDbLine
 10
4980.603467154
 20
8351.434776381
 30
0.0
 11
5130.603467154
 21
8351.434776381
 31
0.0
  0
LINE
  5
21E
330
1F
100
AcDbEntity
  8
0
  6
Continuous
 62
     7
370
    25
100
AcDbLine
 10
4970.603467154
 20
8081.434776381
 30
0.0
 11
4980.603467154
 21
8081.434776381
 31
0.0
  0
ARC
  5
21F
330
1F
100
AcDbEntity
  8
0
  6
Continuous
 62
     7
370
    25
100
AcDbCircle
 10
4970.603467154
 20
8076.434776381
 30
0.0
 40
5.0
100
AcDbArc
 50
90.0
 51
180.0
  0
LINE
  5
220
330
1F
100
AcDbEntity
  8
0
  6
Continuous
 62
     7
370
    25
100
AcDbLine
 10
4965.603467154
 20
7931.434776381
 30
0.0
 11
4965.603467154
 21
8076.434776381
 31
0.0
  0
ARC
  5
221
330
1F
100
AcDbEntity
  8
0
  6
Continuous
 62
     7
370
    25
100
AcDbCircle
 10
4970.603467154
 20
7931.434776381
 30
0.0
 40
5.000000000000909
100
AcDbArc
 50
180.0
 51
270.0
  0
LINE
  5
222
330
1F
100
AcDbEntity
  8
0
  6
Continuous
 62
     7
370
    25
100
AcDbLine
 10
4980.603467154
 20
7926.434776381
 30
0.0
 11
4970.603467154
 21
7926.434776381
 31
0.0
  0
LINE
  5
223
330
1F
100
AcDbEntity
  8
0
  6
Continuous
 62
     7
370
    25
100
AcDbLine
 10
4970.603467154
 20
7916.434776381
 30
0.0
 11
4980.603467154
 21
7916.434776381
 31
0.0
  0
ARC
  5
224
330
1F
100
AcDbEntity
  8
0
  6
Continuous
 62
     7
370
    25
100
AcDbCircle
 10
4970.603467154
 20
7931.434776381
 30
0.0
 40
15.00000000000273
100
AcDbArc
 50
180.0
 51
270.0
  0
LINE
  5
225
330
1F
100
AcDbEntity
  8
0
  6
Continuous
 62
     7
370
    25
100
AcDbLine
 10
4955.603467154
 20
8076.434776381
 30
0.0
 11
4955.603467154
 21
7931.434776381
 31
0.0
  0
ARC
  5
226
330
1F
100
AcDbEntity
  8
0
  6
Continuous
 62
     7
370
    25
100
AcDbCircle
 10
4970.603467154
 20
8076.434776381
 30
0.0
 40
15.00000000000091
100
AcDbArc
 50
90.0
 51
180.0
  0
LINE
  5
227
330
1F
100
AcDbEntity
  8
0
  6
Continuous
 62
     7
370
    25
100
AcDbLine
 10
4980.603467154
 20
8091.434776381
 30
0.0
 11
4970.603467154
 21
8091.434776381
 31
0.0
  0
LINE
  5
228
330
1F
100
AcDbEntity
  8
0
  6
Continuous
 62
     7
370
    25
100
AcDbLine
 10
4975.603467154
 20
7352.684776381
 30
0.0
 11
4975.603467154
 21
7327.684776381
 31
0.0
  0
LINE
  5
229
330
1F
100
AcDbEntity
  8
0
  6
Continuous
 62
     7
370
    25
100
AcDbLine
 10
4975.603467154
 20
7352.684776381
 30
0.0
 11
4975.603467154
 21
7353.934776381
 31
0.0
  0
LINE
  5
22A
330
1F
100
AcDbEntity
  8
0
  6
Continuous
 62
     8
370
    25
100
AcDbLine
 10
4980.603467154
 20
7971.434776381
 30
0.0
 11
4975.6034671539
 21
7971.434776381
 31
0.0
  0
LINE
  5
22B
330
1F
100
AcDbEntity
  8
0
  6
Continuous
 62
     8
370
    25
100
AcDbLine
 10
4980.603467154
 20
8046.434776381
 30
0.0
 11
4975.6034671539
 21
8046.434776381
 31
0.0
  0
LINE
  5
22C
330
1F
100
AcDbEntity
  8
0
  6
Continuous
 62
     8
370
    25
100
AcDbLine
 10
5037.603467154
 20
5861.434776381
 30
0.0
 11
5087.603467154
 21
5861.434776381
 31
0.0
  0
LINE
  5
22D
330
1F
100
AcDbEntity
  8
0
  6
Continuous
 62
     7
370
    25
100
AcDbLine
 10
2257.3060535415
 20
4654.4191085371
 30
0.0
 11
2257.3060535415
 21
4517.0623109733
 31
0.0
  0
LINE
  5
22E
330
1F
100
AcDbEntity
  8
0
  6
Continuous
 62
     7
370
    25
100
AcDbLine
 10
2257.3060535415
 20
4471.5623109733
 30
0.0
 11
2257.3060535415
 21
4232.9191085371
 31
0.0
  0
LINE
  5
22F
330
1F
100
AcDbEntity
  8
0
  6
Continuous
 62
     7
370
    25
100
AcDbLine
 10
2297.3060535415
 20
4232.9191085371
 30
0.0
 11
2297.3060535415
 21
4471.5623109733
 31
0.0
  0
LINE
  5
230
330
1F
100
AcDbEntity
  8
0
  6
Continuous
 62
     7
370
    25
100
AcDbLine
 10
2297.3060535415
 20
4517.0623109733
 30
0.0
 11
2297.3060535415
 21
4654.4191085371
 31
0.0
  0
LINE
  5
231
330
1F
100
AcDbEntity
  8
0
  6
Continuous
 62
     7
370
    25
100
AcDbLine
 10
3057.3060535415
 20
4654.4191085371
 30
0.0
 11
3057.3060535415
 21
4517.0623109733
 31
0.0
  0
LINE
  5
232
330
1F
100
AcDbEntity
  8
0
  6
Continuous
 62
     7
370
    25
100
AcDbLine
 10
3057.3060535415
 20
4471.5623109733
 30
0.0
 11
3057.3060535415
 21
4232.9191085371
 31
0.0
  0
LINE
  5
233
330
1F
100
AcDbEntity
  8
0
  6
Continuous
 62
     7
370
    25
100
AcDbLine
 10
3097.3060535415
 20
4232.9191085371
 30
0.0
 11
3097.3060535415
 21
4471.5623109733
 31
0.0
  0
LINE
  5
234
330
1F
100
AcDbEntity
  8
0
  6
Continuous
 62
     7
370
    25
100
AcDbLine
 10
3097.3060535415
 20
4517.0623109733
 30
0.0
 11
3097.3060535415
 21
4654.4191085371
 31
0.0
  0
LINE
  5
235
330
1F
100
AcDbEntity
  8
0
  6
Continuous
 62
     7
370
    25
100
AcDbLine
 10
2337.3060535415
 20
4686.9191085371
 30
0.0
 11
2337.3060535415
 21
4696.9191085371
 31
0.0
  0
LINE
  5
236
330
1F
100
AcDbEntity
  8
0
  6
Continuous
 62
     7
370
    25
100
AcDbLine
 10
2217.3060535415
 20
4696.9191085371
 30
0.0
 11
2217.3060535415
 21
4686.9191085371
 31
0.0
  0
LINE
  5
237
330
1F
100
AcDbEntity
  8
0
  6
Continuous
 62
     7
370
    25
100
AcDbLine
 10
3137.3060535415
 20
4686.9191085371
 30
0.0
 11
3137.3060535415
 21
4696.9191085371
 31
0.0
  0
LINE
  5
238
330
1F
100
AcDbEntity
  8
0
  6
Continuous
 62
     7
370
    25
100
AcDbLine
 10
3017.3060535415
 20
4696.9191085371
 30
0.0
 11
3017.3060535415
 21
4686.9191085371
 31
0.0
  0
LINE
  5
239
330
1F
100
AcDbEntity
  8
0
  6
Continuous
 62
     7
370
    25
100
AcDbLine
 10
2177.3060535415
 20
4492.0623109733
 30
0.0
 11
2377.3060535415
 21
4492.0623109733
 31
0.0
  0
LINE
  5
23A
330
1F
100
AcDbEntity
  8
0
  6
Continuous
 62
     7
370
    25
100
AcDbLine
 10
2177.3060535415
 20
4497.0623109733
 30
0.0
 11
2177.3060535415
 21
4492.0623109733
 31
0.0
  0
LINE
  5
23B
330
1F
100
AcDbEntity
  8
0
  6
Continuous
 62
     7
370
    25
100
AcDbLine
 10
2377.3060535415
 20
4497.0623109733
 30
0.0
 11
2377.3060535415
 21
4492.0623109733
 31
0.0
  0
LINE
  5
23C
330
1F
100
AcDbEntity
  8
0
  6
Continuous
 62
     7
370
    25
100
AcDbLine
 10
2177.3060535415
 20
4497.0623109733
 30
0.0
 11
2377.3060535415
 21
4497.0623109733
 31
0.0
  0
LINE
  5
23D
330
1F
100
AcDbEntity
  8
0
  6
Continuous
 62
     7
370
    25
100
AcDbLine
 10
2177.3060535415
 20
4497.0623109733
 30
0.0
 11
2177.3060535415
 21
4497.4199275189
 31
0.0
  0
LINE
  5
23E
330
1F
100
AcDbEntity
  8
0
  6
Continuous
 62
     7
370
    25
100
AcDbLine
 10
2177.3060535415
 20
4497.4199275189
 30
0.0
 11
2377.3060535415
 21
4497.4199275189
 31
0.0
  0
LINE
  5
23F
330
1F
100
AcDbEntity
  8
0
  6
Continuous
 62
     7
370
    25
100
AcDbLine
 10
2377.3060535415
 20
4497.0623109733
 30
0.0
 11
2377.3060535415
 21
4497.4199275189
 31
0.0
  0
LINE
  5
240
330
1F
100
AcDbEntity
  8
0
  6
Continuous
 62
     7
370
    25
100
AcDbLine
 10
2177.3060535415
 20
4497.4199275189
 30
0.0
 11
2177.3060535415
 21
4516.3470778821
 31
0.0
  0
LINE
  5
241
330
1F
100
AcDbEntity
  8
0
  6
Continuous
 62
     7
370
    25
100
AcDbLine
 10
2177.3060535415
 20
4516.3470778821
 30
0.0
 11
2377.3060535415
 21
4516.3470778821
 31
0.0
  0
LINE
  5
242
330
1F
100
AcDbEntity
  8
0
  6
Continuous
 62
     7
370
    25
100
AcDbLine
 10
2377.3060535415
 20
4497.4199275189
 30
0.0
 11
2377.3060535415
 21
4516.3470778821
 31
0.0
  0
LINE
  5
243
330
1F
100
AcDbEntity
  8
0
  6
Continuous
 62
     7
370
    25
100
AcDbLine
 10
2177.3060535415
 20
4516.3470778821
 30
0.0
 11
2177.3060535415
 21
4517.0623109733
 31
0.0
  0
LINE
  5
244
330
1F
100
AcDbEntity
  8
0
  6
Continuous
 62
     7
370
    25
100
AcDbLine
 10
2177.3060535415
 20
4517.0623109733
 30
0.0
 11
2377.3060535415
 21
4517.0623109733
 31
0.0
  0
LINE
  5
245
330
1F
100
AcDbEntity
  8
0
  6
Continuous
 62
     7
370
    25
100
AcDbLine
 10
2377.3060535415
 20
4516.3470778821
 30
0.0
 11
2377.3060535415
 21
4517.0623109733
 31
0.0
  0
LINE
  5
246
330
1F
100
AcDbEntity
  8
0
  6
Continuous
 62
     7
370
    25
100
AcDbLine
 10
2977.3060535415
 20
4492.0623109733
 30
0.0
 11
3177.3060535415
 21
4492.0623109733
 31
0.0
  0
LINE
  5
247
330
1F
100
AcDbEntity
  8
0
  6
Continuous
 62
     7
370
    25
100
AcDbLine
 10
2977.3060535415
 20
4497.0623109733
 30
0.0
 11
2977.3060535415
 21
4492.0623109733
 31
0.0
  0
LINE
  5
248
330
1F
100
AcDbEntity
  8
0
  6
Continuous
 62
     7
370
    25
100
AcDbLine
 10
3177.3060535415
 20
4497.0623109733
 30
0.0
 11
3177.3060535415
 21
4492.0623109733
 31
0.0
  0
LINE
  5
249
330
1F
100
AcDbEntity
  8
0
  6
Continuous
 62
     7
370
    25
100
AcDbLine
 10
2977.3060535415
 20
4497.0623109733
 30
0.0
 11
3177.3060535415
 21
4497.0623109733
 31
0.0
  0
LINE
  5
24A
330
1F
100
AcDbEntity
  8
0
  6
Continuous
 62
     7
370
    25
100
AcDbLine
 10
2977.3060535415
 20
4497.0623109733
 30
0.0
 11
2977.3060535415
 21
4497.4199275189
 31
0.0
  0
LINE
  5
24B
330
1F
100
AcDbEntity
  8
0
  6
Continuous
 62
     7
370
    25
100
AcDbLine
 10
2977.3060535415
 20
4497.4199275189
 30
0.0
 11
3177.3060535415
 21
4497.4199275189
 31
0.0
  0
LINE
  5
24C
330
1F
100
AcDbEntity
  8
0
  6
Continuous
 62
     7
370
    25
100
AcDbLine
 10
3177.3060535415
 20
4497.0623109733
 30
0.0
 11
3177.3060535415
 21
4497.4199275189
 31
0.0
  0
LINE
  5
24D
330
1F
100
AcDbEntity
  8
0
  6
Continuous
 62
     7
370
    25
100
AcDbLine
 10
2977.3060535415
 20
4497.4199275189
 30
0.0
 11
2977.3060535415
 21
4516.3470778821
 31
0.0
  0
LINE
  5
24E
330
1F
100
AcDbEntity
  8
0
  6
Continuous
 62
     7
370
    25
100
AcDbLine
 10
2977.3060535415
 20
4516.3470778821
 30
0.0
 11
3177.3060535415
 21
4516.3470778821
 31
0.0
  0
LINE
  5
24F
330
1F
100
AcDbEntity
  8
0
  6
Continuous
 62
     7
370
    25
100
AcDbLine
 10
3177.3060535415
 20
4497.4199275189
 30
0.0
 11
3177.3060535415
 21
4516.3470778821
 31
0.0
  0
LINE
  5
250
330
1F
100
AcDbEntity
  8
0
  6
Continuous
 62
     7
370
    25
100
AcDbLine
 10
2977.3060535415
 20
4516.3470778821
 30
0.0
 11
2977.3060535415
 21
4517.0623109733
 31
0.0
  0
LINE
  5
251
330
1F
100
AcDbEntity
  8
0
  6
Continuous
 62
     7
370
    25
100
AcDbLine
 10
2977.3060535415
 20
4517.0623109733
 30
0.0
 11
3177.3060535415
 21
4517.0623109733
 31
0.0
  0
LINE
  5
252
330
1F
100
AcDbEntity
  8
0
  6
Continuous
 62
     7
370
    25
100
AcDbLine
 10
3177.3060535415
 20
4516.3470778821
 30
0.0
 11
3177.3060535415
 21
4517.0623109733
 31
0.0
  0
LINE
  5
253
330
1F
100
AcDbEntity
  8
0
  6
Continuous
 62
     7
370
    25
100
AcDbLine
 10
2277.3060535415
 20
4232.9191085371
 30
0.0
 11
2297.3060535415
 21
4232.9191085371
 31
0.0
  0
LINE
  5
254
330
1F
100
AcDbEntity
  8
0
  6
Continuous
 62
     7
370
    25
100
AcDbLine
 10
2257.3060535415
 20
4232.9191085371
 30
0.0
 11
2277.3060535415
 21
4232.9191085371
 31
0.0
  0
LINE
  5
255
330
1F
100
AcDbEntity
  8
0
  6
Continuous
 62
     7
370
    25
100
AcDbLine
 10
3077.3060535415
 20
4232.9191085371
 30
0.0
 11
3097.3060535415
 21
4232.9191085371
 31
0.0
  0
LINE
  5
256
330
1F
100
AcDbEntity
  8
0
  6
Continuous
 62
     7
370
    25
100
AcDbLine
 10
3057.3060535415
 20
4232.9191085371
 30
0.0
 11
3077.3060535415
 21
4232.9191085371
 31
0.0
  0
SPLINE
  5
257
330
1F
100
AcDbEntity
  8
0
  6
Continuous
 62
     7
370
    25
100
AcDbSpline
210
0.0
220
0.0
230
1.0
 70
     8
 71
     3
 72
     9
 73
     5
 74
     0
 42
0.00000001
 43
0.00000001
 40
0.0
 40
0.0
 40
0.0
 40
0.0
 40
0.3722772596760623
 40
1.0
 40
1.0
 40
1.0
 40
1.0
 10
2293.5560535415
 20
4686.919108537109
 30
0.0
 10
2295.596820878596
 20
4686.848660860015
 30
0.0
 10
2301.078668840172
 20
4686.659426424486
 30
0.0
 10
2306.440383390889
 20
4685.283075383933
 30
0.0
 10
2309.8060535415
 20
4684.419108537109
 30
0.0
  0
LINE
  5
258
330
1F
100
AcDbEntity
  8
0
  6
Continuous
 62
     7
370
    25
100
AcDbLine
 10
2309.8060535415
 20
4656.9191085371
 30
0.0
 11
2309.8060535415
 21
4684.4191085371
 31
0.0
  0
LINE
  5
259
330
1F
100
AcDbEntity
  8
0
  6
Continuous
 62
     7
370
    25
100
AcDbLine
 10
2309.8060535415
 20
4656.9191085371
 30
0.0
 11
2293.5560535415
 21
4654.4191085371
 31
0.0
  0
SPLINE
  5
25A
330
1F
100
AcDbEntity
  8
0
  6
Continuous
 62
     7
370
    25
100
AcDbSpline
210
0.0
220
0.0
230
1.0
 70
     8
 71
     3
 72
     9
 73
     5
 74
     0
 42
0.00000001
 43
0.00000001
 40
0.0
 40
0.0
 40
0.0
 40
0.0
 40
0.3722772596761814
 40
1.0
 40
1.0
 40
1.0
 40
1.0
 10
2293.5560535415
 20
4654.419108537109
 30
0.0
 10
2291.515286204404
 20
4654.489556214204
 30
0.0
 10
2286.033438242831
 20
4654.678790649731
 30
0.0
 10
2280.671723692111
 20
4656.055141690284
 30
0.0
 10
2277.3060535415
 20
4656.919108537109
 30
0.0
  0
LINE
  5
25B
330
1F
100
AcDbEntity
  8
0
  6
Continuous
 62
     7
370
    25
100
AcDbLine
 10
2277.3060535415
 20
4656.9191085371
 30
0.0
 11
2277.3060535415
 21
4684.4191085371
 31
0.0
  0
LINE
  5
25C
330
1F
100
AcDbEntity
  8
0
  6
Continuous
 62
     7
370
    25
100
AcDbLine
 10
2277.3060535415
 20
4684.4191085371
 30
0.0
 11
2293.5560535415
 21
4686.9191085371
 31
0.0
  0
SPLINE
  5
25D
330
1F
100
AcDbEntity
  8
0
  6
Continuous
 62
     7
370
    25
100
AcDbSpline
210
0.0
220
0.0
230
1.0
 70
     8
 71
     3
 72
     9
 73
     5
 74
     0
 42
0.00000001
 43
0.00000001
 40
0.0
 40
0.0
 40
0.0
 40
0.0
 40
0.3722772596762038
 40
1.0
 40
1.0
 40
1.0
 40
1.0
 10
2261.056053541501
 20
4686.919108537109
 30
0.0
 10
2263.096820878597
 20
4686.848660860015
 30
0.0
 10
2268.578668840169
 20
4686.659426424486
 30
0.0
 10
2273.940383390889
 20
4685.283075383932
 30
0.0
 10
2277.3060535415
 20
4684.419108537109
 30
0.0
  0
LINE
  5
25E
330
1F
100
AcDbEntity
  8
0
  6
Continuous
 62
     7
370
    25
100
AcDbLine
 10
2277.3060535415
 20
4656.9191085371
 30
0.0
 11
2261.0560535415
 21
4654.4191085371
 31
0.0
  0
SPLINE
  5
25F
330
1F
100
AcDbEntity
  8
0
  6
Continuous
 62
     7
370
    25
100
AcDbSpline
210
0.0
220
0.0
230
1.0
 70
     8
 71
     3
 72
     9
 73
     5
 74
     0
 42
0.00000001
 43
0.00000001
 40
0.0
 40
0.0
 40
0.0
 40
0.0
 40
0.3722772596761733
 40
1.0
 40
1.0
 40
1.0
 40
1.0
 10
2261.056053541501
 20
4654.419108537109
 30
0.0
 10
2259.015286204404
 20
4654.489556214204
 30
0.0
 10
2253.533438242831
 20
4654.678790649731
 30
0.0
 10
2248.171723692112
 20
4656.055141690284
 30
0.0
 10
2244.8060535415
 20
4656.919108537109
 30
0.0
  0
LINE
  5
260
330
1F
100
AcDbEntity
  8
0
  6
Continuous
 62
     7
370
    25
100
AcDbLine
 10
2244.8060535415
 20
4656.9191085371
 30
0.0
 11
2244.8060535415
 21
4684.4191085371
 31
0.0
  0
LINE
  5
261
330
1F
100
AcDbEntity
  8
0
  6
Continuous
 62
     7
370
    25
100
AcDbLine
 10
2244.8060535415
 20
4684.4191085371
 30
0.0
 11
2261.0560535415
 21
4686.9191085371
 31
0.0
  0
LINE
  5
262
330
1F
100
AcDbEntity
  8
0
  6
Continuous
 62
     7
370
    25
100
AcDbLine
 10
2293.5560535415
 20
4654.4191085371
 30
0.0
 11
2261.0560535415
 21
4654.4191085371
 31
0.0
  0
SPLINE
  5
263
330
1F
100
AcDbEntity
  8
0
  6
Continuous
 62
     7
370
    25
100
AcDbSpline
210
0.0
220
0.0
230
1.0
 70
    24
 71
     3
 72
     9
 73
     5
 74
     0
 42
0.00000001
 43
0.00000001
 40
0.0
 40
0.0
 40
0.0
 40
0.0
 40
0.5156102819445775
 40
1.0
 40
1.0
 40
1.0
 40
1.0
 10
2244.8060535415
 20
4686.919108537109
 30
0.0
 10
2244.8060535415
 20
4686.784167101261
 30
0.0
 10
2244.8060535415
 20
4686.522455028067
 30
0.0
 10
2244.8060535415
 20
4685.105477757627
 30
0.0
 10
2244.8060535415
 20
4684.419108537109
 30
0.0
  0
SPLINE
  5
264
330
1F
100
AcDbEntity
  8
0
  6
Continuous
 62
     7
370
    25
100
AcDbSpline
210
0.0
220
0.0
230
1.0
 70
    24
 71
     3
 72
     9
 73
     5
 74
     0
 42
0.00000001
 43
0.00000001
 40
0.0
 40
0.0
 40
0.0
 40
0.0
 40
0.4843897180556436
 40
1.0
 40
1.0
 40
1.0
 40
1.0
 10
2244.8060535415
 20
4656.919108537109
 30
0.0
 10
2244.8060535415
 20
4656.23273931659
 30
0.0
 10
2244.8060535415
 20
4654.815762046151
 30
0.0
 10
2244.8060535415
 20
4654.554049972957
 30
0.0
 10
2244.8060535415
 20
4654.419108537109
 30
0.0
  0
LINE
  5
265
330
1F
100
AcDbEntity
  8
0
  6
Continuous
 62
     7
370
    25
100
AcDbLine
 10
2261.0560535415
 20
4654.4191085371
 30
0.0
 11
2244.8060535415
 21
4654.4191085371
 31
0.0
  0
SPLINE
  5
266
330
1F
100
AcDbEntity
  8
0
  6
Continuous
 62
     7
370
    25
100
AcDbSpline
210
0.0
220
0.0
230
1.0
 70
    24
 71
     3
 72
     9
 73
     5
 74
     0
 42
0.00000001
 43
0.00000001
 40
0.0
 40
0.0
 40
0.0
 40
0.0
 40
0.4843897180554519
 40
1.0
 40
1.0
 40
1.0
 40
1.0
 10
2309.8060535415
 20
4684.419108537109
 30
0.0
 10
2309.8060535415
 20
4685.105477757627
 30
0.0
 10
2309.8060535415
 20
4686.522455028067
 30
0.0
 10
2309.8060535415
 20
4686.78416710126
 30
0.0
 10
2309.8060535415
 20
4686.919108537109
 30
0.0
  0
SPLINE
  5
267
330
1F
100
AcDbEntity
  8
0
  6
Continuous
 62
     7
370
    25
100
AcDbSpline
210
0.0
220
0.0
230
1.0
 70
    24
 71
     3
 72
     9
 73
     5
 74
     0
 42
0.00000001
 43
0.00000001
 40
0.0
 40
0.0
 40
0.0
 40
0.0
 40
0.5156102819444153
 40
0.9999999999999999
 40
0.9999999999999999
 40
0.9999999999999999
 40
0.9999999999999999
 10
2309.8060535415
 20
4654.419108537108
 30
0.0
 10
2309.8060535415
 20
4654.554049972957
 30
0.0
 10
2309.8060535415
 20
4654.815762046151
 30
0.0
 10
2309.8060535415
 20
4656.23273931659
 30
0.0
 10
2309.8060535415
 20
4656.919108537109
 30
0.0
  0
LINE
  5
268
330
1F
100
AcDbEntity
  8
0
  6
Continuous
 62
     7
370
    25
100
AcDbLine
 10
2309.8060535415
 20
4654.4191085371
 30
0.0
 11
2293.5560535415
 21
4654.4191085371
 31
0.0
  0
SPLINE
  5
269
330
1F
100
AcDbEntity
  8
0
  6
Continuous
 62
     7
370
    25
100
AcDbSpline
210
0.0
220
0.0
230
1.0
 70
     8
 71
     3
 72
     9
 73
     5
 74
     0
 42
0.00000001
 43
0.00000001
 40
0.0
 40
0.0
 40
0.0
 40
0.0
 40
0.3722772596762038
 40
1.0
 40
1.0
 40
1.0
 40
1.0
 10
3061.056053541501
 20
4686.91910853711
 30
0.0
 10
3063.096820878597
 20
4686.848660860016
 30
0.0
 10
3068.578668840169
 20
4686.659426424487
 30
0.0
 10
3073.940383390889
 20
4685.283075383933
 30
0.0
 10
3077.3060535415
 20
4684.41910853711
 30
0.0
  0
LINE
  5
26A
330
1F
100
AcDbEntity
  8
0
  6
Continuous
 62
     7
370
    25
100
AcDbLine
 10
3077.3060535415
 20
4656.9191085371
 30
0.0
 11
3077.3060535415
 21
4684.4191085371
 31
0.0
  0
LINE
  5
26B
330
1F
100
AcDbEntity
  8
0
  6
Continuous
 62
     7
370
    25
100
AcDbLine
 10
3077.3060535415
 20
4656.9191085371
 30
0.0
 11
3061.0560535415
 21
4654.4191085371
 31
0.0
  0
SPLINE
  5
26C
330
1F
100
AcDbEntity
  8
0
  6
Continuous
 62
     7
370
    25
100
AcDbSpline
210
0.0
220
0.0
230
1.0
 70
     8
 71
     3
 72
     9
 73
     5
 74
     0
 42
0.00000001
 43
0.00000001
 40
0.0
 40
0.0
 40
0.0
 40
0.0
 40
0.3722772596761733
 40
1.0
 40
1.0
 40
1.0
 40
1.0
 10
3061.0560535415
 20
4654.419108537109
 30
0.0
 10
3059.015286204405
 20
4654.489556214205
 30
0.0
 10
3053.533438242831
 20
4654.678790649732
 30
0.0
 10
3048.171723692112
 20
4656.055141690285
 30
0.0
 10
3044.8060535415
 20
4656.919108537109
 30
0.0
  0
LINE
  5
26D
330
1F
100
AcDbEntity
  8
0
  6
Continuous
 62
     7
370
    25
100
AcDbLine
 10
3044.8060535415
 20
4656.9191085371
 30
0.0
 11
3044.8060535415
 21
4684.4191085371
 31
0.0
  0
LINE
  5
26E
330
1F
100
AcDbEntity
  8
0
  6
Continuous
 62
     7
370
    25
100
AcDbLine
 10
3044.8060535415
 20
4684.4191085371
 30
0.0
 11
3061.0560535415
 21
4686.9191085371
 31
0.0
  0
SPLINE
  5
26F
330
1F
100
AcDbEntity
  8
0
  6
Continuous
 62
     7
370
    25
100
AcDbSpline
210
0.0
220
0.0
230
1.0
 70
     8
 71
     3
 72
     9
 73
     5
 74
     0
 42
0.00000001
 43
0.00000001
 40
0.0
 40
0.0
 40
0.0
 40
0.0
 40
0.3722772596760623
 40
1.0
 40
1.0
 40
1.0
 40
1.0
 10
3093.5560535415
 20
4686.91910853711
 30
0.0
 10
3095.596820878597
 20
4686.848660860016
 30
0.0
 10
3101.078668840172
 20
4686.659426424488
 30
0.0
 10
3106.440383390889
 20
4685.283075383933
 30
0.0
 10
3109.8060535415
 20
4684.41910853711
 30
0.0
  0
LINE
  5
270
330
1F
100
AcDbEntity
  8
0
  6
Continuous
 62
     7
370
    25
100
AcDbLine
 10
3109.8060535415
 20
4656.9191085371
 30
0.0
 11
3109.8060535415
 21
4684.4191085371
 31
0.0
  0
LINE
  5
271
330
1F
100
AcDbEntity
  8
0
  6
Continuous
 62
     7
370
    25
100
AcDbLine
 10
3109.8060535415
 20
4656.9191085371
 30
0.0
 11
3093.5560535415
 21
4654.4191085371
 31
0.0
  0
SPLINE
  5
272
330
1F
100
AcDbEntity
  8
0
  6
Continuous
 62
     7
370
    25
100
AcDbSpline
210
0.0
220
0.0
230
1.0
 70
     8
 71
     3
 72
     9
 73
     5
 74
     0
 42
0.00000001
 43
0.00000001
 40
0.0
 40
0.0
 40
0.0
 40
0.0
 40
0.3722772596761814
 40
1.0
 40
1.0
 40
1.0
 40
1.0
 10
3093.556053541501
 20
4654.419108537109
 30
0.0
 10
3091.515286204404
 20
4654.489556214205
 30
0.0
 10
3086.033438242831
 20
4654.678790649732
 30
0.0
 10
3080.671723692112
 20
4656.055141690285
 30
0.0
 10
3077.3060535415
 20
4656.919108537109
 30
0.0
  0
LINE
  5
273
330
1F
100
AcDbEntity
  8
0
  6
Continuous
 62
     7
370
    25
100
AcDbLine
 10
3077.3060535415
 20
4684.4191085371
 30
0.0
 11
3093.5560535415
 21
4686.9191085371
 31
0.0
  0
LINE
  5
274
330
1F
100
AcDbEntity
  8
0
  6
Continuous
 62
     7
370
    25
100
AcDbLine
 10
3093.5560535415
 20
4654.4191085371
 30
0.0
 11
3061.0560535415
 21
4654.4191085371
 31
0.0
  0
SPLINE
  5
275
330
1F
100
AcDbEntity
  8
0
  6
Continuous
 62
     7
370
    25
100
AcDbSpline
210
0.0
220
0.0
230
1.0
 70
    24
 71
     3
 72
     9
 73
     5
 74
     0
 42
0.00000001
 43
0.00000001
 40
0.0
 40
0.0
 40
0.0
 40
0.0
 40
0.5156102819445774
 40
1.0
 40
1.0
 40
1.0
 40
1.0
 10
3044.806053541501
 20
4686.919108537109
 30
0.0
 10
3044.8060535415
 20
4686.784167101262
 30
0.0
 10
3044.8060535415
 20
4686.522455028068
 30
0.0
 10
3044.8060535415
 20
4685.105477757628
 30
0.0
 10
3044.8060535415
 20
4684.41910853711
 30
0.0
  0
SPLINE
  5
276
330
1F
100
AcDbEntity
  8
0
  6
Continuous
 62
     7
370
    25
100
AcDbSpline
210
0.0
220
0.0
230
1.0
 70
    24
 71
     3
 72
     9
 73
     5
 74
     0
 42
0.00000001
 43
0.00000001
 40
0.0
 40
0.0
 40
0.0
 40
0.0
 40
0.4843897180556437
 40
1.0
 40
1.0
 40
1.0
 40
1.0
 10
3044.8060535415
 20
4656.919108537109
 30
0.0
 10
3044.8060535415
 20
4656.232739316591
 30
0.0
 10
3044.8060535415
 20
4654.815762046152
 30
0.0
 10
3044.8060535415
 20
4654.554049972959
 30
0.0
 10
3044.8060535415
 20
4654.419108537109
 30
0.0
  0
LINE
  5
277
330
1F
100
AcDbEntity
  8
0
  6
Continuous
 62
     7
370
    25
100
AcDbLine
 10
3061.0560535415
 20
4654.4191085371
 30
0.0
 11
3044.8060535415
 21
4654.4191085371
 31
0.0
  0
SPLINE
  5
278
330
1F
100
AcDbEntity
  8
0
  6
Continuous
 62
     7
370
    25
100
AcDbSpline
210
0.0
220
0.0
230
1.0
 70
    24
 71
     3
 72
     9
 73
     5
 74
     0
 42
0.00000001
 43
0.00000001
 40
0.0
 40
0.0
 40
0.0
 40
0.0
 40
0.4843897180554519
 40
1.0
 40
1.0
 40
1.0
 40
1.0
 10
3109.8060535415
 20
4684.41910853711
 30
0.0
 10
3109.8060535415
 20
4685.105477757628
 30
0.0
 10
3109.8060535415
 20
4686.522455028068
 30
0.0
 10
3109.8060535415
 20
4686.784167101262
 30
0.0
 10
3109.8060535415
 20
4686.919108537109
 30
0.0
  0
SPLINE
  5
279
330
1F
100
AcDbEntity
  8
0
  6
Continuous
 62
     7
370
    25
100
AcDbSpline
210
0.0
220
0.0
230
1.0
 70
    24
 71
     3
 72
     9
 73
     5
 74
     0
 42
0.00000001
 43
0.00000001
 40
0.0
 40
0.0
 40
0.0
 40
0.0
 40
0.5156102819444153
 40
1.0
 40
1.0
 40
1.0
 40
1.0
 10
3109.8060535415
 20
4654.419108537109
 30
0.0
 10
3109.8060535415
 20
4654.554049972958
 30
0.0
 10
3109.8060535415
 20
4654.815762046152
 30
0.0
 10
3109.8060535415
 20
4656.232739316591
 30
0.0
 10
3109.8060535415
 20
4656.919108537109
 30
0.0
  0
LINE
  5
27A
330
1F
100
AcDbEntity
  8
0
  6
Continuous
 62
     7
370
    25
100
AcDbLine
 10
3109.8060535415
 20
4654.4191085371
 30
0.0
 11
3093.5560535415
 21
4654.4191085371
 31
0.0
  0
LINE
  5
27B
330
1F
100
AcDbEntity
  8
0
  6
Continuous
 62
     7
370
    25
100
AcDbLine
 10
3109.8060535415
 20
4474.0623109733
 30
0.0
 11
3109.8060535415
 21
4492.0623109733
 31
0.0
  0
LINE
  5
27C
330
1F
100
AcDbEntity
  8
0
  6
Continuous
 62
     7
370
    25
100
AcDbLine
 10
3109.8060535415
 20
4474.0623109733
 30
0.0
 11
3093.5560535415
 21
4471.5623109733
 31
0.0
  0
SPLINE
  5
27D
330
1F
100
AcDbEntity
  8
0
  6
Continuous
 62
     7
370
    25
100
AcDbSpline
210
0.0
220
0.0
230
1.0
 70
     8
 71
     3
 72
     9
 73
     5
 74
     0
 42
0.00000001
 43
0.00000001
 40
0.0
 40
0.0
 40
0.0
 40
0.0
 40
0.3722772596761814
 40
1.0
 40
1.0
 40
1.0
 40
1.0
 10
3093.556053541501
 20
4471.562310973282
 30
0.0
 10
3091.515286204404
 20
4471.632758650377
 30
0.0
 10
3086.033438242831
 20
4471.821993085904
 30
0.0
 10
3080.671723692112
 20
4473.198344126458
 30
0.0
 10
3077.3060535415
 20
4474.062310973282
 30
0.0
  0
LINE
  5
27E
330
1F
100
AcDbEntity
  8
0
  6
Continuous
 62
     7
370
    25
100
AcDbLine
 10
3077.3060535415
 20
4474.0623109733
 30
0.0
 11
3077.3060535415
 21
4492.0623109733
 31
0.0
  0
LINE
  5
27F
330
1F
100
AcDbEntity
  8
0
  6
Continuous
 62
     7
370
    25
100
AcDbLine
 10
3077.3060535415
 20
4474.0623109733
 30
0.0
 11
3061.0560535415
 21
4471.5623109733
 31
0.0
  0
SPLINE
  5
280
330
1F
100
AcDbEntity
  8
0
  6
Continuous
 62
     7
370
    25
100
AcDbSpline
210
0.0
220
0.0
230
1.0
 70
     8
 71
     3
 72
     9
 73
     5
 74
     0
 42
0.00000001
 43
0.00000001
 40
0.0
 40
0.0
 40
0.0
 40
0.0
 40
0.3722772596761733
 40
1.0
 40
1.0
 40
1.0
 40
1.0
 10
3061.0560535415
 20
4471.562310973282
 30
0.0
 10
3059.015286204405
 20
4471.632758650377
 30
0.0
 10
3053.533438242831
 20
4471.821993085904
 30
0.0
 10
3048.171723692112
 20
4473.198344126458
 30
0.0
 10
3044.8060535415
 20
4474.062310973282
 30
0.0
  0
LINE
  5
281
330
1F
100
AcDbEntity
  8
0
  6
Continuous
 62
     7
370
    25
100
AcDbLine
 10
3044.8060535415
 20
4474.0623109733
 30
0.0
 11
3044.8060535415
 21
4492.0623109733
 31
0.0
  0
LINE
  5
282
330
1F
100
AcDbEntity
  8
0
  6
Continuous
 62
     7
370
    25
100
AcDbLine
 10
3093.5560535415
 20
4471.5623109733
 30
0.0
 11
3061.0560535415
 21
4471.5623109733
 31
0.0
  0
SPLINE
  5
283
330
1F
100
AcDbEntity
  8
0
  6
Continuous
 62
     7
370
    25
100
AcDbSpline
210
0.0
220
0.0
230
1.0
 70
    24
 71
     3
 72
     9
 73
     5
 74
     0
 42
0.00000001
 43
0.00000001
 40
0.0
 40
0.0
 40
0.0
 40
0.0
 40
0.4843897180556437
 40
1.0
 40
1.0
 40
1.0
 40
1.0
 10
3044.8060535415
 20
4474.062310973282
 30
0.0
 10
3044.8060535415
 20
4473.375941752764
 30
0.0
 10
3044.8060535415
 20
4471.958964482325
 30
0.0
 10
3044.8060535415
 20
4471.697252409131
 30
0.0
 10
3044.8060535415
 20
4471.562310973282
 30
0.0
  0
LINE
  5
284
330
1F
100
AcDbEntity
  8
0
  6
Continuous
 62
     7
370
    25
100
AcDbLine
 10
3061.0560535415
 20
4471.5623109733
 30
0.0
 11
3044.8060535415
 21
4471.5623109733
 31
0.0
  0
SPLINE
  5
285
330
1F
100
AcDbEntity
  8
0
  6
Continuous
 62
     7
370
    25
100
AcDbSpline
210
0.0
220
0.0
230
1.0
 70
    24
 71
     3
 72
     9
 73
     5
 74
     0
 42
0.00000001
 43
0.00000001
 40
0.0
 40
0.0
 40
0.0
 40
0.0
 40
0.5156102819444153
 40
1.0
 40
1.0
 40
1.0
 40
1.0
 10
3109.8060535415
 20
4471.562310973282
 30
0.0
 10
3109.8060535415
 20
4471.69725240913
 30
0.0
 10
3109.8060535415
 20
4471.958964482325
 30
0.0
 10
3109.8060535415
 20
4473.375941752764
 30
0.0
 10
3109.8060535415
 20
4474.062310973282
 30
0.0
  0
LINE
  5
286
330
1F
100
AcDbEntity
  8
0
  6
Continuous
 62
     7
370
    25
100
AcDbLine
 10
3109.8060535415
 20
4471.5623109733
 30
0.0
 11
3093.5560535415
 21
4471.5623109733
 31
0.0
  0
LINE
  5
287
330
1F
100
AcDbEntity
  8
0
  6
Continuous
 62
     7
370
    25
100
AcDbLine
 10
2277.3060535415
 20
4474.0623109733
 30
0.0
 11
2277.3060535415
 21
4492.0623109733
 31
0.0
  0
LINE
  5
288
330
1F
100
AcDbEntity
  8
0
  6
Continuous
 62
     7
370
    25
100
AcDbLine
 10
2277.3060535415
 20
4474.0623109733
 30
0.0
 11
2261.0560535415
 21
4471.5623109733
 31
0.0
  0
SPLINE
  5
289
330
1F
100
AcDbEntity
  8
0
  6
Continuous
 62
     7
370
    25
100
AcDbSpline
210
0.0
220
0.0
230
1.0
 70
     8
 71
     3
 72
     9
 73
     5
 74
     0
 42
0.00000001
 43
0.00000001
 40
0.0
 40
0.0
 40
0.0
 40
0.0
 40
0.3722772596761733
 40
1.0
 40
1.0
 40
1.0
 40
1.0
 10
2261.056053541501
 20
4471.562310973282
 30
0.0
 10
2259.015286204405
 20
4471.632758650377
 30
0.0
 10
2253.533438242831
 20
4471.821993085904
 30
0.0
 10
2248.171723692112
 20
4473.198344126458
 30
0.0
 10
2244.8060535415
 20
4474.062310973281
 30
0.0
  0
LINE
  5
28A
330
1F
100
AcDbEntity
  8
0
  6
Continuous
 62
     7
370
    25
100
AcDbLine
 10
2244.8060535415
 20
4474.0623109733
 30
0.0
 11
2244.8060535415
 21
4492.0623109733
 31
0.0
  0
LINE
  5
28B
330
1F
100
AcDbEntity
  8
0
  6
Continuous
 62
     7
370
    25
100
AcDbLine
 10
2309.8060535415
 20
4474.0623109733
 30
0.0
 11
2309.8060535415
 21
4492.0623109733
 31
0.0
  0
LINE
  5
28C
330
1F
100
AcDbEntity
  8
0
  6
Continuous
 62
     7
370
    25
100
AcDbLine
 10
2309.8060535415
 20
4474.0623109733
 30
0.0
 11
2293.5560535415
 21
4471.5623109733
 31
0.0
  0
SPLINE
  5
28D
330
1F
100
AcDbEntity
  8
0
  6
Continuous
 62
     7
370
    25
100
AcDbSpline
210
0.0
220
0.0
230
1.0
 70
     8
 71
     3
 72
     9
 73
     5
 74
     0
 42
0.00000001
 43
0.00000001
 40
0.0
 40
0.0
 40
0.0
 40
0.0
 40
0.3722772596761814
 40
1.0
 40
1.0
 40
1.0
 40
1.0
 10
2293.5560535415
 20
4471.562310973282
 30
0.0
 10
2291.515286204404
 20
4471.632758650377
 30
0.0
 10
2286.033438242831
 20
4471.821993085904
 30
0.0
 10
2280.671723692111
 20
4473.198344126458
 30
0.0
 10
2277.3060535415
 20
4474.062310973281
 30
0.0
  0
LINE
  5
28E
330
1F
100
AcDbEntity
  8
0
  6
Continuous
 62
     7
370
    25
100
AcDbLine
 10
2293.5560535415
 20
4471.5623109733
 30
0.0
 11
2261.0560535415
 21
4471.5623109733
 31
0.0
  0
SPLINE
  5
28F
330
1F
100
AcDbEntity
  8
0
  6
Continuous
 62
     7
370
    25
100
AcDbSpline
210
0.0
220
0.0
230
1.0
 70
    24
 71
     3
 72
     9
 73
     5
 74
     0
 42
0.00000001
 43
0.00000001
 40
0.0
 40
0.0
 40
0.0
 40
0.0
 40
0.4843897180556435
 40
1.0
 40
1.0
 40
1.0
 40
1.0
 10
2244.8060535415
 20
4474.062310973281
 30
0.0
 10
2244.8060535415
 20
4473.375941752763
 30
0.0
 10
2244.8060535415
 20
4471.958964482325
 30
0.0
 10
2244.8060535415
 20
4471.697252409131
 30
0.0
 10
2244.8060535415
 20
4471.562310973282
 30
0.0
  0
LINE
  5
290
330
1F
100
AcDbEntity
  8
0
  6
Continuous
 62
     7
370
    25
100
AcDbLine
 10
2261.0560535415
 20
4471.5623109733
 30
0.0
 11
2244.8060535415
 21
4471.5623109733
 31
0.0
  0
SPLINE
  5
291
330
1F
100
AcDbEntity
  8
0
  6
Continuous
 62
     7
370
    25
100
AcDbSpline
210
0.0
220
0.0
230
1.0
 70
    24
 71
     3
 72
     9
 73
     5
 74
     0
 42
0.00000001
 43
0.00000001
 40
0.0
 40
0.0
 40
0.0
 40
0.0
 40
0.5156102819444154
 40
0.9999999999999999
 40
0.9999999999999999
 40
0.9999999999999999
 40
0.9999999999999999
 10
2309.8060535415
 20
4471.562310973282
 30
0.0
 10
2309.8060535415
 20
4471.69725240913
 30
0.0
 10
2309.8060535415
 20
4471.958964482325
 30
0.0
 10
2309.8060535415
 20
4473.375941752764
 30
0.0
 10
2309.8060535415
 20
4474.062310973281
 30
0.0
  0
LINE
  5
292
330
1F
100
AcDbEntity
  8
0
  6
Continuous
 62
     7
370
    25
100
AcDbLine
 10
2309.8060535415
 20
4471.5623109733
 30
0.0
 11
2293.5560535415
 21
4471.5623109733
 31
0.0
  0
LINE
  5
293
330
1F
100
AcDbEntity
  8
0
  6
Continuous
 62
     7
370
    25
100
AcDbLine
 10
2217.3060535415
 20
4686.9191085371
 30
0.0
 11
2337.3060535415
 21
4686.9191085371
 31
0.0
  0
LINE
  5
294
330
1F
100
AcDbEntity
  8
0
  6
Continuous
 62
     7
370
    25
100
AcDbLine
 10
3017.3060535415
 20
4686.9191085371
 30
0.0
 11
3137.3060535415
 21
4686.9191085371
 31
0.0
  0
LINE
  5
295
330
1F
100
AcDbEntity
  8
0
  6
Continuous
 62
     7
370
    25
100
AcDbLine
 10
2952.3060535415
 20
4861.9191085371
 30
0.0
 11
2402.3060535415
 21
4861.9191085371
 31
0.0
  0
LINE
  5
296
330
1F
100
AcDbEntity
  8
0
  6
Continuous
 62
     7
370
    25
100
AcDbLine
 10
2952.3060535415
 20
4711.9191085371
 30
0.0
 11
2402.3060535415
 21
4711.9191085371
 31
0.0
  0
LINE
  5
297
330
1F
100
AcDbEntity
  8
0
  6
Continuous
 62
     7
370
    25
100
AcDbLine
 10
2952.3060535415
 20
4704.4191085371
 30
0.0
 11
2402.3060535415
 21
4704.4191085371
 31
0.0
  0
LINE
  5
298
330
1F
100
AcDbEntity
  8
0
  6
Continuous
 62
     7
370
    25
100
AcDbLine
 10
3927.3060535415
 20
4846.9191085371
 30
0.0
 11
3912.3060535415
 21
4846.9191085371
 31
0.0
  0
LINE
  5
299
330
1F
100
AcDbEntity
  8
0
  6
Continuous
 62
     7
370
    25
100
AcDbLine
 10
3927.3060535415
 20
4846.9191085371
 30
0.0
 11
3927.3060535415
 21
4696.9191085371
 31
0.0
  0
LINE
  5
29A
330
1F
100
AcDbEntity
  8
0
  6
Continuous
 62
     7
370
    25
100
AcDbLine
 10
3927.3060535415
 20
4696.9191085371
 30
0.0
 11
3912.3060535415
 21
4696.9191085371
 31
0.0
  0
LINE
  5
29B
330
1F
100
AcDbEntity
  8
0
  6
Continuous
 62
     7
370
    25
100
AcDbLine
 10
3912.3060535415
 20
4846.9191085371
 30
0.0
 11
3912.3060535415
 21
4696.9191085371
 31
0.0
  0
LINE
  5
29C
330
1F
100
AcDbEntity
  8
0
  6
Continuous
 62
     7
370
    25
100
AcDbLine
 10
2952.3060535415
 20
4711.9191085371
 30
0.0
 11
3912.3060535415
 21
4711.9191085371
 31
0.0
  0
LINE
  5
29D
330
1F
100
AcDbEntity
  8
0
  6
Continuous
 62
     7
370
    25
100
AcDbLine
 10
2952.3060535415
 20
4711.9191085371
 30
0.0
 11
2952.3060535415
 21
4856.9191085371
 31
0.0
  0
LINE
  5
29E
330
1F
100
AcDbEntity
  8
0
  6
Continuous
 62
     7
370
    25
100
AcDbLine
 10
2952.3060535415
 20
4856.9191085371
 30
0.0
 11
3912.3060535415
 21
4856.9191085371
 31
0.0
  0
LINE
  5
29F
330
1F
100
AcDbEntity
  8
0
  6
Continuous
 62
     7
370
    25
100
AcDbLine
 10
3912.3060535415
 20
4846.9191085371
 30
0.0
 11
3912.3060535415
 21
4856.9191085371
 31
0.0
  0
LINE
  5
2A0
330
1F
100
AcDbEntity
  8
0
  6
Continuous
 62
     7
370
    25
100
AcDbLine
 10
2952.3060535415
 20
4856.9191085371
 30
0.0
 11
2952.3060535415
 21
4871.9191085371
 31
0.0
  0
LINE
  5
2A1
330
1F
100
AcDbEntity
  8
0
  6
Continuous
 62
     7
370
    25
100
AcDbLine
 10
2952.3060535415
 20
4871.9191085371
 30
0.0
 11
3912.3060535415
 21
4871.9191085371
 31
0.0
  0
LINE
  5
2A2
330
1F
100
AcDbEntity
  8
0
  6
Continuous
 62
     7
370
    25
100
AcDbLine
 10
3912.3060535415
 20
4856.9191085371
 30
0.0
 11
3912.3060535415
 21
4871.9191085371
 31
0.0
  0
LINE
  5
2A3
330
1F
100
AcDbEntity
  8
0
  6
Continuous
 62
     7
370
    25
100
AcDbLine
 10
2952.3060535415
 20
4696.9191085371
 30
0.0
 11
2952.3060535415
 21
4711.9191085371
 31
0.0
  0
LINE
  5
2A4
330
1F
100
AcDbEntity
  8
0
  6
Continuous
 62
     7
370
    25
100
AcDbLine
 10
2952.3060535415
 20
4696.9191085371
 30
0.0
 11
3912.3060535415
 21
4696.9191085371
 31
0.0
  0
LINE
  5
2A5
330
1F
100
AcDbEntity
  8
0
  6
Continuous
 62
     7
370
    25
100
AcDbLine
 10
1427.3060535415
 20
4696.9191085371
 30
0.0
 11
1442.3060535415
 21
4696.9191085371
 31
0.0
  0
LINE
  5
2A6
330
1F
100
AcDbEntity
  8
0
  6
Continuous
 62
     7
370
    25
100
AcDbLine
 10
1427.3060535415
 20
4846.9191085371
 30
0.0
 11
1427.3060535415
 21
4696.9191085371
 31
0.0
  0
LINE
  5
2A7
330
1F
100
AcDbEntity
  8
0
  6
Continuous
 62
     7
370
    25
100
AcDbLine
 10
1427.3060535415
 20
4846.9191085371
 30
0.0
 11
1442.3060535415
 21
4846.9191085371
 31
0.0
  0
LINE
  5
2A8
330
1F
100
AcDbEntity
  8
0
  6
Continuous
 62
     7
370
    25
100
AcDbLine
 10
1442.3060535415
 20
4846.9191085371
 30
0.0
 11
1442.3060535415
 21
4696.9191085371
 31
0.0
  0
LINE
  5
2A9
330
1F
100
AcDbEntity
  8
0
  6
Continuous
 62
     7
370
    25
100
AcDbLine
 10
2402.3060535415
 20
4871.9191085371
 30
0.0
 11
1442.3060535415
 21
4871.9191085371
 31
0.0
  0
LINE
  5
2AA
330
1F
100
AcDbEntity
  8
0
  6
Continuous
 62
     7
370
    25
100
AcDbLine
 10
2402.3060535415
 20
4856.9191085371
 30
0.0
 11
2402.3060535415
 21
4871.9191085371
 31
0.0
  0
LINE
  5
2AB
330
1F
100
AcDbEntity
  8
0
  6
Continuous
 62
     7
370
    25
100
AcDbLine
 10
2402.3060535415
 20
4856.9191085371
 30
0.0
 11
1442.3060535415
 21
4856.9191085371
 31
0.0
  0
LINE
  5
2AC
330
1F
100
AcDbEntity
  8
0
  6
Continuous
 62
     7
370
    25
100
AcDbLine
 10
1442.3060535415
 20
4856.9191085371
 30
0.0
 11
1442.3060535415
 21
4871.9191085371
 31
0.0
  0
LINE
  5
2AD
330
1F
100
AcDbEntity
  8
0
  6
Continuous
 62
     7
370
    25
100
AcDbLine
 10
1442.3060535415
 20
4846.9191085371
 30
0.0
 11
1442.3060535415
 21
4856.9191085371
 31
0.0
  0
LINE
  5
2AE
330
1F
100
AcDbEntity
  8
0
  6
Continuous
 62
     7
370
    25
100
AcDbLine
 10
2402.3060535415
 20
4711.9191085371
 30
0.0
 11
1442.3060535415
 21
4711.9191085371
 31
0.0
  0
LINE
  5
2AF
330
1F
100
AcDbEntity
  8
0
  6
Continuous
 62
     7
370
    25
100
AcDbLine
 10
2402.3060535415
 20
4711.9191085371
 30
0.0
 11
2402.3060535415
 21
4856.9191085371
 31
0.0
  0
LINE
  5
2B0
330
1F
100
AcDbEntity
  8
0
  6
Continuous
 62
     7
370
    25
100
AcDbLine
 10
2402.3060535415
 20
4696.9191085371
 30
0.0
 11
2402.3060535415
 21
4711.9191085371
 31
0.0
  0
LINE
  5
2B1
330
1F
100
AcDbEntity
  8
0
  6
Continuous
 62
     7
370
    25
100
AcDbLine
 10
2402.3060535415
 20
4696.9191085371
 30
0.0
 11
1442.3060535415
 21
4696.9191085371
 31
0.0
  0
LINE
  5
2B2
330
1F
100
AcDbEntity
  8
0
  6
Continuous
 62
     8
370
    25
100
AcDbLine
 10
2952.3060535415
 20
4846.9191085371
 30
0.0
 11
2402.3060535415
 21
4846.9191085371
 31
0.0
  0
LINE
  5
2B3
330
1F
100
AcDbEntity
  8
0
  6
Continuous
 62
     8
370
    25
100
AcDbLine
 10
2952.3060535415
 20
4726.9191085371
 30
0.0
 11
2402.3060535415
 21
4726.9191085371
 31
0.0
  0
ENDSEC
  0
SECTION
  2
OBJECTS
  0
DICTIONARY
  5
C
330
0
100
AcDbDictionary
281
     1
  3
ACAD_GROUP
350
D
  3
ACAD_LAYOUT
350
1A
  3
ACAD_MLINESTYLE
350
17
  3
ACAD_PLOTSETTINGS
350
19
  3
ACAD_PLOTSTYLENAME
350
E
  3
ACAD_SCALELIST
350
47
  3
DWGPROPS
350
2B4
  0
DICTIONARY
  5
D
102
{ACAD_REACTORS
330
C
102
}
330
C
100
AcDbDictionary
281
     1
  0
DICTIONARY
  5
1A
102
{ACAD_REACTORS
330
C
102
}
330
C
100
AcDbDictionary
281
     1
  3
Layout1
350
1E
  3
Layout2
350
26
  3
Model
350
22
  0
DICTIONARY
  5
17
102
{ACAD_REACTORS
330
C
102
}
330
C
100
AcDbDictionary
281
     1
  3
Standard
350
18
  0
DICTIONARY
  5
19
102
{ACAD_REACTORS
330
C
102
}
330
C
100
AcDbDictionary
281
     1
  0
ACDBDICTIONARYWDFLT
  5
E
102
{ACAD_REACTORS
330
C
102
}
330
C
100
AcDbDictionary
281
     1
  3
Normal
350
F
100
AcDbDictionaryWithDefault
340
F
  0
DICTIONARY
  5
47
102
{ACAD_REACTORS
330
C
102
}
330
C
100
AcDbDictionary
281
     1
  3
A0
350
48
  3
A1
350
49
  3
A2
350
4A
  3
A3
350
4B
  3
A4
350
4C
  3
A5
350
4D
  3
A6
350
4E
  3
A7
350
4F
  3
A8
350
50
  3
A9
350
51
  3
B0
350
52
  3
B1
350
53
  3
B2
350
54
  3
B3
350
55
  3
B4
350
56
  3
B5
350
57
  3
B6
350
58
  3
B7
350
59
  3
B8
350
5A
  3
B9
350
5B
  3
C0
350
5C
  3
C1
350
5D
  3
C2
350
5E
  3
C3
350
5F
  3
C4
350
60
  3
C5
350
61
  3
C6
350
62
  3
C7
350
63
  3
C8
350
64
  3
C9
350
65
  3
D0
350
66
  3
D1
350
67
  3
D2
350
68
  0
XRECORD
  5
2B4
102
{ACAD_REACTORS
330
C
102
}
330
C
100
AcDbXrecord
280
     1
  1
DWGPROPS COOKIE
  2

  3

  4

  6

  7

  8
radek.stransky
  9

300
=
301
=
302
=
303
=
304
=
305
=
306
=
307
=
308
=
309
=
 40
0.0
 41
2459094.540016574
 42
2459094.540016921
  1

 90
        0
  0
LAYOUT
  5
1E
102
{ACAD_REACTORS
330
1A
102
}
330
1A
100
AcDbPlotSettings
  1

  2
none_device
  4

  6

 40
0.0
 41
0.0
 42
0.0
 43
0.0
 44
0.0
 45
0.0
 46
0.0
 47
0.0
 48
0.0
 49
0.0
140
0.0
141
0.0
142
1.0
143
1.0
 70
   688
 72
     1
 73
     0
 74
     5
  7

 75
    16
147
1.0
148
0.0
149
0.0
100
AcDbLayout
  1
Layout1
 70
     1
 71
     1
 10
0.0
 20
0.0
 11
420.0
 21
297.0
 12
0.0
 22
0.0
 32
0.0
 14
1.0000000000E+20
 24
1.0000000000E+20
 34
1.0000000000E+20
 15
-1.0000000000E+20
 25
-1.0000000000E+20
 35
-1.0000000000E+20
146
0.0
 13
0.0
 23
0.0
 33
0.0
 16
1.0
 26
0.0
 36
0.0
 17
0.0
 27
1.0
 37
0.0
 76
     0
330
1B
  0
LAYOUT
  5
26
102
{ACAD_REACTORS
330
1A
102
}
330
1A
100
AcDbPlotSettings
  1

  2
none_device
  4

  6

 40
0.0
 41
0.0
 42
0.0
 43
0.0
 44
0.0
 45
0.0
 46
0.0
 47
0.0
 48
0.0
 49
0.0
140
0.0
141
0.0
142
1.0
143
1.0
 70
   688
 72
     1
 73
     0
 74
     5
  7

 75
    16
147
1.0
148
0.0
149
0.0
100
AcDbLayout
  1
Layout2
 70
     1
 71
     2
 10
0.0
 20
0.0
 11
0.0
 21
0.0
 12
0.0
 22
0.0
 32
0.0
 14
0.0
 24
0.0
 34
0.0
 15
0.0
 25
0.0
 35
0.0
146
0.0
 13
0.0
 23
0.0
 33
0.0
 16
1.0
 26
0.0
 36
0.0
 17
0.0
 27
1.0
 37
0.0
 76
     0
330
23
  0
LAYOUT
  5
22
102
{ACAD_REACTORS
330
1A
102
}
330
1A
100
AcDbPlotSettings
  1

  2
none_device
  4
Letter_(8.50_x_11.00_Inches)
  6

 40
6.35
 41
6.35
 42
6.35000508
 43
6.35000508
 44
215.9
 45
279.4
 46
0.0
 47
0.0
 48
0.0
 49
0.0
140
0.0
141
0.0
142
1.0
143
1.0
 70
  1712
 72
     1
 73
     0
 74
     0
  7

 75
     0
147
1.0
148
0.0
149
0.0
100
AcDbLayout
  1
Model
 70
     1
 71
     0
 10
0.0
 20
0.0
 11
20000.0
 21
10000.0
 12
0.0
 22
0.0
 32
0.0
 14
0.0
 24
0.0
 34
0.0
 15
20000.0
 25
10000.0
 35
0.0
146
0.0
 13
0.0
 23
0.0
 33
0.0
 16
1.0
 26
0.0
 36
0.0
 17
0.0
 27
1.0
 37
0.0
 76
     0
330
1F
331
29
  0
MLINESTYLE
  5
18
102
{ACAD_REACTORS
330
17
102
}
330
17
100
AcDbMlineStyle
  2
Standard
 70
     0
  3

 62
   256
 51
90.0
 52
90.0
 71
     2
 49
0.5
 62
   256
  6
BYLAYER
 49
-0.5
 62
   256
  6
BYLAYER
  0
ACDBPLACEHOLDER
  5
F
102
{ACAD_REACTORS
330
E
102
}
330
E
  0
SCALE
  5
48
102
{ACAD_REACTORS
330
47
102
}
330
47
100
AcDbScale
 70
     0
300
1:1
140
1.0
141
1.0
290
     1
  0
SCALE
  5
49
102
{ACAD_REACTORS
330
47
102
}
330
47
100
AcDbScale
 70
     0
300
1:2
140
1.0
141
2.0
290
     0
  0
SCALE
  5
4A
102
{ACAD_REACTORS
330
47
102
}
330
47
100
AcDbScale
 70
     0
300
1:4
140
1.0
141
4.0
290
     0
  0
SCALE
  5
4B
102
{ACAD_REACTORS
330
47
102
}
330
47
100
AcDbScale
 70
     0
300
1:5
140
1.0
141
5.0
290
     0
  0
SCALE
  5
4C
102
{ACAD_REACTORS
330
47
102
}
330
47
100
AcDbScale
 70
     0
300
1:8
140
1.0
141
8.0
290
     0
  0
SCALE
  5
4D
102
{ACAD_REACTORS
330
47
102
}
330
47
100
AcDbScale
 70
     0
300
1:10
140
1.0
141
10.0
290
     0
  0
SCALE
  5
4E
102
{ACAD_REACTORS
330
47
102
}
330
47
100
AcDbScale
 70
     0
300
1:16
140
1.0
141
16.0
290
     0
  0
SCALE
  5
4F
102
{ACAD_REACTORS
330
47
102
}
330
47
100
AcDbScale
 70
     0
300
1:20
140
1.0
141
20.0
290
     0
  0
SCALE
  5
50
102
{ACAD_REACTORS
330
47
102
}
330
47
100
AcDbScale
 70
     0
300
1:30
140
1.0
141
30.0
290
     0
  0
SCALE
  5
51
102
{ACAD_REACTORS
330
47
102
}
330
47
100
AcDbScale
 70
     0
300
1:40
140
1.0
141
40.0
290
     0
  0
SCALE
  5
52
102
{ACAD_REACTORS
330
47
102
}
330
47
100
AcDbScale
 70
     0
300
1:50
140
1.0
141
50.0
290
     0
  0
SCALE
  5
53
102
{ACAD_REACTORS
330
47
102
}
330
47
100
AcDbScale
 70
     0
300
1:100
140
1.0
141
100.0
290
     0
  0
SCALE
  5
54
102
{ACAD_REACTORS
330
47
102
}
330
47
100
AcDbScale
 70
     0
300
2:1
140
2.0
141
1.0
290
     0
  0
SCALE
  5
55
102
{ACAD_REACTORS
330
47
102
}
330
47
100
AcDbScale
 70
     0
300
4:1
140
4.0
141
1.0
290
     0
  0
SCALE
  5
56
102
{ACAD_REACTORS
330
47
102
}
330
47
100
AcDbScale
 70
     0
300
8:1
140
8.0
141
1.0
290
     0
  0
SCALE
  5
57
102
{ACAD_REACTORS
330
47
102
}
330
47
100
AcDbScale
 70
     0
300
10:1
140
10.0
141
1.0
290
     0
  0
SCALE
  5
58
102
{ACAD_REACTORS
330
47
102
}
330
47
100
AcDbScale
 70
     0
300
100:1
140
100.0
141
1.0
290
     0
  0
SCALE
  5
59
102
{ACAD_REACTORS
330
47
102
}
330
47
100
AcDbScale
 70
     0
300
1/128" = 1'-0"
140
0.0078125
141
12.0
290
     0
  0
SCALE
  5
5A
102
{ACAD_REACTORS
330
47
102
}
330
47
100
AcDbScale
 70
     0
300
1/64" = 1'-0"
140
0.015625
141
12.0
290
     0
  0
SCALE
  5
5B
102
{ACAD_REACTORS
330
47
102
}
330
47
100
AcDbScale
 70
     0
300
1/32" = 1'-0"
140
0.03125
141
12.0
290
     0
  0
SCALE
  5
5C
102
{ACAD_REACTORS
330
47
102
}
330
47
100
AcDbScale
 70
     0
300
1/16" = 1'-0"
140
0.0625
141
12.0
290
     0
  0
SCALE
  5
5D
102
{ACAD_REACTORS
330
47
102
}
330
47
100
AcDbScale
 70
     0
300
3/32" = 1'-0"
140
0.09375
141
12.0
290
     0
  0
SCALE
  5
5E
102
{ACAD_REACTORS
330
47
102
}
330
47
100
AcDbScale
 70
     0
300
1/8" = 1'-0"
140
0.125
141
12.0
290
     0
  0
SCALE
  5
5F
102
{ACAD_REACTORS
330
47
102
}
330
47
100
AcDbScale
 70
     0
300
3/16" = 1'-0"
140
0.1875
141
12.0
290
     0
  0
SCALE
  5
60
102
{ACAD_REACTORS
330
47
102
}
330
47
100
AcDbScale
 70
     0
300
1/4" = 1'-0"
140
0.25
141
12.0
290
     0
  0
SCALE
  5
61
102
{ACAD_REACTORS
330
47
102
}
330
47
100
AcDbScale
 70
     0
300
3/8" = 1'-0"
140
0.375
141
12.0
290
     0
  0
SCALE
  5
62
102
{ACAD_REACTORS
330
47
102
}
330
47
100
AcDbScale
 70
     0
300
1/2" = 1'-0"
140
0.5
141
12.0
290
     0
  0
SCALE
  5
63
102
{ACAD_REACTORS
330
47
102
}
330
47
100
AcDbScale
 70
     0
300
3/4" = 1'-0"
140
0.75
141
12.0
290
     0
  0
SCALE
  5
64
102
{ACAD_REACTORS
330
47
102
}
330
47
100
AcDbScale
 70
     0
300
1" = 1'-0"
140
1.0
141
12.0
290
     0
  0
SCALE
  5
65
102
{ACAD_REACTORS
330
47
102
}
330
47
100
AcDbScale
 70
     0
300
1-1/2" = 1'-0"
140
1.5
141
12.0
290
     0
  0
SCALE
  5
66
102
{ACAD_REACTORS
330
47
102
}
330
47
100
AcDbScale
 70
     0
300
3" = 1'-0"
140
3.0
141
12.0
290
     0
  0
SCALE
  5
67
102
{ACAD_REACTORS
330
47
102
}
330
47
100
AcDbScale
 70
     0
300
6" = 1'-0"
140
6.0
141
12.0
290
     0
  0
SCALE
  5
68
102
{ACAD_REACTORS
330
47
102
}
330
47
100
AcDbScale
 70
     0
300
1'-0" = 1'-0"
140
12.0
141
12.0
290
     0
  0
ENDSEC
  0
EOF
