  0
SECTION
  2
HEADER
  9
$ACADVER
  1
AC1015
  9
$ACADMAINTVER
 70
     6
  9
$DWGCODEPAGE
  3
ANSI_1250
  9
$INSBASE
 10
0.0
 20
0.0
 30
0.0
  9
$EXTMIN
 10
0.0
 20
0.0
 30
0.0
  9
$EXTMAX
 10
20000.0
 20
10000.0
 30
0.0
  9
$LIMMIN
 10
0.0
 20
0.0
  9
$LIMMAX
 10
20000.0
 20
10000.0
  9
$ORTHOMODE
 70
     0
  9
$REGENMODE
 70
     1
  9
$FILLMODE
 70
     1
  9
$QTEXTMODE
 70
     0
  9
$MIRRTEXT
 70
     1
  9
$LTSCALE
 40
1.0
  9
$ATTMODE
 70
     1
  9
$TEXTSIZE
 40
2.0
  9
$TRACEWID
 40
1.0
  9
$TEXTSTYLE
  7
Standard
  9
$CLAYER
  8
0
  9
$CELTYPE
  6
ByLayer
  9
$CECOLOR
 62
   256
  9
$CELTSCALE
 40
1.0
  9
$DISPSILH
 70
     0
  9
$DIMSCALE
 40
1.0
  9
$DIMASZ
 40
2.0
  9
$DIMEXO
 40
1.0
  9
$DIMDLI
 40
3.75
  9
$DIMRND
 40
0.0
  9
$DIMDLE
 40
0.0
  9
$DIMEXE
 40
1.0
  9
$DIMTP
 40
0.0
  9
$DIMTM
 40
0.0
  9
$DIMTXT
 40
2.0
  9
$DIMCEN
 40
2.5
  9
$DIMTSZ
 40
0.0
  9
$DIMTOL
 70
     0
  9
$DIMLIM
 70
     0
  9
$DIMTIH
 70
     1
  9
$DIMTOH
 70
     1
  9
$DIMSE1
 70
     0
  9
$DIMSE2
 70
     0
  9
$DIMTAD
 70
     1
  9
$DIMZIN
 70
     0
  9
$DIMBLK
  1

  9
$DIMASO
 70
     1
  9
$DIMSHO
 70
     1
  9
$DIMPOST
  1

  9
$DIMAPOST
  1

  9
$DIMALT
 70
     0
  9
$DIMALTD
 70
     3
  9
$DIMALTF
 40
0.0393700787
  9
$DIMLFAC
 40
1.0
  9
$DIMTOFL
 70
     1
  9
$DIMTVP
 40
0.0
  9
$DIMTIX
 70
     0
  9
$DIMSOXD
 70
     0
  9
$DIMSAH
 70
     0
  9
$DIMBLK1
  1

  9
$DIMBLK2
  1

  9
$DIMSTYLE
  2
ISO-25
  9
$DIMCLRD
 70
     0
  9
$DIMCLRE
 70
     0
  9
$DIMCLRT
 70
     0
  9
$DIMTFAC
 40
1.0
  9
$DIMGAP
 40
1.524
  9
$DIMJUST
 70
     0
  9
$DIMSD1
 70
     0
  9
$DIMSD2
 70
     0
  9
$DIMTOLJ
 70
     0
  9
$DIMTZIN
 70
     0
  9
$DIMALTZ
 70
     0
  9
$DIMALTTZ
 70
     0
  9
$DIMUPT
 70
     0
  9
$DIMDEC
 70
     2
  9
$DIMTDEC
 70
     0
  9
$DIMALTU
 70
     2
  9
$DIMALTTD
 70
     3
  9
$DIMTXSTY
  7
Standard
  9
$DIMAUNIT
 70
     0
  9
$DIMADEC
 70
     2
  9
$DIMALTRND
 40
0.0
  9
$DIMAZIN
 70
     0
  9
$DIMDSEP
 70
    44
  9
$DIMATFIT
 70
     3
  9
$DIMFRAC
 70
     0
  9
$DIMLDRBLK
  1

  9
$DIMLUNIT
 70
     2
  9
$DIMLWD
 70
    -2
  9
$DIMLWE
 70
    -2
  9
$DIMTMOVE
 70
     0
  9
$LUNITS
 70
     2
  9
$LUPREC
 70
     3
  9
$SKETCHINC
 40
1.0
  9
$FILLETRAD
 40
10.0
  9
$AUNITS
 70
     0
  9
$AUPREC
 70
     2
  9
$MENU
  1
.
  9
$ELEVATION
 40
0.0
  9
$PELEVATION
 40
0.0
  9
$THICKNESS
 40
0.0
  9
$LIMCHECK
 70
     0
  9
$CHAMFERA
 40
0.0
  9
$CHAMFERB
 40
0.0
  9
$CHAMFERC
 40
0.0
  9
$CHAMFERD
 40
0.0
  9
$SKPOLY
 70
     0
  9
$TDCREATE
 40
2458708.624205938
  9
$TDUCREATE
 40
2458708.540872604
  9
$TDUPDATE
 40
2458708.624206296
  9
$TDUUPDATE
 40
2458708.540872963
  9
$TDINDWG
 40
0.0000000116
  9
$TDUSRTIMER
 40
0.0000000116
  9
$USRTIMER
 70
     1
  9
$ANGBASE
 50
0.0
  9
$ANGDIR
 70
     0
  9
$PDMODE
 70
     0
  9
$PDSIZE
 40
-1.0
  9
$PLINEWID
 40
0.0
  9
$SPLFRAME
 70
     0
  9
$SPLINETYPE
 70
     6
  9
$SPLINESEGS
 70
     8
  9
$HANDSEED
  5
273
  9
$SURFTAB1
 70
     6
  9
$SURFTAB2
 70
     6
  9
$SURFTYPE
 70
     6
  9
$SURFU
 70
     6
  9
$SURFV
 70
     6
  9
$UCSBASE
  2

  9
$UCSNAME
  2

  9
$UCSORG
 10
0.0
 20
0.0
 30
0.0
  9
$UCSXDIR
 10
1.0
 20
0.0
 30
0.0
  9
$UCSYDIR
 10
0.0
 20
1.0
 30
0.0
  9
$UCSORTHOREF
  2

  9
$UCSORTHOVIEW
 70
     0
  9
$UCSORGTOP
 10
0.0
 20
0.0
 30
0.0
  9
$UCSORGBOTTOM
 10
0.0
 20
0.0
 30
0.0
  9
$UCSORGLEFT
 10
0.0
 20
0.0
 30
0.0
  9
$UCSORGRIGHT
 10
0.0
 20
0.0
 30
0.0
  9
$UCSORGFRONT
 10
0.0
 20
0.0
 30
0.0
  9
$UCSORGBACK
 10
0.0
 20
0.0
 30
0.0
  9
$PUCSBASE
  2

  9
$PUCSNAME
  2

  9
$PUCSORG
 10
0.0
 20
0.0
 30
0.0
  9
$PUCSXDIR
 10
1.0
 20
0.0
 30
0.0
  9
$PUCSYDIR
 10
0.0
 20
1.0
 30
0.0
  9
$PUCSORTHOREF
  2

  9
$PUCSORTHOVIEW
 70
     0
  9
$PUCSORGTOP
 10
0.0
 20
0.0
 30
0.0
  9
$PUCSORGBOTTOM
 10
0.0
 20
0.0
 30
0.0
  9
$PUCSORGLEFT
 10
0.0
 20
0.0
 30
0.0
  9
$PUCSORGRIGHT
 10
0.0
 20
0.0
 30
0.0
  9
$PUCSORGFRONT
 10
0.0
 20
0.0
 30
0.0
  9
$PUCSORGBACK
 10
0.0
 20
0.0
 30
0.0
  9
$USERI1
 70
     0
  9
$USERI2
 70
     0
  9
$USERI3
 70
     0
  9
$USERI4
 70
     0
  9
$USERI5
 70
     0
  9
$USERR1
 40
0.0
  9
$USERR2
 40
0.0
  9
$USERR3
 40
0.0
  9
$USERR4
 40
0.0
  9
$USERR5
 40
0.0
  9
$WORLDVIEW
 70
     1
  9
$SHADEDGE
 70
     3
  9
$SHADEDIF
 70
    70
  9
$TILEMODE
 70
     1
  9
$MAXACTVP
 70
    64
  9
$PINSBASE
 10
0.0
 20
0.0
 30
0.0
  9
$PLIMCHECK
 70
     0
  9
$PEXTMIN
 10
1.0000000000E+20
 20
1.0000000000E+20
 30
1.0000000000E+20
  9
$PEXTMAX
 10
-1.0000000000E+20
 20
-1.0000000000E+20
 30
-1.0000000000E+20
  9
$PLIMMIN
 10
0.0
 20
0.0
  9
$PLIMMAX
 10
420.0
 20
297.0
  9
$UNITMODE
 70
     0
  9
$VISRETAIN
 70
     1
  9
$PLINEGEN
 70
     0
  9
$PSLTSCALE
 70
     1
  9
$TREEDEPTH
 70
  3020
  9
$CMLSTYLE
  2
Standard
  9
$CMLJUST
 70
     0
  9
$CMLSCALE
 40
20.0
  9
$PROXYGRAPHICS
 70
     1
  9
$MEASUREMENT
 70
     1
  9
$CELWEIGHT
370
    -1
  9
$ENDCAPS
280
     0
  9
$JOINSTYLE
280
     0
  9
$LWDISPLAY
290
     1
  9
$INSUNITS
 70
     4
  9
$HYPERLINKBASE
  1

  9
$STYLESHEET
  1

  9
$XEDIT
290
     1
  9
$CEPSNTYPE
380
     0
  9
$PSTYLEMODE
290
     1
  9
$FINGERPRINTGUID
  2
{C321660B-0267-41A1-976D-4303ED1A30F6}
  9
$VERSIONGUID
  2
{FAEB1C32-E019-11D5-929B-00C0DF256EC4}
  9
$EXTNAMES
290
     1
  9
$PSVPSCALE
 40
0.0
  9
$OLESTARTUP
290
     0
  0
ENDSEC
  0
SECTION
  2
CLASSES
  0
CLASS
  1
ACDBDICTIONARYWDFLT
  2
AcDbDictionaryWithDefault
  3
ObjectDBX Classes
 90
        0
280
     0
281
     0
  0
CLASS
  1
VISUALSTYLE
  2
AcDbVisualStyle
  3
ObjectDBX Classes
 90
     4095
280
     0
281
     0
  0
CLASS
  1
MATERIAL
  2
AcDbMaterial
  3
ObjectDBX Classes
 90
     1153
280
     0
281
     0
  0
CLASS
  1
SCALE
  2
AcDbScale
  3
ObjectDBX Classes
 90
     1153
280
     0
281
     0
  0
CLASS
  1
TABLESTYLE
  2
AcDbTableStyle
  3
ObjectDBX Classes
 90
     4095
280
     0
281
     0
  0
CLASS
  1
MLEADERSTYLE
  2
AcDbMLeaderStyle
  3
ACDB_MLEADERSTYLE_CLASS
 90
     4095
280
     0
281
     0
  0
CLASS
  1
SUN
  2
AcDbSun
  3
SCENEOE
 90
     1153
280
     0
281
     0
  0
CLASS
  1
ACDBPLACEHOLDER
  2
AcDbPlaceHolder
  3
ObjectDBX Classes
 90
        0
280
     0
281
     0
  0
CLASS
  1
LAYOUT
  2
AcDbLayout
  3
ObjectDBX Classes
 90
        0
280
     0
281
     0
  0
ENDSEC
  0
SECTION
  2
TABLES
  0
TABLE
  2
VPORT
  5
8
330
0
100
AcDbSymbolTable
 70
     1
  0
VPORT
  5
29
330
8
100
AcDbSymbolTableRecord
100
AcDbViewportTableRecord
  2
*Active
 70
     0
 10
0.0
 20
0.0
 11
1.0
 21
1.0
 12
10000.0
 22
5000.0
 13
0.0
 23
0.0
 14
10.0
 24
10.0
 15
10.0
 25
10.0
 16
0.0
 26
0.0
 36
1.0
 17
0.0
 27
0.0
 37
0.0
 40
10000.0
 41
2.0
 42
50.0
 43
0.0
 44
0.0
 50
0.0
 51
0.0
 71
     0
 72
  2000
 73
     1
 74
     3
 75
     0
 76
     0
 77
     0
 78
     0
281
     0
 65
     1
110
0.0
120
0.0
130
0.0
111
1.0
121
0.0
131
0.0
112
0.0
122
1.0
132
0.0
 79
     0
146
0.0
  0
ENDTAB
  0
TABLE
  2
LTYPE
  5
5
330
0
100
AcDbSymbolTable
 70
     6
  0
LTYPE
  5
14
330
5
100
AcDbSymbolTableRecord
100
AcDbLinetypeTableRecord
  2
ByBlock
 70
     0
  3

 72
    65
 73
     0
 40
0.0
  0
LTYPE
  5
15
330
5
100
AcDbSymbolTableRecord
100
AcDbLinetypeTableRecord
  2
ByLayer
 70
     0
  3

 72
    65
 73
     0
 40
0.0
  0
LTYPE
  5
16
330
5
100
AcDbSymbolTableRecord
100
AcDbLinetypeTableRecord
  2
Continuous
 70
     0
  3
Solid line
 72
    65
 73
     0
 40
0.0
  0
LTYPE
  5
6E
330
5
100
AcDbSymbolTableRecord
100
AcDbLinetypeTableRecord
  2
HIDDEN
 70
     0
  3
Hidden __ __ __ __ __ __ __ __ __ __ __ __ __ __
 72
    65
 73
     2
 40
1.905
 49
1.27
 74
     0
 49
-0.635
 74
     0
  0
LTYPE
  5
6F
330
5
100
AcDbSymbolTableRecord
100
AcDbLinetypeTableRecord
  2
PHANTOM
 70
     0
  3
Phantom ______  __  __  ______  __  __  ______
 72
    65
 73
     6
 40
12.7
 49
6.35
 74
     0
 49
-1.27
 74
     0
 49
1.27
 74
     0
 49
-1.27
 74
     0
 49
1.27
 74
     0
 49
-1.27
 74
     0
  0
LTYPE
  5
70
330
5
100
AcDbSymbolTableRecord
100
AcDbLinetypeTableRecord
  2
CENTER
 70
     0
  3
Center ____ _ ____ _ ____ _ ____ _ ____ _ ____
 72
    65
 73
     4
 40
10.16
 49
6.35
 74
     0
 49
-1.27
 74
     0
 49
1.27
 74
     0
 49
-1.27
 74
     0
  0
LTYPE
  5
71
330
5
100
AcDbSymbolTableRecord
100
AcDbLinetypeTableRecord
  2
CENTERX2
 70
     0
  3
Center (2x) ________  __  ________  __  _____
 72
    65
 73
     4
 40
20.32
 49
12.7
 74
     0
 49
-2.54
 74
     0
 49
2.54
 74
     0
 49
-2.54
 74
     0
  0
LTYPE
  5
72
330
5
100
AcDbSymbolTableRecord
100
AcDbLinetypeTableRecord
  2
DOT2
 70
     0
  3
Dot (.5x) ........................................
 72
    65
 73
     2
 40
0.635
 49
0.0
 74
     0
 49
-0.635
 74
     0
  0
ENDTAB
  0
TABLE
  2
LAYER
  5
2
330
0
100
AcDbSymbolTable
 70
    13
  0
LAYER
  5
10
330
2
100
AcDbSymbolTableRecord
100
AcDbLayerTableRecord
  2
0
 70
     0
 62
     7
  6
Continuous
370
    -3
390
F
  0
LAYER
  5
73
330
2
100
AcDbSymbolTableRecord
100
AcDbLayerTableRecord
  2
FORMAT
 70
     0
 62
     7
  6
Continuous
370
    -3
390
F
  0
LAYER
  5
74
330
2
100
AcDbSymbolTableRecord
100
AcDbLayerTableRecord
  2
OSA
 70
     0
 62
     7
  6
CENTER
370
    -3
390
F
  0
LAYER
  5
75
330
2
100
AcDbSymbolTableRecord
100
AcDbLayerTableRecord
  2
0_35
 70
     0
 62
     7
  6
Continuous
370
    35
390
F
  0
LAYER
  5
76
330
2
100
AcDbSymbolTableRecord
100
AcDbLayerTableRecord
  2
0_5
 70
     0
 62
     7
  6
Continuous
370
    50
390
F
  0
LAYER
  5
77
330
2
100
AcDbSymbolTableRecord
100
AcDbLayerTableRecord
  2
0_25
 70
     0
 62
     7
  6
Continuous
370
    25
390
F
  0
LAYER
  5
78
330
2
100
AcDbSymbolTableRecord
100
AcDbLayerTableRecord
  2
0_18
 70
     0
 62
     7
  6
Continuous
370
    -3
390
F
  0
LAYER
  5
79
330
2
100
AcDbSymbolTableRecord
100
AcDbLayerTableRecord
  2
SLD-0
 70
     0
 62
   179
  6
Continuous
370
    -3
390
F
  0
LAYER
  5
7A
330
2
100
AcDbSymbolTableRecord
100
AcDbLayerTableRecord
  2
KOTY
 70
     0
 62
     7
  6
Continuous
370
    -3
390
F
  0
LAYER
  5
7B
330
2
100
AcDbSymbolTableRecord
100
AcDbLayerTableRecord
  2
SILNA
 70
     0
 62
   179
  6
Continuous
370
    -3
390
F
  0
LAYER
  5
7C
330
2
100
AcDbSymbolTableRecord
100
AcDbLayerTableRecord
  2
0_18_1
 70
     0
 62
   179
  6
Continuous
370
    -3
390
F
  0
LAYER
  5
7D
330
2
100
AcDbSymbolTableRecord
100
AcDbLayerTableRecord
  2
0_35_1
 70
     0
 62
   179
  6
Continuous
370
    35
390
F
  0
LAYER
  5
7E
330
2
100
AcDbSymbolTableRecord
100
AcDbLayerTableRecord
  2
0_5_1
 70
     0
 62
   179
  6
Continuous
370
    50
390
F
  0
ENDTAB
  0
TABLE
  2
STYLE
  5
3
330
0
100
AcDbSymbolTable
 70
     1
  0
STYLE
  5
11
330
3
100
AcDbSymbolTableRecord
100
AcDbTextStyleTableRecord
  2
Standard
 70
     0
 40
0.0
 41
1.0
 50
0.0
 71
     0
 42
2.0
  3
txt
  4

  0
ENDTAB
  0
TABLE
  2
VIEW
  5
6
330
0
100
AcDbSymbolTable
 70
     0
  0
ENDTAB
  0
TABLE
  2
UCS
  5
7
330
0
100
AcDbSymbolTable
 70
     0
  0
ENDTAB
  0
TABLE
  2
APPID
  5
9
330
0
100
AcDbSymbolTable
 70
     1
  0
APPID
  5
12
330
9
100
AcDbSymbolTableRecord
100
AcDbRegAppTableRecord
  2
ACAD
 70
     0
  0
ENDTAB
  0
TABLE
  2
DIMSTYLE
  5
A
330
0
100
AcDbSymbolTable
 70
     1
100
AcDbDimStyleTable
  0
DIMSTYLE
105
27
330
A
100
AcDbSymbolTableRecord
100
AcDbDimStyleTableRecord
  2
ISO-25
 70
     0
 41
2.5
 42
0.625
 43
3.75
 44
1.25
 73
     0
 74
     0
 77
     1
 78
     8
140
2.5
141
2.5
143
0.0393700787
147
0.625
171
     3
172
     1
178
     0
271
     2
272
     2
274
     3
278
    44
283
     0
284
     8
340
11
  0
ENDTAB
  0
TABLE
  2
BLOCK_RECORD
  5
1
330
0
100
AcDbSymbolTable
 70
     1
  0
BLOCK_RECORD
  5
1F
330
1
100
AcDbSymbolTableRecord
100
AcDbBlockTableRecord
  2
*Model_Space
340
22
  0
BLOCK_RECORD
  5
1B
330
1
100
AcDbSymbolTableRecord
100
AcDbBlockTableRecord
  2
*Paper_Space
340
1E
  0
BLOCK_RECORD
  5
23
330
1
100
AcDbSymbolTableRecord
100
AcDbBlockTableRecord
  2
*Paper_Space0
340
26
  0
ENDTAB
  0
ENDSEC
  0
SECTION
  2
BLOCKS
  0
BLOCK
  5
20
330
1F
100
AcDbEntity
  8
0
100
AcDbBlockBegin
  2
*Model_Space
 70
     0
 10
0.0
 20
0.0
 30
0.0
  3
*Model_Space
  1

  0
ENDBLK
  5
21
330
1F
100
AcDbEntity
  8
0
100
AcDbBlockEnd
  0
BLOCK
  5
1C
330
1B
100
AcDbEntity
 67
     1
  8
0
100
AcDbBlockBegin
  2
*Paper_Space
 70
     0
 10
0.0
 20
0.0
 30
0.0
  3
*Paper_Space
  1

  0
ENDBLK
  5
1D
330
1B
100
AcDbEntity
 67
     1
  8
0
100
AcDbBlockEnd
  0
BLOCK
  5
24
330
23
100
AcDbEntity
  8
0
100
AcDbBlockBegin
  2
*Paper_Space0
 70
     0
 10
0.0
 20
0.0
 30
0.0
  3
*Paper_Space0
  1

  0
ENDBLK
  5
25
330
23
100
AcDbEntity
  8
0
100
AcDbBlockEnd
  0
ENDSEC
  0
SECTION
  2
ENTITIES
  0
ARC
  5
7F
330
1F
100
AcDbEntity
  8
0
  6
Continuous
 62
     7
370
    25
100
AcDbCircle
 10
6274.0187553361
 20
5320.0327879261
 30
0.0
 40
34.16666666666658
100
AcDbArc
 50
73.1717355281
 51
106.8282644719
  0
ARC
  5
80
330
1F
100
AcDbEntity
  8
0
  6
Continuous
 62
     7
370
    25
100
AcDbCircle
 10
6555.7050249997
 20
5079.0202012741
 30
0.0
 40
316.6029881479084
100
AcDbArc
 50
155.2801850408
 51
164.2998465872
  0
LWPOLYLINE
  5
81
330
1F
100
AcDbEntity
  8
0
  6
Continuous
 62
     7
370
    25
100
AcDbPolyline
 90
        9
 70
   128
 43
0.0
 10
6249.95148011
 20
5164.9645309618
 10
6249.969978039
 20
5164.9593304565
 10
6250.0247602954
 20
5164.9439301064
 10
6250.1137220904
 20
5164.9189259579
 10
6250.23344547
 20
5164.8852716854
 10
6250.3793278381
 20
5164.8442674151
 10
6250.5457644954
 20
5164.7974814942
 10
6250.7263591185
 20
5164.7467206886
 10
6250.9141714916
 20
5164.6939258745
  0
ARC
  5
82
330
1F
100
AcDbEntity
  8
0
  6
Continuous
 62
     7
370
    25
100
AcDbCircle
 10
6555.7050249997
 20
5079.0202012741
 30
0.0
 40
317.6029881479088
100
AcDbArc
 50
155.2801850408
 51
164.2998465872
  0
LWPOLYLINE
  5
83
330
1F
100
AcDbEntity
  8
0
  6
Continuous
 62
     7
370
    25
100
AcDbPolyline
 90
        9
 70
   128
 43
0.0
 10
6268.1143918678
 20
5211.4176325222
 10
6267.937178877
 20
5211.4992159141
 10
6267.7667761825
 20
5211.5776635429
 10
6267.6097319134
 20
5211.6499616487
 10
6267.4720819712
 20
5211.7133316306
 10
6267.3591153368
 20
5211.7653376145
 10
6267.2751733705
 20
5211.8039819134
 10
6267.2234821737
 20
5211.8277786022
 10
6267.2060282573
 20
5211.8358140534
  0
ARC
  5
84
330
1F
100
AcDbEntity
  8
0
  6
Continuous
 62
     7
370
    25
100
AcDbCircle
 10
5992.3324856725
 20
5079.0202012741
 30
0.0
 40
316.6029881479073
100
AcDbArc
 50
15.7001534128
 51
24.7198149592
  0
LWPOLYLINE
  5
85
330
1F
100
AcDbEntity
  8
0
  6
Continuous
 62
     7
370
    25
100
AcDbPolyline
 90
        9
 70
   128
 43
0.0
 10
6279.9231188044
 20
5211.4176325222
 10
6280.1003317952
 20
5211.4992159141
 10
6280.2707344897
 20
5211.5776635429
 10
6280.4277787588
 20
5211.6499616487
 10
6280.565428701
 20
5211.7133316306
 10
6280.6783953354
 20
5211.7653376145
 10
6280.7623373017
 20
5211.8039819134
 10
6280.8140284985
 20
5211.8277786022
 10
6280.8314824149
 20
5211.8358140534
  0
ARC
  5
86
330
1F
100
AcDbEntity
  8
0
  6
Continuous
 62
     7
370
    25
100
AcDbCircle
 10
5992.3324856725
 20
5079.0202012741
 30
0.0
 40
317.6029881479079
100
AcDbArc
 50
15.7001534128
 51
24.7198149592
  0
LWPOLYLINE
  5
87
330
1F
100
AcDbEntity
  8
0
  6
Continuous
 62
     7
370
    25
100
AcDbPolyline
 90
        9
 70
   128
 43
0.0
 10
6298.0860305622
 20
5164.9645309618
 10
6298.0675326332
 20
5164.9593304565
 10
6298.0127503768
 20
5164.9439301064
 10
6297.9237885818
 20
5164.9189259579
 10
6297.8040652022
 20
5164.8852716854
 10
6297.6581828341
 20
5164.8442674151
 10
6297.4917461768
 20
5164.7974814942
 10
6297.3111515537
 20
5164.7467206886
 10
6297.1233391806
 20
5164.6939258745
  0
ARC
  5
88
330
1F
100
AcDbEntity
  8
0
  6
Continuous
 62
     7
370
    25
100
AcDbCircle
 10
6274.0187553361
 20
5208.6994545927
 30
0.0
 40
6.499999999999449
100
AcDbArc
 50
24.7198149592
 51
155.2801850408
  0
ARC
  5
89
330
1F
100
AcDbEntity
  8
0
  6
Continuous
 62
     7
370
    25
100
AcDbCircle
 10
6274.0187553361
 20
5208.6994545927
 30
0.0
 40
7.500000000000063
100
AcDbArc
 50
24.7198149592
 51
155.2801850408
  0
ARC
  5
8A
330
1F
100
AcDbEntity
  8
0
  6
Continuous
 62
     7
370
    25
100
AcDbCircle
 10
6274.0187553361
 20
5158.1994545927
 30
0.0
 40
23.99999999999976
100
AcDbArc
 50
164.2998465872
 51
15.7001534128
  0
ARC
  5
8B
330
1F
100
AcDbEntity
  8
0
  6
Continuous
 62
     7
370
    25
100
AcDbCircle
 10
6274.0187553361
 20
5158.1994545927
 30
0.0
 40
25.0000000000002
100
AcDbArc
 50
164.2998465872
 51
15.7001534128
  0
LWPOLYLINE
  5
8C
330
1F
100
AcDbEntity
  8
0
  6
Continuous
 62
     7
370
    25
100
AcDbPolyline
 90
       10
 70
   128
 43
0.0
 10
6372.5433034494
 20
5144.3060490956
 10
6374.48385932
 20
5142.8506303301
 10
6376.2098682716
 20
5141.5561217537
 10
6377.7162192061
 20
5140.4263529649
 10
6378.9984566763
 20
5139.4646767249
 10
6380.0527734354
 20
5138.6739391556
 10
6380.8760551408
 20
5138.0564797392
 10
6381.465858002
 20
5137.614123868
 10
6381.8204460338
 20
5137.3481902948
 10
6381.9387538031
 20
5137.2594538798
  0
LINE
  5
8D
330
1F
100
AcDbEntity
  8
0
  6
Continuous
 62
     7
370
    25
100
AcDbLine
 10
6381.9387538031
 20
5137.2594538798
 30
0.0
 11
6333.8937556043
 21
5073.199458765
 31
0.0
  0
LINE
  5
8E
330
1F
100
AcDbEntity
  8
0
  6
Continuous
 62
     7
370
    25
100
AcDbLine
 10
6333.8937556043
 20
5073.199458765
 30
0.0
 11
6322.8951377466
 21
5073.199458765
 31
0.0
  0
ELLIPSE
  5
8F
330
1F
100
AcDbEntity
  8
0
  6
Continuous
 62
     7
370
    25
100
AcDbEllipse
 10
6055.3156583836
 20
4868.2388371603
 30
0.0
 11
387.0219486055622
 21
495.6885805346675
 31
0.0
210
0.0
220
0.0
230
1.0
 40
0.1576707808
 41
5.257758513575863
 42
5.324686969732277
  0
LINE
  5
90
330
1F
100
AcDbEntity
  8
0
  6
Continuous
 62
     7
370
    25
100
AcDbLine
 10
6372.5433034494
 20
5144.3060490956
 30
0.0
 11
6341.7133522823
 21
5103.1994525066
 31
0.0
  0
LINE
  5
91
330
1F
100
AcDbEntity
  8
0
  6
Continuous
 62
     7
370
    25
100
AcDbLine
 10
6166.0987568691
 20
5137.2594538798
 30
0.0
 11
6214.1437550679
 21
5073.199458765
 31
0.0
  0
LWPOLYLINE
  5
92
330
1F
100
AcDbEntity
  8
0
  6
Continuous
 62
     7
370
    25
100
AcDbPolyline
 90
       10
 70
   128
 43
0.0
 10
6175.4942072228
 20
5144.3060490956
 10
6173.5536513522
 20
5142.8506303301
 10
6171.8276424006
 20
5141.5561217537
 10
6170.3212914661
 20
5140.4263529649
 10
6169.0390539959
 20
5139.4646767249
 10
6167.9847372368
 20
5138.6739391556
 10
6167.1614555314
 20
5138.0564797392
 10
6166.5716526702
 20
5137.614123868
 10
6166.2170646384
 20
5137.3481902948
 10
6166.0987568691
 20
5137.2594538798
  0
LINE
  5
93
330
1F
100
AcDbEntity
  8
0
  6
Continuous
 62
     7
370
    25
100
AcDbLine
 10
6175.4942072228
 20
5144.3060490956
 30
0.0
 11
6206.3241583899
 21
5103.1994525066
 31
0.0
  0
ELLIPSE
  5
94
330
1F
100
AcDbEntity
  8
0
  6
Continuous
 62
     7
370
    25
100
AcDbEllipse
 10
6492.7218522886
 20
4868.2388371603
 30
0.0
 11
-387.0219486055622
 21
495.6885805346675
 31
0.0
210
0.0
220
0.0
230
1.0
 40
0.1576707808
 41
0.9584983374473393
 42
1.025426793603749
  0
LINE
  5
95
330
1F
100
AcDbEntity
  8
0
  6
Continuous
 62
     7
370
    25
100
AcDbLine
 10
6214.1437550679
 20
5073.199458765
 30
0.0
 11
6225.1423729256
 21
5073.199458765
 31
0.0
  0
LINE
  5
96
330
1F
100
AcDbEntity
  8
0
  6
Continuous
 62
     7
370
    25
100
AcDbLine
 10
6276.3827700771
 20
5317.3499334326
 30
0.0
 11
6274.5053651822
 21
5317.3573244085
 31
0.0
  0
LINE
  5
97
330
1F
100
AcDbEntity
  8
0
  6
Continuous
 62
     7
370
    25
100
AcDbLine
 10
6276.0886276744
 20
5318.2368058434
 30
0.0
 11
6276.3827700771
 21
5317.3499334326
 31
0.0
  0
LINE
  5
98
330
1F
100
AcDbEntity
  8
0
  6
Continuous
 62
     7
370
    25
100
AcDbLine
 10
6274.5624158786
 20
5318.2346824279
 30
0.0
 11
6276.0886276744
 21
5318.2368058434
 31
0.0
  0
LINE
  5
99
330
1F
100
AcDbEntity
  8
0
  6
Continuous
 62
     7
370
    25
100
AcDbLine
 10
6274.5603488663
 20
5319.8147941103
 30
0.0
 11
6274.5624158786
 21
5318.2346824279
 31
0.0
  0
LINE
  5
9A
330
1F
100
AcDbEntity
  8
0
  6
Continuous
 62
     7
370
    25
100
AcDbLine
 10
6276.1288319386
 20
5319.8169175258
 30
0.0
 11
6274.5603488663
 21
5319.8147941103
 31
0.0
  0
LINE
  5
9B
330
1F
100
AcDbEntity
  8
0
  6
Continuous
 62
     7
370
    25
100
AcDbLine
 10
6276.1276950266
 20
5320.7101378312
 30
0.0
 11
6276.1288319386
 21
5319.8169175258
 31
0.0
  0
LINE
  5
9C
330
1F
100
AcDbEntity
  8
0
  6
Continuous
 62
     7
370
    25
100
AcDbLine
 10
6273.7136822914
 20
5320.7059059014
 30
0.0
 11
6276.1276950266
 21
5320.7101378312
 31
0.0
  0
LINE
  5
9D
330
1F
100
AcDbEntity
  8
0
  6
Continuous
 62
     7
370
    25
100
AcDbLine
 10
6273.71791978
 20
5318.2177845111
 30
0.0
 11
6273.7136822914
 21
5320.7059059014
 31
0.0
  0
LINE
  5
9E
330
1F
100
AcDbEntity
  8
0
  6
Continuous
 62
     7
370
    25
100
AcDbLine
 10
6273.0469530004
 20
5318.2167041769
 30
0.0
 11
6273.71791978
 21
5318.2177845111
 31
0.0
  0
LINE
  5
9F
330
1F
100
AcDbEntity
  8
0
  6
Continuous
 62
     7
370
    25
100
AcDbLine
 10
6273.0384780232
 20
5320.7048702707
 30
0.0
 11
6273.0469530004
 21
5318.2167041769
 31
0.0
  0
LINE
  5
A0
330
1F
100
AcDbEntity
  8
0
  6
Continuous
 62
     7
370
    25
100
AcDbLine
 10
6272.852184288
 20
5320.7048702707
 30
0.0
 11
6273.0384780232
 21
5320.7048702707
 31
0.0
  0
LINE
  5
A1
330
1F
100
AcDbEntity
  8
0
  6
Continuous
 62
     7
370
    25
100
AcDbLine
 10
6272.059519463
 20
5320.703782486
 30
0.0
 11
6272.852184288
 21
5320.7048702707
 31
0.0
  0
LINE
  5
A2
330
1F
100
AcDbEntity
  8
0
  6
Continuous
 62
     7
370
    25
100
AcDbLine
 10
6272.0626719899
 20
5318.602979528
 30
0.0
 11
6272.059519463
 21
5320.703782486
 31
0.0
  0
LINE
  5
A3
330
1F
100
AcDbEntity
  8
0
  6
Continuous
 62
     7
370
    25
100
AcDbLine
 10
6269.3311075352
 20
5320.7789215913
 30
0.0
 11
6272.0626719899
 21
5318.602979528
 31
0.0
  0
LINE
  5
A4
330
1F
100
AcDbEntity
  8
0
  6
Continuous
 62
     7
370
    25
100
AcDbLine
 10
6269.3470233723
 20
5314.5517039766
 30
0.0
 11
6269.3311075352
 21
5320.7789215913
 31
0.0
  0
LINE
  5
A5
330
1F
100
AcDbEntity
  8
0
  6
Continuous
 62
     7
370
    25
100
AcDbLine
 10
6270.2233010575
 20
5314.5538273921
 30
0.0
 11
6269.3470233723
 21
5314.5517039766
 31
0.0
  0
LINE
  5
A6
330
1F
100
AcDbEntity
  8
0
  6
Continuous
 62
     7
370
    25
100
AcDbLine
 10
6270.2285721105
 20
5318.7278885117
 30
0.0
 11
6270.2233010575
 21
5314.5538273921
 31
0.0
  0
LINE
  5
A7
330
1F
100
AcDbEntity
  8
0
  6
Continuous
 62
     7
370
    25
100
AcDbLine
 10
6272.0806553632
 20
5317.3213530054
 30
0.0
 11
6270.2285721105
 21
5318.7278885117
 31
0.0
  0
LINE
  5
A8
330
1F
100
AcDbEntity
  8
0
  6
Continuous
 62
     7
370
    25
100
AcDbLine
 10
6272.0848928809
 20
5314.541109251
 30
0.0
 11
6272.0806553632
 21
5317.3213530054
 31
0.0
  0
LINE
  5
A9
330
1F
100
AcDbEntity
  8
0
  6
Continuous
 62
     7
370
    25
100
AcDbLine
 10
6272.8606593234
 20
5314.5517039766
 30
0.0
 11
6272.0848928809
 21
5314.541109251
 31
0.0
  0
LINE
  5
AA
330
1F
100
AcDbEntity
  8
0
  6
Continuous
 62
     7
370
    25
100
AcDbLine
 10
6273.032121863
 20
5314.5580593219
 30
0.0
 11
6272.8606593234
 21
5314.5517039766
 31
0.0
  0
LINE
  5
AB
330
1F
100
AcDbEntity
  8
0
  6
Continuous
 62
     7
370
    25
100
AcDbLine
 10
6273.0120194981
 20
5317.339338707
 30
0.0
 11
6273.032121863
 21
5314.5580593219
 31
0.0
  0
LINE
  5
AC
330
1F
100
AcDbEntity
  8
0
  6
Continuous
 62
     7
370
    25
100
AcDbLine
 10
6273.7401404672
 20
5317.3404264918
 30
0.0
 11
6273.0120194981
 21
5317.339338707
 31
0.0
  0
LINE
  5
AD
330
1F
100
AcDbEntity
  8
0
  6
Continuous
 62
     7
370
    25
100
AcDbLine
 10
6273.7443779849
 20
5314.5750093928
 30
0.0
 11
6273.7401404672
 21
5317.3404264918
 31
0.0
  0
LINE
  5
AE
330
1F
100
AcDbEntity
  8
0
  6
Continuous
 62
     7
370
    25
100
AcDbLine
 10
6276.0949322626
 20
5314.5781609883
 30
0.0
 11
6273.7443779849
 21
5314.5750093928
 31
0.0
  0
LINE
  5
AF
330
1F
100
AcDbEntity
  8
0
  6
Continuous
 62
     7
370
    25
100
AcDbLine
 10
6276.0928651921
 20
5315.4777440896
 30
0.0
 11
6276.0949322626
 21
5314.5781609883
 31
0.0
  0
LINE
  5
B0
330
1F
100
AcDbEntity
  8
0
  6
Continuous
 62
     7
370
    25
100
AcDbLine
 10
6274.5084657006
 20
5315.474592494
 30
0.0
 11
6276.0928651921
 21
5315.4777440896
 31
0.0
  0
LINE
  5
B1
330
1F
100
AcDbEntity
  8
0
  6
Continuous
 62
     7
370
    25
100
AcDbLine
 10
6274.5053651822
 20
5317.3573244085
 30
0.0
 11
6274.5084657006
 21
5315.474592494
 31
0.0
  0
SPLINE
  5
B2
330
1F
100
AcDbEntity
  8
0
  6
Continuous
 62
     7
370
    25
100
AcDbSpline
210
0.0
220
0.0
230
1.0
 70
     8
 71
     3
 72
     8
 73
     4
 74
     0
 42
0.000000001
 43
0.00000001
 40
15.0
 40
15.0
 40
15.0
 40
15.0
 40
16.0
 40
16.0
 40
16.0
 40
16.0
 10
6268.652750723901
 20
5319.358647596511
 30
0.0
 10
6268.667530183536
 20
5320.198958062007
 30
0.0
 10
6268.038886384707
 20
5320.841347791824
 30
0.0
 10
6267.235627921166
 20
5320.824397922032
 30
0.0
  0
LINE
  5
B3
330
1F
100
AcDbEntity
  8
0
  6
Continuous
 62
     7
370
    25
100
AcDbLine
 10
6267.235628017
 20
5320.8243999353
 30
0.0
 11
6267.1615240768
 21
5320.8180967441
 31
0.0
  0
LINE
  5
B4
330
1F
100
AcDbEntity
  8
0
  6
Continuous
 62
     7
370
    25
100
AcDbLine
 10
6267.1615240768
 20
5320.8180967441
 30
0.0
 11
6267.1139297679
 21
5320.8180967441
 31
0.0
  0
SPLINE
  5
B5
330
1F
100
AcDbEntity
  8
0
  6
Continuous
 62
     7
370
    25
100
AcDbSpline
210
0.0
220
0.0
230
1.0
 70
     8
 71
     3
 72
     8
 73
     4
 74
     0
 42
0.000000001
 43
0.00000001
 40
2.0
 40
2.0
 40
2.0
 40
2.0
 40
3.0
 40
3.0
 40
3.0
 40
3.0
 10
6267.113929923119
 20
5320.818093397293
 30
0.0
 10
6266.310619783146
 20
5320.8011435275
 30
0.0
 10
6265.7158757239
 20
5320.098395724766
 30
0.0
 10
6265.702078116478
 20
5319.263356255365
 30
0.0
  0
LINE
  5
B6
330
1F
100
AcDbEntity
  8
0
  6
Continuous
 62
     7
370
    25
100
AcDbLine
 10
6265.7020782724
 20
5319.2633542886
 30
0.0
 11
6265.6872991145
 21
5318.1891593805
 31
0.0
  0
LINE
  5
B7
330
1F
100
AcDbEntity
  8
0
  6
Continuous
 62
     7
370
    25
100
AcDbLine
 10
6265.6872991145
 20
5318.1891593805
 30
0.0
 11
6264.9909073159
 21
5318.1881237497
 31
0.0
  0
LINE
  5
B8
330
1F
100
AcDbEntity
  8
0
  6
Continuous
 62
     7
370
    25
100
AcDbLine
 10
6264.9909073159
 20
5318.1881237497
 30
0.0
 11
6265.2745071471
 21
5317.3329833617
 31
0.0
  0
LINE
  5
B9
330
1F
100
AcDbEntity
  8
0
  6
Continuous
 62
     7
370
    25
100
AcDbLine
 10
6265.2745071471
 20
5317.3329833617
 30
0.0
 11
6265.6460089281
 21
5317.3277158013
 31
0.0
  0
LINE
  5
BA
330
1F
100
AcDbEntity
  8
0
  6
Continuous
 62
     7
370
    25
100
AcDbLine
 10
6265.6460089281
 20
5317.3277158013
 30
0.0
 11
6265.6502464458
 21
5314.5517039766
 31
0.0
  0
LINE
  5
BB
330
1F
100
AcDbEntity
  8
0
  6
Continuous
 62
     7
370
    25
100
AcDbLine
 10
6265.6502464458
 20
5314.5517039766
 30
0.0
 11
6266.4693697959
 21
5314.563334333
 31
0.0
  0
LINE
  5
BC
330
1F
100
AcDbEntity
  8
0
  6
Continuous
 62
     7
370
    25
100
AcDbLine
 10
6266.4693697959
 20
5314.563334333
 30
0.0
 11
6266.4651322782
 21
5317.3181492558
 31
0.0
  0
LINE
  5
BD
330
1F
100
AcDbEntity
  8
0
  6
Continuous
 62
     7
370
    25
100
AcDbLine
 10
6266.4651322782
 20
5317.3181492558
 30
0.0
 11
6267.1678798877
 21
5317.324504601
 31
0.0
  0
LINE
  5
BE
330
1F
100
AcDbEntity
  8
0
  6
Continuous
 62
     7
370
    25
100
AcDbLine
 10
6267.1678798877
 20
5317.324504601
 30
0.0
 11
6267.8155923866
 21
5317.3308673968
 31
0.0
  0
LINE
  5
BF
330
1F
100
AcDbEntity
  8
0
  6
Continuous
 62
     7
370
    25
100
AcDbLine
 10
6267.8155923866
 20
5317.3308673968
 30
0.0
 11
6267.80923611
 21
5314.5548555722
 31
0.0
  0
LINE
  5
C0
330
1F
100
AcDbEntity
  8
0
  6
Continuous
 62
     7
370
    25
100
AcDbLine
 10
6267.80923611
 20
5314.5548555722
 30
0.0
 11
6268.649546583
 21
5314.5664859285
 31
0.0
  0
LINE
  5
C1
330
1F
100
AcDbEntity
  8
0
  6
Continuous
 62
     7
370
    25
100
AcDbLine
 10
6268.649546583
 20
5314.5664859285
 30
0.0
 11
6268.6527507983
 21
5319.3586472144
 31
0.0
  0
SPLINE
  5
C2
330
1F
100
AcDbEntity
  8
0
  6
Continuous
 62
     7
370
    25
100
AcDbSpline
210
0.0
220
0.0
230
1.0
 70
     8
 71
     3
 72
     8
 73
     4
 74
     0
 42
0.000000001
 43
0.00000001
 40
14.0
 40
14.0
 40
14.0
 40
14.0
 40
15.0
 40
15.0
 40
15.0
 40
15.0
 10
6263.999236414005
 20
5316.43763720823
 30
0.0
 10
6264.008744877547
 20
5317.00070361448
 30
0.0
 10
6263.502884281843
 20
5317.313966147032
 30
0.0
 10
6262.789542810489
 20
5318.174378744688
 30
0.0
  0
SPLINE
  5
C3
330
1F
100
AcDbEntity
  8
0
  6
Continuous
 62
     7
370
    25
100
AcDbSpline
210
0.0
220
0.0
230
1.0
 70
     8
 71
     3
 72
     8
 73
     4
 74
     0
 42
0.000000001
 43
0.00000001
 40
13.0
 40
13.0
 40
13.0
 40
13.0
 40
14.0
 40
14.0
 40
14.0
 40
14.0
 10
6263.170553145776
 20
5315.473510010964
 30
0.0
 10
6263.85211361127
 20
5315.474595216042
 30
0.0
 10
6263.994998946557
 20
5315.873588949766
 30
0.0
 10
6263.999236414005
 20
5316.43763720823
 30
0.0
  0
LINE
  5
C4
330
1F
100
AcDbEntity
  8
0
  6
Continuous
 62
     7
370
    25
100
AcDbLine
 10
6261.3735051498
 20
5315.4703605642
 30
0.0
 11
6263.1705535248
 21
5315.4735121598
 31
0.0
  0
LINE
  5
C5
330
1F
100
AcDbEntity
  8
0
  6
Continuous
 62
     7
370
    25
100
AcDbLine
 10
6261.3745901406
 20
5314.5400810709
 30
0.0
 11
6261.3735051498
 21
5315.4703605642
 31
0.0
  0
LINE
  5
C6
330
1F
100
AcDbEntity
  8
0
  6
Continuous
 62
     7
370
    25
100
AcDbLine
 10
6263.252047044
 20
5314.5432326665
 30
0.0
 11
6261.3745901406
 21
5314.5400810709
 31
0.0
  0
SPLINE
  5
C7
330
1F
100
AcDbEntity
  8
0
  6
Continuous
 62
     7
370
    25
100
AcDbSpline
210
0.0
220
0.0
230
1.0
 70
     8
 71
     3
 72
     8
 73
     4
 74
     0
 42
0.000000001
 43
0.00000001
 40
9.0
 40
9.0
 40
9.0
 40
9.0
 40
10.0
 40
10.0
 40
10.0
 40
10.0
 10
6264.941142745385
 20
5315.986812012917
 30
0.0
 10
6264.792986414004
 20
5314.997260010964
 30
0.0
 10
6263.730415613224
 20
5314.54323087685
 30
0.0
 10
6263.2520468795
 20
5314.54323087685
 30
0.0
  0
SPLINE
  5
C8
330
1F
100
AcDbEntity
  8
0
  6
Continuous
 62
     7
370
    25
100
AcDbSpline
210
0.0
220
0.0
230
1.0
 70
     8
 71
     3
 72
     8
 73
     4
 74
     0
 42
0.000000001
 43
0.00000001
 40
8.0
 40
8.0
 40
8.0
 40
8.0
 40
9.0
 40
9.0
 40
9.0
 40
9.0
 10
6264.411976078718
 20
5317.810318279193
 30
0.0
 10
6264.65645727989
 20
5317.512920411355
 30
0.0
 10
6265.082994552026
 20
5316.971041342345
 30
0.0
 10
6264.941142745385
 20
5315.986812012917
 30
0.0
  0
SPLINE
  5
C9
330
1F
100
AcDbEntity
  8
0
  6
Continuous
 62
     7
370
    25
100
AcDbSpline
210
0.0
220
0.0
230
1.0
 70
     8
 71
     3
 72
     8
 73
     4
 74
     0
 42
0.000000001
 43
0.00000001
 40
7.0
 40
7.0
 40
7.0
 40
7.0
 40
8.0
 40
8.0
 40
8.0
 40
8.0
 10
6263.543088546166
 20
5318.755428549376
 30
0.0
 10
6264.064865483016
 20
5318.271737143125
 30
0.0
 10
6264.161190352807
 20
5318.123580811745
 30
0.0
 10
6264.411976078718
 20
5317.810318279193
 30
0.0
  0
SPLINE
  5
CA
330
1F
100
AcDbEntity
  8
0
  6
Continuous
 62
     7
370
    25
100
AcDbSpline
210
0.0
220
0.0
230
1.0
 70
     8
 71
     3
 72
     8
 73
     4
 74
     0
 42
0.000000001
 43
0.00000001
 40
6.0
 40
6.0
 40
6.0
 40
6.0
 40
7.0
 40
7.0
 40
7.0
 40
7.0
 10
6262.653065352807
 20
5320.433930746641
 30
0.0
 10
6262.638234216739
 20
5319.663435141172
 30
0.0
 10
6263.005446944604
 20
5319.243305746641
 30
0.0
 10
6263.543088546166
 20
5318.755428549376
 30
0.0
  0
SPLINE
  5
CB
330
1F
100
AcDbEntity
  8
0
  6
Continuous
 62
     7
370
    25
100
AcDbSpline
210
0.0
220
0.0
230
1.0
 70
     8
 71
     3
 72
     8
 73
     4
 74
     0
 42
0.000000001
 43
0.00000001
 40
5.0
 40
5.0
 40
5.0
 40
5.0
 40
6.0
 40
6.0
 40
6.0
 40
6.0
 10
6263.741009281844
 20
5321.313411947813
 30
0.0
 10
6263.146213546166
 20
5321.296462078021
 30
0.0
 10
6262.651980147729
 20
5321.066812012918
 30
0.0
 10
6262.653065352807
 20
5320.433930746641
 30
0.0
  0
LINE
  5
CC
330
1F
100
AcDbEntity
  8
0
  6
Continuous
 62
     7
370
    25
100
AcDbLine
 10
6267.1615240768
 20
5321.3134113422
 30
0.0
 11
6263.7410090908
 21
5321.3134113422
 31
0.0
  0
LINE
  5
CD
330
1F
100
AcDbEntity
  8
0
  6
Continuous
 62
     7
370
    25
100
AcDbLine
 10
6272.8511508692
 20
5321.3165629378
 30
0.0
 11
6267.1615240768
 21
5321.3134113422
 31
0.0
  0
LINE
  5
CE
330
1F
100
AcDbEntity
  8
0
  6
Continuous
 62
     7
370
    25
100
AcDbLine
 10
6279.3387651116
 20
5321.3260698786
 30
0.0
 11
6272.8511508692
 21
5321.3165629378
 31
0.0
  0
LINE
  5
CF
330
1F
100
AcDbEntity
  8
0
  6
Continuous
 62
     7
370
    25
100
AcDbLine
 10
6281.3495985836
 20
5321.3240060678
 30
0.0
 11
6279.3387651116
 21
5321.3260698786
 31
0.0
  0
LINE
  5
D0
330
1F
100
AcDbEntity
  8
0
  6
Continuous
 62
     7
370
    25
100
AcDbLine
 10
6283.1572398215
 20
5321.3271576634
 30
0.0
 11
6281.3495985836
 21
5321.3240060678
 31
0.0
  0
LINE
  5
D1
330
1F
100
AcDbEntity
  8
0
  6
Continuous
 62
     7
370
    25
100
AcDbLine
 10
6283.156103608
 20
5322.2415748706
 30
0.0
 11
6283.1572398215
 21
5321.3271576634
 31
0.0
  0
LINE
  5
D2
330
1F
100
AcDbEntity
  8
0
  6
Continuous
 62
     7
370
    25
100
AcDbLine
 10
6281.3473247595
 20
5322.2383711209
 30
0.0
 11
6283.156103608
 21
5322.2415748706
 31
0.0
  0
LINE
  5
D3
330
1F
100
AcDbEntity
  8
0
  6
Continuous
 62
     7
370
    25
100
AcDbLine
 10
6279.3376284324
 20
5322.2362477055
 30
0.0
 11
6281.3473247595
 21
5322.2383711209
 31
0.0
  0
LINE
  5
D4
330
1F
100
AcDbEntity
  8
0
  6
Continuous
 62
     7
370
    25
100
AcDbLine
 10
6272.8500656456
 20
5322.2256529799
 30
0.0
 11
6279.3376284324
 21
5322.2362477055
 31
0.0
  0
LINE
  5
D5
330
1F
100
AcDbEntity
  8
0
  6
Continuous
 62
     7
370
    25
100
AcDbLine
 10
6267.1594053179
 20
5322.2119066587
 30
0.0
 11
6272.8500656456
 21
5322.2256529799
 31
0.0
  0
LINE
  5
D6
330
1F
100
AcDbEntity
  8
0
  6
Continuous
 62
     7
370
    25
100
AcDbLine
 10
6263.6764656424
 20
5322.2066390982
 30
0.0
 11
6267.1594053179
 21
5322.2119066587
 31
0.0
  0
SPLINE
  5
D7
330
1F
100
AcDbEntity
  8
0
  6
Continuous
 62
     7
370
    25
100
AcDbSpline
210
0.0
220
0.0
230
1.0
 70
     8
 71
     3
 72
     8
 73
     4
 74
     0
 42
0.000000001
 43
0.00000001
 40
16.0
 40
16.0
 40
16.0
 40
16.0
 40
17.0
 40
17.0
 40
17.0
 40
17.0
 10
6261.689971684187
 20
5320.49635587685
 30
0.0
 10
6261.757667810489
 20
5321.672149740782
 30
0.0
 10
6262.714405277938
 20
5322.205553874896
 30
0.0
 10
6263.676465417911
 20
5322.206639079975
 30
0.0
  0
SPLINE
  5
D8
330
1F
100
AcDbEntity
  8
0
  6
Continuous
 62
     7
370
    25
100
AcDbSpline
210
0.0
220
0.0
230
1.0
 70
     8
 71
     3
 72
     8
 73
     4
 74
     0
 42
0.000000001
 43
0.00000001
 40
15.0
 40
15.0
 40
15.0
 40
15.0
 40
16.0
 40
16.0
 40
16.0
 40
16.0
 10
6262.789542810489
 20
5318.174378744688
 30
0.0
 10
6262.075167810489
 20
5319.029520346251
 30
0.0
 10
6261.612715417911
 20
5319.311053549375
 30
0.0
 10
6261.689971684187
 20
5320.49635587685
 30
0.0
  0
ARC
  5
D9
330
1F
100
AcDbEntity
  8
0
  6
Continuous
 62
     7
370
    25
100
AcDbCircle
 10
6274.0187553361
 20
5218.1994545927
 30
0.0
 40
123.1556805031765
100
AcDbArc
 50
323.1301023542
 51
216.8698976458
  0
LINE
  5
DA
330
1F
100
AcDbEntity
  8
0
  6
Continuous
 62
     7
370
    25
100
AcDbLine
 10
6206.3241583899
 20
5103.1994525066
 30
0.0
 11
6341.7133522823
 21
5103.1994525066
 31
0.0
  0
LINE
  5
DB
330
1F
100
AcDbEntity
  8
0
  6
Continuous
 62
     7
370
    25
100
AcDbLine
 10
6277.6062611163
 20
5320.7122612467
 30
0.0
 11
6277.6094650987
 21
5315.3464872112
 31
0.0
  0
LINE
  5
DC
330
1F
100
AcDbEntity
  8
0
  6
Continuous
 62
     7
370
    25
100
AcDbLine
 10
6276.6971694443
 20
5320.7059059014
 30
0.0
 11
6277.6062611163
 21
5320.7122612467
 31
0.0
  0
LINE
  5
DD
330
1F
100
AcDbEntity
  8
0
  6
Continuous
 62
     7
370
    25
100
AcDbLine
 10
6276.7171162784
 20
5314.5686018934
 30
0.0
 11
6276.6971694443
 21
5320.7059059014
 31
0.0
  0
LINE
  5
DE
330
1F
100
AcDbEntity
  8
0
  6
Continuous
 62
     7
370
    25
100
AcDbLine
 10
6279.3492038406
 20
5314.5675737133
 30
0.0
 11
6276.7171162784
 21
5314.5686018934
 31
0.0
  0
LINE
  5
DF
330
1F
100
AcDbEntity
  8
0
  6
Continuous
 62
     7
370
    25
100
AcDbLine
 10
6279.4921409011
 20
5314.5675737133
 30
0.0
 11
6279.3492038406
 21
5314.5675737133
 31
0.0
  0
LINE
  5
E0
330
1F
100
AcDbEntity
  8
0
  6
Continuous
 62
     7
370
    25
100
AcDbLine
 10
6279.4963784188
 20
5315.354965972
 30
0.0
 11
6279.4921409011
 21
5314.5675737133
 31
0.0
  0
LINE
  5
E1
330
1F
100
AcDbEntity
  8
0
  6
Continuous
 62
     7
370
    25
100
AcDbLine
 10
6279.3482734494
 20
5315.3539303413
 30
0.0
 11
6279.4963784188
 21
5315.354965972
 31
0.0
  0
LINE
  5
E2
330
1F
100
AcDbEntity
  8
0
  6
Continuous
 62
     7
370
    25
100
AcDbLine
 10
6277.6094650987
 20
5315.3464872112
 30
0.0
 11
6279.3482734494
 21
5315.3539303413
 31
0.0
  0
SPLINE
  5
E3
330
1F
100
AcDbEntity
  8
0
  6
Continuous
 62
     7
370
    25
100
AcDbSpline
210
0.0
220
0.0
230
1.0
 70
     8
 71
     3
 72
     8
 73
     4
 74
     0
 42
0.000000001
 43
0.00000001
 40
16.0
 40
16.0
 40
16.0
 40
16.0
 40
17.0
 40
17.0
 40
17.0
 40
17.0
 10
6282.861857721948
 20
5319.3639185775
 30
0.0
 10
6282.876740534448
 20
5320.204229042995
 30
0.0
 10
6282.226857721947
 20
5320.857264117865
 30
0.0
 10
6281.424632787051
 20
5320.829720579453
 30
0.0
  0
LINE
  5
E4
330
1F
100
AcDbEntity
  8
0
  6
Continuous
 62
     7
370
    25
100
AcDbLine
 10
6281.4246329151
 20
5320.8297196498
 30
0.0
 11
6281.3072238721
 21
5320.8297196498
 31
0.0
  0
SPLINE
  5
E5
330
1F
100
AcDbEntity
  8
0
  6
Continuous
 62
     7
370
    25
100
AcDbSpline
210
0.0
220
0.0
230
1.0
 70
     8
 71
     3
 72
     8
 73
     4
 74
     0
 42
0.000000001
 43
0.00000001
 40
1.0
 40
1.0
 40
1.0
 40
1.0
 40
2.0
 40
2.0
 40
2.0
 40
2.0
 10
6281.307223932885
 20
5320.829720579453
 30
0.0
 10
6280.509236465437
 20
5320.812770709663
 30
0.0
 10
6279.899661270124
 20
5320.104751910833
 30
0.0
 10
6279.889015925072
 20
5319.269764117866
 30
0.0
  0
LINE
  5
E6
330
1F
100
AcDbEntity
  8
0
  6
Continuous
 62
     7
370
    25
100
AcDbLine
 10
6279.8890161
 20
5319.2697617879
 30
0.0
 11
6279.8752697788
 21
5318.194479095
 31
0.0
  0
LINE
  5
E7
330
1F
100
AcDbEntity
  8
0
  6
Continuous
 62
     7
370
    25
100
AcDbLine
 10
6279.8752697788
 20
5318.194479095
 30
0.0
 11
6279.3440363973
 21
5318.194479095
 31
0.0
  0
LINE
  5
E8
330
1F
100
AcDbEntity
  8
0
  6
Continuous
 62
     7
370
    25
100
AcDbLine
 10
6279.3440363973
 20
5318.194479095
 30
0.0
 11
6279.1947947487
 21
5318.1933987608
 31
0.0
  0
LINE
  5
E9
330
1F
100
AcDbEntity
  8
0
  6
Continuous
 62
     7
370
    25
100
AcDbLine
 10
6279.1947947487
 20
5318.1933987608
 30
0.0
 11
6279.3450696997
 21
5317.7319768539
 31
0.0
  0
LINE
  5
EA
330
1F
100
AcDbEntity
  8
0
  6
Continuous
 62
     7
370
    25
100
AcDbLine
 10
6279.3450696997
 20
5317.7319768539
 30
0.0
 11
6279.4720904574
 21
5317.3383030763
 31
0.0
  0
LINE
  5
EB
330
1F
100
AcDbEntity
  8
0
  6
Continuous
 62
     7
370
    25
100
AcDbLine
 10
6279.4720904574
 20
5317.3383030763
 30
0.0
 11
6279.8393030323
 21
5317.354172813
 31
0.0
  0
LINE
  5
EC
330
1F
100
AcDbEntity
  8
0
  6
Continuous
 62
     7
370
    25
100
AcDbLine
 10
6279.8393030323
 20
5317.354172813
 30
0.0
 11
6279.8382697299
 21
5314.5686018934
 31
0.0
  0
LINE
  5
ED
330
1F
100
AcDbEntity
  8
0
  6
Continuous
 62
     7
370
    25
100
AcDbLine
 10
6279.8382697299
 20
5314.5686018934
 30
0.0
 11
6280.6732572287
 21
5314.5696896782
 31
0.0
  0
LINE
  5
EE
330
1F
100
AcDbEntity
  8
0
  6
Continuous
 62
     7
370
    25
100
AcDbLine
 10
6280.6732572287
 20
5314.5696896782
 30
0.0
 11
6280.6795618169
 21
5317.3340711465
 31
0.0
  0
LINE
  5
EF
330
1F
100
AcDbEntity
  8
0
  6
Continuous
 62
     7
370
    25
100
AcDbLine
 10
6280.6795618169
 20
5317.3340711465
 30
0.0
 11
6281.3548694037
 21
5317.3350993266
 31
0.0
  0
LINE
  5
F0
330
1F
100
AcDbEntity
  8
0
  6
Continuous
 62
     7
370
    25
100
AcDbLine
 10
6281.3548694037
 20
5317.3350993266
 30
0.0
 11
6282.003615205
 21
5317.3361871114
 31
0.0
  0
LINE
  5
F1
330
1F
100
AcDbEntity
  8
0
  6
Continuous
 62
     7
370
    25
100
AcDbLine
 10
6282.003615205
 20
5317.3361871114
 30
0.0
 11
6282.0078527227
 21
5314.5718056431
 31
0.0
  0
LINE
  5
F2
330
1F
100
AcDbEntity
  8
0
  6
Continuous
 62
     7
370
    25
100
AcDbLine
 10
6282.0078527227
 20
5314.5718056431
 30
0.0
 11
6282.8533827931
 21
5314.5728412738
 31
0.0
  0
LINE
  5
F3
330
1F
100
AcDbEntity
  8
0
  6
Continuous
 62
     7
370
    25
100
AcDbLine
 10
6282.8533827931
 20
5314.5728412738
 30
0.0
 11
6282.8618578285
 21
5319.3639222255
 31
0.0
  0
SPLINE
  5
F4
330
1F
100
AcDbEntity
  8
0
  6
Continuous
 62
     7
370
    25
100
AcDbSpline
210
0.0
220
0.0
230
1.0
 70
     8
 71
     3
 72
     8
 73
     4
 74
     0
 42
0.000000001
 43
0.00000001
 40
45.0
 40
45.0
 40
45.0
 40
45.0
 40
46.0
 40
46.0
 40
46.0
 40
46.0
 10
6289.066647020645
 20
5316.863709536746
 30
0.0
 10
6289.043599331843
 20
5318.054851301068
 30
0.0
 10
6288.500169969864
 20
5318.771861799116
 30
0.0
 10
6287.68512927976
 20
5319.605506004845
 30
0.0
  0
LINE
  5
F5
330
1F
100
AcDbEntity
  8
0
  6
Continuous
 62
     7
370
    25
100
AcDbLine
 10
6287.6851290137
 20
5319.6055073013
 30
0.0
 11
6287.6797552824
 21
5319.6001279822
 31
0.0
  0
SPLINE
  5
F6
330
1F
100
AcDbEntity
  8
0
  6
Continuous
 62
     7
370
    25
100
AcDbSpline
210
0.0
220
0.0
230
1.0
 70
     8
 71
     3
 72
     8
 73
     4
 74
     0
 42
0.000000001
 43
0.00000001
 40
1.0
 40
1.0
 40
1.0
 40
1.0
 40
2.0
 40
2.0
 40
2.0
 40
2.0
 10
6287.679754930802
 20
5319.600131655886
 30
0.0
 10
6287.640170783666
 20
5319.566645327761
 30
0.0
 10
6287.601413459448
 20
5319.515950747683
 30
0.0
 10
6287.563482958145
 20
5319.450063296511
 30
0.0
  0
LINE
  5
F7
330
1F
100
AcDbEntity
  8
0
  6
Continuous
 62
     7
370
    25
100
AcDbLine
 10
6287.5634833842
 20
5319.4500658384
 30
0.0
 11
6287.4086603194
 21
5319.5822018852
 31
0.0
  0
SPLINE
  5
F8
330
1F
100
AcDbEntity
  8
0
  6
Continuous
 62
     7
370
    25
100
AcDbSpline
210
0.0
220
0.0
230
1.0
 70
     8
 71
     3
 72
     8
 73
     4
 74
     0
 42
0.000000001
 43
0.00000001
 40
3.0
 40
3.0
 40
3.0
 40
3.0
 40
4.0
 40
4.0
 40
4.0
 40
4.0
 10
6287.408660366999
 20
5319.58219993388
 30
0.0
 10
6287.488965542781
 20
5319.695371320599
 30
0.0
 10
6287.577952359186
 20
5319.786683576459
 30
0.0
 10
6287.679341519343
 20
5319.8606842275
 30
0.0
  0
SPLINE
  5
F9
330
1F
100
AcDbEntity
  8
0
  6
Continuous
 62
     7
370
    25
100
AcDbSpline
210
0.0
220
0.0
230
1.0
 70
     8
 71
     3
 72
     8
 73
     4
 74
     0
 42
0.000000001
 43
0.00000001
 40
4.0
 40
4.0
 40
4.0
 40
4.0
 40
5.0
 40
5.0
 40
5.0
 40
5.0
 10
6287.679341519343
 20
5319.8606842275
 30
0.0
 10
6287.929455451635
 20
5320.038451154584
 30
0.0
 10
6288.261941617
 20
5320.108834455365
 30
0.0
 10
6288.75669177976
 20
5320.117309390261
 30
0.0
  0
LINE
  5
FA
330
1F
100
AcDbEntity
  8
0
  6
Continuous
 62
     7
370
    25
100
AcDbLine
 10
6288.7566920042
 20
5320.1173100343
 30
0.0
 11
6288.7710576549
 21
5320.1117295494
 31
0.0
  0
LINE
  5
FB
330
1F
100
AcDbEntity
  8
0
  6
Continuous
 62
     7
370
    25
100
AcDbLine
 10
6288.7710576549
 20
5320.1117295494
 30
0.0
 11
6288.7772593319
 21
5320.1085257998
 31
0.0
  0
LINE
  5
FC
330
1F
100
AcDbEntity
  8
0
  6
Continuous
 62
     7
370
    25
100
AcDbLine
 10
6288.7772593319
 20
5320.1085257998
 30
0.0
 11
6288.7829431936
 21
5320.1204094758
 31
0.0
  0
SPLINE
  5
FD
330
1F
100
AcDbEntity
  8
0
  6
Continuous
 62
     7
370
    25
100
AcDbSpline
210
0.0
220
0.0
230
1.0
 70
     8
 71
     3
 72
     8
 73
     4
 74
     0
 42
0.000000001
 43
0.00000001
 40
8.0
 40
8.0
 40
8.0
 40
8.0
 40
9.0
 40
9.0
 40
9.0
 40
9.0
 10
6288.782943407364
 20
5320.120409976198
 30
0.0
 10
6288.829555549291
 20
5320.222729312136
 30
0.0
 10
6288.797826219864
 20
5320.331404849245
 30
0.0
 10
6288.752971076635
 20
5320.415327375287
 30
0.0
  0
SPLINE
  5
FE
330
1F
100
AcDbEntity
  8
0
  6
Continuous
 62
     7
370
    25
100
AcDbSpline
210
0.0
220
0.0
230
1.0
 70
     8
 71
     3
 72
     8
 73
     4
 74
     0
 42
0.000000001
 43
0.00000001
 40
9.0
 40
9.0
 40
9.0
 40
9.0
 40
10.0
 40
10.0
 40
10.0
 40
10.0
 10
6288.752971076635
 20
5320.415327375287
 30
0.0
 10
6288.64507068601
 20
5320.766313703412
 30
0.0
 10
6288.585436083145
 20
5320.92005108948
 30
0.0
 10
6288.421931851374
 20
5321.159261294558
 30
0.0
  0
SPLINE
  5
FF
330
1F
100
AcDbEntity
  8
0
  6
Continuous
 62
     7
370
    25
100
AcDbSpline
210
0.0
220
0.0
230
1.0
 70
     8
 71
     3
 72
     8
 73
     4
 74
     0
 42
0.000000001
 43
0.00000001
 40
10.0
 40
10.0
 40
10.0
 40
10.0
 40
11.0
 40
11.0
 40
11.0
 40
11.0
 10
6288.421931851374
 20
5321.159261294558
 30
0.0
 10
6288.788007697729
 20
5321.830021385704
 30
0.0
 10
6289.047733446427
 20
5322.389057030235
 30
0.0
 10
6289.014453824031
 20
5323.143843000287
 30
0.0
  0
SPLINE
  5
100
330
1F
100
AcDbEntity
  8
0
  6
Continuous
 62
     7
370
    25
100
AcDbSpline
210
0.0
220
0.0
230
1.0
 70
     8
 71
     3
 72
     8
 73
     4
 74
     0
 42
0.000000001
 43
0.00000001
 40
11.0
 40
11.0
 40
11.0
 40
11.0
 40
12.0
 40
12.0
 40
12.0
 40
12.0
 10
6289.014453824031
 20
5323.143843000287
 30
0.0
 10
6288.557427456843
 20
5323.105964175417
 30
0.0
 10
6288.089549038875
 20
5322.988245262657
 30
0.0
 10
6287.674793993301
 20
5322.817558006798
 30
0.0
  0
SPLINE
  5
101
330
1F
100
AcDbEntity
  8
0
  6
Continuous
 62
     7
370
    25
100
AcDbSpline
210
0.0
220
0.0
230
1.0
 70
     8
 71
     3
 72
     8
 73
     4
 74
     0
 42
0.000000001
 43
0.00000001
 40
12.0
 40
12.0
 40
12.0
 40
12.0
 40
13.0
 40
13.0
 40
13.0
 40
13.0
 10
6287.674793993301
 20
5322.817558006798
 30
0.0
 10
6287.568753954239
 20
5322.774666567995
 30
0.0
 10
6287.467571499812
 20
5322.726762515261
 30
0.0
 10
6287.366802456843
 20
5322.673639142865
 30
0.0
  0
SPLINE
  5
102
330
1F
100
AcDbEntity
  8
0
  6
Continuous
 62
     7
370
    25
100
AcDbSpline
210
0.0
220
0.0
230
1.0
 70
     8
 71
     3
 72
     8
 73
     4
 74
     0
 42
0.000000001
 43
0.00000001
 40
13.0
 40
13.0
 40
13.0
 40
13.0
 40
14.0
 40
14.0
 40
14.0
 40
14.0
 10
6287.366802456843
 20
5322.673639142865
 30
0.0
 10
6287.340137417781
 20
5322.65751609599
 30
0.0
 10
6287.30809802976
 20
5322.641341372683
 30
0.0
 10
6287.276678758927
 20
5322.620050682579
 30
0.0
  0
SPLINE
  5
103
330
1F
100
AcDbEntity
  8
0
  6
Continuous
 62
     7
370
    25
100
AcDbSpline
210
0.0
220
0.0
230
1.0
 70
     8
 71
     3
 72
     8
 73
     4
 74
     0
 42
0.000000001
 43
0.00000001
 40
14.0
 40
14.0
 40
14.0
 40
14.0
 40
15.0
 40
15.0
 40
15.0
 40
15.0
 10
6287.276678758927
 20
5322.620050682579
 30
0.0
 10
6287.212599982885
 20
5322.582791974896
 30
0.0
 10
6287.148727912572
 20
5322.545326561485
 30
0.0
 10
6287.090850308406
 20
5322.502693504845
 30
0.0
  0
SPLINE
  5
104
330
1F
100
AcDbEntity
  8
0
  6
Continuous
 62
     7
370
    25
100
AcDbSpline
210
0.0
220
0.0
230
1.0
 70
     8
 71
     3
 72
     8
 73
     4
 74
     0
 42
0.000000001
 43
0.00000001
 40
15.0
 40
15.0
 40
15.0
 40
15.0
 40
16.0
 40
16.0
 40
16.0
 40
16.0
 10
6287.090850308406
 20
5322.502693504845
 30
0.0
 10
6286.973441454239
 20
5322.428279442344
 30
0.0
 10
6286.867194709448
 20
5322.337483950808
 30
0.0
 10
6286.771903368302
 20
5322.246998517866
 30
0.0
  0
SPLINE
  5
105
330
1F
100
AcDbEntity
  8
0
  6
Continuous
 62
     7
370
    25
100
AcDbSpline
210
0.0
220
0.0
230
1.0
 70
     8
 71
     3
 72
     8
 73
     4
 74
     0
 42
0.000000001
 43
0.00000001
 40
16.0
 40
16.0
 40
16.0
 40
16.0
 40
17.0
 40
17.0
 40
17.0
 40
17.0
 10
6286.771903368302
 20
5322.246998517866
 30
0.0
 10
6286.670514208146
 20
5322.273456851199
 30
0.0
 10
6286.548454475073
 20
5322.27888287659
 30
0.0
 10
6286.388670946427
 20
5322.278624494427
 30
0.0
  0
LINE
  5
106
330
1F
100
AcDbEntity
  8
0
  6
Continuous
 62
     7
370
    25
100
AcDbLine
 10
6286.3886711791
 20
5322.2786266079
 30
0.0
 11
6286.3566318199
 21
5322.273046123
 31
0.0
  0
SPLINE
  5
107
330
1F
100
AcDbEntity
  8
0
  6
Continuous
 62
     7
370
    25
100
AcDbSpline
210
0.0
220
0.0
230
1.0
 70
     8
 71
     3
 72
     8
 73
     4
 74
     0
 42
0.000000001
 43
0.00000001
 40
18.0
 40
18.0
 40
18.0
 40
18.0
 40
19.0
 40
19.0
 40
19.0
 40
19.0
 10
6286.356631558406
 20
5322.27304343974
 30
0.0
 10
6286.186616096166
 20
5322.272733381147
 30
0.0
 10
6285.968851610489
 20
5322.256403628542
 30
0.0
 10
6285.92647693601
 20
5322.240435610964
 30
0.0
  0
LINE
  5
108
330
1F
100
AcDbEntity
  8
0
  6
Continuous
 62
     7
370
    25
100
AcDbLine
 10
6285.9264772057
 20
5322.2404349318
 30
0.0
 11
6285.8834817678
 21
5322.2723234167
 31
0.0
  0
SPLINE
  5
109
330
1F
100
AcDbEntity
  8
0
  6
Continuous
 62
     7
370
    25
100
AcDbSpline
210
0.0
220
0.0
230
1.0
 70
     8
 71
     3
 72
     8
 73
     4
 74
     0
 42
0.000000001
 43
0.00000001
 40
20.0
 40
20.0
 40
20.0
 40
20.0
 40
21.0
 40
21.0
 40
21.0
 40
21.0
 10
6285.883482144343
 20
5322.272319969688
 30
0.0
 10
6285.543037808406
 20
5322.51116843974
 30
0.0
 10
6285.186470425593
 20
5322.717770816042
 30
0.0
 10
6284.818947639134
 20
5322.866340558881
 30
0.0
  0
SPLINE
  5
10A
330
1F
100
AcDbEntity
  8
0
  6
Continuous
 62
     7
370
    25
100
AcDbSpline
210
0.0
220
0.0
230
1.0
 70
     8
 71
     3
 72
     8
 73
     4
 74
     0
 42
0.000000001
 43
0.00000001
 40
21.0
 40
21.0
 40
21.0
 40
21.0
 40
22.0
 40
22.0
 40
22.0
 40
22.0
 10
6284.818947639134
 20
5322.866340558881
 30
0.0
 10
6284.494522997208
 20
5322.998735578411
 30
0.0
 10
6284.159556363094
 20
5323.088394188438
 30
0.0
 10
6283.808570034968
 20
5323.125549543255
 30
0.0
  0
LINE
  5
10B
330
1F
100
AcDbEntity
  8
0
  6
Continuous
 62
     7
370
    25
100
AcDbLine
 10
6283.8085695773
 20
5323.1255490055
 30
0.0
 11
6283.8085695773
 21
5323.1095302572
 31
0.0
  0
LINE
  5
10C
330
1F
100
AcDbEntity
  8
0
  6
Continuous
 62
     7
370
    25
100
AcDbLine
 10
6283.8085695773
 20
5323.1095302572
 30
0.0
 11
6283.8089830846
 21
5322.833009409
 31
0.0
  0
SPLINE
  5
10D
330
1F
100
AcDbEntity
  8
0
  6
Continuous
 62
     7
370
    25
100
AcDbSpline
210
0.0
220
0.0
230
1.0
 70
     8
 71
     3
 72
     8
 73
     4
 74
     0
 42
0.000000001
 43
0.00000001
 40
24.0
 40
24.0
 40
24.0
 40
24.0
 40
25.0
 40
25.0
 40
25.0
 40
25.0
 10
6283.808983446427
 20
5322.833009260053
 30
0.0
 10
6283.842056363093
 20
5322.115016909792
 30
0.0
 10
6284.092583706843
 20
5321.631377179974
 30
0.0
 10
6284.343111050594
 20
5321.147840803022
 30
0.0
  0
SPLINE
  5
10E
330
1F
100
AcDbEntity
  8
0
  6
Continuous
 62
     7
370
    25
100
AcDbSpline
210
0.0
220
0.0
230
1.0
 70
     8
 71
     3
 72
     8
 73
     4
 74
     0
 42
0.000000001
 43
0.00000001
 40
25.0
 40
25.0
 40
25.0
 40
25.0
 40
26.0
 40
26.0
 40
26.0
 40
26.0
 10
6284.343111050594
 20
5321.147840803022
 30
0.0
 10
6284.198210334447
 20
5320.872870506798
 30
0.0
 10
6284.094340705542
 20
5320.598210269167
 30
0.0
 10
6284.045558153458
 20
5320.353005597944
 30
0.0
  0
LINE
  5
10F
330
1F
100
AcDbEntity
  8
0
  6
Continuous
 62
     7
370
    25
100
AcDbLine
 10
6284.0455585763
 20
5320.3530091515
 30
0.0
 11
6284.0170330971
 21
5320.3011754623
 31
0.0
  0
SPLINE
  5
110
330
1F
100
AcDbEntity
  8
0
  6
Continuous
 62
     7
370
    25
100
AcDbSpline
210
0.0
220
0.0
230
1.0
 70
     8
 71
     3
 72
     8
 73
     4
 74
     0
 42
0.000000001
 43
0.00000001
 40
27.0
 40
27.0
 40
27.0
 40
27.0
 40
28.0
 40
28.0
 40
28.0
 40
28.0
 10
6284.017032762833
 20
5320.301174136355
 30
0.0
 10
6284.002666714656
 20
5320.269186424766
 30
0.0
 10
6283.99646554278
 20
5320.234356509402
 30
0.0
 10
6283.993778368302
 20
5320.232806216433
 30
0.0
  0
SPLINE
  5
111
330
1F
100
AcDbEntity
  8
0
  6
Continuous
 62
     7
370
    25
100
AcDbSpline
210
0.0
220
0.0
230
1.0
 70
     8
 71
     3
 72
     8
 73
     4
 74
     0
 42
0.000000001
 43
0.00000001
 40
28.0
 40
28.0
 40
28.0
 40
28.0
 40
29.0
 40
29.0
 40
29.0
 40
29.0
 10
6283.993778368302
 20
5320.232806216433
 30
0.0
 10
6284.023233934709
 20
5320.229498924766
 30
0.0
 10
6284.053826382625
 20
5320.225571515912
 30
0.0
 10
6284.084315477677
 20
5320.221437401328
 30
0.0
  0
LINE
  5
112
330
1F
100
AcDbEntity
  8
0
  6
Continuous
 62
     7
370
    25
100
AcDbLine
 10
6284.0843155652
 20
5320.2214393487
 30
0.0
 11
6284.1071562514
 21
5320.2184889188
 31
0.0
  0
SPLINE
  5
113
330
1F
100
AcDbEntity
  8
0
  6
Continuous
 62
     7
370
    25
100
AcDbSpline
210
0.0
220
0.0
230
1.0
 70
     8
 71
     3
 72
     8
 73
     4
 74
     0
 42
0.000000001
 43
0.00000001
 40
30.0
 40
30.0
 40
30.0
 40
30.0
 40
31.0
 40
31.0
 40
31.0
 40
31.0
 10
6284.10715646075
 20
5320.218491844688
 30
0.0
 10
6284.361404507625
 20
5320.182525047813
 30
0.0
 10
6284.61048491127
 20
5320.11798118388
 30
0.0
 10
6284.823288459448
 20
5320.021346255495
 30
0.0
  0
SPLINE
  5
114
330
1F
100
AcDbEntity
  8
0
  6
Continuous
 62
     7
370
    25
100
AcDbSpline
210
0.0
220
0.0
230
1.0
 70
     8
 71
     3
 72
     8
 73
     4
 74
     0
 42
0.000000001
 43
0.00000001
 40
31.0
 40
31.0
 40
31.0
 40
31.0
 40
32.0
 40
32.0
 40
32.0
 40
32.0
 10
6284.823288459448
 20
5320.021346255495
 30
0.0
 10
6285.248895555802
 20
5319.825130842084
 30
0.0
 10
6285.52102364825
 20
5319.490474266563
 30
0.0
 10
6285.330337613093
 20
5318.958362043256
 30
0.0
  0
SPLINE
  5
115
330
1F
100
AcDbEntity
  8
0
  6
Continuous
 62
     7
370
    25
100
AcDbSpline
210
0.0
220
0.0
230
1.0
 70
     8
 71
     3
 72
     8
 73
     4
 74
     0
 42
0.000000001
 43
0.00000001
 40
32.0
 40
32.0
 40
32.0
 40
32.0
 40
33.0
 40
33.0
 40
33.0
 40
33.0
 10
6285.330337613093
 20
5318.958362043256
 30
0.0
 10
6285.176755256322
 20
5318.516890282188
 30
0.0
 10
6285.006843146948
 20
5318.293183006798
 30
0.0
 10
6284.826389045385
 20
5317.947622704063
 30
0.0
  0
SPLINE
  5
116
330
1F
100
AcDbEntity
  8
0
  6
Continuous
 62
     7
370
    25
100
AcDbSpline
210
0.0
220
0.0
230
1.0
 70
     8
 71
     3
 72
     8
 73
     4
 74
     0
 42
0.000000001
 43
0.00000001
 40
33.0
 40
33.0
 40
33.0
 40
33.0
 40
34.0
 40
34.0
 40
34.0
 40
34.0
 10
6284.826389045385
 20
5317.947622704063
 30
0.0
 10
6284.67291004148
 20
5317.643661929324
 30
0.0
 10
6284.508578986792
 20
5317.244771548464
 30
0.0
 10
6284.33401599851
 20
5316.526624168906
 30
0.0
  0
SPLINE
  5
117
330
1F
100
AcDbEntity
  8
0
  6
Continuous
 62
     7
370
    25
100
AcDbSpline
210
0.0
220
0.0
230
1.0
 70
     8
 71
     3
 72
     8
 73
     4
 74
     0
 42
0.000000001
 43
0.00000001
 40
34.0
 40
34.0
 40
34.0
 40
34.0
 40
35.0
 40
35.0
 40
35.0
 40
35.0
 10
6284.33401599851
 20
5316.526624168906
 30
0.0
 10
6284.144260139135
 20
5315.702075015261
 30
0.0
 10
6284.36874256101
 20
5314.979121727501
 30
0.0
 10
6284.831660041479
 20
5314.490469383751
 30
0.0
  0
SPLINE
  5
118
330
1F
100
AcDbEntity
  8
0
  6
Continuous
 62
     7
370
    25
100
AcDbSpline
210
0.0
220
0.0
230
1.0
 70
     8
 71
     3
 72
     8
 73
     4
 74
     0
 42
0.000000001
 43
0.00000001
 40
35.0
 40
35.0
 40
35.0
 40
35.0
 40
36.0
 40
36.0
 40
36.0
 40
36.0
 10
6284.831660041479
 20
5314.490469383751
 30
0.0
 10
6285.114330126115
 20
5314.198497541302
 30
0.0
 10
6285.481646206844
 20
5313.986262433881
 30
0.0
 10
6285.896297899551
 20
5313.896758853151
 30
0.0
  0
SPLINE
  5
119
330
1F
100
AcDbEntity
  8
0
  6
Continuous
 62
     7
370
    25
100
AcDbSpline
210
0.0
220
0.0
230
1.0
 70
     8
 71
     3
 72
     8
 73
     4
 74
     0
 42
0.000000001
 43
0.00000001
 40
36.0
 40
36.0
 40
36.0
 40
36.0
 40
37.0
 40
37.0
 40
37.0
 40
37.0
 10
6285.896297899551
 20
5313.896758853151
 30
0.0
 10
6286.061249071427
 20
5313.859810204063
 30
0.0
 10
6286.226200243302
 20
5313.843945539349
 30
0.0
 10
6286.40138334877
 20
5313.844152245078
 30
0.0
  0
LINE
  5
11A
330
1F
100
AcDbEntity
  8
0
  6
Continuous
 62
     7
370
    25
100
AcDbLine
 10
6286.4013837323
 20
5313.8441521397
 30
0.0
 11
6286.4601911649
 21
5313.8442564478
 31
0.0
  0
SPLINE
  5
11B
330
1F
100
AcDbEntity
  8
0
  6
Continuous
 62
     7
370
    25
100
AcDbSpline
210
0.0
220
0.0
230
1.0
 70
     8
 71
     3
 72
     8
 73
     4
 74
     0
 42
0.000000001
 43
0.00000001
 40
38.0
 40
38.0
 40
38.0
 40
38.0
 40
39.0
 40
39.0
 40
39.0
 40
39.0
 10
6286.460191128718
 20
5313.844255597944
 30
0.0
 10
6286.683329963354
 20
5313.850198387657
 30
0.0
 10
6286.901611213354
 20
5313.882444481407
 30
0.0
 10
6287.103872769343
 20
5313.936136294558
 30
0.0
  0
SPLINE
  5
11C
330
1F
100
AcDbEntity
  8
0
  6
Continuous
 62
     7
370
    25
100
AcDbSpline
210
0.0
220
0.0
230
1.0
 70
     8
 71
     3
 72
     8
 73
     4
 74
     0
 42
0.000000001
 43
0.00000001
 40
39.0
 40
39.0
 40
39.0
 40
39.0
 40
40.0
 40
40.0
 40
40.0
 40
40.0
 10
6287.103872769343
 20
5313.936136294558
 30
0.0
 10
6287.167331428198
 20
5313.951794253542
 30
0.0
 10
6287.231513557103
 20
5313.968072329714
 30
0.0
 10
6287.289804572729
 20
5313.989052961224
 30
0.0
  0
SPLINE
  5
11D
330
1F
100
AcDbEntity
  8
0
  6
Continuous
 62
     7
370
    25
100
AcDbSpline
210
0.0
220
0.0
230
1.0
 70
     8
 71
     3
 72
     8
 73
     4
 74
     0
 42
0.000000001
 43
0.00000001
 40
40.0
 40
40.0
 40
40.0
 40
40.0
 40
41.0
 40
41.0
 40
41.0
 40
41.0
 10
6287.289804572729
 20
5313.989052961224
 30
0.0
 10
6287.321223843562
 20
5313.999749982709
 30
0.0
 10
6287.353263231583
 20
5314.010860415651
 30
0.0
 10
6287.38003162351
 20
5314.021299054975
 30
0.0
  0
SPLINE
  5
11E
330
1F
100
AcDbEntity
  8
0
  6
Continuous
 62
     7
370
    25
100
AcDbSpline
210
0.0
220
0.0
230
1.0
 70
     8
 71
     3
 72
     8
 73
     4
 74
     0
 42
0.000000001
 43
0.00000001
 40
41.0
 40
41.0
 40
41.0
 40
41.0
 40
42.0
 40
42.0
 40
42.0
 40
42.0
 10
6287.38003162351
 20
5314.021299054975
 30
0.0
 10
6287.486071662573
 20
5314.064087140912
 30
0.0
 10
6287.592525113094
 20
5314.112146222944
 30
0.0
 10
6287.688023159968
 20
5314.159946922813
 30
0.0
  0
SPLINE
  5
11F
330
1F
100
AcDbEntity
  8
0
  6
Continuous
 62
     7
370
    25
100
AcDbSpline
210
0.0
220
0.0
230
1.0
 70
     8
 71
     3
 72
     8
 73
     4
 74
     0
 42
0.000000001
 43
0.00000001
 40
42.0
 40
42.0
 40
42.0
 40
42.0
 40
43.0
 40
43.0
 40
43.0
 40
43.0
 10
6287.688023159968
 20
5314.159946922813
 30
0.0
 10
6288.448080126114
 20
5314.570464500938
 30
0.0
 10
6288.962467333145
 20
5315.347729719037
 30
0.0
 10
6289.046079800593
 20
5316.363843407188
 30
0.0
  0
SPLINE
  5
120
330
1F
100
AcDbEntity
  8
0
  6
Continuous
 62
     7
370
    25
100
AcDbSpline
210
0.0
220
0.0
230
1.0
 70
     8
 71
     3
 72
     8
 73
     4
 74
     0
 42
0.000000001
 43
0.00000001
 40
43.0
 40
43.0
 40
43.0
 40
43.0
 40
44.0
 40
44.0
 40
44.0
 40
44.0
 10
6289.046079800593
 20
5316.363843407188
 30
0.0
 10
6289.056621792781
 20
5316.4806838206
 30
0.0
 10
6289.067060432104
 20
5316.592304914349
 30
0.0
 10
6289.066853726375
 20
5316.698706688439
 30
0.0
  0
LINE
  5
121
330
1F
100
AcDbEntity
  8
0
  6
Continuous
 62
     7
370
    25
100
AcDbLine
 10
6289.0668540865
 20
5316.6987079849
 30
0.0
 11
6289.0666473329
 21
5316.8637085428
 31
0.0
  0
SPLINE
  5
122
330
1F
100
AcDbEntity
  8
0
  6
Continuous
 62
     7
370
    25
100
AcDbSpline
210
0.0
220
0.0
230
1.0
 70
     8
 71
     3
 72
     8
 73
     4
 74
     0
 42
0.000000001
 43
0.00000001
 40
5.0
 40
5.0
 40
5.0
 40
5.0
 40
6.0
 40
6.0
 40
6.0
 40
6.0
 10
6291.063114097598
 20
5322.461042293451
 30
0.0
 10
6291.062493980411
 20
5322.844068009597
 30
0.0
 10
6290.747991213484
 20
5323.1514911053
 30
0.0
 10
6290.370236493432
 20
5323.156710424962
 30
0.0
  0
LINE
  5
123
330
1F
100
AcDbEntity
  8
0
  6
Continuous
 62
     7
370
    25
100
AcDbLine
 10
6290.3702372357
 20
5323.1567073336
 30
0.0
 11
6290.365275149
 21
5323.1567073336
 31
0.0
  0
SPLINE
  5
124
330
1F
100
AcDbEntity
  8
0
  6
Continuous
 62
     7
370
    25
100
AcDbSpline
210
0.0
220
0.0
230
1.0
 70
     8
 71
     3
 72
     8
 73
     4
 74
     0
 42
0.000000001
 43
0.00000001
 40
1.0
 40
1.0
 40
1.0
 40
1.0
 40
2.0
 40
2.0
 40
2.0
 40
2.0
 10
6290.365275555932
 20
5323.156710424962
 30
0.0
 10
6289.98235319265
 20
5323.156090307773
 30
0.0
 10
6289.679425946557
 20
5322.842052628737
 30
0.0
 10
6289.680046063744
 20
5322.459026912592
 30
0.0
  0
SPLINE
  5
125
330
1F
100
AcDbEntity
  8
0
  6
Continuous
 62
     7
370
    25
100
AcDbSpline
210
0.0
220
0.0
230
1.0
 70
     8
 71
     3
 72
     8
 73
     4
 74
     0
 42
0.000000001
 43
0.00000001
 40
2.0
 40
2.0
 40
2.0
 40
2.0
 40
3.0
 40
3.0
 40
3.0
 40
3.0
 10
6289.680046063744
 20
5322.459026912592
 30
0.0
 10
6289.680666180932
 20
5322.081220516107
 30
0.0
 10
6289.984626955672
 20
5321.773228979649
 30
0.0
 10
6290.367342613224
 20
5321.773797420404
 30
0.0
  0
LINE
  5
126
330
1F
100
AcDbEntity
  8
0
  6
Continuous
 62
     7
370
    25
100
AcDbLine
 10
6290.3673426852
 20
5321.7737976184
 30
0.0
 11
6290.3725096628
 21
5321.7737976184
 31
0.0
  0
SPLINE
  5
127
330
1F
100
AcDbEntity
  8
0
  6
Continuous
 62
     7
370
    25
100
AcDbSpline
210
0.0
220
0.0
230
1.0
 70
     8
 71
     3
 72
     8
 73
     4
 74
     0
 42
0.000000001
 43
0.00000001
 40
4.0
 40
4.0
 40
4.0
 40
4.0
 40
5.0
 40
5.0
 40
5.0
 40
5.0
 10
6290.372510256453
 20
5321.773797420404
 30
0.0
 10
6290.750058270776
 20
5321.774314184728
 30
0.0
 10
6291.063630861921
 20
5322.083339249831
 30
0.0
 10
6291.063114097598
 20
5322.461042293451
 30
0.0
  0
ARC
  5
128
330
1F
100
AcDbEntity
  8
0
  6
Continuous
 62
     7
370
    25
100
AcDbCircle
 10
6274.0187553361
 20
5218.1994545927
 30
0.0
 40
134.9000000000002
100
AcDbArc
 50
323.1301023542
 51
216.8698976458
  0
LINE
  5
129
330
1F
100
AcDbEntity
  8
0
  6
Continuous
 62
     7
370
    25
100
AcDbLine
 10
6322.8951377466
 20
5073.199458765
 30
0.0
 11
6225.1423729256
 21
5073.199458765
 31
0.0
  0
SPLINE
  5
12A
330
1F
100
AcDbEntity
  8
0
  6
Continuous
 62
     7
370
    25
100
AcDbSpline
210
0.0
220
0.0
230
1.0
 70
     8
 71
     3
 72
     8
 73
     4
 74
     0
 42
0.000000001
 43
0.00000001
 40
6.0
 40
6.0
 40
6.0
 40
6.0
 40
7.0
 40
7.0
 40
7.0
 40
7.0
 10
6267.385902986271
 20
5319.96295179573
 30
0.0
 10
6267.827219718041
 20
5320.011630994949
 30
0.0
 10
6267.861119457625
 20
5319.250695529454
 30
0.0
 10
6267.867423982365
 20
5318.522522922031
 30
0.0
  0
LINE
  5
12B
330
1F
100
AcDbEntity
  8
0
  6
Continuous
 62
     7
370
    25
100
AcDbLine
 10
6267.8674242131
 20
5318.5225207081
 30
0.0
 11
6267.8621529274
 21
5318.2082254162
 31
0.0
  0
LINE
  5
12C
330
1F
100
AcDbEntity
  8
0
  6
Continuous
 62
     7
370
    25
100
AcDbLine
 10
6267.8621529274
 20
5318.2082254162
 30
0.0
 11
6267.1657615945
 21
5318.207145082
 31
0.0
  0
LINE
  5
12D
330
1F
100
AcDbEntity
  8
0
  6
Continuous
 62
     7
370
    25
100
AcDbLine
 10
6267.1657615945
 20
5318.207145082
 30
0.0
 11
6266.45882769
 21
5318.2061094513
 31
0.0
  0
LINE
  5
12E
330
1F
100
AcDbEntity
  8
0
  6
Continuous
 62
     7
370
    25
100
AcDbLine
 10
6266.45882769
 20
5318.2061094513
 30
0.0
 11
6266.4577426992
 21
5318.5098621717
 31
0.0
  0
SPLINE
  5
12F
330
1F
100
AcDbEntity
  8
0
  6
Continuous
 62
     7
370
    25
100
AcDbSpline
210
0.0
220
0.0
230
1.0
 70
     8
 71
     3
 72
     8
 73
     4
 74
     0
 42
0.000000001
 43
0.00000001
 40
3.0
 40
3.0
 40
3.0
 40
3.0
 40
4.0
 40
4.0
 40
4.0
 40
4.0
 10
6266.45774258588
 20
5318.509862196121
 30
0.0
 10
6266.446115388614
 20
5319.23798312711
 30
0.0
 10
6266.5890007239
 20
5319.983053927891
 30
0.0
 10
6267.114963451765
 20
5319.978816460443
 30
0.0
  0
LINE
  5
130
330
1F
100
AcDbEntity
  8
0
  6
Continuous
 62
     7
370
    25
100
AcDbLine
 10
6267.114963536
 20
5319.9788186422
 30
0.0
 11
6267.1636428356
 21
5319.9735436311
 31
0.0
  0
LINE
  5
131
330
1F
100
AcDbEntity
  8
0
  6
Continuous
 62
     7
370
    25
100
AcDbLine
 10
6267.1636428356
 20
5319.9735436311
 30
0.0
 11
6267.385902968
 21
5319.9629489055
 31
0.0
  0
SPLINE
  5
132
330
1F
100
AcDbEntity
  8
0
  6
Continuous
 62
     7
370
    25
100
AcDbSpline
210
0.0
220
0.0
230
1.0
 70
     8
 71
     3
 72
     8
 73
     4
 74
     0
 42
0.000000001
 43
0.00000001
 40
6.0
 40
6.0
 40
6.0
 40
6.0
 40
7.0
 40
7.0
 40
7.0
 40
7.0
 10
6281.573874323511
 20
5319.973545449245
 30
0.0
 10
6282.015191055281
 20
5320.016901975938
 30
0.0
 10
6282.054361790958
 20
5319.257051715521
 30
0.0
 10
6282.055395319603
 20
5318.527845579454
 30
0.0
  0
LINE
  5
133
330
1F
100
AcDbEntity
  8
0
  6
Continuous
 62
     7
370
    25
100
AcDbLine
 10
6282.0553948775
 20
5318.5278478732
 30
0.0
 11
6282.0553948775
 21
5318.2145807614
 31
0.0
  0
LINE
  5
134
330
1F
100
AcDbEntity
  8
0
  6
Continuous
 62
     7
370
    25
100
AcDbLine
 10
6282.0553948775
 20
5318.2145807614
 30
0.0
 11
6281.3537327245
 21
5318.2135004273
 31
0.0
  0
LINE
  5
135
330
1F
100
AcDbEntity
  8
0
  6
Continuous
 62
     7
370
    25
100
AcDbLine
 10
6281.3537327245
 20
5318.2135004273
 30
0.0
 11
6280.6457655176
 21
5318.2124647966
 31
0.0
  0
LINE
  5
136
330
1F
100
AcDbEntity
  8
0
  6
Continuous
 62
     7
370
    25
100
AcDbLine
 10
6280.6457655176
 20
5318.2124647966
 30
0.0
 11
6280.6457655176
 21
5318.5151297321
 31
0.0
  0
SPLINE
  5
137
330
1F
100
AcDbEntity
  8
0
  6
Continuous
 62
     7
370
    25
100
AcDbSpline
210
0.0
220
0.0
230
1.0
 70
     8
 71
     3
 72
     8
 73
     4
 74
     0
 42
0.000000001
 43
0.00000001
 40
3.0
 40
3.0
 40
3.0
 40
3.0
 40
4.0
 40
4.0
 40
4.0
 40
4.0
 10
6280.645765599552
 20
5318.51513317711
 30
0.0
 10
6280.644732070906
 20
5319.244339313178
 30
0.0
 10
6280.777023737573
 20
5319.988376585313
 30
0.0
 10
6281.292341120385
 20
5319.984139117865
 30
0.0
  0
LINE
  5
138
330
1F
100
AcDbEntity
  8
0
  6
Continuous
 62
     7
370
    25
100
AcDbLine
 10
6281.2923413373
 20
5319.9841383567
 30
0.0
 11
6281.3506323516
 21
5319.9841383567
 31
0.0
  0
LINE
  5
139
330
1F
100
AcDbEntity
  8
0
  6
Continuous
 62
     7
370
    25
100
AcDbLine
 10
6281.3506323516
 20
5319.9841383567
 30
0.0
 11
6281.5738740981
 21
5319.9735436311
 31
0.0
  0
SPLINE
  5
13A
330
1F
100
AcDbEntity
  8
0
  6
Continuous
 62
     7
370
    25
100
AcDbSpline
210
0.0
220
0.0
230
1.0
 70
     8
 71
     3
 72
     8
 73
     4
 74
     0
 42
0.000000001
 43
0.00000001
 40
28.0
 40
28.0
 40
28.0
 40
28.0
 40
29.0
 40
29.0
 40
29.0
 40
29.0
 10
6285.248792202937
 20
5319.915409569297
 30
0.0
 10
6285.105648485489
 20
5319.99509462789
 30
0.0
 10
6284.966845588354
 20
5320.058708316043
 30
0.0
 10
6284.823081753719
 20
5320.111831688438
 30
0.0
  0
SPLINE
  5
13B
330
1F
100
AcDbEntity
  8
0
  6
Continuous
 62
     7
370
    25
100
AcDbSpline
210
0.0
220
0.0
230
1.0
 70
     8
 71
     3
 72
     8
 73
     4
 74
     0
 42
0.000000001
 43
0.00000001
 40
0.0
 40
0.0
 40
0.0
 40
0.0
 40
1.0
 40
1.0
 40
1.0
 40
1.0
 10
6284.823081753719
 20
5320.111831688438
 30
0.0
 10
6284.605007209448
 20
5320.191103335574
 30
0.0
 10
6284.39220366127
 20
5320.243916649376
 30
0.0
 10
6284.164000536271
 20
5320.254251935834
 30
0.0
  0
SPLINE
  5
13C
330
1F
100
AcDbEntity
  8
0
  6
Continuous
 62
     7
370
    25
100
AcDbSpline
210
0.0
220
0.0
230
1.0
 70
     8
 71
     3
 72
     8
 73
     4
 74
     0
 42
0.000000001
 43
0.00000001
 40
1.0
 40
1.0
 40
1.0
 40
1.0
 40
2.0
 40
2.0
 40
2.0
 40
2.0
 10
6284.164000536271
 20
5320.254251935834
 30
0.0
 10
6284.328124885229
 20
5320.307840396121
 30
0.0
 10
6284.556844774552
 20
5320.297350080365
 30
0.0
 10
6284.822875047988
 20
5320.239110741172
 30
0.0
  0
SPLINE
  5
13D
330
1F
100
AcDbEntity
  8
0
  6
Continuous
 62
     7
370
    25
100
AcDbSpline
210
0.0
220
0.0
230
1.0
 70
     8
 71
     3
 72
     8
 73
     4
 74
     0
 42
0.000000001
 43
0.00000001
 40
3.0
 40
3.0
 40
3.0
 40
3.0
 40
4.0
 40
4.0
 40
4.0
 40
4.0
 10
6285.759458706843
 20
5319.905746076459
 30
0.0
 10
6285.807311083146
 20
5319.975095848595
 30
0.0
 10
6285.849685757625
 20
5320.039122948204
 30
0.0
 10
6285.88678943601
 20
5320.091936262005
 30
0.0
  0
SPLINE
  5
13E
330
1F
100
AcDbEntity
  8
0
  6
Continuous
 62
     7
370
    25
100
AcDbSpline
210
0.0
220
0.0
230
1.0
 70
     8
 71
     3
 72
     8
 73
     4
 74
     0
 42
0.000000001
 43
0.00000001
 40
4.0
 40
4.0
 40
4.0
 40
4.0
 40
5.0
 40
5.0
 40
5.0
 40
5.0
 10
6285.88678943601
 20
5320.091936262005
 30
0.0
 10
6286.061972541479
 20
5320.315746890261
 30
0.0
 10
6286.226923713354
 20
5320.427523013308
 30
0.0
 10
6286.391358120906
 20
5320.4543947581
 30
0.0
  0
SPLINE
  5
13F
330
1F
100
AcDbEntity
  8
0
  6
Continuous
 62
     7
370
    25
100
AcDbSpline
210
0.0
220
0.0
230
1.0
 70
     8
 71
     3
 72
     8
 73
     4
 74
     0
 42
0.000000001
 43
0.00000001
 40
5.0
 40
5.0
 40
5.0
 40
5.0
 40
6.0
 40
6.0
 40
6.0
 40
6.0
 10
6286.391358120906
 20
5320.4543947581
 30
0.0
 10
6286.631343472468
 20
5320.491963524375
 30
0.0
 10
6286.864920946427
 20
5320.348561424767
 30
0.0
 10
6287.094571011531
 20
5320.083357974246
 30
0.0
  0
SPLINE
  5
140
330
1F
100
AcDbEntity
  8
0
  6
Continuous
 62
     7
370
    25
100
AcDbSpline
210
0.0
220
0.0
230
1.0
 70
     8
 71
     3
 72
     8
 73
     4
 74
     0
 42
0.000000001
 43
0.00000001
 40
6.0
 40
6.0
 40
6.0
 40
6.0
 40
7.0
 40
7.0
 40
7.0
 40
7.0
 10
6287.094571011531
 20
5320.083357974246
 30
0.0
 10
6287.121132697729
 20
5320.045892560834
 30
0.0
 10
6287.152655321426
 20
5320.008943911746
 30
0.0
 10
6287.179217007624
 20
5319.971685204063
 30
0.0
  0
SPLINE
  5
141
330
1F
100
AcDbEntity
  8
0
  6
Continuous
 62
     7
370
    25
100
AcDbSpline
210
0.0
220
0.0
230
1.0
 70
     8
 71
     3
 72
     8
 73
     4
 74
     0
 42
0.000000001
 43
0.00000001
 40
7.0
 40
7.0
 40
7.0
 40
7.0
 40
8.0
 40
8.0
 40
8.0
 40
8.0
 10
6287.179217007624
 20
5319.971685204063
 30
0.0
 10
6287.216527391739
 20
5319.987756574506
 30
0.0
 10
6287.24856677976
 20
5320.003776268516
 30
0.0
 10
6287.280709520645
 20
5320.019537580365
 30
0.0
  0
SPLINE
  5
142
330
1F
100
AcDbEntity
  8
0
  6
Continuous
 62
     7
370
    25
100
AcDbSpline
210
0.0
220
0.0
230
1.0
 70
     8
 71
     3
 72
     8
 73
     4
 74
     0
 42
0.000000001
 43
0.00000001
 40
8.0
 40
8.0
 40
8.0
 40
8.0
 40
9.0
 40
9.0
 40
9.0
 40
9.0
 10
6287.280709520645
 20
5320.019537580365
 30
0.0
 10
6287.312025438614
 20
5320.035712303673
 30
0.0
 10
6287.344064826635
 20
5320.046202619427
 30
0.0
 10
6287.370833218562
 20
5320.057002993777
 30
0.0
  0
SPLINE
  5
143
330
1F
100
AcDbEntity
  8
0
  6
Continuous
 62
     7
370
    25
100
AcDbSpline
210
0.0
220
0.0
230
1.0
 70
     8
 71
     3
 72
     8
 73
     4
 74
     0
 42
0.000000001
 43
0.00000001
 40
9.0
 40
9.0
 40
9.0
 40
9.0
 40
10.0
 40
10.0
 40
10.0
 40
10.0
 10
6287.370833218562
 20
5320.057002993777
 30
0.0
 10
6287.471498908666
 20
5320.099739403282
 30
0.0
 10
6287.577952359186
 20
5320.137204816693
 30
0.0
 10
6287.67882475502
 20
5320.163869855755
 30
0.0
  0
SPLINE
  5
144
330
1F
100
AcDbEntity
  8
0
  6
Continuous
 62
     7
370
    25
100
AcDbSpline
210
0.0
220
0.0
230
1.0
 70
     8
 71
     3
 72
     8
 73
     4
 74
     0
 42
0.000000001
 43
0.00000001
 40
10.0
 40
10.0
 40
10.0
 40
10.0
 40
11.0
 40
11.0
 40
11.0
 40
11.0
 10
6287.67882475502
 20
5320.163869855755
 30
0.0
 10
6287.976894416479
 20
5320.238904035444
 30
0.0
 10
6288.290363654761
 20
5320.260504784141
 30
0.0
 10
6288.614788296687
 20
5320.186762515261
 30
0.0
  0
SPLINE
  5
145
330
1F
100
AcDbEntity
  8
0
  6
Continuous
 62
     7
370
    25
100
AcDbSpline
210
0.0
220
0.0
230
1.0
 70
     8
 71
     3
 72
     8
 73
     4
 74
     0
 42
0.000000001
 43
0.00000001
 40
11.0
 40
11.0
 40
11.0
 40
11.0
 40
12.0
 40
12.0
 40
12.0
 40
12.0
 10
6288.614788296687
 20
5320.186762515261
 30
0.0
 10
6288.26917631752
 20
5320.175186994428
 30
0.0
 10
6287.960771369604
 20
5320.095088524376
 30
0.0
 10
6287.679134813614
 20
5319.972563703412
 30
0.0
  0
SPLINE
  5
146
330
1F
100
AcDbEntity
  8
0
  6
Continuous
 62
     7
370
    25
100
AcDbSpline
210
0.0
220
0.0
230
1.0
 70
     8
 71
     3
 72
     8
 73
     4
 74
     0
 42
0.000000001
 43
0.00000001
 40
12.0
 40
12.0
 40
12.0
 40
12.0
 40
13.0
 40
13.0
 40
13.0
 40
13.0
 10
6287.679134813614
 20
5319.972563703412
 30
0.0
 10
6287.573094774551
 20
5319.924401268517
 30
0.0
 10
6287.471912320124
 20
5319.871174543256
 30
0.0
 10
6287.371143277156
 20
5319.81758608297
 30
0.0
  0
SPLINE
  5
147
330
1F
100
AcDbEntity
  8
0
  6
Continuous
 62
     7
370
    25
100
AcDbSpline
210
0.0
220
0.0
230
1.0
 70
     8
 71
     3
 72
     8
 73
     4
 74
     0
 42
0.000000001
 43
0.00000001
 40
13.0
 40
13.0
 40
13.0
 40
13.0
 40
14.0
 40
14.0
 40
14.0
 40
14.0
 10
6287.371143277156
 20
5319.81758608297
 30
0.0
 10
6287.344478238094
 20
5319.796450422162
 30
0.0
 10
6287.312438850073
 20
5319.775159732058
 30
0.0
 10
6287.281019579239
 20
5319.759295067344
 30
0.0
  0
SPLINE
  5
148
330
1F
100
AcDbEntity
  8
0
  6
Continuous
 62
     7
370
    25
100
AcDbSpline
210
0.0
220
0.0
230
1.0
 70
     8
 71
     3
 72
     8
 73
     4
 74
     0
 42
0.000000001
 43
0.00000001
 40
14.0
 40
14.0
 40
14.0
 40
14.0
 40
15.0
 40
15.0
 40
15.0
 40
15.0
 10
6287.281019579239
 20
5319.759295067344
 30
0.0
 10
6287.216940803198
 20
5319.716403628542
 30
0.0
 10
6287.158649787573
 20
5319.673873924766
 30
0.0
 10
6287.095191128718
 20
5319.631240868126
 30
0.0
  0
SPLINE
  5
149
330
1F
100
AcDbEntity
  8
0
  6
Continuous
 62
     7
370
    25
100
AcDbSpline
210
0.0
220
0.0
230
1.0
 70
     8
 71
     3
 72
     8
 73
     4
 74
     0
 42
0.000000001
 43
0.00000001
 40
15.0
 40
15.0
 40
15.0
 40
15.0
 40
16.0
 40
16.0
 40
16.0
 40
16.0
 10
6287.095191128718
 20
5319.631240868126
 30
0.0
 10
6286.797431525854
 20
5319.407481916302
 30
0.0
 10
6286.611396369603
 20
5319.465617902631
 30
0.0
 10
6286.552795295385
 20
5319.465514549766
 30
0.0
  0
SPLINE
  5
14A
330
1F
100
AcDbEntity
  8
0
  6
Continuous
 62
     7
370
    25
100
AcDbSpline
210
0.0
220
0.0
230
1.0
 70
     8
 71
     3
 72
     8
 73
     4
 74
     0
 42
0.000000001
 43
0.00000001
 40
16.0
 40
16.0
 40
16.0
 40
16.0
 40
17.0
 40
17.0
 40
17.0
 40
17.0
 10
6286.552795295385
 20
5319.465514549766
 30
0.0
 10
6286.494194221166
 20
5319.465411196901
 30
0.0
 10
6286.483548876114
 20
5319.661936668906
 30
0.0
 10
6286.573465868302
 20
5319.662040021772
 30
0.0
  0
LINE
  5
14B
330
1F
100
AcDbEntity
  8
0
  6
Continuous
 62
     7
370
    25
100
AcDbLine
 10
6286.573466067
 20
5319.6620423069
 30
0.0
 11
6286.6959387109
 21
5319.6622434726
 31
0.0
  0
SPLINE
  5
14C
330
1F
100
AcDbEntity
  8
0
  6
Continuous
 62
     7
370
    25
100
AcDbSpline
210
0.0
220
0.0
230
1.0
 70
     8
 71
     3
 72
     8
 73
     4
 74
     0
 42
0.000000001
 43
0.00000001
 40
18.0
 40
18.0
 40
18.0
 40
18.0
 40
19.0
 40
19.0
 40
19.0
 40
19.0
 10
6286.695939012833
 20
5319.662246727501
 30
0.0
 10
6286.72787504799
 20
5319.662246727501
 30
0.0
 10
6286.770146369604
 20
5319.689221825157
 30
0.0
 10
6286.770146369604
 20
5319.726377179974
 30
0.0
  0
SPLINE
  5
14D
330
1F
100
AcDbEntity
  8
0
  6
Continuous
 62
     7
370
    25
100
AcDbSpline
210
0.0
220
0.0
230
1.0
 70
     8
 71
     3
 72
     8
 73
     4
 74
     0
 42
0.000000001
 43
0.00000001
 40
19.0
 40
19.0
 40
19.0
 40
19.0
 40
20.0
 40
20.0
 40
20.0
 40
20.0
 10
6286.770146369604
 20
5319.726377179974
 30
0.0
 10
6286.770146369604
 20
5319.763842593386
 30
0.0
 10
6286.72766834226
 20
5319.790197573854
 30
0.0
 10
6286.695732307104
 20
5319.790197573854
 30
0.0
  0
LINE
  5
14E
330
1F
100
AcDbEntity
  8
0
  6
Continuous
 62
     7
370
    25
100
AcDbLine
 10
6286.6957319573
 20
5319.7901997438
 30
0.0
 11
6286.3923918128
 21
5319.7896782031
 31
0.0
  0
SPLINE
  5
14F
330
1F
100
AcDbEntity
  8
0
  6
Continuous
 62
     7
370
    25
100
AcDbSpline
210
0.0
220
0.0
230
1.0
 70
     8
 71
     3
 72
     8
 73
     4
 74
     0
 42
0.000000001
 43
0.00000001
 40
22.0
 40
22.0
 40
22.0
 40
22.0
 40
23.0
 40
23.0
 40
23.0
 40
23.0
 10
6286.206563199031
 20
5319.789319074505
 30
0.0
 10
6286.179794807103
 20
5319.789319074505
 30
0.0
 10
6286.131839077937
 20
5319.757589745079
 30
0.0
 10
6286.131942430802
 20
5319.72539532776
 30
0.0
  0
SPLINE
  5
150
330
1F
100
AcDbEntity
  8
0
  6
Continuous
 62
     7
370
    25
100
AcDbSpline
210
0.0
220
0.0
230
1.0
 70
     8
 71
     3
 72
     8
 73
     4
 74
     0
 42
0.000000001
 43
0.00000001
 40
23.0
 40
23.0
 40
23.0
 40
23.0
 40
24.0
 40
24.0
 40
24.0
 40
24.0
 10
6286.131942430802
 20
5319.72539532776
 30
0.0
 10
6286.131942430802
 20
5319.688188296511
 30
0.0
 10
6286.16460193601
 20
5319.661368228152
 30
0.0
 10
6286.20676990476
 20
5319.661368228152
 30
0.0
  0
LINE
  5
151
330
1F
100
AcDbEntity
  8
0
  6
Continuous
 62
     7
370
    25
100
AcDbLine
 10
6286.2067699104
 20
5319.6613717547
 30
0.0
 11
6286.323868823
 21
5319.6615729203
 31
0.0
  0
SPLINE
  5
152
330
1F
100
AcDbEntity
  8
0
  6
Continuous
 62
     7
370
    25
100
AcDbSpline
210
0.0
220
0.0
230
1.0
 70
     8
 71
     3
 72
     8
 73
     4
 74
     0
 42
0.000000001
 43
0.00000001
 40
25.0
 40
25.0
 40
25.0
 40
25.0
 40
26.0
 40
26.0
 40
26.0
 40
26.0
 10
6286.323868700333
 20
5319.661574933881
 30
0.0
 10
6286.398076057104
 20
5319.661729963178
 30
0.0
 10
6286.398386115698
 20
5319.470682192995
 30
0.0
 10
6286.324178758927
 20
5319.470578840131
 30
0.0
  0
SPLINE
  5
153
330
1F
100
AcDbEntity
  8
0
  6
Continuous
 62
     7
370
    25
100
AcDbSpline
210
0.0
220
0.0
230
1.0
 70
     8
 71
     3
 72
     8
 73
     4
 74
     0
 42
0.000000001
 43
0.00000001
 40
26.0
 40
26.0
 40
26.0
 40
26.0
 40
27.0
 40
27.0
 40
27.0
 40
27.0
 10
6286.324178758927
 20
5319.470578840131
 30
0.0
 10
6286.196331265437
 20
5319.470372134401
 30
0.0
 10
6286.047296434708
 20
5319.517862775678
 30
0.0
 10
6285.887616258927
 20
5319.586799136355
 30
0.0
  0
LINE
  5
154
330
1F
100
AcDbEntity
  8
0
  6
Continuous
 62
     7
370
    25
100
AcDbLine
 10
6286.3923918128
 20
5319.7896782031
 30
0.0
 11
6286.2065631568
 21
5319.7893205753
 31
0.0
  0
SPLINE
  5
155
330
1F
100
AcDbEntity
  8
0
  6
Continuous
 62
     7
370
    25
100
AcDbSpline
210
0.0
220
0.0
230
1.0
 70
     8
 71
     3
 72
     8
 73
     4
 74
     0
 42
0.000000001
 43
0.00000001
 40
2.0
 40
2.0
 40
2.0
 40
2.0
 40
3.0
 40
3.0
 40
3.0
 40
3.0
 10
6284.822875047988
 20
5320.239110741172
 30
0.0
 10
6285.099550666479
 20
5320.175755435183
 30
0.0
 10
6285.424492072729
 20
5320.059431786094
 30
0.0
 10
6285.759458706843
 20
5319.905746076459
 30
0.0
  0
SPLINE
  5
156
330
1F
100
AcDbEntity
  8
0
  6
Continuous
 62
     7
370
    25
100
AcDbSpline
210
0.0
220
0.0
230
1.0
 70
     8
 71
     3
 72
     8
 73
     4
 74
     0
 42
0.000000001
 43
0.00000001
 40
27.0
 40
27.0
 40
27.0
 40
27.0
 40
28.0
 40
28.0
 40
28.0
 40
28.0
 10
6285.887616258927
 20
5319.586799136355
 30
0.0
 10
6285.680290412573
 20
5319.676922834272
 30
0.0
 10
6285.456428107885
 20
5319.809576235964
 30
0.0
 10
6285.248792202937
 20
5319.915409569297
 30
0.0
  0
SPLINE
  5
157
330
1F
100
AcDbEntity
  8
0
  6
Continuous
 62
     7
370
    25
100
AcDbSpline
210
0.0
220
0.0
230
1.0
 70
     8
 71
     3
 72
     8
 73
     4
 74
     0
 42
0.000000001
 43
0.00000001
 40
17.0
 40
17.0
 40
17.0
 40
17.0
 40
18.0
 40
18.0
 40
18.0
 40
18.0
 10
6286.837635790176
 20
5313.967555565391
 30
0.0
 10
6286.741827684707
 20
5313.940477114871
 30
0.0
 10
6286.619767951634
 20
5313.929780093386
 30
0.0
 10
6286.45481677976
 20
5313.924044009402
 30
0.0
  0
SPLINE
  5
158
330
1F
100
AcDbEntity
  8
0
  6
Continuous
 62
     7
370
    25
100
AcDbSpline
210
0.0
220
0.0
230
1.0
 70
     8
 71
     3
 72
     8
 73
     4
 74
     0
 42
0.000000001
 43
0.00000001
 40
0.0
 40
0.0
 40
0.0
 40
0.0
 40
1.0
 40
1.0
 40
1.0
 40
1.0
 10
6286.45481677976
 20
5313.924044009402
 30
0.0
 10
6286.458950894344
 20
5314.652733381146
 30
0.0
 10
6286.373064663874
 20
5315.359925357057
 30
0.0
 10
6286.403553758927
 20
5316.077762678021
 30
0.0
  0
LINE
  5
159
330
1F
100
AcDbEntity
  8
0
  6
Continuous
 62
     7
370
    25
100
AcDbLine
 10
6286.4035537139
 20
5316.0777616968
 30
0.0
 11
6286.3981790513
 21
5316.0403970351
 31
0.0
  0
SPLINE
  5
15A
330
1F
100
AcDbEntity
  8
0
  6
Continuous
 62
     7
370
    25
100
AcDbSpline
210
0.0
220
0.0
230
1.0
 70
     8
 71
     3
 72
     8
 73
     4
 74
     0
 42
0.000000001
 43
0.00000001
 40
2.0
 40
2.0
 40
2.0
 40
2.0
 40
3.0
 40
3.0
 40
3.0
 40
3.0
 10
6286.398179409969
 20
5316.040400617474
 30
0.0
 10
6286.261133511532
 20
5315.364886294557
 30
0.0
 10
6286.363142788875
 20
5314.753450747683
 30
0.0
 10
6286.36438302325
 20
5313.929470034793
 30
0.0
  0
SPLINE
  5
15B
330
1F
100
AcDbEntity
  8
0
  6
Continuous
 62
     7
370
    25
100
AcDbSpline
210
0.0
220
0.0
230
1.0
 70
     8
 71
     3
 72
     8
 73
     4
 74
     0
 42
0.000000001
 43
0.00000001
 40
3.0
 40
3.0
 40
3.0
 40
3.0
 40
4.0
 40
4.0
 40
4.0
 40
4.0
 10
6286.36438302325
 20
5313.929470034793
 30
0.0
 10
6286.242219937312
 20
5313.929263329063
 30
0.0
 10
6286.135869839656
 20
5313.944921288048
 30
0.0
 10
6285.991795946427
 20
5313.971172915652
 30
0.0
  0
SPLINE
  5
15C
330
1F
100
AcDbEntity
  8
0
  6
Continuous
 62
     7
370
    25
100
AcDbSpline
210
0.0
220
0.0
230
1.0
 70
     8
 71
     3
 72
     8
 73
     4
 74
     0
 42
0.000000001
 43
0.00000001
 40
4.0
 40
4.0
 40
4.0
 40
4.0
 40
5.0
 40
5.0
 40
5.0
 40
5.0
 10
6285.991795946427
 20
5313.971172915652
 30
0.0
 10
6286.058355191219
 20
5315.859119692996
 30
0.0
 10
6286.014120165177
 20
5317.22596132711
 30
0.0
 10
6285.889683316219
 20
5318.167040835574
 30
0.0
  0
SPLINE
  5
15D
330
1F
100
AcDbEntity
  8
0
  6
Continuous
 62
     7
370
    25
100
AcDbSpline
210
0.0
220
0.0
230
1.0
 70
     8
 71
     3
 72
     8
 73
     4
 74
     0
 42
0.000000001
 43
0.00000001
 40
5.0
 40
5.0
 40
5.0
 40
5.0
 40
6.0
 40
6.0
 40
6.0
 40
6.0
 10
6285.889683316219
 20
5318.167040835574
 30
0.0
 10
6285.782299689917
 20
5319.022905907188
 30
0.0
 10
6285.600812059708
 20
5319.528043032839
 30
0.0
 10
6285.361033413874
 20
5319.756452863568
 30
0.0
  0
SPLINE
  5
15E
330
1F
100
AcDbEntity
  8
0
  6
Continuous
 62
     7
370
    25
100
AcDbSpline
210
0.0
220
0.0
230
1.0
 70
     8
 71
     3
 72
     8
 73
     4
 74
     0
 42
0.000000001
 43
0.00000001
 40
6.0
 40
6.0
 40
6.0
 40
6.0
 40
7.0
 40
7.0
 40
7.0
 40
7.0
 10
6285.361033413874
 20
5319.756452863568
 30
0.0
 10
6285.509861538874
 20
5319.735265526328
 30
0.0
 10
6285.696413459447
 20
5319.597031069949
 30
0.0
 10
6285.887822964656
 20
5319.469855370078
 30
0.0
  0
SPLINE
  5
15F
330
1F
100
AcDbEntity
  8
0
  6
Continuous
 62
     7
370
    25
100
AcDbSpline
210
0.0
220
0.0
230
1.0
 70
     8
 71
     3
 72
     8
 73
     4
 74
     0
 42
0.000000001
 43
0.00000001
 40
7.0
 40
7.0
 40
7.0
 40
7.0
 40
8.0
 40
8.0
 40
8.0
 40
8.0
 10
6285.887822964656
 20
5319.469855370078
 30
0.0
 10
6286.058561896947
 20
5319.358389305626
 30
0.0
 10
6286.234158413874
 20
5319.257723615521
 30
0.0
 10
6286.393218472468
 20
5319.236484601849
 30
0.0
  0
LINE
  5
160
330
1F
100
AcDbEntity
  8
0
  6
Continuous
 62
     7
370
    25
100
AcDbLine
 10
6286.3932188272
 20
5319.236487495
 30
0.0
 11
6286.4307352945
 21
5319.2314732542
 31
0.0
  0
SPLINE
  5
161
330
1F
100
AcDbEntity
  8
0
  6
Continuous
 62
     7
370
    25
100
AcDbSpline
210
0.0
220
0.0
230
1.0
 70
     8
 71
     3
 72
     8
 73
     4
 74
     0
 42
0.000000001
 43
0.00000001
 40
9.0
 40
9.0
 40
9.0
 40
9.0
 40
10.0
 40
10.0
 40
10.0
 40
10.0
 10
6286.430735562311
 20
5319.231471987918
 30
0.0
 10
6286.654081102677
 20
5319.231937075808
 30
0.0
 10
6286.882697639136
 20
5319.386242902631
 30
0.0
 10
6287.095397834448
 20
5319.530368472292
 30
0.0
  0
SPLINE
  5
162
330
1F
100
AcDbEntity
  8
0
  6
Continuous
 62
     7
370
    25
100
AcDbSpline
210
0.0
220
0.0
230
1.0
 70
     8
 71
     3
 72
     8
 73
     4
 74
     0
 42
0.000000001
 43
0.00000001
 40
10.0
 40
10.0
 40
10.0
 40
10.0
 40
11.0
 40
11.0
 40
11.0
 40
11.0
 10
6287.095397834448
 20
5319.530368472292
 30
0.0
 10
6287.158753140437
 20
5319.572794823203
 30
0.0
 10
6287.222831916479
 20
5319.615376203412
 30
0.0
 10
6287.281226284968
 20
5319.652789940391
 30
0.0
  0
SPLINE
  5
163
330
1F
100
AcDbEntity
  8
0
  6
Continuous
 62
     7
370
    25
100
AcDbSpline
210
0.0
220
0.0
230
1.0
 70
     8
 71
     3
 72
     8
 73
     4
 74
     0
 42
0.000000001
 43
0.00000001
 40
11.0
 40
11.0
 40
11.0
 40
11.0
 40
12.0
 40
12.0
 40
12.0
 40
12.0
 10
6287.281226284968
 20
5319.652789940391
 30
0.0
 10
6287.312542202937
 20
5319.674080630495
 30
0.0
 10
6287.344581590958
 20
5319.690048648074
 30
0.0
 10
6287.371349982885
 20
5319.706378400678
 30
0.0
  0
SPLINE
  5
164
330
1F
100
AcDbEntity
  8
0
  6
Continuous
 62
     7
370
    25
100
AcDbSpline
210
0.0
220
0.0
230
1.0
 70
     8
 71
     3
 72
     8
 73
     4
 74
     0
 42
0.000000001
 43
0.00000001
 40
12.0
 40
12.0
 40
12.0
 40
12.0
 40
13.0
 40
13.0
 40
13.0
 40
13.0
 10
6287.371349982885
 20
5319.706378400678
 30
0.0
 10
6287.397808316219
 20
5319.716765363569
 30
0.0
 10
6287.424163296687
 20
5319.732733381146
 30
0.0
 10
6287.445557339656
 20
5319.738107730105
 30
0.0
  0
SPLINE
  5
165
330
1F
100
AcDbEntity
  8
0
  6
Continuous
 62
     7
370
    25
100
AcDbSpline
210
0.0
220
0.0
230
1.0
 70
     8
 71
     3
 72
     8
 73
     4
 74
     0
 42
0.000000001
 43
0.00000001
 40
13.0
 40
13.0
 40
13.0
 40
13.0
 40
14.0
 40
14.0
 40
14.0
 40
14.0
 10
6287.445557339656
 20
5319.738107730105
 30
0.0
 10
6287.424163296687
 20
5319.716765363569
 30
0.0
 10
6287.397808316219
 20
5319.690152000939
 30
0.0
 10
6287.37145333575
 20
5319.663176903282
 30
0.0
  0
SPLINE
  5
166
330
1F
100
AcDbEntity
  8
0
  6
Continuous
 62
     7
370
    25
100
AcDbSpline
210
0.0
220
0.0
230
1.0
 70
     8
 71
     3
 72
     8
 73
     4
 74
     0
 42
0.000000001
 43
0.00000001
 40
14.0
 40
14.0
 40
14.0
 40
14.0
 40
15.0
 40
15.0
 40
15.0
 40
15.0
 10
6287.37145333575
 20
5319.663176903282
 30
0.0
 10
6287.339310594863
 20
5319.626124901329
 30
0.0
 10
6287.312645555801
 20
5319.588917870079
 30
0.0
 10
6287.281329637833
 20
5319.546439842735
 30
0.0
  0
SPLINE
  5
167
330
1F
100
AcDbEntity
  8
0
  6
Continuous
 62
     7
370
    25
100
AcDbSpline
210
0.0
220
0.0
230
1.0
 70
     8
 71
     3
 72
     8
 73
     4
 74
     0
 42
0.000000001
 43
0.00000001
 40
15.0
 40
15.0
 40
15.0
 40
15.0
 40
16.0
 40
16.0
 40
16.0
 40
16.0
 10
6287.281329637833
 20
5319.546439842735
 30
0.0
 10
6287.212289924291
 20
5319.445050682579
 30
0.0
 10
6287.148314501114
 20
5319.333532941693
 30
0.0
 10
6287.095914598771
 20
5319.200466128543
 30
0.0
  0
SPLINE
  5
168
330
1F
100
AcDbEntity
  8
0
  6
Continuous
 62
     7
370
    25
100
AcDbSpline
210
0.0
220
0.0
230
1.0
 70
     8
 71
     3
 72
     8
 73
     4
 74
     0
 42
0.000000001
 43
0.00000001
 40
16.0
 40
16.0
 40
16.0
 40
16.0
 40
17.0
 40
17.0
 40
17.0
 40
17.0
 10
6287.095914598771
 20
5319.200466128543
 30
0.0
 10
6286.698212775854
 20
5318.253392153933
 30
0.0
 10
6286.6794025545
 20
5316.482389142865
 30
0.0
 10
6286.837635790176
 20
5313.967555565391
 30
0.0
  0
SPLINE
  5
169
330
1F
100
AcDbEntity
  8
0
  6
Continuous
 62
     7
370
    25
100
AcDbSpline
210
0.0
220
0.0
230
1.0
 70
     8
 71
     3
 72
     8
 73
     4
 74
     0
 42
0.000000001
 43
0.00000001
 40
0.0
 40
0.0
 40
0.0
 40
0.0
 40
1.0
 40
1.0
 40
1.0
 40
1.0
 10
6287.68781645424
 20
5314.287794416303
 30
0.0
 10
6287.592318407364
 20
5314.234360985313
 30
0.0
 10
6287.491342658666
 20
5314.186301903283
 30
0.0
 10
6287.379824917781
 20
5314.138397850548
 30
0.0
  0
SPLINE
  5
16A
330
1F
100
AcDbEntity
  8
0
  6
Continuous
 62
     7
370
    25
100
AcDbSpline
210
0.0
220
0.0
230
1.0
 70
     8
 71
     3
 72
     8
 73
     4
 74
     0
 42
0.000000001
 43
0.00000001
 40
1.0
 40
1.0
 40
1.0
 40
1.0
 40
2.0
 40
2.0
 40
2.0
 40
2.0
 10
6287.379824917781
 20
5314.138397850548
 30
0.0
 10
6287.353056525853
 20
5314.127597476198
 30
0.0
 10
6287.321017137833
 20
5314.111681135053
 30
0.0
 10
6287.289701219864
 20
5314.100880760703
 30
0.0
  0
SPLINE
  5
16B
330
1F
100
AcDbEntity
  8
0
  6
Continuous
 62
     7
370
    25
100
AcDbSpline
210
0.0
220
0.0
230
1.0
 70
     8
 71
     3
 72
     8
 73
     4
 74
     0
 42
0.000000001
 43
0.00000001
 40
2.0
 40
2.0
 40
2.0
 40
2.0
 40
3.0
 40
3.0
 40
3.0
 40
3.0
 10
6287.289701219864
 20
5314.100880760703
 30
0.0
 10
6287.231306851375
 20
5314.079435041303
 30
0.0
 10
6287.167124722468
 20
5314.058247704063
 30
0.0
 10
6287.103769416479
 20
5314.036853661094
 30
0.0
  0
SPLINE
  5
16C
330
1F
100
AcDbEntity
  8
0
  6
Continuous
 62
     7
370
    25
100
AcDbSpline
210
0.0
220
0.0
230
1.0
 70
     8
 71
     3
 72
     8
 73
     4
 74
     0
 42
0.000000001
 43
0.00000001
 40
3.0
 40
3.0
 40
3.0
 40
3.0
 40
4.0
 40
4.0
 40
4.0
 40
4.0
 10
6287.103769416479
 20
5314.036853661094
 30
0.0
 10
6287.039380581843
 20
5314.015407941693
 30
0.0
 10
6286.97550851153
 20
5313.999181541953
 30
0.0
 10
6286.906572150854
 20
5313.977942528281
 30
0.0
  0
SPLINE
  5
16D
330
1F
100
AcDbEntity
  8
0
  6
Continuous
 62
     7
370
    25
100
AcDbSpline
210
0.0
220
0.0
230
1.0
 70
     8
 71
     3
 72
     8
 73
     4
 74
     0
 42
0.000000001
 43
0.00000001
 40
4.0
 40
4.0
 40
4.0
 40
4.0
 40
5.0
 40
5.0
 40
5.0
 40
5.0
 10
6286.906572150854
 20
5313.977942528281
 30
0.0
 10
6286.840736376114
 20
5315.504154279583
 30
0.0
 10
6286.694905484187
 20
5316.961171288048
 30
0.0
 10
6287.043204637833
 20
5318.790827049766
 30
0.0
  0
SPLINE
  5
16E
330
1F
100
AcDbEntity
  8
0
  6
Continuous
 62
     7
370
    25
100
AcDbSpline
210
0.0
220
0.0
230
1.0
 70
     8
 71
     3
 72
     8
 73
     4
 74
     0
 42
0.000000001
 43
0.00000001
 40
5.0
 40
5.0
 40
5.0
 40
5.0
 40
6.0
 40
6.0
 40
6.0
 40
6.0
 10
6287.043204637833
 20
5318.790827049766
 30
0.0
 10
6287.064288622208
 20
5318.844260480755
 30
0.0
 10
6287.07989490476
 20
5318.891957827761
 30
0.0
 10
6287.096224657364
 20
5318.934849266563
 30
0.0
  0
SPLINE
  5
16F
330
1F
100
AcDbEntity
  8
0
  6
Continuous
 62
     7
370
    25
100
AcDbSpline
210
0.0
220
0.0
230
1.0
 70
     8
 71
     3
 72
     8
 73
     4
 74
     0
 42
0.000000001
 43
0.00000001
 40
6.0
 40
6.0
 40
6.0
 40
6.0
 40
7.0
 40
7.0
 40
7.0
 40
7.0
 10
6287.096224657364
 20
5318.934849266563
 30
0.0
 10
6287.153895555802
 20
5319.099542056277
 30
0.0
 10
6287.217767626114
 20
5319.248525210573
 30
0.0
 10
6287.281639696426
 20
5319.37089500224
 30
0.0
  0
SPLINE
  5
170
330
1F
100
AcDbEntity
  8
0
  6
Continuous
 62
     7
370
    25
100
AcDbSpline
210
0.0
220
0.0
230
1.0
 70
     8
 71
     3
 72
     8
 73
     4
 74
     0
 42
0.000000001
 43
0.00000001
 40
7.0
 40
7.0
 40
7.0
 40
7.0
 40
8.0
 40
8.0
 40
8.0
 40
8.0
 10
6287.281639696426
 20
5319.37089500224
 30
0.0
 10
6287.312852261531
 20
5319.429496076458
 30
0.0
 10
6287.339517300594
 20
5319.482826154584
 30
0.0
 10
6287.371660041478
 20
5319.530678530886
 30
0.0
  0
LINE
  5
171
330
1F
100
AcDbEntity
  8
0
  6
Continuous
 62
     7
370
    25
100
AcDbLine
 10
6287.3716598049
 20
5319.5306811204
 30
0.0
 11
6287.3755871922
 21
5319.5362094512
 31
0.0
  0
SPLINE
  5
172
330
1F
100
AcDbEntity
  8
0
  6
Continuous
 62
     7
370
    25
100
AcDbSpline
210
0.0
220
0.0
230
1.0
 70
     8
 71
     3
 72
     8
 73
     4
 74
     0
 42
0.000000001
 43
0.00000001
 40
9.0
 40
9.0
 40
9.0
 40
9.0
 40
10.0
 40
10.0
 40
10.0
 40
10.0
 10
6287.375587450333
 20
5319.536207909141
 30
0.0
 10
6287.413931363093
 20
5319.504530256147
 30
0.0
 10
6287.494649950333
 20
5319.436369041954
 30
0.0
 10
6287.536404507625
 20
5319.400608950808
 30
0.0
  0
SPLINE
  5
173
330
1F
100
AcDbEntity
  8
0
  6
Continuous
 62
     7
370
    25
100
AcDbSpline
210
0.0
220
0.0
230
1.0
 70
     8
 71
     3
 72
     8
 73
     4
 74
     0
 42
0.000000001
 43
0.00000001
 40
10.0
 40
10.0
 40
10.0
 40
10.0
 40
11.0
 40
11.0
 40
11.0
 40
11.0
 10
6287.536404507625
 20
5319.400608950808
 30
0.0
 10
6287.480904019343
 20
5319.295085676068
 30
0.0
 10
6287.426747118301
 20
5319.159951805625
 30
0.0
 10
6287.37259021726
 20
5318.998773013308
 30
0.0
  0
SPLINE
  5
174
330
1F
100
AcDbEntity
  8
0
  6
Continuous
 62
     7
370
    25
100
AcDbSpline
210
0.0
220
0.0
230
1.0
 70
     8
 71
     3
 72
     8
 73
     4
 74
     0
 42
0.000000001
 43
0.00000001
 40
11.0
 40
11.0
 40
11.0
 40
11.0
 40
12.0
 40
12.0
 40
12.0
 40
12.0
 10
6287.37259021726
 20
5318.998773013308
 30
0.0
 10
6287.340447476375
 20
5318.897693911746
 30
0.0
 10
6287.313885790177
 20
5318.791240461224
 30
0.0
 10
6287.282569872208
 20
5318.674296694949
 30
0.0
  0
SPLINE
  5
175
330
1F
100
AcDbEntity
  8
0
  6
Continuous
 62
     7
370
    25
100
AcDbSpline
210
0.0
220
0.0
230
1.0
 70
     8
 71
     3
 72
     8
 73
     4
 74
     0
 42
0.000000001
 43
0.00000001
 40
12.0
 40
12.0
 40
12.0
 40
12.0
 40
13.0
 40
13.0
 40
13.0
 40
13.0
 10
6287.282569872208
 20
5318.674296694949
 30
0.0
 10
6287.208362515437
 20
5318.381756411745
 30
0.0
 10
6287.145007209448
 20
5318.046686424766
 30
0.0
 10
6287.098085008926
 20
5317.679577049767
 30
0.0
  0
SPLINE
  5
176
330
1F
100
AcDbEntity
  8
0
  6
Continuous
 62
     7
370
    25
100
AcDbSpline
210
0.0
220
0.0
230
1.0
 70
     8
 71
     3
 72
     8
 73
     4
 74
     0
 42
0.000000001
 43
0.00000001
 40
13.0
 40
13.0
 40
13.0
 40
13.0
 40
14.0
 40
14.0
 40
14.0
 40
14.0
 10
6287.098085008926
 20
5317.679577049767
 30
0.0
 10
6286.982019741999
 20
5316.807382225547
 30
0.0
 10
6286.951944058406
 20
5315.780778221641
 30
0.0
 10
6287.102322476375
 20
5314.914216128543
 30
0.0
  0
SPLINE
  5
177
330
1F
100
AcDbEntity
  8
0
  6
Continuous
 62
     7
370
    25
100
AcDbSpline
210
0.0
220
0.0
230
1.0
 70
     8
 71
     3
 72
     8
 73
     4
 74
     0
 42
0.000000001
 43
0.00000001
 40
14.0
 40
14.0
 40
14.0
 40
14.0
 40
15.0
 40
15.0
 40
15.0
 40
15.0
 10
6287.102322476375
 20
5314.914216128543
 30
0.0
 10
6287.118135464656
 20
5314.829260073854
 30
0.0
 10
6287.134051805801
 20
5314.738981346642
 30
0.0
 10
6287.150174852677
 20
5314.653766909792
 30
0.0
  0
SPLINE
  5
178
330
1F
100
AcDbEntity
  8
0
  6
Continuous
 62
     7
370
    25
100
AcDbSpline
210
0.0
220
0.0
230
1.0
 70
     8
 71
     3
 72
     8
 73
     4
 74
     0
 42
0.000000001
 43
0.00000001
 40
22.0
 40
22.0
 40
22.0
 40
22.0
 40
23.0
 40
23.0
 40
23.0
 40
23.0
 10
6288.94520740476
 20
5316.225298892215
 30
0.0
 10
6288.744392788874
 20
5315.432479067996
 30
0.0
 10
6288.458208706843
 20
5314.730196353152
 30
0.0
 10
6287.68781645424
 20
5314.287794416303
 30
0.0
  0
SPLINE
  5
179
330
1F
100
AcDbEntity
  8
0
  6
Continuous
 62
     7
370
    25
100
AcDbSpline
210
0.0
220
0.0
230
1.0
 70
     8
 71
     3
 72
     8
 73
     4
 74
     0
 42
0.000000001
 43
0.00000001
 40
15.0
 40
15.0
 40
15.0
 40
15.0
 40
16.0
 40
16.0
 40
16.0
 40
16.0
 10
6287.150174852677
 20
5314.653766909792
 30
0.0
 10
6287.139116096167
 20
5314.946513898724
 30
0.0
 10
6287.117515347468
 20
5315.217660138959
 30
0.0
 10
6287.101392300594
 20
5315.493974022423
 30
0.0
  0
SPLINE
  5
17A
330
1F
100
AcDbEntity
  8
0
  6
Continuous
 62
     7
370
    25
100
AcDbSpline
210
0.0
220
0.0
230
1.0
 70
     8
 71
     3
 72
     8
 73
     4
 74
     0
 42
0.000000001
 43
0.00000001
 40
16.0
 40
16.0
 40
16.0
 40
16.0
 40
17.0
 40
17.0
 40
17.0
 40
17.0
 10
6287.101392300594
 20
5315.493974022423
 30
0.0
 10
6287.084752489395
 20
5315.72279726461
 30
0.0
 10
6287.074003791478
 20
5315.96185244039
 30
0.0
 10
6287.068319383927
 20
5316.211552961225
 30
0.0
  0
LINE
  5
17B
330
1F
100
AcDbEntity
  8
0
  6
Continuous
 62
     7
370
    25
100
AcDbLine
 10
6287.0683196604
 20
5316.2115517726
 30
0.0
 11
6287.1004623964
 21
5316.2066939941
 31
0.0
  0
SPLINE
  5
17C
330
1F
100
AcDbEntity
  8
0
  6
Continuous
 62
     7
370
    25
100
AcDbSpline
210
0.0
220
0.0
230
1.0
 70
     8
 71
     3
 72
     8
 73
     4
 74
     0
 42
0.000000001
 43
0.00000001
 40
18.0
 40
18.0
 40
18.0
 40
18.0
 40
19.0
 40
19.0
 40
19.0
 40
19.0
 10
6287.100462124812
 20
5316.20669537659
 30
0.0
 10
6287.163920783667
 20
5316.190468976849
 30
0.0
 10
6287.228102912572
 20
5316.175017723594
 30
0.0
 10
6287.286393928198
 20
5316.164010643516
 30
0.0
  0
SPLINE
  5
17D
330
1F
100
AcDbEntity
  8
0
  6
Continuous
 62
     7
370
    25
100
AcDbSpline
210
0.0
220
0.0
230
1.0
 70
     8
 71
     3
 72
     8
 73
     4
 74
     0
 42
0.000000001
 43
0.00000001
 40
19.0
 40
19.0
 40
19.0
 40
19.0
 40
20.0
 40
20.0
 40
20.0
 40
20.0
 10
6287.286393928198
 20
5316.164010643516
 30
0.0
 10
6287.317813199031
 20
5316.158843000287
 30
0.0
 10
6287.35005929278
 20
5316.148352684531
 30
0.0
 10
6287.376931037573
 20
5316.143081688439
 30
0.0
  0
SPLINE
  5
17E
330
1F
100
AcDbEntity
  8
0
  6
Continuous
 62
     7
370
    25
100
AcDbSpline
210
0.0
220
0.0
230
1.0
 70
     8
 71
     3
 72
     8
 73
     4
 74
     0
 42
0.000000001
 43
0.00000001
 40
20.0
 40
20.0
 40
20.0
 40
20.0
 40
21.0
 40
21.0
 40
21.0
 40
21.0
 10
6287.376931037573
 20
5316.143081688439
 30
0.0
 10
6287.4830744295
 20
5316.122307762657
 30
0.0
 10
6287.584153531062
 20
5316.111714094037
 30
0.0
 10
6287.68512927976
 20
5316.101275454714
 30
0.0
  0
SPLINE
  5
17F
330
1F
100
AcDbEntity
  8
0
  6
Continuous
 62
     7
370
    25
100
AcDbSpline
210
0.0
220
0.0
230
1.0
 70
     8
 71
     3
 72
     8
 73
     4
 74
     0
 42
0.000000001
 43
0.00000001
 40
21.0
 40
21.0
 40
21.0
 40
21.0
 40
22.0
 40
22.0
 40
22.0
 40
22.0
 10
6287.68512927976
 20
5316.101275454714
 30
0.0
 10
6288.01999256101
 20
5316.069701154584
 30
0.0
 10
6288.376353238094
 20
5316.102205630496
 30
0.0
 10
6288.94520740476
 20
5316.225298892215
 30
0.0
  0
SPLINE
  5
180
330
1F
100
AcDbEntity
  8
0
  6
Continuous
 62
     7
370
    25
100
AcDbSpline
210
0.0
220
0.0
230
1.0
 70
     8
 71
     3
 72
     8
 73
     4
 74
     0
 42
0.000000001
 43
0.00000001
 40
6.0
 40
6.0
 40
6.0
 40
6.0
 40
7.0
 40
7.0
 40
7.0
 40
7.0
 10
6285.891130256323
 20
5317.241929344688
 30
0.0
 10
6285.95128162351
 20
5316.215377017214
 30
0.0
 10
6285.889063199031
 20
5315.135856346641
 30
0.0
 10
6285.901362189917
 20
5313.986934227501
 30
0.0
  0
LINE
  5
181
330
1F
100
AcDbEntity
  8
0
  6
Continuous
 62
     7
370
    25
100
AcDbLine
 10
6285.9013622299
 20
5313.9869350662
 30
0.0
 11
6285.8960909441
 21
5313.992411243
 31
0.0
  0
SPLINE
  5
182
330
1F
100
AcDbEntity
  8
0
  6
Continuous
 62
     7
370
    25
100
AcDbSpline
210
0.0
220
0.0
230
1.0
 70
     8
 71
     3
 72
     8
 73
     4
 74
     0
 42
0.000000001
 43
0.00000001
 40
1.0
 40
1.0
 40
1.0
 40
1.0
 40
2.0
 40
2.0
 40
2.0
 40
2.0
 10
6285.896091193822
 20
5313.992411929324
 30
0.0
 10
6285.411779670385
 20
5314.161755597944
 30
0.0
 10
6285.066064338353
 20
5314.395436424766
 30
0.0
 10
6284.831349982885
 20
5314.661208316043
 30
0.0
  0
SPLINE
  5
183
330
1F
100
AcDbEntity
  8
0
  6
Continuous
 62
     7
370
    25
100
AcDbSpline
210
0.0
220
0.0
230
1.0
 70
     8
 71
     3
 72
     8
 73
     4
 74
     0
 42
0.000000001
 43
0.00000001
 40
2.0
 40
2.0
 40
2.0
 40
2.0
 40
3.0
 40
3.0
 40
3.0
 40
3.0
 10
6284.831349982885
 20
5314.661208316043
 30
0.0
 10
6284.0699494295
 20
5315.52637514547
 30
0.0
 10
6284.440366096166
 20
5316.77699648336
 30
0.0
 10
6284.826905809708
 20
5317.639114403282
 30
0.0
  0
SPLINE
  5
184
330
1F
100
AcDbEntity
  8
0
  6
Continuous
 62
     7
370
    25
100
AcDbSpline
210
0.0
220
0.0
230
1.0
 70
     8
 71
     3
 72
     8
 73
     4
 74
     0
 42
0.000000001
 43
0.00000001
 40
3.0
 40
3.0
 40
3.0
 40
3.0
 40
4.0
 40
4.0
 40
4.0
 40
4.0
 10
6284.826905809708
 20
5317.639114403282
 30
0.0
 10
6285.02854724851
 20
5318.086063866172
 30
0.0
 10
6285.230188687312
 20
5318.426404849245
 30
0.0
 10
6285.288479702937
 20
5318.559575015261
 30
0.0
  0
SPLINE
  5
185
330
1F
100
AcDbEntity
  8
0
  6
Continuous
 62
     7
370
    25
100
AcDbSpline
210
0.0
220
0.0
230
1.0
 70
     8
 71
     3
 72
     8
 73
     4
 74
     0
 42
0.000000001
 43
0.00000001
 40
4.0
 40
4.0
 40
4.0
 40
4.0
 40
5.0
 40
5.0
 40
5.0
 40
5.0
 10
6285.288479702937
 20
5318.559575015261
 30
0.0
 10
6285.500456428197
 20
5319.033189517215
 30
0.0
 10
6285.48970773028
 20
5319.065022199506
 30
0.0
 10
6285.510378303197
 20
5319.347072166954
 30
0.0
  0
SPLINE
  5
186
330
1F
100
AcDbEntity
  8
0
  6
Continuous
 62
     7
370
    25
100
AcDbSpline
210
0.0
220
0.0
230
1.0
 70
     8
 71
     3
 72
     8
 73
     4
 74
     0
 42
0.000000001
 43
0.00000001
 40
5.0
 40
5.0
 40
5.0
 40
5.0
 40
6.0
 40
6.0
 40
6.0
 40
6.0
 10
6285.510378303197
 20
5319.347072166954
 30
0.0
 10
6285.750777066219
 20
5318.677035545859
 30
0.0
 10
6285.852889696427
 20
5317.975269595339
 30
0.0
 10
6285.891130256323
 20
5317.241929344688
 30
0.0
  0
SPLINE
  5
187
330
1F
100
AcDbEntity
  8
0
  6
Continuous
 62
     7
370
    25
100
AcDbSpline
210
0.0
220
0.0
230
1.0
 70
     8
 71
     3
 72
     8
 73
     4
 74
     0
 42
0.000000001
 43
0.00000001
 40
1.0
 40
1.0
 40
1.0
 40
1.0
 40
2.0
 40
2.0
 40
2.0
 40
2.0
 10
6285.9499379114
 20
5320.575937582578
 30
0.0
 10
6285.95510555463
 20
5320.666526368386
 30
0.0
 10
6285.816819421817
 20
5320.666319662657
 30
0.0
 10
6285.82229712364
 20
5320.57573087685
 30
0.0
  0
SPLINE
  5
188
330
1F
100
AcDbEntity
  8
0
  6
Continuous
 62
     7
370
    25
100
AcDbSpline
210
0.0
220
0.0
230
1.0
 70
     8
 71
     3
 72
     8
 73
     4
 74
     0
 42
0.000000001
 43
0.00000001
 40
0.0
 40
0.0
 40
0.0
 40
0.0
 40
1.0
 40
1.0
 40
1.0
 40
1.0
 10
6285.82229712364
 20
5320.57573087685
 30
0.0
 10
6285.817129480411
 20
5320.485348796771
 30
0.0
 10
6285.955415613224
 20
5320.485555502501
 30
0.0
 10
6285.9499379114
 20
5320.575937582578
 30
0.0
  0
SPLINE
  5
189
330
1F
100
AcDbEntity
  8
0
  6
Continuous
 62
     7
370
    25
100
AcDbSpline
210
0.0
220
0.0
230
1.0
 70
     8
 71
     3
 72
    11
 73
     7
 74
     0
 42
0.000000001
 43
0.00000001
 40
0.0
 40
0.0
 40
0.0
 40
0.0
 40
1.0
 40
1.0
 40
1.0
 40
2.0
 40
2.0
 40
2.0
 40
2.0
 10
6286.066830126115
 20
5320.586686424766
 30
0.0
 10
6286.067140184708
 20
5320.491136701458
 30
0.0
 10
6285.981874071426
 20
5320.405922264609
 30
0.0
 10
6285.886376024551
 20
5320.405818911746
 30
0.0
 10
6285.790877977677
 20
5320.405715558881
 30
0.0
 10
6285.705301805801
 20
5320.490568260704
 30
0.0
 10
6285.704991747208
 20
5320.586273013308
 30
0.0
  0
SPLINE
  5
18A
330
1F
100
AcDbEntity
  8
0
  6
Continuous
 62
     7
370
    25
100
AcDbSpline
210
0.0
220
0.0
230
1.0
 70
     8
 71
     3
 72
     8
 73
     4
 74
     0
 42
0.000000001
 43
0.00000001
 40
2.0
 40
2.0
 40
2.0
 40
2.0
 40
3.0
 40
3.0
 40
3.0
 40
3.0
 10
6285.704991747208
 20
5320.586273013308
 30
0.0
 10
6285.704888394343
 20
5320.681926089479
 30
0.0
 10
6285.790361213354
 20
5320.7619728831
 30
0.0
 10
6285.885755907365
 20
5320.762076235965
 30
0.0
  0
SPLINE
  5
18B
330
1F
100
AcDbEntity
  8
0
  6
Continuous
 62
     7
370
    25
100
AcDbSpline
210
0.0
220
0.0
230
1.0
 70
     8
 71
     3
 72
     8
 73
     4
 74
     0
 42
0.000000001
 43
0.00000001
 40
3.0
 40
3.0
 40
3.0
 40
3.0
 40
4.0
 40
4.0
 40
4.0
 40
4.0
 10
6285.885755907365
 20
5320.762076235965
 30
0.0
 10
6285.981357307103
 20
5320.762282941693
 30
0.0
 10
6286.066830126115
 20
5320.682494530235
 30
0.0
 10
6286.066830126115
 20
5320.586686424766
 30
0.0
  0
SPLINE
  5
18C
330
1F
100
AcDbEntity
  8
0
  6
Continuous
 62
     7
370
    25
100
AcDbSpline
210
0.0
220
0.0
230
1.0
 70
     8
 71
     3
 72
     8
 73
     4
 74
     0
 42
0.000000001
 43
0.00000001
 40
22.0
 40
22.0
 40
22.0
 40
22.0
 40
23.0
 40
23.0
 40
23.0
 40
23.0
 10
6284.822358283666
 20
5320.627562482709
 30
0.0
 10
6284.581752814916
 20
5320.529635643516
 30
0.0
 10
6284.330088589656
 20
5320.401788150027
 30
0.0
 10
6284.026644579239
 20
5320.249394351198
 30
0.0
  0
SPLINE
  5
18D
330
1F
100
AcDbEntity
  8
0
  6
Continuous
 62
     7
370
    25
100
AcDbSpline
210
0.0
220
0.0
230
1.0
 70
     8
 71
     3
 72
     8
 73
     4
 74
     0
 42
0.000000001
 43
0.00000001
 40
11.0
 40
11.0
 40
11.0
 40
11.0
 40
12.0
 40
12.0
 40
12.0
 40
12.0
 10
6287.368972867
 20
5321.359920881147
 30
0.0
 10
6287.480490607885
 20
5321.306797508751
 30
0.0
 10
6287.581569709448
 20
5321.259151838178
 30
0.0
 10
6287.677377814916
 20
5321.211299461876
 30
0.0
  0
SPLINE
  5
18E
330
1F
100
AcDbEntity
  8
0
  6
Continuous
 62
     7
370
    25
100
AcDbSpline
210
0.0
220
0.0
230
1.0
 70
     8
 71
     3
 72
     8
 73
     4
 74
     0
 42
0.000000001
 43
0.00000001
 40
12.0
 40
12.0
 40
12.0
 40
12.0
 40
13.0
 40
13.0
 40
13.0
 40
13.0
 10
6287.677377814916
 20
5321.211299461876
 30
0.0
 10
6288.155488166479
 20
5320.973174461876
 30
0.0
 10
6288.458828824031
 20
5320.753394595339
 30
0.0
 10
6288.749767137833
 20
5320.349749982709
 30
0.0
  0
SPLINE
  5
18F
330
1F
100
AcDbEntity
  8
0
  6
Continuous
 62
     7
370
    25
100
AcDbSpline
210
0.0
220
0.0
230
1.0
 70
     8
 71
     3
 72
     8
 73
     4
 74
     0
 42
0.000000001
 43
0.00000001
 40
14.0
 40
14.0
 40
14.0
 40
14.0
 40
15.0
 40
15.0
 40
15.0
 40
15.0
 10
6288.75669177976
 20
5320.146093163047
 30
0.0
 10
6288.547815640437
 20
5320.355537743126
 30
0.0
 10
6288.172231330542
 20
5320.575782697553
 30
0.0
 10
6287.678101284969
 20
5320.727659732058
 30
0.0
  0
SPLINE
  5
190
330
1F
100
AcDbEntity
  8
0
  6
Continuous
 62
     7
370
    25
100
AcDbSpline
210
0.0
220
0.0
230
1.0
 70
     8
 71
     3
 72
     8
 73
     4
 74
     0
 42
0.000000001
 43
0.00000001
 40
15.0
 40
15.0
 40
15.0
 40
15.0
 40
16.0
 40
16.0
 40
16.0
 40
16.0
 10
6287.678101284969
 20
5320.727659732058
 30
0.0
 10
6287.582396532363
 20
5320.75928570862
 30
0.0
 10
6287.475839728979
 20
5320.78564068909
 30
0.0
 10
6287.369799689916
 20
5320.812305728151
 30
0.0
  0
SPLINE
  5
191
330
1F
100
AcDbEntity
  8
0
  6
Continuous
 62
     7
370
    25
100
AcDbSpline
210
0.0
220
0.0
230
1.0
 70
     8
 71
     3
 72
     8
 73
     4
 74
     0
 42
0.000000001
 43
0.00000001
 40
4.0
 40
4.0
 40
4.0
 40
4.0
 40
5.0
 40
5.0
 40
5.0
 40
5.0
 10
6285.582105191218
 20
5321.442448143516
 30
0.0
 10
6285.656519253718
 20
5321.36090273336
 30
0.0
 10
6285.757495002416
 20
5321.284783348594
 30
0.0
 10
6285.885032437312
 20
5321.214089989219
 30
0.0
  0
SPLINE
  5
192
330
1F
100
AcDbEntity
  8
0
  6
Continuous
 62
     7
370
    25
100
AcDbSpline
210
0.0
220
0.0
230
1.0
 70
     8
 71
     3
 72
     8
 73
     4
 74
     0
 42
0.000000001
 43
0.00000001
 40
5.0
 40
5.0
 40
5.0
 40
5.0
 40
6.0
 40
6.0
 40
6.0
 40
6.0
 10
6285.885032437312
 20
5321.214089989219
 30
0.0
 10
6286.023525275854
 20
5321.139985985314
 30
0.0
 10
6286.193747443823
 20
5321.071101301068
 30
0.0
 10
6286.39053129799
 20
5321.060714338179
 30
0.0
  0
LINE
  5
193
330
1F
100
AcDbEntity
  8
0
  6
Continuous
 62
     7
370
    25
100
AcDbLine
 10
6286.3905310303
 20
5321.0607174506
 30
0.0
 11
6286.4545063719
 21
5321.0554424396
 31
0.0
  0
SPLINE
  5
194
330
1F
100
AcDbEntity
  8
0
  6
Continuous
 62
     7
370
    25
100
AcDbSpline
210
0.0
220
0.0
230
1.0
 70
     8
 71
     3
 72
     8
 73
     4
 74
     0
 42
0.000000001
 43
0.00000001
 40
7.0
 40
7.0
 40
7.0
 40
7.0
 40
8.0
 40
8.0
 40
8.0
 40
8.0
 10
6286.454506721167
 20
5321.055443342084
 30
0.0
 10
6286.784409064916
 20
5321.055960106407
 30
0.0
 10
6286.954321174291
 20
5321.120193911745
 30
0.0
 10
6287.092710659968
 20
5321.210472638959
 30
0.0
  0
SPLINE
  5
195
330
1F
100
AcDbEntity
  8
0
  6
Continuous
 62
     7
370
    25
100
AcDbSpline
210
0.0
220
0.0
230
1.0
 70
     8
 71
     3
 72
     8
 73
     4
 74
     0
 42
0.000000001
 43
0.00000001
 40
8.0
 40
8.0
 40
8.0
 40
8.0
 40
9.0
 40
9.0
 40
9.0
 40
9.0
 10
6287.092710659968
 20
5321.210472638959
 30
0.0
 10
6287.156272671687
 20
5321.258531720991
 30
0.0
 10
6287.214667040176
 20
5321.30633242086
 30
0.0
 10
6287.278539110489
 20
5321.365088524375
 30
0.0
  0
LINE
  5
196
330
1F
100
AcDbEntity
  8
0
  6
Continuous
 62
     7
370
    25
100
AcDbLine
 10
6287.2785387233
 20
5321.3650885692
 30
0.0
 11
6287.304790844
 21
5321.3863823285
 31
0.0
  0
SPLINE
  5
197
330
1F
100
AcDbEntity
  8
0
  6
Continuous
 62
     7
370
    25
100
AcDbSpline
210
0.0
220
0.0
230
1.0
 70
     8
 71
     3
 72
     8
 73
     4
 74
     0
 42
0.000000001
 43
0.00000001
 40
10.0
 40
10.0
 40
10.0
 40
10.0
 40
11.0
 40
11.0
 40
11.0
 40
11.0
 10
6287.304790738093
 20
5321.386379214479
 30
0.0
 10
6287.331249071427
 20
5321.381056541954
 30
0.0
 10
6287.352643114396
 20
5321.370721255495
 30
0.0
 10
6287.368972867
 20
5321.359920881147
 30
0.0
  0
SPLINE
  5
198
330
1F
100
AcDbEntity
  8
0
  6
Continuous
 62
     7
370
    25
100
AcDbSpline
210
0.0
220
0.0
230
1.0
 70
     8
 71
     3
 72
     8
 73
     4
 74
     0
 42
0.000000001
 43
0.00000001
 40
0.0
 40
0.0
 40
0.0
 40
0.0
 40
1.0
 40
1.0
 40
1.0
 40
1.0
 10
6284.026644579239
 20
5320.249394351198
 30
0.0
 10
6284.03253569252
 20
5320.272493716433
 30
0.0
 10
6284.053516324031
 20
5320.338536196901
 30
0.0
 10
6284.106536343562
 20
5320.391762922161
 30
0.0
  0
LINE
  5
199
330
1F
100
AcDbEntity
  8
0
  6
Continuous
 62
     7
370
    25
100
AcDbLine
 10
6284.1065359905
 20
5320.3917596212
 30
0.0
 11
6284.1033322409
 21
5320.3898522725
 31
0.0
  0
SPLINE
  5
19A
330
1F
100
AcDbEntity
  8
0
  6
Continuous
 62
     7
370
    25
100
AcDbSpline
210
0.0
220
0.0
230
1.0
 70
     8
 71
     3
 72
     8
 73
     4
 74
     0
 42
0.000000001
 43
0.00000001
 40
2.0
 40
2.0
 40
2.0
 40
2.0
 40
3.0
 40
3.0
 40
3.0
 40
3.0
 10
6284.103332404759
 20
5320.389850894167
 30
0.0
 10
6284.355099982885
 20
5320.615676903282
 30
0.0
 10
6284.586713752416
 20
5320.811168846642
 30
0.0
 10
6284.821738166479
 20
5320.978497134402
 30
0.0
  0
SPLINE
  5
19B
330
1F
100
AcDbEntity
  8
0
  6
Continuous
 62
     7
370
    25
100
AcDbSpline
210
0.0
220
0.0
230
1.0
 70
     8
 71
     3
 72
     8
 73
     4
 74
     0
 42
0.000000001
 43
0.00000001
 40
3.0
 40
3.0
 40
3.0
 40
3.0
 40
4.0
 40
4.0
 40
4.0
 40
4.0
 10
6284.821738166479
 20
5320.978497134402
 30
0.0
 10
6285.066581102677
 20
5321.154041974896
 30
0.0
 10
6285.31628162351
 20
5321.309019595339
 30
0.0
 10
6285.582105191218
 20
5321.442448143516
 30
0.0
  0
SPLINE
  5
19C
330
1F
100
AcDbEntity
  8
0
  6
Continuous
 62
     7
370
    25
100
AcDbSpline
210
0.0
220
0.0
230
1.0
 70
     8
 71
     3
 72
     8
 73
     4
 74
     0
 42
0.000000001
 43
0.00000001
 40
18.0
 40
18.0
 40
18.0
 40
18.0
 40
19.0
 40
19.0
 40
19.0
 40
19.0
 10
6287.093227424291
 20
5320.859641340131
 30
0.0
 10
6286.890862515437
 20
5320.891163963829
 30
0.0
 10
6286.678265672989
 20
5320.906925275677
 30
0.0
 10
6286.449339077937
 20
5320.906615217084
 30
0.0
  0
LINE
  5
19D
330
1F
100
AcDbEntity
  8
0
  6
Continuous
 62
     7
370
    25
100
AcDbLine
 10
6286.4493393943
 20
5320.9066170921
 30
0.0
 11
6286.3907377839
 21
5320.906512784
 31
0.0
  0
SPLINE
  5
19E
330
1F
100
AcDbEntity
  8
0
  6
Continuous
 62
     7
370
    25
100
AcDbSpline
210
0.0
220
0.0
230
1.0
 70
     8
 71
     3
 72
     8
 73
     4
 74
     0
 42
0.000000001
 43
0.00000001
 40
20.0
 40
20.0
 40
20.0
 40
20.0
 40
21.0
 40
21.0
 40
21.0
 40
21.0
 10
6286.390738003718
 20
5320.906511864219
 30
0.0
 10
6286.204909553197
 20
5320.906201805626
 30
0.0
 10
6286.039855028457
 20
5320.900362368777
 30
0.0
 10
6285.885549201635
 20
5320.884290998334
 30
0.0
  0
SPLINE
  5
19F
330
1F
100
AcDbEntity
  8
0
  6
Continuous
 62
     7
370
    25
100
AcDbSpline
210
0.0
220
0.0
230
1.0
 70
     8
 71
     3
 72
     8
 73
     4
 74
     0
 42
0.000000001
 43
0.00000001
 40
21.0
 40
21.0
 40
21.0
 40
21.0
 40
22.0
 40
22.0
 40
22.0
 40
22.0
 10
6285.885549201635
 20
5320.884290998334
 30
0.0
 10
6285.471104214655
 20
5320.846412173464
 30
0.0
 10
6285.157428270645
 20
5320.760991030886
 30
0.0
 10
6284.822358283666
 20
5320.627562482709
 30
0.0
  0
SPLINE
  5
1A0
330
1F
100
AcDbEntity
  8
0
  6
Continuous
 62
     7
370
    25
100
AcDbSpline
210
0.0
220
0.0
230
1.0
 70
     8
 71
     3
 72
     8
 73
     4
 74
     0
 42
0.000000001
 43
0.00000001
 40
13.0
 40
13.0
 40
13.0
 40
13.0
 40
14.0
 40
14.0
 40
14.0
 40
14.0
 10
6288.749767137833
 20
5320.349749982709
 30
0.0
 10
6288.764649950333
 20
5320.304636457318
 30
0.0
 10
6288.794622281062
 20
5320.198183006798
 30
0.0
 10
6288.75669177976
 20
5320.146093163047
 30
0.0
  0
SPLINE
  5
1A1
330
1F
100
AcDbEntity
  8
0
  6
Continuous
 62
     7
370
    25
100
AcDbSpline
210
0.0
220
0.0
230
1.0
 70
     8
 71
     3
 72
     8
 73
     4
 74
     0
 42
0.000000001
 43
0.00000001
 40
16.0
 40
16.0
 40
16.0
 40
16.0
 40
17.0
 40
17.0
 40
17.0
 40
17.0
 10
6287.369799689916
 20
5320.812305728151
 30
0.0
 10
6287.343031297989
 20
5320.817628400678
 30
0.0
 10
6287.310888557104
 20
5320.822899396771
 30
0.0
 10
6287.279365933406
 20
5320.828118716433
 30
0.0
  0
SPLINE
  5
1A2
330
1F
100
AcDbEntity
  8
0
  6
Continuous
 62
     7
370
    25
100
AcDbSpline
210
0.0
220
0.0
230
1.0
 70
     8
 71
     3
 72
     8
 73
     4
 74
     0
 42
0.000000001
 43
0.00000001
 40
17.0
 40
17.0
 40
17.0
 40
17.0
 40
18.0
 40
18.0
 40
18.0
 40
18.0
 10
6287.279365933406
 20
5320.828118716433
 30
0.0
 10
6287.220868212052
 20
5320.838557355755
 30
0.0
 10
6287.156892788875
 20
5320.854318667605
 30
0.0
 10
6287.093227424291
 20
5320.859641340131
 30
0.0
  0
SPLINE
  5
1A3
330
1F
100
AcDbEntity
  8
0
  6
Continuous
 62
     7
370
    25
100
AcDbSpline
210
0.0
220
0.0
230
1.0
 70
     8
 71
     3
 72
     8
 73
     4
 74
     0
 42
0.000000001
 43
0.00000001
 40
0.0
 40
0.0
 40
0.0
 40
0.0
 40
1.0
 40
1.0
 40
1.0
 40
1.0
 10
6287.680788459448
 20
5318.930301740522
 30
0.0
 10
6287.824655646948
 20
5318.935882795209
 30
0.0
 10
6287.967902717261
 20
5318.957276838178
 30
0.0
 10
6288.137814826636
 20
5318.984045230104
 30
0.0
  0
SPLINE
  5
1A4
330
1F
100
AcDbEntity
  8
0
  6
Continuous
 62
     7
370
    25
100
AcDbSpline
210
0.0
220
0.0
230
1.0
 70
     8
 71
     3
 72
     8
 73
     4
 74
     0
 42
0.000000001
 43
0.00000001
 40
1.0
 40
1.0
 40
1.0
 40
1.0
 40
2.0
 40
2.0
 40
2.0
 40
2.0
 10
6288.137814826636
 20
5318.984045230104
 30
0.0
 10
6288.297908413875
 20
5318.803384422814
 30
0.0
 10
6288.447046597468
 20
5318.606858950809
 30
0.0
 10
6288.495002326635
 20
5318.474153872683
 30
0.0
  0
SPLINE
  5
1A5
330
1F
100
AcDbEntity
  8
0
  6
Continuous
 62
     7
370
    25
100
AcDbSpline
210
0.0
220
0.0
230
1.0
 70
     8
 71
     3
 72
     8
 73
     4
 74
     0
 42
0.000000001
 43
0.00000001
 40
2.0
 40
2.0
 40
2.0
 40
2.0
 40
3.0
 40
3.0
 40
3.0
 40
3.0
 10
6288.495002326635
 20
5318.474153872683
 30
0.0
 10
6288.218946825334
 20
5318.3459963206
 30
0.0
 10
6287.93679350502
 20
5318.313595197553
 30
0.0
 10
6287.681718635229
 20
5318.329149803673
 30
0.0
  0
SPLINE
  5
1A6
330
1F
100
AcDbEntity
  8
0
  6
Continuous
 62
     7
370
    25
100
AcDbSpline
210
0.0
220
0.0
230
1.0
 70
     8
 71
     3
 72
     8
 73
     4
 74
     0
 42
0.000000001
 43
0.00000001
 40
3.0
 40
3.0
 40
3.0
 40
3.0
 40
4.0
 40
4.0
 40
4.0
 40
4.0
 10
6287.681718635229
 20
5318.329149803673
 30
0.0
 10
6287.575575243302
 20
5318.334369123334
 30
0.0
 10
6287.468915087052
 20
5318.350337140912
 30
0.0
 10
6287.373520393041
 20
5318.365995099896
 30
0.0
  0
SPLINE
  5
1A7
330
1F
100
AcDbEntity
  8
0
  6
Continuous
 62
     7
370
    25
100
AcDbSpline
210
0.0
220
0.0
230
1.0
 70
     8
 71
     3
 72
     8
 73
     4
 74
     0
 42
0.000000001
 43
0.00000001
 40
4.0
 40
4.0
 40
4.0
 40
4.0
 40
5.0
 40
5.0
 40
5.0
 40
5.0
 10
6287.373520393041
 20
5318.365995099896
 30
0.0
 10
6287.352022997208
 20
5318.371266095991
 30
0.0
 10
6287.325254605281
 20
5318.371162743126
 30
0.0
 10
6287.299002977677
 20
5318.376588768517
 30
0.0
  0
SPLINE
  5
1A8
330
1F
100
AcDbEntity
  8
0
  6
Continuous
 62
     7
370
    25
100
AcDbSpline
210
0.0
220
0.0
230
1.0
 70
     8
 71
     3
 72
     8
 73
     4
 74
     0
 42
0.000000001
 43
0.00000001
 40
5.0
 40
5.0
 40
5.0
 40
5.0
 40
6.0
 40
6.0
 40
6.0
 40
6.0
 10
6287.299002977677
 20
5318.376588768517
 30
0.0
 10
6287.320190314916
 20
5318.49890688375
 30
0.0
 10
6287.340860887834
 20
5318.610683006797
 30
0.0
 10
6287.373003628718
 20
5318.727730125938
 30
0.0
  0
SPLINE
  5
1A9
330
1F
100
AcDbEntity
  8
0
  6
Continuous
 62
     7
370
    25
100
AcDbSpline
210
0.0
220
0.0
230
1.0
 70
     8
 71
     3
 72
     8
 73
     4
 74
     0
 42
0.000000001
 43
0.00000001
 40
6.0
 40
6.0
 40
6.0
 40
6.0
 40
7.0
 40
7.0
 40
7.0
 40
7.0
 10
6287.373003628718
 20
5318.727730125938
 30
0.0
 10
6287.3937775545
 20
5318.791343814089
 30
0.0
 10
6287.415274950333
 20
5318.860435204063
 30
0.0
 10
6287.441526577937
 20
5318.929991681927
 30
0.0
  0
SPLINE
  5
1AA
330
1F
100
AcDbEntity
  8
0
  6
Continuous
 62
     7
370
    25
100
AcDbSpline
210
0.0
220
0.0
230
1.0
 70
     8
 71
     3
 72
     8
 73
     4
 74
     0
 42
0.000000001
 43
0.00000001
 40
7.0
 40
7.0
 40
7.0
 40
7.0
 40
8.0
 40
8.0
 40
8.0
 40
8.0
 10
6287.441526577937
 20
5318.929991681927
 30
0.0
 10
6287.526585985489
 20
5318.924669009401
 30
0.0
 10
6287.60100004799
 20
5318.924772362267
 30
0.0
 10
6287.680788459448
 20
5318.930301740522
 30
0.0
  0
SPLINE
  5
1AB
330
1F
100
AcDbEntity
  8
0
  6
Continuous
 62
     7
370
    25
100
AcDbSpline
210
0.0
220
0.0
230
1.0
 70
     8
 71
     3
 72
     8
 73
     4
 74
     0
 42
0.000000001
 43
0.00000001
 40
11.0
 40
11.0
 40
11.0
 40
11.0
 40
12.0
 40
12.0
 40
12.0
 40
12.0
 10
6288.956162808406
 20
5323.047724836225
 30
0.0
 10
6288.951821988094
 20
5322.447037987266
 30
0.0
 10
6288.761342658666
 20
5321.904538801069
 30
0.0
 10
6288.373976122208
 20
5321.255017723594
 30
0.0
  0
SPLINE
  5
1AC
330
1F
100
AcDbEntity
  8
0
  6
Continuous
 62
     7
370
    25
100
AcDbSpline
210
0.0
220
0.0
230
1.0
 70
     8
 71
     3
 72
     8
 73
     4
 74
     0
 42
0.000000001
 43
0.00000001
 40
10.0
 40
10.0
 40
10.0
 40
10.0
 40
11.0
 40
11.0
 40
11.0
 40
11.0
 10
6287.675310757624
 20
5322.492874982709
 30
0.0
 10
6288.04231677976
 20
5322.770119041953
 30
0.0
 10
6288.456348355281
 20
5322.994291405234
 30
0.0
 10
6288.956162808406
 20
5323.047724836225
 30
0.0
  0
SPLINE
  5
1AD
330
1F
100
AcDbEntity
  8
0
  6
Continuous
 62
     7
370
    25
100
AcDbSpline
210
0.0
220
0.0
230
1.0
 70
     8
 71
     3
 72
     8
 73
     4
 74
     0
 42
0.000000001
 43
0.00000001
 40
0.0
 40
0.0
 40
0.0
 40
0.0
 40
1.0
 40
1.0
 40
1.0
 40
1.0
 10
6288.373976122208
 20
5321.255017723594
 30
0.0
 10
6288.341833381322
 20
5321.313567121381
 30
0.0
 10
6288.315375047989
 20
5321.356096825157
 30
0.0
 10
6288.267212613094
 20
5321.414284487918
 30
0.0
  0
SPLINE
  5
1AE
330
1F
100
AcDbEntity
  8
0
  6
Continuous
 62
     7
370
    25
100
AcDbSpline
210
0.0
220
0.0
230
1.0
 70
     8
 71
     3
 72
     8
 73
     4
 74
     0
 42
0.000000001
 43
0.00000001
 40
1.0
 40
1.0
 40
1.0
 40
1.0
 40
2.0
 40
2.0
 40
2.0
 40
2.0
 10
6288.267212613094
 20
5321.414284487918
 30
0.0
 10
6288.596494839656
 20
5321.920196760052
 30
0.0
 10
6288.718244514135
 20
5322.318880435183
 30
0.0
 10
6288.770747769344
 20
5322.85099265849
 30
0.0
  0
SPLINE
  5
1AF
330
1F
100
AcDbEntity
  8
0
  6
Continuous
 62
     7
370
    25
100
AcDbSpline
210
0.0
220
0.0
230
1.0
 70
     8
 71
     3
 72
     8
 73
     4
 74
     0
 42
0.000000001
 43
0.00000001
 40
3.0
 40
3.0
 40
3.0
 40
3.0
 40
4.0
 40
4.0
 40
4.0
 40
4.0
 10
6287.675620816218
 20
5322.290820132449
 30
0.0
 10
6287.580226122208
 20
5322.216302717085
 30
0.0
 10
6287.489895718562
 20
5322.131450015261
 30
0.0
 10
6287.394397671687
 20
5322.040499494427
 30
0.0
  0
LINE
  5
1B0
330
1F
100
AcDbEntity
  8
0
  6
Continuous
 62
     7
370
    25
100
AcDbLine
 10
6287.3943980455
 20
5322.0404986015
 30
0.0
 11
6287.3679391712
 21
5322.0566216579
 31
0.0
  0
SPLINE
  5
1B1
330
1F
100
AcDbEntity
  8
0
  6
Continuous
 62
     7
370
    25
100
AcDbSpline
210
0.0
220
0.0
230
1.0
 70
     8
 71
     3
 72
     8
 73
     4
 74
     0
 42
0.000000001
 43
0.00000001
 40
5.0
 40
5.0
 40
5.0
 40
5.0
 40
6.0
 40
6.0
 40
6.0
 40
6.0
 10
6287.367939338354
 20
5322.056622541303
 30
0.0
 10
6287.33558989174
 20
5322.072693911745
 30
0.0
 10
6287.303757209448
 20
5322.083080874636
 30
0.0
 10
6287.277402228979
 20
5322.098842186485
 30
0.0
  0
LINE
  5
1B2
330
1F
100
AcDbEntity
  8
0
  6
Continuous
 62
     7
370
    25
100
AcDbLine
 10
6287.2774025097
 20
5322.0988440981
 30
0.0
 11
6287.2294468477
 21
5322.1147063842
 31
0.0
  0
LINE
  5
1B3
330
1F
100
AcDbEntity
  8
0
  6
Continuous
 62
     7
370
    25
100
AcDbLine
 10
6287.2294468477
 20
5322.1147063842
 30
0.0
 11
6287.2772991329
 21
5322.1574429145
 31
0.0
  0
SPLINE
  5
1B4
330
1F
100
AcDbEntity
  8
0
  6
Continuous
 62
     7
370
    25
100
AcDbSpline
210
0.0
220
0.0
230
1.0
 70
     8
 71
     3
 72
     8
 73
     4
 74
     0
 42
0.000000001
 43
0.00000001
 40
8.0
 40
8.0
 40
8.0
 40
8.0
 40
9.0
 40
9.0
 40
9.0
 40
9.0
 10
6287.277298876114
 20
5322.157443260703
 30
0.0
 10
6287.308718146947
 20
5322.184056623333
 30
0.0
 10
6287.340757534968
 20
5322.21599265849
 30
0.0
 10
6287.367629279761
 20
5322.242657697552
 30
0.0
  0
SPLINE
  5
1B5
330
1F
100
AcDbEntity
  8
0
  6
Continuous
 62
     7
370
    25
100
AcDbSpline
210
0.0
220
0.0
230
1.0
 70
     8
 71
     3
 72
     8
 73
     4
 74
     0
 42
0.000000001
 43
0.00000001
 40
9.0
 40
9.0
 40
9.0
 40
9.0
 40
10.0
 40
10.0
 40
10.0
 40
10.0
 10
6287.367629279761
 20
5322.242657697552
 30
0.0
 10
6287.468191616999
 20
5322.328078840131
 30
0.0
 10
6287.569270718562
 20
5322.413138247683
 30
0.0
 10
6287.675310757624
 20
5322.492874982709
 30
0.0
  0
SPLINE
  5
1B6
330
1F
100
AcDbEntity
  8
0
  6
Continuous
 62
     7
370
    25
100
AcDbSpline
210
0.0
220
0.0
230
1.0
 70
     8
 71
     3
 72
     8
 73
     4
 74
     0
 42
0.000000001
 43
0.00000001
 40
2.0
 40
2.0
 40
2.0
 40
2.0
 40
3.0
 40
3.0
 40
3.0
 40
3.0
 10
6288.770747769344
 20
5322.85099265849
 30
0.0
 10
6288.366328010228
 20
5322.760197166954
 30
0.0
 10
6288.005213101374
 20
5322.5627931956
 30
0.0
 10
6287.675620816218
 20
5322.290820132449
 30
0.0
  0
LINE
  5
1B7
330
1F
100
AcDbEntity
  8
0
  6
Continuous
 62
     7
370
    25
100
AcDbLine
 10
6290.3928702369
 20
5322.5078586211
 30
0.0
 11
6290.3822252199
 21
5322.5078586211
 31
0.0
  0
LINE
  5
1B8
330
1F
100
AcDbEntity
  8
0
  6
Continuous
 62
     7
370
    25
100
AcDbLine
 10
6290.3822252199
 20
5322.5078586211
 30
0.0
 11
6290.2171706453
 21
5322.5076574555
 31
0.0
  0
LINE
  5
1B9
330
1F
100
AcDbEntity
  8
0
  6
Continuous
 62
     7
370
    25
100
AcDbLine
 10
6290.2171706453
 20
5322.5076574555
 30
0.0
 11
6290.2168614462
 21
5322.7151859274
 31
0.0
  0
LINE
  5
1BA
330
1F
100
AcDbEntity
  8
0
  6
Continuous
 62
     7
370
    25
100
AcDbLine
 10
6290.2168614462
 20
5322.7151859274
 30
0.0
 11
6290.3819160208
 21
5322.7153945437
 31
0.0
  0
LINE
  5
1BB
330
1F
100
AcDbEntity
  8
0
  6
Continuous
 62
     7
370
    25
100
AcDbLine
 10
6290.3819160208
 20
5322.7153945437
 30
0.0
 11
6290.4137486264
 21
5322.7154988518
 31
0.0
  0
SPLINE
  5
1BC
330
1F
100
AcDbEntity
  8
0
  6
Continuous
 62
     7
370
    25
100
AcDbSpline
210
0.0
220
0.0
230
1.0
 70
     8
 71
     3
 72
     8
 73
     4
 74
     0
 42
0.000000001
 43
0.00000001
 40
5.0
 40
5.0
 40
5.0
 40
5.0
 40
6.0
 40
6.0
 40
6.0
 40
6.0
 10
6290.413748141739
 20
5322.715496975483
 30
0.0
 10
6290.461497165177
 20
5322.715600328346
 30
0.0
 10
6290.493846611791
 20
5322.704696601133
 30
0.0
 10
6290.514827243302
 20
5322.68883193642
 30
0.0
  0
SPLINE
  5
1BD
330
1F
100
AcDbEntity
  8
0
  6
Continuous
 62
     7
370
    25
100
AcDbSpline
210
0.0
220
0.0
230
1.0
 70
     8
 71
     3
 72
     8
 73
     4
 74
     0
 42
0.000000001
 43
0.00000001
 40
6.0
 40
6.0
 40
6.0
 40
6.0
 40
7.0
 40
7.0
 40
7.0
 40
7.0
 10
6290.514827243302
 20
5322.68883193642
 30
0.0
 10
6290.536324639135
 20
5322.667799628477
 30
0.0
 10
6290.546763278458
 20
5322.646405585508
 30
0.0
 10
6290.546763278458
 20
5322.614779608946
 30
0.0
  0
LINE
  5
1BE
330
1F
100
AcDbEntity
  8
0
  6
Continuous
 62
     7
370
    25
100
AcDbLine
 10
6290.5467638418
 20
5322.6147819033
 30
0.0
 11
6290.5310542926
 21
5322.5559223166
 31
0.0
  0
LINE
  5
1BF
330
1F
100
AcDbEntity
  8
0
  6
Continuous
 62
     7
370
    25
100
AcDbLine
 10
6290.5310542926
 20
5322.5559223166
 30
0.0
 11
6290.4833053842
 21
5322.5184533467
 31
0.0
  0
SPLINE
  5
1C0
330
1F
100
AcDbEntity
  8
0
  6
Continuous
 62
     7
370
    25
100
AcDbSpline
210
0.0
220
0.0
230
1.0
 70
     8
 71
     3
 72
     8
 73
     4
 74
     0
 42
0.000000001
 43
0.00000001
 40
9.0
 40
9.0
 40
9.0
 40
9.0
 40
10.0
 40
10.0
 40
10.0
 40
10.0
 10
6290.483304619604
 20
5322.518454739155
 30
0.0
 10
6290.46180722377
 20
5322.513390448789
 30
0.0
 10
6290.430284600072
 20
5322.507861070535
 30
0.0
 10
6290.392870863094
 20
5322.507861070535
 30
0.0
  0
SPLINE
  5
1C1
330
1F
100
AcDbEntity
  8
0
  6
Continuous
 62
     7
370
    25
100
AcDbSpline
210
0.0
220
0.0
230
1.0
 70
     8
 71
     3
 72
     8
 73
     4
 74
     0
 42
0.000000001
 43
0.00000001
 40
0.0
 40
0.0
 40
0.0
 40
0.0
 40
1.0
 40
1.0
 40
1.0
 40
1.0
 10
6288.938489468563
 20
5317.054912336225
 30
0.0
 10
6288.688892300593
 20
5316.889806135053
 30
0.0
 10
6288.157451870906
 20
5316.835752586876
 30
0.0
 10
6287.683889045386
 20
5316.882726463828
 30
0.0
  0
SPLINE
  5
1C2
330
1F
100
AcDbEntity
  8
0
  6
Continuous
 62
     7
370
    25
100
AcDbSpline
210
0.0
220
0.0
230
1.0
 70
     8
 71
     3
 72
     8
 73
     4
 74
     0
 42
0.000000001
 43
0.00000001
 40
1.0
 40
1.0
 40
1.0
 40
1.0
 40
2.0
 40
2.0
 40
2.0
 40
2.0
 10
6287.683889045386
 20
5316.882726463828
 30
0.0
 10
6287.577745653458
 20
5316.893113426719
 30
0.0
 10
6287.476356493301
 20
5316.908978091433
 30
0.0
 10
6287.375587450333
 20
5316.930062075808
 30
0.0
  0
SPLINE
  5
1C3
330
1F
100
AcDbEntity
  8
0
  6
Continuous
 62
     7
370
    25
100
AcDbSpline
210
0.0
220
0.0
230
1.0
 70
     8
 71
     3
 72
     8
 73
     4
 74
     0
 42
0.000000001
 43
0.00000001
 40
2.0
 40
2.0
 40
2.0
 40
2.0
 40
3.0
 40
3.0
 40
3.0
 40
3.0
 10
6287.375587450333
 20
5316.930062075808
 30
0.0
 10
6287.343444709448
 20
5316.935539777631
 30
0.0
 10
6287.316779670385
 20
5316.940965803022
 30
0.0
 10
6287.285360399552
 20
5316.95130108948
 30
0.0
  0
SPLINE
  5
1C4
330
1F
100
AcDbEntity
  8
0
  6
Continuous
 62
     7
370
    25
100
AcDbSpline
210
0.0
220
0.0
230
1.0
 70
     8
 71
     3
 72
     8
 73
     4
 74
     0
 42
0.000000001
 43
0.00000001
 40
3.0
 40
3.0
 40
3.0
 40
3.0
 40
4.0
 40
4.0
 40
4.0
 40
4.0
 10
6287.285360399552
 20
5316.95130108948
 30
0.0
 10
6287.226966031062
 20
5316.961894758099
 30
0.0
 10
6287.167951545385
 20
5316.983082095339
 30
0.0
 10
6287.114724820125
 20
5316.998843407188
 30
0.0
  0
SPLINE
  5
1C5
330
1F
100
AcDbEntity
  8
0
  6
Continuous
 62
     7
370
    25
100
AcDbSpline
210
0.0
220
0.0
230
1.0
 70
     8
 71
     3
 72
     8
 73
     4
 74
     0
 42
0.000000001
 43
0.00000001
 40
4.0
 40
4.0
 40
4.0
 40
4.0
 40
5.0
 40
5.0
 40
5.0
 40
5.0
 10
6287.114724820125
 20
5316.998843407188
 30
0.0
 10
6287.11958240476
 20
5317.238105288699
 30
0.0
 10
6287.140563036271
 20
5317.472251203412
 30
0.0
 10
6287.193479702937
 20
5317.658286359662
 30
0.0
  0
SPLINE
  5
1C6
330
1F
100
AcDbEntity
  8
0
  6
Continuous
 62
     7
370
    25
100
AcDbSpline
210
0.0
220
0.0
230
1.0
 70
     8
 71
     3
 72
     8
 73
     4
 74
     0
 42
0.000000001
 43
0.00000001
 40
5.0
 40
5.0
 40
5.0
 40
5.0
 40
6.0
 40
6.0
 40
6.0
 40
6.0
 10
6287.193479702937
 20
5317.658286359662
 30
0.0
 10
6287.225725796687
 20
5317.653325422162
 30
0.0
 10
6287.252080777156
 20
5317.642835106407
 30
0.0
 10
6287.284326870906
 20
5317.632138084923
 30
0.0
  0
SPLINE
  5
1C7
330
1F
100
AcDbEntity
  8
0
  6
Continuous
 62
     7
370
    25
100
AcDbSpline
210
0.0
220
0.0
230
1.0
 70
     8
 71
     3
 72
     8
 73
     4
 74
     0
 42
0.000000001
 43
0.00000001
 40
6.0
 40
6.0
 40
6.0
 40
6.0
 40
7.0
 40
7.0
 40
7.0
 40
7.0
 10
6287.284326870906
 20
5317.632138084923
 30
0.0
 10
6287.315746141739
 20
5317.6266603831
 30
0.0
 10
6287.342514533666
 20
5317.616170067345
 30
0.0
 10
6287.374553921687
 20
5317.610847394819
 30
0.0
  0
SPLINE
  5
1C8
330
1F
100
AcDbEntity
  8
0
  6
Continuous
 62
     7
370
    25
100
AcDbSpline
210
0.0
220
0.0
230
1.0
 70
     8
 71
     3
 72
     8
 73
     4
 74
     0
 42
0.000000001
 43
0.00000001
 40
7.0
 40
7.0
 40
7.0
 40
7.0
 40
8.0
 40
8.0
 40
8.0
 40
8.0
 10
6287.374553921687
 20
5317.610847394819
 30
0.0
 10
6287.470155321426
 20
5317.589608381146
 30
0.0
 10
6287.576712124812
 20
5317.579324771121
 30
0.0
 10
6287.682958869604
 20
5317.574157127891
 30
0.0
  0
SPLINE
  5
1C9
330
1F
100
AcDbEntity
  8
0
  6
Continuous
 62
     7
370
    25
100
AcDbSpline
210
0.0
220
0.0
230
1.0
 70
     8
 71
     3
 72
     8
 73
     4
 74
     0
 42
0.000000001
 43
0.00000001
 40
8.0
 40
8.0
 40
8.0
 40
8.0
 40
9.0
 40
9.0
 40
9.0
 40
9.0
 10
6287.682958869604
 20
5317.574157127891
 30
0.0
 10
6288.134610887833
 20
5317.542841209923
 30
0.0
 10
6288.645174038875
 20
5317.612759422813
 30
0.0
 10
6288.820563850073
 20
5317.729909894818
 30
0.0
  0
SPLINE
  5
1CA
330
1F
100
AcDbEntity
  8
0
  6
Continuous
 62
     7
370
    25
100
AcDbSpline
210
0.0
220
0.0
230
1.0
 70
     8
 71
     3
 72
     8
 73
     4
 74
     0
 42
0.000000001
 43
0.00000001
 40
9.0
 40
9.0
 40
9.0
 40
9.0
 40
10.0
 40
10.0
 40
10.0
 40
10.0
 10
6288.820563850073
 20
5317.729909894818
 30
0.0
 10
6288.927430712052
 20
5317.474886701459
 30
0.0
 10
6288.916888719864
 20
5317.208908104454
 30
0.0
 10
6288.938489468563
 20
5317.054912336225
 30
0.0
  0
SPLINE
  5
1CB
330
1F
100
AcDbEntity
  8
0
  6
Continuous
 62
     7
370
    25
100
AcDbSpline
210
0.0
220
0.0
230
1.0
 70
     8
 71
     3
 72
     8
 73
     4
 74
     0
 42
0.000000001
 43
0.00000001
 40
0.0
 40
0.0
 40
0.0
 40
0.0
 40
1.0
 40
1.0
 40
1.0
 40
1.0
 10
6284.818947639134
 20
5322.80768780823
 30
0.0
 10
6285.117327359188
 20
5322.685886457318
 30
0.0
 10
6285.490121141739
 20
5322.484296694949
 30
0.0
 10
6285.86198474851
 20
5322.219041567996
 30
0.0
  0
SPLINE
  5
1CC
330
1F
100
AcDbEntity
  8
0
  6
Continuous
 62
     7
370
    25
100
AcDbSpline
210
0.0
220
0.0
230
1.0
 70
     8
 71
     3
 72
     8
 73
     4
 74
     0
 42
0.000000001
 43
0.00000001
 40
3.0
 40
3.0
 40
3.0
 40
3.0
 40
4.0
 40
4.0
 40
4.0
 40
4.0
 10
6284.819154344865
 20
5322.738596418256
 30
0.0
 10
6284.691926968562
 20
5322.81828147685
 30
0.0
 10
6284.552917365698
 20
5322.882101870729
 30
0.0
 10
6284.409877001114
 20
5322.935018537397
 30
0.0
  0
SPLINE
  5
1CD
330
1F
100
AcDbEntity
  8
0
  6
Continuous
 62
     7
370
    25
100
AcDbSpline
210
0.0
220
0.0
230
1.0
 70
     8
 71
     3
 72
     8
 73
     4
 74
     0
 42
0.000000001
 43
0.00000001
 40
4.0
 40
4.0
 40
4.0
 40
4.0
 40
5.0
 40
5.0
 40
5.0
 40
5.0
 10
6284.409877001114
 20
5322.935018537397
 30
0.0
 10
6284.516020393041
 20
5322.918843814089
 30
0.0
 10
6284.659474169083
 20
5322.876727521771
 30
0.0
 10
6284.818947639134
 20
5322.80768780823
 30
0.0
  0
SPLINE
  5
1CE
330
1F
100
AcDbEntity
  8
0
  6
Continuous
 62
     7
370
    25
100
AcDbSpline
210
0.0
220
0.0
230
1.0
 70
     8
 71
     3
 72
     8
 73
     4
 74
     0
 42
0.000000001
 43
0.00000001
 40
2.0
 40
2.0
 40
2.0
 40
2.0
 40
3.0
 40
3.0
 40
3.0
 40
3.0
 10
6285.517096239396
 20
5322.1228717275
 30
0.0
 10
6285.336022020646
 20
5322.356655907188
 30
0.0
 10
6285.095933316218
 20
5322.568839338178
 30
0.0
 10
6284.819154344865
 20
5322.738596418256
 30
0.0
  0
SPLINE
  5
1CF
330
1F
100
AcDbEntity
  8
0
  6
Continuous
 62
     7
370
    25
100
AcDbSpline
210
0.0
220
0.0
230
1.0
 70
     8
 71
     3
 72
     8
 73
     4
 74
     0
 42
0.000000001
 43
0.00000001
 40
1.0
 40
1.0
 40
1.0
 40
1.0
 40
2.0
 40
2.0
 40
2.0
 40
2.0
 10
6285.86198474851
 20
5322.219041567996
 30
0.0
 10
6285.729176317521
 20
5322.197699201459
 30
0.0
 10
6285.623342984187
 20
5322.165401431277
 30
0.0
 10
6285.517096239396
 20
5322.1228717275
 30
0.0
  0
SPLINE
  5
1D0
330
1F
100
AcDbEntity
  8
0
  6
Continuous
 62
     7
370
    25
100
AcDbSpline
210
0.0
220
0.0
230
1.0
 70
     8
 71
     3
 72
     8
 73
     4
 74
     0
 42
0.000000001
 43
0.00000001
 40
19.0
 40
19.0
 40
19.0
 40
19.0
 40
20.0
 40
20.0
 40
20.0
 40
20.0
 10
6284.173819058406
 20
5320.552063215131
 30
0.0
 10
6284.322130419083
 20
5321.015084048464
 30
0.0
 10
6284.544855842259
 20
5321.366483788047
 30
0.0
 10
6284.820911343562
 20
5321.622075422162
 30
0.0
  0
SPLINE
  5
1D1
330
1F
100
AcDbEntity
  8
0
  6
Continuous
 62
     7
370
    25
100
AcDbSpline
210
0.0
220
0.0
230
1.0
 70
     8
 71
     3
 72
     8
 73
     4
 74
     0
 42
0.000000001
 43
0.00000001
 40
9.0
 40
9.0
 40
9.0
 40
9.0
 40
10.0
 40
10.0
 40
10.0
 40
10.0
 10
6287.677171109187
 20
5321.312585269167
 30
0.0
 10
6287.576195360489
 20
5321.36023093974
 30
0.0
 10
6287.475012906062
 20
5321.407721581016
 30
0.0
 10
6287.36876616127
 20
5321.450302961224
 30
0.0
  0
SPLINE
  5
1D2
330
1F
100
AcDbEntity
  8
0
  6
Continuous
 62
     7
370
    25
100
AcDbSpline
210
0.0
220
0.0
230
1.0
 70
     8
 71
     3
 72
     8
 73
     4
 74
     0
 42
0.000000001
 43
0.00000001
 40
10.0
 40
10.0
 40
10.0
 40
10.0
 40
11.0
 40
11.0
 40
11.0
 40
11.0
 10
6287.36876616127
 20
5321.450302961224
 30
0.0
 10
6287.347268765437
 20
5321.460896629844
 30
0.0
 10
6287.32050037351
 20
5321.471541974896
 30
0.0
 10
6287.294248745906
 20
5321.481928937787
 30
0.0
  0
LINE
  5
1D3
330
1F
100
AcDbEntity
  8
0
  6
Continuous
 62
     7
370
    25
100
AcDbLine
 10
6287.2942492038
 20
5321.4819285741
 30
0.0
 11
6287.2783319697
 21
5321.4661705961
 31
0.0
  0
SPLINE
  5
1D4
330
1F
100
AcDbEntity
  8
0
  6
Continuous
 62
     7
370
    25
100
AcDbSpline
210
0.0
220
0.0
230
1.0
 70
     8
 71
     3
 72
     8
 73
     4
 74
     0
 42
0.000000001
 43
0.00000001
 40
12.0
 40
12.0
 40
12.0
 40
12.0
 40
13.0
 40
13.0
 40
13.0
 40
13.0
 10
6287.27833240476
 20
5321.466167625938
 30
0.0
 10
6287.220041389135
 20
5321.407308169558
 30
0.0
 10
6287.156169318822
 20
5321.354184797162
 30
0.0
 10
6287.09250395424
 20
5321.311758446251
 30
0.0
  0
SPLINE
  5
1D5
330
1F
100
AcDbEntity
  8
0
  6
Continuous
 62
     7
370
    25
100
AcDbSpline
210
0.0
220
0.0
230
1.0
 70
     8
 71
     3
 72
     8
 73
     4
 74
     0
 42
0.000000001
 43
0.00000001
 40
13.0
 40
13.0
 40
13.0
 40
13.0
 40
14.0
 40
14.0
 40
14.0
 40
14.0
 10
6287.09250395424
 20
5321.311758446251
 30
0.0
 10
6286.916700731583
 20
5321.194401268516
 30
0.0
 10
6286.720330288875
 20
5321.135748517865
 30
0.0
 10
6286.454403368301
 20
5321.135335106406
 30
0.0
  0
LINE
  5
1D6
330
1F
100
AcDbEntity
  8
0
  6
Continuous
 62
     7
370
    25
100
AcDbLine
 10
6286.4544029951
 20
5321.1353350153
 30
0.0
 11
6286.3904276535
 21
5321.1405057182
 31
0.0
  0
SPLINE
  5
1D7
330
1F
100
AcDbEntity
  8
0
  6
Continuous
 62
     7
370
    25
100
AcDbSpline
210
0.0
220
0.0
230
1.0
 70
     8
 71
     3
 72
     8
 73
     4
 74
     0
 42
0.000000001
 43
0.00000001
 40
15.0
 40
15.0
 40
15.0
 40
15.0
 40
16.0
 40
16.0
 40
16.0
 40
16.0
 10
6286.390427945124
 20
5321.140502749637
 30
0.0
 10
6286.204599494604
 20
5321.150683006797
 30
0.0
 10
6286.028692919083
 20
5321.219567691041
 30
0.0
 10
6285.884929084448
 20
5321.309846418256
 30
0.0
  0
SPLINE
  5
1D8
330
1F
100
AcDbEntity
  8
0
  6
Continuous
 62
     7
370
    25
100
AcDbSpline
210
0.0
220
0.0
230
1.0
 70
     8
 71
     3
 72
     8
 73
     4
 74
     0
 42
0.000000001
 43
0.00000001
 40
16.0
 40
16.0
 40
16.0
 40
16.0
 40
17.0
 40
17.0
 40
17.0
 40
17.0
 10
6285.884929084448
 20
5321.309846418256
 30
0.0
 10
6285.773307990698
 20
5321.378731102501
 30
0.0
 10
6285.682460822729
 20
5321.458312808229
 30
0.0
 10
6285.613317756322
 20
5321.532520165
 30
0.0
  0
SPLINE
  5
1D9
330
1F
100
AcDbEntity
  8
0
  6
Continuous
 62
     7
370
    25
100
AcDbSpline
210
0.0
220
0.0
230
1.0
 70
     8
 71
     3
 72
     8
 73
     4
 74
     0
 42
0.000000001
 43
0.00000001
 40
17.0
 40
17.0
 40
17.0
 40
17.0
 40
18.0
 40
18.0
 40
18.0
 40
18.0
 10
6285.613317756322
 20
5321.532520165
 30
0.0
 10
6285.390282274552
 20
5321.447202375287
 30
0.0
 10
6285.114330126115
 20
5321.287418846641
 30
0.0
 10
6284.821634813614
 20
5321.079782941693
 30
0.0
  0
SPLINE
  5
1DA
330
1F
100
AcDbEntity
  8
0
  6
Continuous
 62
     7
370
    25
100
AcDbSpline
210
0.0
220
0.0
230
1.0
 70
     8
 71
     3
 72
     8
 73
     4
 74
     0
 42
0.000000001
 43
0.00000001
 40
18.0
 40
18.0
 40
18.0
 40
18.0
 40
19.0
 40
19.0
 40
19.0
 40
19.0
 10
6284.821634813614
 20
5321.079782941693
 30
0.0
 10
6284.609451382625
 20
5320.924960350548
 30
0.0
 10
6284.391480191219
 20
5320.749157127892
 30
0.0
 10
6284.173819058406
 20
5320.552063215131
 30
0.0
  0
SPLINE
  5
1DB
330
1F
100
AcDbEntity
  8
0
  6
Continuous
 62
     7
370
    25
100
AcDbSpline
210
0.0
220
0.0
230
1.0
 70
     8
 71
     3
 72
     8
 73
     4
 74
     0
 42
0.000000001
 43
0.00000001
 40
0.0
 40
0.0
 40
0.0
 40
0.0
 40
1.0
 40
1.0
 40
1.0
 40
1.0
 10
6284.820911343562
 20
5321.622075422162
 30
0.0
 10
6285.118670946427
 20
5321.898906069949
 30
0.0
 10
6285.479475796687
 20
5322.064425682579
 30
0.0
 10
6285.883688850072
 20
5322.139356509401
 30
0.0
  0
SPLINE
  5
1DC
330
1F
100
AcDbEntity
  8
0
  6
Continuous
 62
     7
370
    25
100
AcDbSpline
210
0.0
220
0.0
230
1.0
 70
     8
 71
     3
 72
     8
 73
     4
 74
     0
 42
0.000000001
 43
0.00000001
 40
1.0
 40
1.0
 40
1.0
 40
1.0
 40
2.0
 40
2.0
 40
2.0
 40
2.0
 10
6285.883688850072
 20
5322.139356509401
 30
0.0
 10
6286.04326567299
 20
5322.171654279584
 30
0.0
 10
6286.208423550593
 20
5322.187725650027
 30
0.0
 10
6286.378335659968
 20
5322.193461734011
 30
0.0
  0
LINE
  5
1DD
330
1F
100
AcDbEntity
  8
0
  6
Continuous
 62
     7
370
    25
100
AcDbLine
 10
6286.3783353612
 20
5322.1934590211
 30
0.0
 11
6286.3888779327
 21
5322.1934590211
 31
0.0
  0
SPLINE
  5
1DE
330
1F
100
AcDbEntity
  8
0
  6
Continuous
 62
     7
370
    25
100
AcDbSpline
210
0.0
220
0.0
230
1.0
 70
     8
 71
     3
 72
     8
 73
     4
 74
     0
 42
0.000000001
 43
0.00000001
 40
3.0
 40
3.0
 40
3.0
 40
3.0
 40
4.0
 40
4.0
 40
4.0
 40
4.0
 10
6286.388877652156
 20
5322.193461734011
 30
0.0
 10
6286.628656297989
 20
5322.20426210836
 30
0.0
 10
6286.867504768042
 20
5322.167313459271
 30
0.0
 10
6287.091470425594
 20
5322.093416161095
 30
0.0
  0
SPLINE
  5
1DF
330
1F
100
AcDbEntity
  8
0
  6
Continuous
 62
     7
370
    25
100
AcDbSpline
210
0.0
220
0.0
230
1.0
 70
     8
 71
     3
 72
     8
 73
     4
 74
     0
 42
0.000000001
 43
0.00000001
 40
4.0
 40
4.0
 40
4.0
 40
4.0
 40
5.0
 40
5.0
 40
5.0
 40
5.0
 10
6287.091470425594
 20
5322.093416161095
 30
0.0
 10
6287.154929084448
 20
5322.072383853151
 30
0.0
 10
6287.219214566218
 20
5322.051093163047
 30
0.0
 10
6287.277505581844
 20
5322.024428123985
 30
0.0
  0
SPLINE
  5
1E0
330
1F
100
AcDbEntity
  8
0
  6
Continuous
 62
     7
370
    25
100
AcDbSpline
210
0.0
220
0.0
230
1.0
 70
     8
 71
     3
 72
     8
 73
     4
 74
     0
 42
0.000000001
 43
0.00000001
 40
5.0
 40
5.0
 40
5.0
 40
5.0
 40
6.0
 40
6.0
 40
6.0
 40
6.0
 10
6287.277505581844
 20
5322.024428123985
 30
0.0
 10
6287.308924852677
 20
5322.013834455365
 30
0.0
 10
6287.341170946426
 20
5321.998073143516
 30
0.0
 10
6287.368042691219
 20
5321.982105125939
 30
0.0
  0
SPLINE
  5
1E1
330
1F
100
AcDbEntity
  8
0
  6
Continuous
 62
     7
370
    25
100
AcDbSpline
210
0.0
220
0.0
230
1.0
 70
     8
 71
     3
 72
     8
 73
     4
 74
     0
 42
0.000000001
 43
0.00000001
 40
6.0
 40
6.0
 40
6.0
 40
6.0
 40
7.0
 40
7.0
 40
7.0
 40
7.0
 10
6287.368042691219
 20
5321.982105125939
 30
0.0
 10
6287.474186083145
 20
5321.934459455365
 30
0.0
 10
6287.580742886531
 20
5321.876271792605
 30
0.0
 10
6287.676447639134
 20
5321.812451398724
 30
0.0
  0
SPLINE
  5
1E2
330
1F
100
AcDbEntity
  8
0
  6
Continuous
 62
     7
370
    25
100
AcDbSpline
210
0.0
220
0.0
230
1.0
 70
     8
 71
     3
 72
     8
 73
     4
 74
     0
 42
0.000000001
 43
0.00000001
 40
7.0
 40
7.0
 40
7.0
 40
7.0
 40
8.0
 40
8.0
 40
8.0
 40
8.0
 10
6287.676447639134
 20
5321.812451398724
 30
0.0
 10
6288.107325731583
 20
5321.531228254194
 30
0.0
 10
6288.432577196427
 20
5321.122415998334
 30
0.0
 10
6288.555567105281
 20
5320.696963931277
 30
0.0
  0
SPLINE
  5
1E3
330
1F
100
AcDbEntity
  8
0
  6
Continuous
 62
     7
370
    25
100
AcDbSpline
210
0.0
220
0.0
230
1.0
 70
     8
 71
     3
 72
     8
 73
     4
 74
     0
 42
0.000000001
 43
0.00000001
 40
8.0
 40
8.0
 40
8.0
 40
8.0
 40
9.0
 40
9.0
 40
9.0
 40
9.0
 10
6288.555567105281
 20
5320.696963931277
 30
0.0
 10
6288.390615933406
 20
5320.898812075808
 30
0.0
 10
6288.065674527155
 20
5321.116266502891
 30
0.0
 10
6287.677171109187
 20
5321.312585269167
 30
0.0
  0
SPLINE
  5
1E4
330
1F
100
AcDbEntity
  8
0
  6
Continuous
 62
     7
370
    25
100
AcDbSpline
210
0.0
220
0.0
230
1.0
 70
     8
 71
     3
 72
     8
 73
     4
 74
     0
 42
0.000000001
 43
0.00000001
 40
0.0
 40
0.0
 40
0.0
 40
0.0
 40
1.0
 40
1.0
 40
1.0
 40
1.0
 10
6287.013748946557
 20
5320.57753955198
 30
0.0
 10
6287.008581303327
 20
5320.487157471901
 30
0.0
 10
6287.157409428327
 20
5320.487364177631
 30
0.0
 10
6287.151725020775
 20
5320.577746257709
 30
0.0
  0
SPLINE
  5
1E5
330
1F
100
AcDbEntity
  8
0
  6
Continuous
 62
     7
370
    25
100
AcDbSpline
210
0.0
220
0.0
230
1.0
 70
     8
 71
     3
 72
     8
 73
     4
 74
     0
 42
0.000000001
 43
0.00000001
 40
5.0
 40
5.0
 40
5.0
 40
5.0
 40
6.0
 40
6.0
 40
6.0
 40
6.0
 10
6287.093330777156
 20
5320.769259260052
 30
0.0
 10
6287.194203172989
 20
5320.769362612917
 30
0.0
 10
6287.268823941218
 20
5320.689884260052
 30
0.0
 10
6287.268927294083
 20
5320.588598452761
 30
0.0
  0
SPLINE
  5
1E6
330
1F
100
AcDbEntity
  8
0
  6
Continuous
 62
     7
370
    25
100
AcDbSpline
210
0.0
220
0.0
230
1.0
 70
     8
 71
     3
 72
     8
 73
     4
 74
     0
 42
0.000000001
 43
0.00000001
 40
1.0
 40
1.0
 40
1.0
 40
1.0
 40
2.0
 40
2.0
 40
2.0
 40
2.0
 10
6287.151725020775
 20
5320.577746257709
 30
0.0
 10
6287.157099369734
 20
5320.668335043516
 30
0.0
 10
6287.008271244735
 20
5320.668128337787
 30
0.0
 10
6287.013748946557
 20
5320.57753955198
 30
0.0
  0
SPLINE
  5
1E7
330
1F
100
AcDbEntity
  8
0
  6
Continuous
 62
     7
370
    25
100
AcDbSpline
210
0.0
220
0.0
230
1.0
 70
     8
 71
     3
 72
     8
 73
     4
 74
     0
 42
0.000000001
 43
0.00000001
 40
0.0
 40
0.0
 40
0.0
 40
0.0
 40
1.0
 40
1.0
 40
1.0
 40
1.0
 10
6287.268927294083
 20
5320.588598452761
 30
0.0
 10
6287.269133999813
 20
5320.493048729453
 30
0.0
 10
6287.194823290177
 20
5320.413208641563
 30
0.0
 10
6287.093950894343
 20
5320.40773093974
 30
0.0
  0
LINE
  5
1E8
330
1F
100
AcDbEntity
  8
0
  6
Continuous
 62
     7
370
    25
100
AcDbLine
 10
6287.093950589
 20
5320.407733666
 30
0.0
 11
6287.0882667273
 21
5320.4076293578
 31
0.0
  0
SPLINE
  5
1E9
330
1F
100
AcDbEntity
  8
0
  6
Continuous
 62
     7
370
    25
100
AcDbSpline
210
0.0
220
0.0
230
1.0
 70
     8
 71
     3
 72
     8
 73
     4
 74
     0
 42
0.000000001
 43
0.00000001
 40
2.0
 40
2.0
 40
2.0
 40
2.0
 40
3.0
 40
3.0
 40
3.0
 40
3.0
 10
6287.088266486791
 20
5320.407627586876
 30
0.0
 10
6286.992665087052
 20
5320.407524234011
 30
0.0
 10
6286.912463264135
 20
5320.48731264547
 30
0.0
 10
6286.912256558406
 20
5320.588081688438
 30
0.0
  0
SPLINE
  5
1EA
330
1F
100
AcDbEntity
  8
0
  6
Continuous
 62
     7
370
    25
100
AcDbSpline
210
0.0
220
0.0
230
1.0
 70
     8
 71
     3
 72
     8
 73
     4
 74
     0
 42
0.000000001
 43
0.00000001
 40
3.0
 40
3.0
 40
3.0
 40
3.0
 40
4.0
 40
4.0
 40
4.0
 40
4.0
 10
6286.912256558406
 20
5320.588081688438
 30
0.0
 10
6286.912153205541
 20
5320.68936749573
 30
0.0
 10
6286.992044969864
 20
5320.769052554324
 30
0.0
 10
6287.087646369604
 20
5320.769155907188
 30
0.0
  0
LINE
  5
1EB
330
1F
100
AcDbEntity
  8
0
  6
Continuous
 62
     7
370
    25
100
AcDbLine
 10
6287.0876464665
 20
5320.7691538801
 30
0.0
 11
6287.0933303282
 21
5320.7692581883
 31
0.0
  0
SPLINE
  5
1EC
330
1F
100
AcDbEntity
  8
0
  6
Continuous
 62
     7
370
    25
100
AcDbSpline
210
0.0
220
0.0
230
1.0
 70
     8
 71
     3
 72
     8
 73
     4
 74
     0
 42
0.000000001
 43
0.00000001
 40
5.0
 40
5.0
 40
5.0
 40
5.0
 40
6.0
 40
6.0
 40
6.0
 40
6.0
 10
6290.53622128627
 20
5322.768827053607
 30
0.0
 10
6290.509452894344
 20
5322.779214016497
 30
0.0
 10
6290.46676816127
 20
5322.789911037982
 30
0.0
 10
6290.408373792781
 20
5322.789807685118
 30
0.0
  0
LINE
  5
1ED
330
1F
100
AcDbEntity
  8
0
  6
Continuous
 62
     7
370
    25
100
AcDbLine
 10
6290.1319043383
 20
5322.7893937102
 30
0.0
 11
6290.1329381064
 21
5322.1566159001
 31
0.0
  0
LINE
  5
1EE
330
1F
100
AcDbEntity
  8
0
  6
Continuous
 62
     7
370
    25
100
AcDbLine
 10
6290.2176884606
 20
5322.1567202082
 30
0.0
 11
6290.2172749534
 21
5322.4332410565
 31
0.0
  0
LINE
  5
1EF
330
1F
100
AcDbEntity
  8
0
  6
Continuous
 62
     7
370
    25
100
AcDbLine
 10
6290.382329528
 20
5322.422750639
 30
0.0
 11
6290.3929745451
 21
5322.4172744622
 31
0.0
  0
LINE
  5
1F0
330
1F
100
AcDbEntity
  8
0
  6
Continuous
 62
     7
370
    25
100
AcDbLine
 10
6290.3929745451
 20
5322.4172744622
 30
0.0
 11
6290.4354521677
 21
5322.3749477139
 31
0.0
  0
SPLINE
  5
1F1
330
1F
100
AcDbEntity
  8
0
  6
Continuous
 62
     7
370
    25
100
AcDbSpline
210
0.0
220
0.0
230
1.0
 70
     8
 71
     3
 72
     8
 73
     4
 74
     0
 42
0.000000001
 43
0.00000001
 40
16.0
 40
16.0
 40
16.0
 40
16.0
 40
17.0
 40
17.0
 40
17.0
 40
17.0
 10
6290.435452243302
 20
5322.37494928668
 30
0.0
 10
6290.451575290176
 20
5322.359084621967
 30
0.0
 10
6290.473382744603
 20
5322.327303616107
 30
0.0
 10
6290.499427666478
 20
5322.289838202696
 30
0.0
  0
LINE
  5
1F2
330
1F
100
AcDbEntity
  8
0
  6
Continuous
 62
     7
370
    25
100
AcDbLine
 10
6290.6857730493
 20
5322.1573386064
 30
0.0
 11
6290.5791124001
 21
5322.3327327242
 31
0.0
  0
SPLINE
  5
1F3
330
1F
100
AcDbEntity
  8
0
  6
Continuous
 62
     7
370
    25
100
AcDbSpline
210
0.0
220
0.0
230
1.0
 70
     8
 71
     3
 72
     8
 73
     4
 74
     0
 42
0.000000001
 43
0.00000001
 40
2.0
 40
2.0
 40
2.0
 40
2.0
 40
3.0
 40
3.0
 40
3.0
 40
3.0
 10
6290.370443199161
 20
5323.076560278478
 30
0.0
 10
6290.70571989187
 20
5323.077128719232
 30
0.0
 10
6290.982912274682
 20
5322.801124894362
 30
0.0
 10
6290.98332568614
 20
5322.460938940586
 30
0.0
  0
LINE
  5
1F4
330
1F
100
AcDbEntity
  8
0
  6
Continuous
 62
     7
370
    25
100
AcDbLine
 10
6290.3819160208
 20
5322.7898109427
 30
0.0
 11
6290.1319043383
 21
5322.7893937102
 31
0.0
  0
LINE
  5
1F5
330
1F
100
AcDbEntity
  8
0
  6
Continuous
 62
     7
370
    25
100
AcDbLine
 10
6290.4994284406
 20
5322.2898397317
 30
0.0
 11
6290.5847971931
 21
5322.1572342982
 31
0.0
  0
LINE
  5
1F6
330
1F
100
AcDbEntity
  8
0
  6
Continuous
 62
     7
370
    25
100
AcDbLine
 10
6290.3555595919
 20
5322.4334496727
 30
0.0
 11
6290.382329528
 21
5322.422750639
 31
0.0
  0
LINE
  5
1F7
330
1F
100
AcDbEntity
  8
0
  6
Continuous
 62
     7
370
    25
100
AcDbLine
 10
6290.5847971931
 20
5322.1572342982
 30
0.0
 11
6290.6857730493
 21
5322.1573386064
 31
0.0
  0
LINE
  5
1F8
330
1F
100
AcDbEntity
  8
0
  6
Continuous
 62
     7
370
    25
100
AcDbLine
 10
6290.2172749534
 20
5322.4332410565
 30
0.0
 11
6290.3130819693
 21
5322.4333453646
 31
0.0
  0
LINE
  5
1F9
330
1F
100
AcDbEntity
  8
0
  6
Continuous
 62
     7
370
    25
100
AcDbLine
 10
6290.1329381064
 20
5322.1566159001
 30
0.0
 11
6290.2176884606
 21
5322.1567202082
 31
0.0
  0
LINE
  5
1FA
330
1F
100
AcDbEntity
  8
0
  6
Continuous
 62
     7
370
    25
100
AcDbLine
 10
6290.4083730325
 20
5322.7898109427
 30
0.0
 11
6290.3819160208
 21
5322.7898109427
 31
0.0
  0
SPLINE
  5
1FB
330
1F
100
AcDbEntity
  8
0
  6
Continuous
 62
     7
370
    25
100
AcDbSpline
210
0.0
220
0.0
230
1.0
 70
     8
 71
     3
 72
     8
 73
     4
 74
     0
 42
0.000000001
 43
0.00000001
 40
3.0
 40
3.0
 40
3.0
 40
3.0
 40
4.0
 40
4.0
 40
4.0
 40
4.0
 10
6290.637300387833
 20
5322.614882961811
 30
0.0
 10
6290.637300387833
 20
5322.646508938373
 30
0.0
 10
6290.626758395645
 20
5322.68387099892
 30
0.0
 10
6290.6108420545
 20
5322.710225979389
 30
0.0
  0
SPLINE
  5
1FC
330
1F
100
AcDbEntity
  8
0
  6
Continuous
 62
     7
370
    25
100
AcDbSpline
210
0.0
220
0.0
230
1.0
 70
     8
 71
     3
 72
     8
 73
     4
 74
     0
 42
0.000000001
 43
0.00000001
 40
2.0
 40
2.0
 40
2.0
 40
2.0
 40
3.0
 40
3.0
 40
3.0
 40
3.0
 10
6290.58986142299
 20
5322.497370754779
 30
0.0
 10
6290.621280693823
 20
5322.529565172097
 30
0.0
 10
6290.637403740697
 20
5322.56682387978
 30
0.0
 10
6290.637300387833
 20
5322.614882961811
 30
0.0
  0
SPLINE
  5
1FD
330
1F
100
AcDbEntity
  8
0
  6
Continuous
 62
     7
370
    25
100
AcDbSpline
210
0.0
220
0.0
230
1.0
 70
     8
 71
     3
 72
     8
 73
     4
 74
     0
 42
0.000000001
 43
0.00000001
 40
1.0
 40
1.0
 40
1.0
 40
1.0
 40
2.0
 40
2.0
 40
2.0
 40
2.0
 10
6290.456742933407
 20
5322.439079739154
 30
0.0
 10
6290.51524065476
 20
5322.449673407774
 30
0.0
 10
6290.563093031063
 20
5322.470809068581
 30
0.0
 10
6290.58986142299
 20
5322.497370754779
 30
0.0
  0
LINE
  5
1FE
330
1F
100
AcDbEntity
  8
0
  6
Continuous
 62
     7
370
    25
100
AcDbLine
 10
6290.509866704
 20
5322.4123123756
 30
0.0
 11
6290.4567422017
 21
5322.4390823116
 31
0.0
  0
SPLINE
  5
1FF
330
1F
100
AcDbEntity
  8
0
  6
Continuous
 62
     7
370
    25
100
AcDbSpline
210
0.0
220
0.0
230
1.0
 70
     8
 71
     3
 72
     8
 73
     4
 74
     0
 42
0.000000001
 43
0.00000001
 40
20.0
 40
20.0
 40
20.0
 40
20.0
 40
21.0
 40
21.0
 40
21.0
 40
21.0
 10
6290.579112725073
 20
5322.332729641497
 30
0.0
 10
6290.557822034969
 20
5322.364665676654
 30
0.0
 10
6290.531363701634
 20
5322.391330715716
 30
0.0
 10
6290.509866305802
 20
5322.412311347227
 30
0.0
  0
SPLINE
  5
200
330
1F
100
AcDbEntity
  8
0
  6
Continuous
 62
     7
370
    25
100
AcDbSpline
210
0.0
220
0.0
230
1.0
 70
     8
 71
     3
 72
     8
 73
     4
 74
     0
 42
0.000000001
 43
0.00000001
 40
0.0
 40
0.0
 40
0.0
 40
0.0
 40
1.0
 40
1.0
 40
1.0
 40
1.0
 10
6290.372303550724
 20
5321.853689184727
 30
0.0
 10
6290.032375979109
 20
5321.853172420404
 30
0.0
 10
6289.760868003848
 20
5322.124060278477
 30
0.0
 10
6289.760351239525
 20
5322.459130265456
 30
0.0
  0
LINE
  5
201
330
1F
100
AcDbEntity
  8
0
  6
Continuous
 62
     7
370
    25
100
AcDbLine
 10
6290.3130819693
 20
5322.4333453646
 30
0.0
 11
6290.3555595919
 21
5322.4334496727
 31
0.0
  0
SPLINE
  5
202
330
1F
100
AcDbEntity
  8
0
  6
Continuous
 62
     7
370
    25
100
AcDbSpline
210
0.0
220
0.0
230
1.0
 70
     8
 71
     3
 72
     8
 73
     4
 74
     0
 42
0.000000001
 43
0.00000001
 40
1.0
 40
1.0
 40
1.0
 40
1.0
 40
2.0
 40
2.0
 40
2.0
 40
2.0
 10
6289.760351239525
 20
5322.459130265456
 30
0.0
 10
6289.759834475203
 20
5322.799316219232
 30
0.0
 10
6290.030618980411
 20
5323.076043514155
 30
0.0
 10
6290.370443199161
 20
5323.076560278478
 30
0.0
  0
SPLINE
  5
203
330
1F
100
AcDbEntity
  8
0
  6
Continuous
 62
     7
370
    25
100
AcDbSpline
210
0.0
220
0.0
230
1.0
 70
     8
 71
     3
 72
     8
 73
     4
 74
     0
 42
0.000000001
 43
0.00000001
 40
3.0
 40
3.0
 40
3.0
 40
3.0
 40
4.0
 40
4.0
 40
4.0
 40
4.0
 10
6290.98332568614
 20
5322.460938940586
 30
0.0
 10
6290.983739097599
 20
5322.131294978998
 30
0.0
 10
6290.707683596296
 20
5321.85420594905
 30
0.0
 10
6290.372303550724
 20
5321.853689184727
 30
0.0
  0
SPLINE
  5
204
330
1F
100
AcDbEntity
  8
0
  6
Continuous
 62
     7
370
    25
100
AcDbSpline
210
0.0
220
0.0
230
1.0
 70
     8
 71
     3
 72
     8
 73
     4
 74
     0
 42
0.000000001
 43
0.00000001
 40
4.0
 40
4.0
 40
4.0
 40
4.0
 40
5.0
 40
5.0
 40
5.0
 40
5.0
 10
6290.6108420545
 20
5322.710225979389
 30
0.0
 10
6290.589551364395
 20
5322.736684312722
 30
0.0
 10
6290.567847262832
 20
5322.758130032124
 30
0.0
 10
6290.53622128627
 20
5322.768827053607
 30
0.0
  0
SPLINE
  5
205
330
1F
100
AcDbEntity
  8
0
  6
Continuous
 62
     7
370
    25
100
AcDbSpline
210
0.0
220
0.0
230
1.0
 70
     8
 71
     3
 72
     8
 73
     4
 74
     0
 42
0.000000001
 43
0.00000001
 40
0.0
 40
0.0
 40
0.0
 40
0.0
 40
1.0
 40
1.0
 40
1.0
 40
1.0
 10
6287.090953661271
 20
5322.412414777631
 30
0.0
 10
6287.154412320125
 20
5322.455047834272
 30
0.0
 10
6287.21270333575
 20
5322.497732567344
 30
0.0
 10
6287.276782111791
 20
5322.535197980756
 30
0.0
  0
SPLINE
  5
206
330
1F
100
AcDbEntity
  8
0
  6
Continuous
 62
     7
370
    25
100
AcDbSpline
210
0.0
220
0.0
230
1.0
 70
     8
 71
     3
 72
     8
 73
     4
 74
     0
 42
0.000000001
 43
0.00000001
 40
1.0
 40
1.0
 40
1.0
 40
1.0
 40
2.0
 40
2.0
 40
2.0
 40
2.0
 10
6287.276782111791
 20
5322.535197980756
 30
0.0
 10
6287.30809802976
 20
5322.551062645469
 30
0.0
 10
6287.340240770645
 20
5322.572249982709
 30
0.0
 10
6287.367009162573
 20
5322.588424706016
 30
0.0
  0
SPLINE
  5
207
330
1F
100
AcDbEntity
  8
0
  6
Continuous
 62
     7
370
    25
100
AcDbSpline
210
0.0
220
0.0
230
1.0
 70
     8
 71
     3
 72
     8
 73
     4
 74
     0
 42
0.000000001
 43
0.00000001
 40
2.0
 40
2.0
 40
2.0
 40
2.0
 40
3.0
 40
3.0
 40
3.0
 40
3.0
 10
6287.367009162573
 20
5322.588424706016
 30
0.0
 10
6287.473049201635
 20
5322.646922427371
 30
0.0
 10
6287.574024950332
 20
5322.695084862266
 30
0.0
 10
6287.675000699031
 20
5322.737976301069
 30
0.0
  0
SPLINE
  5
208
330
1F
100
AcDbEntity
  8
0
  6
Continuous
 62
     7
370
    25
100
AcDbSpline
210
0.0
220
0.0
230
1.0
 70
     8
 71
     3
 72
     8
 73
     4
 74
     0
 42
0.000000001
 43
0.00000001
 40
3.0
 40
3.0
 40
3.0
 40
3.0
 40
4.0
 40
4.0
 40
4.0
 40
4.0
 10
6287.675000699031
 20
5322.737976301069
 30
0.0
 10
6287.823828824031
 20
5322.80158998922
 30
0.0
 10
6287.972967007625
 20
5322.844533104454
 30
0.0
 10
6288.116214077937
 20
5322.876624168906
 30
0.0
  0
SPLINE
  5
209
330
1F
100
AcDbEntity
  8
0
  6
Continuous
 62
     7
370
    25
100
AcDbSpline
210
0.0
220
0.0
230
1.0
 70
     8
 71
     3
 72
     8
 73
     4
 74
     0
 42
0.000000001
 43
0.00000001
 40
4.0
 40
4.0
 40
4.0
 40
4.0
 40
5.0
 40
5.0
 40
5.0
 40
5.0
 10
6288.116214077937
 20
5322.876624168906
 30
0.0
 10
6287.956637255021
 20
5322.796680728152
 30
0.0
 10
6287.80801583575
 20
5322.705885236615
 30
0.0
 10
6287.675104051895
 20
5322.604599429324
 30
0.0
  0
SPLINE
  5
20A
330
1F
100
AcDbEntity
  8
0
  6
Continuous
 62
     7
370
    25
100
AcDbSpline
210
0.0
220
0.0
230
1.0
 70
     8
 71
     3
 72
     8
 73
     4
 74
     0
 42
0.000000001
 43
0.00000001
 40
5.0
 40
5.0
 40
5.0
 40
5.0
 40
6.0
 40
6.0
 40
6.0
 40
6.0
 10
6287.675104051895
 20
5322.604599429324
 30
0.0
 10
6287.563896369604
 20
5322.524811017865
 30
0.0
 10
6287.462713915176
 20
5322.444815900678
 30
0.0
 10
6287.367319221166
 20
5322.354433820599
 30
0.0
  0
SPLINE
  5
20B
330
1F
100
AcDbEntity
  8
0
  6
Continuous
 62
     7
370
    25
100
AcDbSpline
210
0.0
220
0.0
230
1.0
 70
     8
 71
     3
 72
     8
 73
     4
 74
     0
 42
0.000000001
 43
0.00000001
 40
6.0
 40
6.0
 40
6.0
 40
6.0
 40
7.0
 40
7.0
 40
7.0
 40
7.0
 10
6287.367319221166
 20
5322.354433820599
 30
0.0
 10
6287.335279833145
 20
5322.322446109011
 30
0.0
 10
6287.308511441219
 20
5322.295677717084
 30
0.0
 10
6287.277195523249
 20
5322.263638329063
 30
0.0
  0
SPLINE
  5
20C
330
1F
100
AcDbEntity
  8
0
  6
Continuous
 62
     7
370
    25
100
AcDbSpline
210
0.0
220
0.0
230
1.0
 70
     8
 71
     3
 72
     8
 73
     4
 74
     0
 42
0.000000001
 43
0.00000001
 40
7.0
 40
7.0
 40
7.0
 40
7.0
 40
8.0
 40
8.0
 40
8.0
 40
8.0
 10
6287.277195523249
 20
5322.263638329063
 30
0.0
 10
6287.239471727677
 20
5322.221160301719
 30
0.0
 10
6287.202574755021
 20
5322.183798241173
 30
0.0
 10
6287.16536772377
 20
5322.141268537396
 30
0.0
  0
SPLINE
  5
20D
330
1F
100
AcDbEntity
  8
0
  6
Continuous
 62
     7
370
    25
100
AcDbSpline
210
0.0
220
0.0
230
1.0
 70
     8
 71
     3
 72
     8
 73
     4
 74
     0
 42
0.000000001
 43
0.00000001
 40
8.0
 40
8.0
 40
8.0
 40
8.0
 40
9.0
 40
9.0
 40
9.0
 40
9.0
 10
6287.16536772377
 20
5322.141268537396
 30
0.0
 10
6287.143973680802
 20
5322.151965558881
 30
0.0
 10
6287.117928758927
 20
5322.157236554975
 30
0.0
 10
6287.091367072729
 20
5322.167623517866
 30
0.0
  0
SPLINE
  5
20E
330
1F
100
AcDbEntity
  8
0
  6
Continuous
 62
     7
370
    25
100
AcDbSpline
210
0.0
220
0.0
230
1.0
 70
     8
 71
     3
 72
     8
 73
     4
 74
     0
 42
0.000000001
 43
0.00000001
 40
9.0
 40
9.0
 40
9.0
 40
9.0
 40
10.0
 40
10.0
 40
10.0
 40
10.0
 10
6287.091367072729
 20
5322.167623517866
 30
0.0
 10
6287.016436245905
 20
5322.18891420797
 30
0.0
 10
6286.94212553627
 20
5322.215372541303
 30
0.0
 10
6286.862130419083
 20
5322.231443911745
 30
0.0
  0
SPLINE
  5
20F
330
1F
100
AcDbEntity
  8
0
  6
Continuous
 62
     7
370
    25
100
AcDbSpline
210
0.0
220
0.0
230
1.0
 70
     8
 71
     3
 72
     8
 73
     4
 74
     0
 42
0.000000001
 43
0.00000001
 40
10.0
 40
10.0
 40
10.0
 40
10.0
 40
11.0
 40
11.0
 40
11.0
 40
11.0
 10
6286.862130419083
 20
5322.231443911745
 30
0.0
 10
6286.936854540178
 20
5322.295160952761
 30
0.0
 10
6287.016126187313
 20
5322.353917056277
 30
0.0
 10
6287.090953661271
 20
5322.412414777631
 30
0.0
  0
SPLINE
  5
210
330
1F
100
AcDbEntity
  8
0
  6
Continuous
 62
     7
370
    25
100
AcDbSpline
210
0.0
220
0.0
230
1.0
 70
     8
 71
     3
 72
     8
 73
     4
 74
     0
 42
0.000000001
 43
0.00000001
 40
7.0
 40
7.0
 40
7.0
 40
7.0
 40
8.0
 40
8.0
 40
8.0
 40
8.0
 10
6284.390653368302
 20
5321.217138898724
 30
0.0
 10
6284.065918667781
 20
5321.844077375287
 30
0.0
 10
6283.84650053627
 20
5322.471377586876
 30
0.0
 10
6283.904274787573
 20
5323.024367088829
 30
0.0
  0
SPLINE
  5
211
330
1F
100
AcDbEntity
  8
0
  6
Continuous
 62
     7
370
    25
100
AcDbSpline
210
0.0
220
0.0
230
1.0
 70
     8
 71
     3
 72
     8
 73
     4
 74
     0
 42
0.000000001
 43
0.00000001
 40
3.0
 40
3.0
 40
3.0
 40
3.0
 40
4.0
 40
4.0
 40
4.0
 40
4.0
 10
6285.288479702937
 20
5322.016159894818
 30
0.0
 10
6285.134173876115
 20
5322.175478335574
 30
0.0
 10
6284.979557990698
 20
5322.313144351199
 30
0.0
 10
6284.819671109188
 20
5322.440785138959
 30
0.0
  0
SPLINE
  5
212
330
1F
100
AcDbEntity
  8
0
  6
Continuous
 62
     7
370
    25
100
AcDbSpline
210
0.0
220
0.0
230
1.0
 70
     8
 71
     3
 72
     8
 73
     4
 74
     0
 42
0.000000001
 43
0.00000001
 40
4.0
 40
4.0
 40
4.0
 40
4.0
 40
5.0
 40
5.0
 40
5.0
 40
5.0
 10
6284.819671109188
 20
5322.440785138959
 30
0.0
 10
6284.5858869295
 20
5322.621445946251
 30
0.0
 10
6284.335772997208
 20
5322.764434634401
 30
0.0
 10
6284.042974331843
 20
5322.875745669558
 30
0.0
  0
SPLINE
  5
213
330
1F
100
AcDbEntity
  8
0
  6
Continuous
 62
     7
370
    25
100
AcDbSpline
210
0.0
220
0.0
230
1.0
 70
     8
 71
     3
 72
     8
 73
     4
 74
     0
 42
0.000000001
 43
0.00000001
 40
5.0
 40
5.0
 40
5.0
 40
5.0
 40
6.0
 40
6.0
 40
6.0
 40
6.0
 10
6284.042974331843
 20
5322.875745669558
 30
0.0
 10
6284.017136115698
 20
5322.311645734662
 30
0.0
 10
6284.203998094864
 20
5321.817722394818
 30
0.0
 10
6284.454938850073
 20
5321.307624331667
 30
0.0
  0
LINE
  5
214
330
1F
100
AcDbEntity
  8
0
  6
Continuous
 62
     7
370
    25
100
AcDbLine
 10
6284.4549391091
 20
5321.307622241
 30
0.0
 11
6284.390653637
 21
5321.2171423903
 31
0.0
  0
SPLINE
  5
215
330
1F
100
AcDbEntity
  8
0
  6
Continuous
 62
     7
370
    25
100
AcDbSpline
210
0.0
220
0.0
230
1.0
 70
     8
 71
     3
 72
     8
 73
     4
 74
     0
 42
0.000000001
 43
0.00000001
 40
0.0
 40
0.0
 40
0.0
 40
0.0
 40
1.0
 40
1.0
 40
1.0
 40
1.0
 10
6283.904274787573
 20
5323.024367088829
 30
0.0
 10
6284.223428433406
 20
5322.977031476849
 30
0.0
 10
6284.526665738093
 20
5322.855333478802
 30
0.0
 10
6284.819361050593
 20
5322.664079002891
 30
0.0
  0
SPLINE
  5
216
330
1F
100
AcDbEntity
  8
0
  6
Continuous
 62
     7
370
    25
100
AcDbSpline
210
0.0
220
0.0
230
1.0
 70
     8
 71
     3
 72
     8
 73
     4
 74
     0
 42
0.000000001
 43
0.00000001
 40
1.0
 40
1.0
 40
1.0
 40
1.0
 40
2.0
 40
2.0
 40
2.0
 40
2.0
 10
6284.819361050593
 20
5322.664079002891
 30
0.0
 10
6285.042913296687
 20
5322.515612612917
 30
0.0
 10
6285.261607958146
 20
5322.3246681956
 30
0.0
 10
6285.463972866999
 20
5322.096103335573
 30
0.0
  0
SPLINE
  5
217
330
1F
100
AcDbEntity
  8
0
  6
Continuous
 62
     7
370
    25
100
AcDbSpline
210
0.0
220
0.0
230
1.0
 70
     8
 71
     3
 72
     8
 73
     4
 74
     0
 42
0.000000001
 43
0.00000001
 40
2.0
 40
2.0
 40
2.0
 40
2.0
 40
3.0
 40
3.0
 40
3.0
 40
3.0
 10
6285.463972866999
 20
5322.096103335573
 30
0.0
 10
6285.405165087052
 20
5322.074915998333
 30
0.0
 10
6285.341706428198
 20
5322.042824933881
 30
0.0
 10
6285.288479702937
 20
5322.016159894818
 30
0.0
  0
LINE
  5
218
330
1F
100
AcDbEntity
  8
0
  6
Continuous
 62
     7
370
    25
100
AcDbLine
 10
6166.0187525347
 20
5137.1994543543
 30
0.0
 11
6214.0187566772
 21
5073.199458765
 31
0.0
  0
ARC
  5
219
330
1F
100
AcDbEntity
  8
0
  6
Continuous
 62
     7
370
    25
100
AcDbCircle
 10
6274.0187553361
 20
5218.1994545927
 30
0.0
 40
135.0000000000001
100
AcDbArc
 50
323.1301023542
 51
85.9893524807
  0
ARC
  5
21A
330
1F
100
AcDbEntity
  8
0
  6
Continuous
 62
     7
370
    25
100
AcDbCircle
 10
6274.0187553361
 20
5218.1994545927
 30
0.0
 40
135.0000000000001
100
AcDbArc
 50
94.0106475193
 51
216.8698976458
  0
LINE
  5
21B
330
1F
100
AcDbEntity
  8
0
  6
Continuous
 62
     7
370
    25
100
AcDbLine
 10
6382.0187581375
 20
5137.1994543543
 30
0.0
 11
6334.018753995
 21
5073.199458765
 31
0.0
  0
LINE
  5
21C
330
1F
100
AcDbEntity
  8
0
  6
Continuous
 62
     7
370
    25
100
AcDbLine
 10
6334.018753995
 20
5073.199458765
 30
0.0
 11
6333.8937556043
 21
5073.199458765
 31
0.0
  0
LINE
  5
21D
330
1F
100
AcDbEntity
  8
0
  6
Continuous
 62
     7
370
    25
100
AcDbLine
 10
6214.1437550679
 20
5073.199458765
 30
0.0
 11
6214.0187566772
 21
5073.199458765
 31
0.0
  0
LINE
  5
21E
330
1F
100
AcDbEntity
  8
0
  6
Continuous
 62
     7
370
    25
100
AcDbLine
 10
6822.5588209306
 20
5353.1994599571
 30
0.0
 11
6802.5588213776
 21
5353.1994599571
 31
0.0
  0
LINE
  5
21F
330
1F
100
AcDbEntity
  8
0
  6
Continuous
 62
     7
370
    25
100
AcDbLine
 10
6827.6015638684
 20
5353.0994582644
 30
0.0
 11
6822.5588209306
 21
5353.0994582644
 31
0.0
  0
LINE
  5
220
330
1F
100
AcDbEntity
  8
0
  6
Continuous
 62
     7
370
    25
100
AcDbLine
 10
6890.5666961644
 20
5353.0994582644
 30
0.0
 11
6855.5588207517
 21
5353.0994582644
 31
0.0
  0
ARC
  5
221
330
1F
100
AcDbEntity
  8
0
  6
Continuous
 62
     7
370
    25
100
AcDbCircle
 10
6890.5666978911
 20
5253.2133474902
 30
0.0
 40
99.88610710256398
100
AcDbArc
 50
61.93603114
 51
90.0
  0
LINE
  5
222
330
1F
100
AcDbEntity
  8
0
  6
Continuous
 62
     7
370
    25
100
AcDbLine
 10
6937.558826742
 20
5133.1994536986
 30
0.0
 11
6938.0588203047
 21
5133.1994536986
 31
0.0
  0
ARC
  5
223
330
1F
100
AcDbEntity
  8
0
  6
Continuous
 62
     7
370
    25
100
AcDbCircle
 10
6938.0588213776
 20
5134.1994545927
 30
0.0
 40
1.0
100
AcDbArc
 50
270.0
 51
0.0
  0
ARC
  5
224
330
1F
100
AcDbEntity
  8
0
  6
Continuous
 62
     7
370
    25
100
AcDbCircle
 10
6841.5588213776
 20
5320.0327879261
 30
0.0
 40
34.16666666666629
100
AcDbArc
 50
73.269038419
 51
106.3977574789
  0
LINE
  5
225
330
1F
100
AcDbEntity
  8
0
  6
Continuous
 62
     7
370
    25
100
AcDbLine
 10
6938.0588203047
 20
5216.1994544977
 30
0.0
 11
6937.558826742
 21
5216.1994544977
 31
0.0
  0
ARC
  5
226
330
1F
100
AcDbEntity
  8
0
  6
Continuous
 62
     7
370
    25
100
AcDbCircle
 10
6938.0588213776
 20
5215.1994545927
 30
0.0
 40
1.0
100
AcDbArc
 50
0.0
 51
90.0
  0
LINE
  5
227
330
1F
100
AcDbEntity
  8
0
  6
Continuous
 62
     7
370
    25
100
AcDbLine
 10
6802.5588213776
 20
5353.1994599571
 30
0.0
 11
6802.5588213776
 21
5137.1994543543
 31
0.0
  0
LINE
  5
228
330
1F
100
AcDbEntity
  8
0
  6
Continuous
 62
     7
370
    25
100
AcDbLine
 10
6822.5588209306
 20
5353.1994599571
 30
0.0
 11
6822.5588209306
 21
5137.1994543543
 31
0.0
  0
LINE
  5
229
330
1F
100
AcDbEntity
  8
0
  6
Continuous
 62
     7
370
    25
100
AcDbLine
 10
6822.5588209306
 20
5137.1994543543
 30
0.0
 11
6802.5588213776
 21
5137.1994543543
 31
0.0
  0
LINE
  5
22A
330
1F
100
AcDbEntity
  8
0
  6
Continuous
 62
     7
370
    25
100
AcDbLine
 10
6890.5666961644
 20
5137.2594538798
 30
0.0
 11
6822.5588209306
 21
5137.2594538798
 31
0.0
  0
SPLINE
  5
22B
330
1F
100
AcDbEntity
  8
0
  6
Continuous
 62
     7
370
    25
100
AcDbSpline
210
0.0
220
0.0
230
1.0
 70
     8
 71
     3
 72
    26
 73
    22
 74
     0
 42
0.000000001
 43
0.00000001
 40
0.0
 40
0.0
 40
0.0
 40
0.0
 40
0.0175978707231824
 40
0.0718736438749055
 40
0.1245039423376958
 40
0.1786501543492182
 40
0.2314722949033814
 40
0.285814386860193
 40
0.3388335854477191
 40
0.3933955269643415
 40
0.4463089041757302
 40
0.5007712511893505
 40
0.5534387872503121
 40
0.6076346833826429
 40
0.6603009477761645
 40
0.7144807130418147
 40
0.7673909387538935
 40
0.8218283907388875
 40
0.8748485455704492
 40
0.9294169237829476
 40
0.9999999999999999
 40
0.9999999999999999
 40
0.9999999999999999
 40
0.9999999999999999
 10
6827.60156386836
 20
5353.095032619491
 30
0.0
 10
6827.589790675312
 20
5353.096250027666
 30
0.0
 10
6827.541706319099
 20
5353.101222195216
 30
0.0
 10
6827.861490155236
 20
5353.06802753587
 30
0.0
 10
6828.559819047665
 20
5352.998327106883
 30
0.0
 10
6829.64207957778
 20
5352.89723991414
 30
0.0
 10
6831.064726654414
 20
5352.777784874555
 30
0.0
 10
6832.775064345482
 20
5352.653993912752
 30
0.0
 10
6834.753301410614
 20
5352.538175703292
 30
0.0
 10
6836.908773771479
 20
5352.445344312681
 30
0.0
 10
6839.216382851759
 20
5352.384680758943
 30
0.0
 10
6841.564949186747
 20
5352.364051671425
 30
0.0
 10
6843.930886395553
 20
5352.385265207544
 30
0.0
 10
6846.204445254132
 20
5352.445271743505
 30
0.0
 10
6848.366198986927
 20
5352.538334305504
 30
0.0
 10
6850.320356142372
 20
5352.652578204254
 30
0.0
 10
6852.046076829463
 20
5352.777193431166
 30
0.0
 10
6853.466801026132
 20
5352.896506156843
 30
0.0
 10
6854.553572042737
 20
5352.997802628276
 30
0.0
 10
6855.376891853677
 20
5353.080330482117
 30
0.0
 10
6855.493216071588
 20
5353.092560668382
 30
0.0
 10
6855.558820751743
 20
5353.099458264365
 30
0.0
  0
LINE
  5
22C
330
1F
100
AcDbEntity
  8
0
  6
Continuous
 62
     7
370
    25
100
AcDbLine
 10
6937.558826742
 20
5341.3551378718
 30
0.0
 11
6937.558826742
 21
5144.3060490956
 31
0.0
  0
ARC
  5
22D
330
1F
100
AcDbEntity
  8
0
  6
Continuous
 62
     7
370
    25
100
AcDbCircle
 10
6891.2565703911
 20
5292.8720195026
 30
0.0
 40
155.6140948183912
100
AcDbArc
 50
269.7459933748
 51
287.3102329795
  0
LINE
  5
22E
330
1F
100
AcDbEntity
  8
0
  6
Continuous
 62
     7
370
    25
100
AcDbLine
 10
6822.5588209306
 20
5073.199458765
 30
0.0
 11
6802.5588213776
 21
5073.199458765
 31
0.0
  0
LINE
  5
22F
330
1F
100
AcDbEntity
  8
0
  6
Continuous
 62
     7
370
    25
100
AcDbLine
 10
6822.5588209306
 20
5137.1994543543
 30
0.0
 11
6822.5588209306
 21
5073.199458765
 31
0.0
  0
LINE
  5
230
330
1F
100
AcDbEntity
  8
0
  6
Continuous
 62
     7
370
    25
100
AcDbLine
 10
6802.5588213776
 20
5137.1994543543
 30
0.0
 11
6802.5588213776
 21
5073.199458765
 31
0.0
  0
LINE
  5
231
330
1F
100
AcDbEntity
  8
0
  6
Continuous
 62
     7
370
    25
100
AcDbLine
 10
6890.5666961644
 20
5137.2594538798
 30
0.0
 11
6890.5666961644
 21
5073.199458765
 31
0.0
  0
LINE
  5
232
330
1F
100
AcDbEntity
  8
0
  6
Continuous
 62
     7
370
    25
100
AcDbLine
 10
6822.5588209306
 20
5073.199458765
 30
0.0
 11
6890.5666961644
 21
5073.199458765
 31
0.0
  0
LWPOLYLINE
  5
233
330
1F
100
AcDbEntity
  8
0
  6
Continuous
 62
     7
370
    25
100
AcDbPolyline
 90
        4
 70
   128
 43
0.0
 10
6931.5588145827
 20
5073.199458765
 10
6933.58055943
 20
5083.3081531992
 10
6935.5808913086
 20
5093.3098125925
 10
6937.558826742
 20
5103.1994525066
  0
LINE
  5
234
330
1F
100
AcDbEntity
  8
0
  6
Continuous
 62
     7
370
    25
100
AcDbLine
 10
6890.5666961644
 20
5073.199458765
 30
0.0
 11
6931.5588145827
 21
5073.199458765
 31
0.0
  0
LINE
  5
235
330
1F
100
AcDbEntity
  8
0
  6
Continuous
 62
     7
370
    25
100
AcDbLine
 10
6937.558826742
 20
5144.3060490956
 30
0.0
 11
6937.558826742
 21
5103.1994525066
 31
0.0
  0
LINE
  5
236
330
1F
100
AcDbEntity
  8
0
  6
Continuous
 62
     7
370
    25
100
AcDbLine
 10
6938.0588203047
 20
5164.9645309618
 30
0.0
 11
6937.558826742
 21
5164.9645309618
 31
0.0
  0
ARC
  5
237
330
1F
100
AcDbEntity
  8
0
  6
Continuous
 62
     7
370
    25
100
AcDbCircle
 10
6938.2905135096
 20
5163.8377158238
 30
0.0
 40
1.150388671899512
100
AcDbArc
 50
48.0972018801
 51
101.6190896606
  0
LINE
  5
238
330
1F
100
AcDbEntity
  8
0
  6
Continuous
 62
     7
370
    25
100
AcDbLine
 10
6939.0588223313
 20
5164.6939258745
 30
0.0
 11
6939.0588223313
 21
5134.1994557252
 31
0.0
  0
LINE
  5
239
330
1F
100
AcDbEntity
  8
0
  6
Continuous
 62
     7
370
    25
100
AcDbLine
 10
6938.0588203047
 20
5211.8358140534
 30
0.0
 11
6937.558826742
 21
5211.8358140534
 31
0.0
  0
LINE
  5
23A
330
1F
100
AcDbEntity
  8
0
  6
Continuous
 62
     7
370
    25
100
AcDbLine
 10
6938.0588203047
 20
5164.9645309618
 30
0.0
 11
6938.0588203047
 21
5211.8358140534
 31
0.0
  0
LINE
  5
23B
330
1F
100
AcDbEntity
  8
0
  6
Continuous
 62
     7
370
    25
100
AcDbLine
 10
6939.0588223313
 20
5211.4176325222
 30
0.0
 11
6939.0588223313
 21
5164.6939258745
 31
0.0
  0
LWPOLYLINE
  5
23C
330
1F
100
AcDbEntity
  8
0
  6
Continuous
 62
     7
370
    25
100
AcDbPolyline
 90
        9
 70
   128
 43
0.0
 10
6939.0588223313
 20
5211.4176325222
 10
6939.0395998333
 20
5211.4992159141
 10
6938.9827071999
 20
5211.5776635429
 10
6938.8902901982
 20
5211.6499616487
 10
6938.7659251068
 20
5211.7133316306
 10
6938.6143951987
 20
5211.7653376145
 10
6938.4415119265
 20
5211.8039819134
 10
6938.2539063071
 20
5211.8277786022
 10
6938.0588203047
 20
5211.8358140534
  0
LINE
  5
23D
330
1F
100
AcDbEntity
  8
0
  6
Continuous
 62
     7
370
    25
100
AcDbLine
 10
6939.0588223313
 20
5215.1994545666
 30
0.0
 11
6939.0588223313
 21
5211.4176325222
 31
0.0
  0
LINE
  5
23E
330
1F
100
AcDbEntity
  8
0
  6
Continuous
 62
     8
370
    25
100
AcDbLine
 10
6890.5666961644
 20
5353.0994582644
 30
0.0
 11
6890.5666961644
 21
5137.2594538798
 31
0.0
  0
LINE
  5
23F
330
1F
100
AcDbEntity
  8
0
  6
Continuous
 62
     8
370
    25
100
AcDbLine
 10
6938.0588203047
 20
5133.1994536986
 30
0.0
 11
6938.0588203047
 21
5164.9645309618
 31
0.0
  0
LINE
  5
240
330
1F
100
AcDbEntity
  8
0
  6
Continuous
 62
     8
370
    25
100
AcDbLine
 10
6938.0588203047
 20
5211.8358140534
 30
0.0
 11
6938.0588203047
 21
5216.1994544977
 31
0.0
  0
LINE
  5
241
330
1F
100
AcDbEntity
  8
0
  6
Continuous
 62
     7
370
    25
100
AcDbLine
 10
6139.0187499717
 20
4680.9735122772
 30
0.0
 11
6139.0187499717
 21
4660.9735127242
 31
0.0
  0
LINE
  5
242
330
1F
100
AcDbEntity
  8
0
  6
Continuous
 62
     7
370
    25
100
AcDbLine
 10
6409.0187607005
 20
4660.9735127242
 30
0.0
 11
6409.0187607005
 21
4680.9735122772
 31
0.0
  0
LINE
  5
243
330
1F
100
AcDbEntity
  8
0
  6
Continuous
 62
     7
370
    25
100
AcDbLine
 10
6408.9187590077
 20
4592.9656374903
 30
0.0
 11
6408.9187590077
 21
4660.9735127242
 31
0.0
  0
LINE
  5
244
330
1F
100
AcDbEntity
  8
0
  6
Continuous
 62
     7
370
    25
100
AcDbLine
 10
6139.1187516645
 20
4660.9735127242
 30
0.0
 11
6139.1187516645
 21
4592.9656374903
 31
0.0
  0
ARC
  5
245
330
1F
100
AcDbEntity
  8
0
  6
Continuous
 62
     7
370
    25
100
AcDbCircle
 10
6309.0326482335
 20
4592.9656357636
 30
0.0
 40
99.88610710256259
100
AcDbArc
 50
331.93603114
 51
0.0
  0
ARC
  5
246
330
1F
100
AcDbEntity
  8
0
  6
Continuous
 62
     7
370
    25
100
AcDbCircle
 10
6239.0048624387
 20
4592.9656357636
 30
0.0
 40
99.88610710256259
100
AcDbArc
 50
180.0
 51
208.06396886
  0
ARC
  5
247
330
1F
100
AcDbEntity
  8
0
  6
Continuous
 62
     7
370
    25
100
AcDbCircle
 10
6250.0187553361
 20
4545.4735122772
 30
0.0
 40
1.000000000000909
100
AcDbArc
 50
180.0
 51
270.0
  0
ARC
  5
248
330
1F
100
AcDbEntity
  8
0
  6
Continuous
 62
     7
370
    25
100
AcDbCircle
 10
6298.0187553361
 20
4545.4735122772
 30
0.0
 40
1.000000000000909
100
AcDbArc
 50
270.0
 51
0.0
  0
LINE
  5
249
330
1F
100
AcDbEntity
  8
0
  6
Continuous
 62
     7
370
    25
100
AcDbLine
 10
6249.0187549636
 20
4545.9735069127
 30
0.0
 11
6249.0187549636
 21
4545.47351335
 31
0.0
  0
LINE
  5
24A
330
1F
100
AcDbEntity
  8
0
  6
Continuous
 62
     7
370
    25
100
AcDbLine
 10
6299.0187557086
 20
4545.47351335
 30
0.0
 11
6299.0187557086
 21
4545.9735069127
 31
0.0
  0
LINE
  5
24B
330
1F
100
AcDbEntity
  8
0
  6
Continuous
 62
     7
370
    25
100
AcDbLine
 10
6409.0187607005
 20
4680.9735122772
 30
0.0
 11
6139.0187499717
 21
4680.9735122772
 31
0.0
  0
LINE
  5
24C
330
1F
100
AcDbEntity
  8
0
  6
Continuous
 62
     7
370
    25
100
AcDbLine
 10
6409.0187607005
 20
4660.9735127242
 30
0.0
 11
6139.0187499717
 21
4660.9735127242
 31
0.0
  0
SPLINE
  5
24D
330
1F
100
AcDbEntity
  8
0
  6
Continuous
 62
     7
370
    25
100
AcDbSpline
210
0.0
220
0.0
230
1.0
 70
    11
 71
     3
 72
    99
 73
    95
 74
     0
 42
0.000000001
 43
0.00000001
 40
0.0
 40
0.0
 40
0.0
 40
0.0
 40
0.0312499999999995
 40
0.0312499999999995
 40
0.0468749999999992
 40
0.0468749999999992
 40
0.0624999999999989
 40
0.0624999999999989
 40
0.0937499999999984
 40
0.0937499999999984
 40
0.1093749999999981
 40
0.1093749999999981
 40
0.1249999999999978
 40
0.1249999999999978
 40
0.1562499999999974
 40
0.1562499999999974
 40
0.1718749999999972
 40
0.1718749999999972
 40
0.1874999999999971
 40
0.203124999999997
 40
0.203124999999997
 40
0.2187499999999969
 40
0.2187499999999969
 40
0.2499999999999968
 40
0.2499999999999968
 40
0.2656249999999968
 40
0.2656249999999968
 40
0.2812499999999967
 40
0.2812499999999967
 40
0.3124999999999969
 40
0.3124999999999969
 40
0.328124999999997
 40
0.328124999999997
 40
0.3437499999999971
 40
0.3437499999999971
 40
0.3749999999999974
 40
0.3749999999999974
 40
0.4062499999999977
 40
0.4062499999999977
 40
0.4218749999999978
 40
0.4218749999999978
 40
0.4374999999999979
 40
0.4374999999999979
 40
0.4687499999999981
 40
0.4687499999999981
 40
0.4843749999999982
 40
0.4843749999999982
 40
0.4999999999999983
 40
0.4999999999999983
 40
0.5312499999999984
 40
0.5312499999999984
 40
0.5468749999999986
 40
0.5468749999999986
 40
0.5624999999999986
 40
0.5781249999999987
 40
0.5781249999999987
 40
0.5937499999999988
 40
0.5937499999999988
 40
0.6249999999999988
 40
0.6249999999999988
 40
0.6406249999999989
 40
0.6406249999999989
 40
0.6562499999999989
 40
0.6562499999999989
 40
0.6874999999999989
 40
0.6874999999999989
 40
0.703124999999999
 40
0.703124999999999
 40
0.718749999999999
 40
0.718749999999999
 40
0.749999999999999
 40
0.749999999999999
 40
0.781249999999999
 40
0.781249999999999
 40
0.796874999999999
 40
0.796874999999999
 40
0.8124999999999989
 40
0.8124999999999989
 40
0.8437499999999988
 40
0.8437499999999988
 40
0.8593749999999987
 40
0.8593749999999987
 40
0.8749999999999987
 40
0.8749999999999987
 40
0.9062499999999989
 40
0.9062499999999989
 40
0.9218749999999991
 40
0.9218749999999991
 40
0.9374999999999992
 40
0.9531249999999994
 40
0.9531249999999994
 40
0.9687499999999997
 40
0.9687499999999997
 40
1.0
 40
1.0
 40
1.0
 40
1.0
 10
6274.0187553361
 20
4627.973512277158
 30
0.0
 10
6274.944329563245
 20
4627.973512277158
 30
0.0
 10
6275.854312852025
 20
4628.064395764414
 30
0.0
 10
6277.196886186241
 20
4628.331383312469
 30
0.0
 10
6277.640649427872
 20
4628.442318673879
 30
0.0
 10
6278.520489153971
 20
4628.709059413414
 30
0.0
 10
6278.957627772987
 20
4628.865575375606
 30
0.0
 10
6280.228967825429
 20
4629.392767311574
 30
0.0
 10
6281.032842563486
 20
4629.822823190078
 30
0.0
 10
6282.173863333237
 20
4630.584773111382
 30
0.0
 10
6282.544724258901
 20
4630.859539008774
 30
0.0
 10
6283.257440587926
 20
4631.444540689172
 30
0.0
 10
6283.596659680562
 20
4631.752360043115
 30
0.0
 10
6284.564506153166
 20
4632.720406949922
 30
0.0
 10
6285.143799912878
 20
4633.4247955208
 30
0.0
 10
6285.911398008017
 20
4634.572374254392
 30
0.0
 10
6286.149534558259
 20
4634.969662634474
 30
0.0
 10
6286.5813110462
 20
4635.777391847022
 30
0.0
 10
6286.971513515142
 20
4636.602441420023
 30
0.0
 10
6287.279726280088
 20
4637.461690494339
 30
0.0
 10
6287.546327837722
 20
4638.338313741926
 30
0.0
 10
6287.659268696558
 20
4638.787815786692
 30
0.0
 10
6287.92917168822
 20
4640.143379938929
 30
0.0
 10
6288.018252616904
 20
4641.052144813081
 30
0.0
 10
6288.019003543616
 20
4642.42269003454
 30
0.0
 10
6287.9969496586
 20
4642.880780188489
 30
0.0
 10
6287.906834466949
 20
4643.799521487381
 30
0.0
 10
6287.838907276192
 20
4644.256707797537
 30
0.0
 10
6287.570878704722
 20
4645.603702069398
 30
0.0
 10
6287.30646544118
 20
4646.476691358943
 30
0.0
 10
6286.780421440732
 20
4647.74848791812
 30
0.0
 10
6286.582094555664
 20
4648.168156594797
 30
0.0
 10
6286.148891774419
 20
4648.978574771928
 30
0.0
 10
6285.913767147522
 20
4649.370575365459
 30
0.0
 10
6285.154084194904
 20
4650.507904142485
 30
0.0
 10
6284.575740531879
 20
4651.214956064667
 30
0.0
 10
6283.269226892473
 20
4652.522587861603
 30
0.0
 10
6282.562745547546
 20
4653.101466778236
 30
0.0
 10
6281.42625321737
 20
4653.862026068497
 30
0.0
 10
6281.034531972363
 20
4654.097451210837
 30
0.0
 10
6280.224679433995
 20
4654.531279720803
 30
0.0
 10
6279.80514088902
 20
4654.730010726
 30
0.0
 10
6278.533677411183
 20
4655.25724369665
 30
0.0
 10
6277.66105259226
 20
4655.522360333852
 30
0.0
 10
6276.314878566468
 20
4655.791515799823
 30
0.0
 10
6275.85836896864
 20
4655.859805403211
 30
0.0
 10
6274.93914657287
 20
4655.950858057777
 30
0.0
 10
6274.480879699297
 20
4655.973342911715
 30
0.0
 10
6273.109985737425
 20
4655.973848155623
 30
0.0
 10
6272.201228685732
 20
4655.885553550378
 30
0.0
 10
6270.846029058939
 20
4655.617041213924
 30
0.0
 10
6270.396127479769
 20
4655.504463153559
 30
0.0
 10
6269.518888848429
 20
4655.238551297783
 30
0.0
 10
6268.659086876062
 20
4654.931003868047
 30
0.0
 10
6267.833589006399
 20
4654.54146545682
 30
0.0
 10
6267.025454719368
 20
4654.110376622461
 30
0.0
 10
6266.628006581816
 20
4653.872616179797
 30
0.0
 10
6265.479633026413
 20
4653.105931309837
 30
0.0
 10
6264.774701030659
 20
4652.52720007734
 30
0.0
 10
6263.805798079097
 20
4651.560155100016
 30
0.0
 10
6263.497686545684
 20
4651.221195998141
 30
0.0
 10
6262.912082586775
 20
4650.508989014601
 30
0.0
 10
6262.63699996793
 20
4650.138362507236
 30
0.0
 10
6261.874128878997
 20
4648.998082468938
 30
0.0
 10
6261.443462750867
 20
4648.194719521471
 30
0.0
 10
6260.915285895631
 20
4646.924213178841
 30
0.0
 10
6260.758390141795
 20
4646.487283448783
 30
0.0
 10
6260.49079560363
 20
4645.607479909485
 30
0.0
 10
6260.379457640369
 20
4645.163770237499
 30
0.0
 10
6260.111282469034
 20
4643.821470176315
 30
0.0
 10
6260.019636493151
 20
4642.91181759077
 30
0.0
 10
6260.0178867017
 20
4641.061688432959
 30
0.0
 10
6260.108005402494
 20
4640.150393705638
 30
0.0
 10
6260.373777760352
 20
4638.807636692488
 30
0.0
 10
6260.484296719113
 20
4638.363858123379
 30
0.0
 10
6260.750141208038
 20
4637.484074418648
 30
0.0
 10
6260.906267094832
 20
4637.046722178037
 30
0.0
 10
6261.432472770441
 20
4635.774486110889
 30
0.0
 10
6261.861872695345
 20
4634.97018619637
 30
0.0
 10
6262.622666180052
 20
4633.828682943088
 30
0.0
 10
6262.896876276556
 20
4633.457849674614
 30
0.0
 10
6263.481439087072
 20
4632.744337360437
 30
0.0
 10
6263.789031399315
 20
4632.404760631952
 30
0.0
 10
6264.756343977356
 20
4631.435923591731
 30
0.0
 10
6265.460173789173
 20
4630.85607966211
 30
0.0
 10
6266.606682415309
 20
4630.087687462353
 30
0.0
 10
6267.003926997579
 20
4629.849074195566
 30
0.0
 10
6267.811462977676
 20
4629.416468955168
 30
0.0
 10
6268.636270931905
 20
4629.025492262961
 30
0.0
 10
6269.495158807679
 20
4628.71655685286
 30
0.0
 10
6270.371347748359
 20
4628.449230020318
 30
0.0
 10
6270.820100530193
 20
4628.336003791354
 30
0.0
 10
6272.177858746448
 20
4628.064406597166
 30
0.0
 10
6273.093181108956
 20
4627.973512277158
 30
0.0
 10
6274.0187553361
 20
4627.973512277158
 30
0.0
  0
LINE
  5
24E
330
1F
100
AcDbEntity
  8
0
  6
Continuous
 62
     7
370
    25
100
AcDbLine
 10
6397.1744386151
 20
4545.9735069127
 30
0.0
 11
6150.8630720571
 21
4545.9735069127
 31
0.0
  0
LINE
  5
24F
330
1F
100
AcDbEntity
  8
0
  6
Continuous
 62
     7
370
    25
100
AcDbLine
 10
6280.8314824149
 20
4545.47351335
 30
0.0
 11
6280.8314824149
 21
4545.9735069127
 31
0.0
  0
LINE
  5
250
330
1F
100
AcDbEntity
  8
0
  6
Continuous
 62
     7
370
    25
100
AcDbLine
 10
6267.2060282573
 20
4545.47351335
 30
0.0
 11
6280.8314824149
 21
4545.47351335
 31
0.0
  0
LINE
  5
251
330
1F
100
AcDbEntity
  8
0
  6
Continuous
 62
     7
370
    25
100
AcDbLine
 10
6267.2060282573
 20
4545.47351335
 30
0.0
 11
6267.2060282573
 21
4545.9735069127
 31
0.0
  0
LINE
  5
252
330
1F
100
AcDbEntity
  8
0
  6
Continuous
 62
     7
370
    25
100
AcDbLine
 10
6279.9231188044
 20
4544.4735113235
 30
0.0
 11
6268.1143918678
 21
4544.4735113235
 31
0.0
  0
ARC
  5
253
330
1F
100
AcDbEntity
  8
0
  6
Continuous
 62
     7
370
    25
100
AcDbCircle
 10
6268.1625155919
 20
4545.4297874763
 30
0.0
 40
0.9574862784211846
100
AcDbArc
 50
177.3825424975
 51
267.1190725734
  0
ARC
  5
254
330
1F
100
AcDbEntity
  8
0
  6
Continuous
 62
     7
370
    25
100
AcDbCircle
 10
6279.8749950803
 20
4545.4297874763
 30
0.0
 40
0.9574862784212304
100
AcDbArc
 50
272.8809274266
 51
2.6174575025
  0
LINE
  5
255
330
1F
100
AcDbEntity
  8
0
  6
Continuous
 62
     7
370
    25
100
AcDbLine
 10
6280.8314824149
 20
4545.47351335
 30
0.0
 11
6298.0860305622
 21
4545.47351335
 31
0.0
  0
ARC
  5
256
330
1F
100
AcDbEntity
  8
0
  6
Continuous
 62
     7
370
    25
100
AcDbCircle
 10
6297.1043300688
 20
4545.4551986168
 30
0.0
 40
0.9818713195539414
100
AcDbArc
 50
271.1093204437
 51
1.0687935961
  0
LINE
  5
257
330
1F
100
AcDbEntity
  8
0
  6
Continuous
 62
     7
370
    25
100
AcDbLine
 10
6297.1233391806
 20
4544.4735113235
 30
0.0
 11
6279.9231188044
 21
4544.4735113235
 31
0.0
  0
LINE
  5
258
330
1F
100
AcDbEntity
  8
0
  6
Continuous
 62
     7
370
    25
100
AcDbLine
 10
6298.0860305622
 20
4545.47351335
 30
0.0
 11
6298.0860305622
 21
4545.9735069127
 31
0.0
  0
LINE
  5
259
330
1F
100
AcDbEntity
  8
0
  6
Continuous
 62
     7
370
    25
100
AcDbLine
 10
6249.95148011
 20
4545.47351335
 30
0.0
 11
6267.2060282573
 21
4545.47351335
 31
0.0
  0
LINE
  5
25A
330
1F
100
AcDbEntity
  8
0
  6
Continuous
 62
     7
370
    25
100
AcDbLine
 10
6249.95148011
 20
4545.47351335
 30
0.0
 11
6249.95148011
 21
4545.9735069127
 31
0.0
  0
ARC
  5
25B
330
1F
100
AcDbEntity
  8
0
  6
Continuous
 62
     7
370
    25
100
AcDbCircle
 10
6250.9331806034
 20
4545.4551986168
 30
0.0
 40
0.9818713195533627
100
AcDbArc
 50
178.9312064039
 51
268.8906795564
  0
LINE
  5
25C
330
1F
100
AcDbEntity
  8
0
  6
Continuous
 62
     7
370
    25
100
AcDbLine
 10
6268.1143918678
 20
4544.4735113235
 30
0.0
 11
6250.9141714916
 21
4544.4735113235
 31
0.0
  0
LINE
  5
25D
330
1F
100
AcDbEntity
  8
0
  6
Continuous
 62
     7
370
    25
100
AcDbLine
 10
6250.9141714916
 20
4544.4735113235
 30
0.0
 11
6250.0187551275
 21
4544.4735113235
 31
0.0
  0
LINE
  5
25E
330
1F
100
AcDbEntity
  8
0
  6
Continuous
 62
     7
370
    25
100
AcDbLine
 10
6298.0187555447
 20
4544.4735113235
 30
0.0
 11
6297.1233391806
 21
4544.4735113235
 31
0.0
  0
LINE
  5
25F
330
1F
100
AcDbEntity
  8
0
  6
Continuous
 62
     8
370
    25
100
AcDbLine
 10
6408.9187590077
 20
4592.9656374903
 30
0.0
 11
6139.1187516645
 21
4592.9656374903
 31
0.0
  0
LINE
  5
260
330
1F
100
AcDbEntity
  8
0
  6
Continuous
 62
     8
370
    25
100
AcDbLine
 10
6298.0860305622
 20
4545.47351335
 30
0.0
 11
6299.0187557086
 21
4545.47351335
 31
0.0
  0
LINE
  5
261
330
1F
100
AcDbEntity
  8
0
  6
Continuous
 62
     8
370
    25
100
AcDbLine
 10
6249.0187549636
 20
4545.47351335
 30
0.0
 11
6249.95148011
 21
4545.47351335
 31
0.0
  0
ARC
  5
262
330
1F
100
AcDbEntity
  8
0
  6
Continuous
 62
     7
370
    25
100
AcDbCircle
 10
7466.4818987624
 20
5320.0327879261
 30
0.0
 40
34.16666666666636
100
AcDbArc
 50
73.9571835147
 51
106.0428164853
  0
LINE
  5
263
330
1F
100
AcDbEntity
  8
0
  6
Continuous
 62
     7
370
    25
100
AcDbLine
 10
7574.4819015638
 20
5137.1994543543
 30
0.0
 11
7526.4818974213
 21
5073.199458765
 31
0.0
  0
LINE
  5
264
330
1F
100
AcDbEntity
  8
0
  6
Continuous
 62
     7
370
    25
100
AcDbLine
 10
7526.4818974213
 20
5073.199458765
 30
0.0
 11
7406.4819001035
 21
5073.199458765
 31
0.0
  0
LINE
  5
265
330
1F
100
AcDbEntity
  8
0
  6
Continuous
 62
     7
370
    25
100
AcDbLine
 10
7406.4819001035
 20
5073.199458765
 30
0.0
 11
7358.481895961
 21
5137.1994543543
 31
0.0
  0
LINE
  5
266
330
1F
100
AcDbEntity
  8
0
  6
Continuous
 62
     7
370
    25
100
AcDbLine
 10
7412.739285119
 20
5252.1145198217
 30
0.0
 11
7387.6245513932
 21
5266.6145194044
 31
0.0
  0
ARC
  5
267
330
1F
100
AcDbEntity
  8
0
  6
Continuous
 62
     7
370
    25
100
AcDbCircle
 10
7386.3745489123
 20
5264.4494545927
 30
0.0
 40
2.500000000001251
100
AcDbArc
 50
60.0
 51
240.0
  0
LINE
  5
268
330
1F
100
AcDbEntity
  8
0
  6
Continuous
 62
     7
370
    25
100
AcDbLine
 10
7385.1245463268
 20
5262.2843909731
 30
0.0
 11
7410.2392837779
 21
5247.7843913903
 31
0.0
  0
ARC
  5
269
330
1F
100
AcDbEntity
  8
0
  6
Continuous
 62
     7
370
    25
100
AcDbCircle
 10
7411.4892856221
 20
5249.9494545927
 30
0.0
 40
2.500000000000463
100
AcDbArc
 50
240.0
 51
60.0
  0
LINE
  5
26A
330
1F
100
AcDbEntity
  8
0
  6
Continuous
 62
     7
370
    25
100
AcDbLine
 10
7545.3392461316
 20
5266.6145194044
 30
0.0
 11
7520.2245124058
 21
5252.1145198217
 31
0.0
  0
ARC
  5
26B
330
1F
100
AcDbEntity
  8
0
  6
Continuous
 62
     7
370
    25
100
AcDbCircle
 10
7521.4745119027
 20
5249.9494545927
 30
0.0
 40
2.500000000000463
100
AcDbArc
 50
120.0
 51
300.0
  0
LINE
  5
26C
330
1F
100
AcDbEntity
  8
0
  6
Continuous
 62
     7
370
    25
100
AcDbLine
 10
7522.7245137469
 20
5247.7843913903
 30
0.0
 11
7547.839251198
 21
5262.2843909731
 31
0.0
  0
ARC
  5
26D
330
1F
100
AcDbEntity
  8
0
  6
Continuous
 62
     7
370
    25
100
AcDbCircle
 10
7546.5892486125
 20
5264.4494545927
 30
0.0
 40
2.500000000000008
100
AcDbArc
 50
300.0
 51
120.0
  0
LINE
  5
26E
330
1F
100
AcDbEntity
  8
0
  6
Continuous
 62
     7
370
    25
100
AcDbLine
 10
7468.9818987065
 20
5125.6994534006
 30
0.0
 11
7468.9818987065
 21
5154.6994525662
 31
0.0
  0
ARC
  5
26F
330
1F
100
AcDbEntity
  8
0
  6
Continuous
 62
     7
370
    25
100
AcDbCircle
 10
7466.4818987624
 20
5154.6994545927
 30
0.0
 40
2.5
100
AcDbArc
 50
0.0
 51
180.0
  0
LINE
  5
270
330
1F
100
AcDbEntity
  8
0
  6
Continuous
 62
     7
370
    25
100
AcDbLine
 10
7463.9818988183
 20
5154.6994525662
 30
0.0
 11
7463.9818988183
 21
5125.6994534006
 31
0.0
  0
ARC
  5
271
330
1F
100
AcDbEntity
  8
0
  6
Continuous
 62
     7
370
    25
100
AcDbCircle
 10
7466.4818987624
 20
5125.6994545927
 30
0.0
 40
2.5
100
AcDbArc
 50
180.0
 51
0.0
  0
ARC
  5
272
330
1F
100
AcDbEntity
  8
0
  6
Continuous
 62
     7
370
    25
100
AcDbCircle
 10
7466.4818987624
 20
5218.1994545927
 30
0.0
 40
135.0000000000007
100
AcDbArc
 50
323.1301023542
 51
216.8698976458
  0
ENDSEC
  0
SECTION
  2
OBJECTS
  0
DICTIONARY
  5
C
330
0
100
AcDbDictionary
281
     1
  3
ACAD_GROUP
350
D
  3
ACAD_LAYOUT
350
1A
  3
ACAD_MLINESTYLE
350
17
  3
ACAD_PLOTSETTINGS
350
19
  3
ACAD_PLOTSTYLENAME
350
E
  3
ACAD_SCALELIST
350
47
  0
DICTIONARY
  5
D
102
{ACAD_REACTORS
330
C
102
}
330
C
100
AcDbDictionary
281
     1
  0
DICTIONARY
  5
1A
102
{ACAD_REACTORS
330
C
102
}
330
C
100
AcDbDictionary
281
     1
  3
Layout1
350
1E
  3
Layout2
350
26
  3
Model
350
22
  0
DICTIONARY
  5
17
102
{ACAD_REACTORS
330
C
102
}
330
C
100
AcDbDictionary
281
     1
  3
Standard
350
18
  0
DICTIONARY
  5
19
102
{ACAD_REACTORS
330
C
102
}
330
C
100
AcDbDictionary
281
     1
  0
ACDBDICTIONARYWDFLT
  5
E
102
{ACAD_REACTORS
330
C
102
}
330
C
100
AcDbDictionary
281
     1
  3
Normal
350
F
100
AcDbDictionaryWithDefault
340
F
  0
DICTIONARY
  5
47
102
{ACAD_REACTORS
330
C
102
}
330
C
100
AcDbDictionary
281
     1
  3
A0
350
48
  3
A1
350
49
  3
A2
350
4A
  3
A3
350
4B
  3
A4
350
4C
  3
A5
350
4D
  3
A6
350
4E
  3
A7
350
4F
  3
A8
350
50
  3
A9
350
51
  3
B0
350
52
  3
B1
350
53
  3
B2
350
54
  3
B3
350
55
  3
B4
350
56
  3
B5
350
57
  3
B6
350
58
  3
B7
350
59
  3
B8
350
5A
  3
B9
350
5B
  3
C0
350
5C
  3
C1
350
5D
  3
C2
350
5E
  3
C3
350
5F
  3
C4
350
60
  3
C5
350
61
  3
C6
350
62
  3
C7
350
63
  3
C8
350
64
  3
C9
350
65
  3
D0
350
66
  3
D1
350
67
  3
D2
350
68
  0
LAYOUT
  5
1E
102
{ACAD_REACTORS
330
1A
102
}
330
1A
100
AcDbPlotSettings
  1

  2
none_device
  4

  6

 40
0.0
 41
0.0
 42
0.0
 43
0.0
 44
0.0
 45
0.0
 46
0.0
 47
0.0
 48
0.0
 49
0.0
140
0.0
141
0.0
142
1.0
143
1.0
 70
   688
 72
     1
 73
     0
 74
     5
  7

 75
    16
147
1.0
148
0.0
149
0.0
100
AcDbLayout
  1
Layout1
 70
     1
 71
     1
 10
0.0
 20
0.0
 11
420.0
 21
297.0
 12
0.0
 22
0.0
 32
0.0
 14
1.0000000000E+20
 24
1.0000000000E+20
 34
1.0000000000E+20
 15
-1.0000000000E+20
 25
-1.0000000000E+20
 35
-1.0000000000E+20
146
0.0
 13
0.0
 23
0.0
 33
0.0
 16
1.0
 26
0.0
 36
0.0
 17
0.0
 27
1.0
 37
0.0
 76
     0
330
1B
  0
LAYOUT
  5
26
102
{ACAD_REACTORS
330
1A
102
}
330
1A
100
AcDbPlotSettings
  1

  2
none_device
  4

  6

 40
0.0
 41
0.0
 42
0.0
 43
0.0
 44
0.0
 45
0.0
 46
0.0
 47
0.0
 48
0.0
 49
0.0
140
0.0
141
0.0
142
1.0
143
1.0
 70
   688
 72
     1
 73
     0
 74
     5
  7

 75
    16
147
1.0
148
0.0
149
0.0
100
AcDbLayout
  1
Layout2
 70
     1
 71
     2
 10
0.0
 20
0.0
 11
0.0
 21
0.0
 12
0.0
 22
0.0
 32
0.0
 14
0.0
 24
0.0
 34
0.0
 15
0.0
 25
0.0
 35
0.0
146
0.0
 13
0.0
 23
0.0
 33
0.0
 16
1.0
 26
0.0
 36
0.0
 17
0.0
 27
1.0
 37
0.0
 76
     0
330
23
  0
LAYOUT
  5
22
102
{ACAD_REACTORS
330
1A
102
}
330
1A
100
AcDbPlotSettings
  1

  2
none_device
  4
Letter_(8.50_x_11.00_Inches)
  6

 40
6.35
 41
6.35
 42
6.35000508
 43
6.35000508
 44
215.9
 45
279.4
 46
0.0
 47
0.0
 48
0.0
 49
0.0
140
0.0
141
0.0
142
1.0
143
1.0
 70
  1712
 72
     1
 73
     0
 74
     0
  7

 75
     0
147
1.0
148
0.0
149
0.0
100
AcDbLayout
  1
Model
 70
     1
 71
     0
 10
0.0
 20
0.0
 11
20000.0
 21
10000.0
 12
0.0
 22
0.0
 32
0.0
 14
0.0
 24
0.0
 34
0.0
 15
20000.0
 25
10000.0
 35
0.0
146
0.0
 13
0.0
 23
0.0
 33
0.0
 16
1.0
 26
0.0
 36
0.0
 17
0.0
 27
1.0
 37
0.0
 76
     0
330
1F
331
29
  0
MLINESTYLE
  5
18
102
{ACAD_REACTORS
330
17
102
}
330
17
100
AcDbMlineStyle
  2
Standard
 70
     0
  3

 62
   256
 51
90.0
 52
90.0
 71
     2
 49
0.5
 62
   256
  6
BYLAYER
 49
-0.5
 62
   256
  6
BYLAYER
  0
ACDBPLACEHOLDER
  5
F
102
{ACAD_REACTORS
330
E
102
}
330
E
  0
SCALE
  5
48
102
{ACAD_REACTORS
330
47
102
}
330
47
100
AcDbScale
 70
     0
300
1:1
140
1.0
141
1.0
290
     1
  0
SCALE
  5
49
102
{ACAD_REACTORS
330
47
102
}
330
47
100
AcDbScale
 70
     0
300
1:2
140
1.0
141
2.0
290
     0
  0
SCALE
  5
4A
102
{ACAD_REACTORS
330
47
102
}
330
47
100
AcDbScale
 70
     0
300
1:4
140
1.0
141
4.0
290
     0
  0
SCALE
  5
4B
102
{ACAD_REACTORS
330
47
102
}
330
47
100
AcDbScale
 70
     0
300
1:5
140
1.0
141
5.0
290
     0
  0
SCALE
  5
4C
102
{ACAD_REACTORS
330
47
102
}
330
47
100
AcDbScale
 70
     0
300
1:8
140
1.0
141
8.0
290
     0
  0
SCALE
  5
4D
102
{ACAD_REACTORS
330
47
102
}
330
47
100
AcDbScale
 70
     0
300
1:10
140
1.0
141
10.0
290
     0
  0
SCALE
  5
4E
102
{ACAD_REACTORS
330
47
102
}
330
47
100
AcDbScale
 70
     0
300
1:16
140
1.0
141
16.0
290
     0
  0
SCALE
  5
4F
102
{ACAD_REACTORS
330
47
102
}
330
47
100
AcDbScale
 70
     0
300
1:20
140
1.0
141
20.0
290
     0
  0
SCALE
  5
50
102
{ACAD_REACTORS
330
47
102
}
330
47
100
AcDbScale
 70
     0
300
1:30
140
1.0
141
30.0
290
     0
  0
SCALE
  5
51
102
{ACAD_REACTORS
330
47
102
}
330
47
100
AcDbScale
 70
     0
300
1:40
140
1.0
141
40.0
290
     0
  0
SCALE
  5
52
102
{ACAD_REACTORS
330
47
102
}
330
47
100
AcDbScale
 70
     0
300
1:50
140
1.0
141
50.0
290
     0
  0
SCALE
  5
53
102
{ACAD_REACTORS
330
47
102
}
330
47
100
AcDbScale
 70
     0
300
1:100
140
1.0
141
100.0
290
     0
  0
SCALE
  5
54
102
{ACAD_REACTORS
330
47
102
}
330
47
100
AcDbScale
 70
     0
300
2:1
140
2.0
141
1.0
290
     0
  0
SCALE
  5
55
102
{ACAD_REACTORS
330
47
102
}
330
47
100
AcDbScale
 70
     0
300
4:1
140
4.0
141
1.0
290
     0
  0
SCALE
  5
56
102
{ACAD_REACTORS
330
47
102
}
330
47
100
AcDbScale
 70
     0
300
8:1
140
8.0
141
1.0
290
     0
  0
SCALE
  5
57
102
{ACAD_REACTORS
330
47
102
}
330
47
100
AcDbScale
 70
     0
300
10:1
140
10.0
141
1.0
290
     0
  0
SCALE
  5
58
102
{ACAD_REACTORS
330
47
102
}
330
47
100
AcDbScale
 70
     0
300
100:1
140
100.0
141
1.0
290
     0
  0
SCALE
  5
59
102
{ACAD_REACTORS
330
47
102
}
330
47
100
AcDbScale
 70
     0
300
1/128" = 1'-0"
140
0.0078125
141
12.0
290
     0
  0
SCALE
  5
5A
102
{ACAD_REACTORS
330
47
102
}
330
47
100
AcDbScale
 70
     0
300
1/64" = 1'-0"
140
0.015625
141
12.0
290
     0
  0
SCALE
  5
5B
102
{ACAD_REACTORS
330
47
102
}
330
47
100
AcDbScale
 70
     0
300
1/32" = 1'-0"
140
0.03125
141
12.0
290
     0
  0
SCALE
  5
5C
102
{ACAD_REACTORS
330
47
102
}
330
47
100
AcDbScale
 70
     0
300
1/16" = 1'-0"
140
0.0625
141
12.0
290
     0
  0
SCALE
  5
5D
102
{ACAD_REACTORS
330
47
102
}
330
47
100
AcDbScale
 70
     0
300
3/32" = 1'-0"
140
0.09375
141
12.0
290
     0
  0
SCALE
  5
5E
102
{ACAD_REACTORS
330
47
102
}
330
47
100
AcDbScale
 70
     0
300
1/8" = 1'-0"
140
0.125
141
12.0
290
     0
  0
SCALE
  5
5F
102
{ACAD_REACTORS
330
47
102
}
330
47
100
AcDbScale
 70
     0
300
3/16" = 1'-0"
140
0.1875
141
12.0
290
     0
  0
SCALE
  5
60
102
{ACAD_REACTORS
330
47
102
}
330
47
100
AcDbScale
 70
     0
300
1/4" = 1'-0"
140
0.25
141
12.0
290
     0
  0
SCALE
  5
61
102
{ACAD_REACTORS
330
47
102
}
330
47
100
AcDbScale
 70
     0
300
3/8" = 1'-0"
140
0.375
141
12.0
290
     0
  0
SCALE
  5
62
102
{ACAD_REACTORS
330
47
102
}
330
47
100
AcDbScale
 70
     0
300
1/2" = 1'-0"
140
0.5
141
12.0
290
     0
  0
SCALE
  5
63
102
{ACAD_REACTORS
330
47
102
}
330
47
100
AcDbScale
 70
     0
300
3/4" = 1'-0"
140
0.75
141
12.0
290
     0
  0
SCALE
  5
64
102
{ACAD_REACTORS
330
47
102
}
330
47
100
AcDbScale
 70
     0
300
1" = 1'-0"
140
1.0
141
12.0
290
     0
  0
SCALE
  5
65
102
{ACAD_REACTORS
330
47
102
}
330
47
100
AcDbScale
 70
     0
300
1-1/2" = 1'-0"
140
1.5
141
12.0
290
     0
  0
SCALE
  5
66
102
{ACAD_REACTORS
330
47
102
}
330
47
100
AcDbScale
 70
     0
300
3" = 1'-0"
140
3.0
141
12.0
290
     0
  0
SCALE
  5
67
102
{ACAD_REACTORS
330
47
102
}
330
47
100
AcDbScale
 70
     0
300
6" = 1'-0"
140
6.0
141
12.0
290
     0
  0
SCALE
  5
68
102
{ACAD_REACTORS
330
47
102
}
330
47
100
AcDbScale
 70
     0
300
1'-0" = 1'-0"
140
12.0
141
12.0
290
     0
  0
ENDSEC
  0
EOF
