  0
SECTION
  2
HEADER
  9
$ACADVER
  1
AC1015
  9
$ACADMAINTVER
 70
     6
  9
$DWGCODEPAGE
  3
ANSI_1250
  9
$INSBASE
 10
0.0
 20
0.0
 30
0.0
  9
$EXTMIN
 10
809.5398001937
 20
2586.5103238449
 30
0.0
  9
$EXTMAX
 10
3420.8490284075
 20
4421.5115718037
 30
0.0
  9
$LIMMIN
 10
0.0
 20
0.0
  9
$LIMMAX
 10
420.0
 20
297.0
  9
$ORTHOMODE
 70
     0
  9
$REGENMODE
 70
     1
  9
$FILLMODE
 70
     1
  9
$QTEXTMODE
 70
     0
  9
$MIRRTEXT
 70
     1
  9
$LTSCALE
 40
1.0
  9
$ATTMODE
 70
     1
  9
$TEXTSIZE
 40
3.5
  9
$TRACEWID
 40
1.0
  9
$TEXTSTYLE
  7
Standard
  9
$CLAYER
  8
0
  9
$CELTYPE
  6
ByLayer
  9
$CECOLOR
 62
   256
  9
$CELTSCALE
 40
1.0
  9
$DISPSILH
 70
     0
  9
$DIMSCALE
 40
1.0
  9
$DIMASZ
 40
3.302
  9
$DIMEXO
 40
0.0
  9
$DIMDLI
 40
3.75
  9
$DIMRND
 40
0.0
  9
$DIMDLE
 40
0.0
  9
$DIMEXE
 40
1.0
  9
$DIMTP
 40
0.0
  9
$DIMTM
 40
0.0
  9
$DIMTXT
 40
3.5
  9
$DIMCEN
 40
2.5
  9
$DIMTSZ
 40
0.0
  9
$DIMTOL
 70
     0
  9
$DIMLIM
 70
     0
  9
$DIMTIH
 70
     1
  9
$DIMTOH
 70
     1
  9
$DIMSE1
 70
     0
  9
$DIMSE2
 70
     0
  9
$DIMTAD
 70
     1
  9
$DIMZIN
 70
     0
  9
$DIMBLK
  1

  9
$DIMASO
 70
     1
  9
$DIMSHO
 70
     1
  9
$DIMPOST
  1

  9
$DIMAPOST
  1

  9
$DIMALT
 70
     0
  9
$DIMALTD
 70
     3
  9
$DIMALTF
 40
0.0393700787
  9
$DIMLFAC
 40
1.0
  9
$DIMTOFL
 70
     1
  9
$DIMTVP
 40
0.0
  9
$DIMTIX
 70
     0
  9
$DIMSOXD
 70
     0
  9
$DIMSAH
 70
     0
  9
$DIMBLK1
  1

  9
$DIMBLK2
  1

  9
$DIMSTYLE
  2
ISO-25
  9
$DIMCLRD
 70
     0
  9
$DIMCLRE
 70
     0
  9
$DIMCLRT
 70
     0
  9
$DIMTFAC
 40
1.0
  9
$DIMGAP
 40
1.524
  9
$DIMJUST
 70
     0
  9
$DIMSD1
 70
     0
  9
$DIMSD2
 70
     0
  9
$DIMTOLJ
 70
     0
  9
$DIMTZIN
 70
     0
  9
$DIMALTZ
 70
     0
  9
$DIMALTTZ
 70
     0
  9
$DIMUPT
 70
     0
  9
$DIMDEC
 70
     2
  9
$DIMTDEC
 70
     2
  9
$DIMALTU
 70
     2
  9
$DIMALTTD
 70
     3
  9
$DIMTXSTY
  7
Standard
  9
$DIMAUNIT
 70
     0
  9
$DIMADEC
 70
     2
  9
$DIMALTRND
 40
0.0
  9
$DIMAZIN
 70
     0
  9
$DIMDSEP
 70
    44
  9
$DIMATFIT
 70
     3
  9
$DIMFRAC
 70
     0
  9
$DIMLDRBLK
  1

  9
$DIMLUNIT
 70
     2
  9
$DIMLWD
 70
    -2
  9
$DIMLWE
 70
    -2
  9
$DIMTMOVE
 70
     0
  9
$LUNITS
 70
     2
  9
$LUPREC
 70
     2
  9
$SKETCHINC
 40
1.0
  9
$FILLETRAD
 40
10.0
  9
$AUNITS
 70
     0
  9
$AUPREC
 70
     2
  9
$MENU
  1
.
  9
$ELEVATION
 40
0.0
  9
$PELEVATION
 40
0.0
  9
$THICKNESS
 40
0.0
  9
$LIMCHECK
 70
     0
  9
$CHAMFERA
 40
0.0
  9
$CHAMFERB
 40
0.0
  9
$CHAMFERC
 40
0.0
  9
$CHAMFERD
 40
0.0
  9
$SKPOLY
 70
     0
  9
$TDCREATE
 40
2459094.37899978
  9
$TDUCREATE
 40
2459094.295666447
  9
$TDUPDATE
 40
2459094.379087477
  9
$TDUUPDATE
 40
2459094.295754144
  9
$TDINDWG
 40
0.0000000116
  9
$TDUSRTIMER
 40
0.0000000116
  9
$USRTIMER
 70
     1
  9
$ANGBASE
 50
0.0
  9
$ANGDIR
 70
     0
  9
$PDMODE
 70
     0
  9
$PDSIZE
 40
-1.0
  9
$PLINEWID
 40
0.0
  9
$SPLFRAME
 70
     0
  9
$SPLINETYPE
 70
     6
  9
$SPLINESEGS
 70
     8
  9
$HANDSEED
  5
235
  9
$SURFTAB1
 70
     6
  9
$SURFTAB2
 70
     6
  9
$SURFTYPE
 70
     6
  9
$SURFU
 70
     6
  9
$SURFV
 70
     6
  9
$UCSBASE
  2

  9
$UCSNAME
  2

  9
$UCSORG
 10
0.0
 20
0.0
 30
0.0
  9
$UCSXDIR
 10
1.0
 20
0.0
 30
0.0
  9
$UCSYDIR
 10
0.0
 20
1.0
 30
0.0
  9
$UCSORTHOREF
  2

  9
$UCSORTHOVIEW
 70
     0
  9
$UCSORGTOP
 10
0.0
 20
0.0
 30
0.0
  9
$UCSORGBOTTOM
 10
0.0
 20
0.0
 30
0.0
  9
$UCSORGLEFT
 10
0.0
 20
0.0
 30
0.0
  9
$UCSORGRIGHT
 10
0.0
 20
0.0
 30
0.0
  9
$UCSORGFRONT
 10
0.0
 20
0.0
 30
0.0
  9
$UCSORGBACK
 10
0.0
 20
0.0
 30
0.0
  9
$PUCSBASE
  2

  9
$PUCSNAME
  2

  9
$PUCSORG
 10
0.0
 20
0.0
 30
0.0
  9
$PUCSXDIR
 10
1.0
 20
0.0
 30
0.0
  9
$PUCSYDIR
 10
0.0
 20
1.0
 30
0.0
  9
$PUCSORTHOREF
  2

  9
$PUCSORTHOVIEW
 70
     0
  9
$PUCSORGTOP
 10
0.0
 20
0.0
 30
0.0
  9
$PUCSORGBOTTOM
 10
0.0
 20
0.0
 30
0.0
  9
$PUCSORGLEFT
 10
0.0
 20
0.0
 30
0.0
  9
$PUCSORGRIGHT
 10
0.0
 20
0.0
 30
0.0
  9
$PUCSORGFRONT
 10
0.0
 20
0.0
 30
0.0
  9
$PUCSORGBACK
 10
0.0
 20
0.0
 30
0.0
  9
$USERI1
 70
     0
  9
$USERI2
 70
     0
  9
$USERI3
 70
     0
  9
$USERI4
 70
     0
  9
$USERI5
 70
     0
  9
$USERR1
 40
0.0
  9
$USERR2
 40
0.0
  9
$USERR3
 40
0.0
  9
$USERR4
 40
0.0
  9
$USERR5
 40
0.0
  9
$WORLDVIEW
 70
     1
  9
$SHADEDGE
 70
     3
  9
$SHADEDIF
 70
    70
  9
$TILEMODE
 70
     1
  9
$MAXACTVP
 70
    64
  9
$PINSBASE
 10
0.0
 20
0.0
 30
0.0
  9
$PLIMCHECK
 70
     0
  9
$PEXTMIN
 10
1.0000000000E+20
 20
1.0000000000E+20
 30
1.0000000000E+20
  9
$PEXTMAX
 10
-1.0000000000E+20
 20
-1.0000000000E+20
 30
-1.0000000000E+20
  9
$PLIMMIN
 10
0.0
 20
0.0
  9
$PLIMMAX
 10
420.0
 20
297.0
  9
$UNITMODE
 70
     0
  9
$VISRETAIN
 70
     1
  9
$PLINEGEN
 70
     0
  9
$PSLTSCALE
 70
     1
  9
$TREEDEPTH
 70
  3020
  9
$CMLSTYLE
  2
Standard
  9
$CMLJUST
 70
     0
  9
$CMLSCALE
 40
20.0
  9
$PROXYGRAPHICS
 70
     1
  9
$MEASUREMENT
 70
     1
  9
$CELWEIGHT
370
    -1
  9
$ENDCAPS
280
     0
  9
$JOINSTYLE
280
     0
  9
$LWDISPLAY
290
     1
  9
$INSUNITS
 70
     4
  9
$HYPERLINKBASE
  1

  9
$STYLESHEET
  1

  9
$XEDIT
290
     1
  9
$CEPSNTYPE
380
     0
  9
$PSTYLEMODE
290
     1
  9
$FINGERPRINTGUID
  2
{a9178882-733a-484e-a879-2ea2797e5ebb}
  9
$VERSIONGUID
  2
{FAEB1C32-E019-11D5-929B-00C0DF256EC4}
  9
$EXTNAMES
290
     1
  9
$PSVPSCALE
 40
0.0
  9
$OLESTARTUP
290
     0
  0
ENDSEC
  0
SECTION
  2
CLASSES
  0
CLASS
  1
ACDBDICTIONARYWDFLT
  2
AcDbDictionaryWithDefault
  3
ObjectDBX Classes
 90
        0
280
     0
281
     0
  0
CLASS
  1
VISUALSTYLE
  2
AcDbVisualStyle
  3
ObjectDBX Classes
 90
     4095
280
     0
281
     0
  0
CLASS
  1
MATERIAL
  2
AcDbMaterial
  3
ObjectDBX Classes
 90
     1153
280
     0
281
     0
  0
CLASS
  1
SCALE
  2
AcDbScale
  3
ObjectDBX Classes
 90
     1153
280
     0
281
     0
  0
CLASS
  1
TABLESTYLE
  2
AcDbTableStyle
  3
ObjectDBX Classes
 90
     4095
280
     0
281
     0
  0
CLASS
  1
MLEADERSTYLE
  2
AcDbMLeaderStyle
  3
ACDB_MLEADERSTYLE_CLASS
 90
     4095
280
     0
281
     0
  0
CLASS
  1
SUN
  2
AcDbSun
  3
SCENEOE
 90
     1153
280
     0
281
     0
  0
CLASS
  1
ACDBPLACEHOLDER
  2
AcDbPlaceHolder
  3
ObjectDBX Classes
 90
        0
280
     0
281
     0
  0
CLASS
  1
LAYOUT
  2
AcDbLayout
  3
ObjectDBX Classes
 90
        0
280
     0
281
     0
  0
ENDSEC
  0
SECTION
  2
TABLES
  0
TABLE
  2
VPORT
  5
8
330
0
100
AcDbSymbolTable
 70
     1
  0
VPORT
  5
29
330
8
100
AcDbSymbolTableRecord
100
AcDbViewportTableRecord
  2
*Active
 70
     0
 10
0.0
 20
0.0
 11
1.0
 21
1.0
 12
2115.1944143006
 22
3504.0109478243
 13
0.0
 23
0.0
 14
10.0
 24
10.0
 15
10.0
 25
10.0
 16
0.0
 26
0.0
 36
1.0
 17
0.0
 27
0.0
 37
0.0
 40
1871.701272918
 41
1.4230558323
 42
50.0
 43
0.0
 44
0.0
 50
0.0
 51
0.0
 71
     0
 72
   100
 73
     1
 74
     3
 75
     0
 76
     0
 77
     0
 78
     0
281
     0
 65
     1
110
0.0
120
0.0
130
0.0
111
1.0
121
0.0
131
0.0
112
0.0
122
1.0
132
0.0
 79
     0
146
0.0
  0
ENDTAB
  0
TABLE
  2
LTYPE
  5
5
330
0
100
AcDbSymbolTable
 70
     6
  0
LTYPE
  5
14
330
5
100
AcDbSymbolTableRecord
100
AcDbLinetypeTableRecord
  2
ByBlock
 70
     0
  3

 72
    65
 73
     0
 40
0.0
  0
LTYPE
  5
15
330
5
100
AcDbSymbolTableRecord
100
AcDbLinetypeTableRecord
  2
ByLayer
 70
     0
  3

 72
    65
 73
     0
 40
0.0
  0
LTYPE
  5
16
330
5
100
AcDbSymbolTableRecord
100
AcDbLinetypeTableRecord
  2
Continuous
 70
     0
  3
Solid line
 72
    65
 73
     0
 40
0.0
  0
LTYPE
  5
6E
330
5
100
AcDbSymbolTableRecord
100
AcDbLinetypeTableRecord
  2
HIDDEN
 70
     0
  3
Hidden __ __ __ __ __ __ __ __ __ __ __ __ __ __
 72
    65
 73
     2
 40
1.905
 49
1.27
 74
     0
 49
-0.635
 74
     0
  0
LTYPE
  5
6F
330
5
100
AcDbSymbolTableRecord
100
AcDbLinetypeTableRecord
  2
PHANTOM
 70
     0
  3
Phantom ______  __  __  ______  __  __  ______
 72
    65
 73
     6
 40
12.7
 49
6.35
 74
     0
 49
-1.27
 74
     0
 49
1.27
 74
     0
 49
-1.27
 74
     0
 49
1.27
 74
     0
 49
-1.27
 74
     0
  0
LTYPE
  5
70
330
5
100
AcDbSymbolTableRecord
100
AcDbLinetypeTableRecord
  2
CENTER
 70
     0
  3
Center ____ _ ____ _ ____ _ ____ _ ____ _ ____
 72
    65
 73
     4
 40
10.16
 49
6.35
 74
     0
 49
-1.27
 74
     0
 49
1.27
 74
     0
 49
-1.27
 74
     0
  0
LTYPE
  5
71
330
5
100
AcDbSymbolTableRecord
100
AcDbLinetypeTableRecord
  2
CENTERX2
 70
     0
  3
Center (2x) ________  __  ________  __  _____
 72
    65
 73
     4
 40
20.32
 49
12.7
 74
     0
 49
-2.54
 74
     0
 49
2.54
 74
     0
 49
-2.54
 74
     0
  0
LTYPE
  5
72
330
5
100
AcDbSymbolTableRecord
100
AcDbLinetypeTableRecord
  2
DOT2
 70
     0
  3
Dot (.5x) ........................................
 72
    65
 73
     2
 40
0.635
 49
0.0
 74
     0
 49
-0.635
 74
     0
  0
ENDTAB
  0
TABLE
  2
LAYER
  5
2
330
0
100
AcDbSymbolTable
 70
     1
  0
LAYER
  5
10
330
2
100
AcDbSymbolTableRecord
100
AcDbLayerTableRecord
  2
0
 70
     0
 62
     7
  6
Continuous
370
    -3
390
F
  0
ENDTAB
  0
TABLE
  2
STYLE
  5
3
330
0
100
AcDbSymbolTable
 70
     1
  0
STYLE
  5
11
330
3
100
AcDbSymbolTableRecord
100
AcDbTextStyleTableRecord
  2
Standard
 70
     0
 40
0.0
 41
1.0
 50
0.0
 71
     0
 42
3.5
  3
txt
  4

  0
ENDTAB
  0
TABLE
  2
VIEW
  5
6
330
0
100
AcDbSymbolTable
 70
     0
  0
ENDTAB
  0
TABLE
  2
UCS
  5
7
330
0
100
AcDbSymbolTable
 70
     0
  0
ENDTAB
  0
TABLE
  2
APPID
  5
9
330
0
100
AcDbSymbolTable
 70
     1
  0
APPID
  5
12
330
9
100
AcDbSymbolTableRecord
100
AcDbRegAppTableRecord
  2
ACAD
 70
     0
  0
ENDTAB
  0
TABLE
  2
DIMSTYLE
  5
A
330
0
100
AcDbSymbolTable
 70
     1
100
AcDbDimStyleTable
  0
DIMSTYLE
105
27
330
A
100
AcDbSymbolTableRecord
100
AcDbDimStyleTableRecord
  2
ISO-25
 70
     0
 41
2.5
 42
0.625
 43
3.75
 44
1.25
 73
     0
 74
     0
 77
     1
 78
     8
140
2.5
141
2.5
143
0.0393700787
147
0.625
171
     3
172
     1
178
     0
271
     2
272
     2
274
     3
278
    44
283
     0
284
     8
340
11
  0
ENDTAB
  0
TABLE
  2
BLOCK_RECORD
  5
1
330
0
100
AcDbSymbolTable
 70
     1
  0
BLOCK_RECORD
  5
1F
330
1
100
AcDbSymbolTableRecord
100
AcDbBlockTableRecord
  2
*Model_Space
340
22
  0
BLOCK_RECORD
  5
1B
330
1
100
AcDbSymbolTableRecord
100
AcDbBlockTableRecord
  2
*Paper_Space
340
1E
  0
BLOCK_RECORD
  5
23
330
1
100
AcDbSymbolTableRecord
100
AcDbBlockTableRecord
  2
*Paper_Space0
340
26
  0
ENDTAB
  0
ENDSEC
  0
SECTION
  2
BLOCKS
  0
BLOCK
  5
20
330
1F
100
AcDbEntity
  8
0
100
AcDbBlockBegin
  2
*Model_Space
 70
     0
 10
0.0
 20
0.0
 30
0.0
  3
*Model_Space
  1

  0
ENDBLK
  5
21
330
1F
100
AcDbEntity
  8
0
100
AcDbBlockEnd
  0
BLOCK
  5
1C
330
1B
100
AcDbEntity
 67
     1
  8
0
100
AcDbBlockBegin
  2
*Paper_Space
 70
     0
 10
0.0
 20
0.0
 30
0.0
  3
*Paper_Space
  1

  0
ENDBLK
  5
1D
330
1B
100
AcDbEntity
 67
     1
  8
0
100
AcDbBlockEnd
  0
BLOCK
  5
24
330
23
100
AcDbEntity
  8
0
100
AcDbBlockBegin
  2
*Paper_Space0
 70
     0
 10
0.0
 20
0.0
 30
0.0
  3
*Paper_Space0
  1

  0
ENDBLK
  5
25
330
23
100
AcDbEntity
  8
0
100
AcDbBlockEnd
  0
ENDSEC
  0
SECTION
  2
ENTITIES
  0
ARC
  5
73
330
1F
100
AcDbEntity
  8
0
  6
Continuous
 62
     7
100
AcDbCircle
 10
1681.8090235328
 20
3326.2666976703
 30
0.0
 40
7.560779376240053
100
AcDbArc
 50
28.0388921552
 51
51.7443585051
  0
ARC
  5
74
330
1F
100
AcDbEntity
  8
0
  6
Continuous
 62
     7
100
AcDbCircle
 10
1745.9158682741
 20
3326.2666976703
 30
0.0
 40
7.560779376240424
100
AcDbArc
 50
128.2628356171
 51
151.9611078448
  0
ARC
  5
75
330
1F
100
AcDbEntity
  8
0
  6
Continuous
 62
     7
100
AcDbCircle
 10
3229.7304975227
 20
3326.3805138702
 30
0.0
 40
7.560779376240719
100
AcDbArc
 50
28.0388921552
 51
50.7850988755
  0
ARC
  5
76
330
1F
100
AcDbEntity
  8
0
  6
Continuous
 62
     7
100
AcDbCircle
 10
3293.8373422639
 20
3326.3805138702
 30
0.0
 40
7.560779376240719
100
AcDbArc
 50
129.2149011245
 51
151.9611078448
  0
ARC
  5
77
330
1F
100
AcDbEntity
  8
0
  6
Continuous
 62
     7
100
AcDbCircle
 10
3177.5875985765
 20
3273.9412932465
 30
0.0
 40
28.14691151919964
100
AcDbArc
 50
235.2919507275
 51
270.0
  0
ARC
  5
78
330
1F
100
AcDbEntity
  8
0
  6
Continuous
 62
     7
100
AcDbCircle
 10
3177.5875985765
 20
3271.7376204585
 30
0.0
 40
28.14691151919915
100
AcDbArc
 50
90.0
 51
124.7080492725
  0
ARC
  5
79
330
1F
100
AcDbEntity
  8
0
  6
Continuous
 62
     7
100
AcDbCircle
 10
3177.5875985765
 20
3246.7960511764
 30
0.0
 40
1.001669449083238
100
AcDbArc
 50
270.0000000001
 51
0.0
  0
ARC
  5
7A
330
1F
100
AcDbEntity
  8
0
  6
Continuous
 62
     7
100
AcDbCircle
 10
3177.5875985765
 20
3298.8828625286
 30
0.0
 40
1.001669449082328
100
AcDbArc
 50
0.0
 51
90.0
  0
ARC
  5
7B
330
1F
100
AcDbEntity
  8
0
  6
Continuous
 62
     7
100
AcDbCircle
 10
3322.6854223975
 20
4266.7497676104
 30
0.0
 40
50.08347245409013
100
AcDbArc
 50
360.0
 51
64.5366549381
  0
ARC
  5
7C
330
1F
100
AcDbEntity
  8
0
  6
Continuous
 62
     7
100
AcDbCircle
 10
3113.8373422639
 20
4420.0090676301
 30
0.0
 40
1.502504173622583
100
AcDbArc
 50
64.5366549376
 51
180.0
  0
ARC
  5
7D
330
1F
100
AcDbEntity
  8
0
  6
Continuous
 62
     7
100
AcDbCircle
 10
1715.2544100516
 20
2756.5694440088
 30
0.0
 40
18.72351354842409
100
AcDbArc
 50
192.5898336885
 51
210.9554624827
  0
ARC
  5
7E
330
1F
100
AcDbEntity
  8
0
  6
Continuous
 62
     7
100
AcDbCircle
 10
1715.2544100516
 20
2756.5694440088
 30
0.0
 40
18.72351354802729
100
AcDbArc
 50
216.4950456213
 51
330.9174379654
  0
ARC
  5
7F
330
1F
100
AcDbEntity
  8
0
  6
Continuous
 62
     7
100
AcDbCircle
 10
1715.2544100516
 20
2756.5694440088
 30
0.0
 40
18.72351354801869
100
AcDbArc
 50
336.5043484508
 51
17.7544502166
  0
ARC
  5
80
330
1F
100
AcDbEntity
  8
0
  6
Continuous
 62
     7
100
AcDbCircle
 10
1715.2544100516
 20
2756.5694440088
 30
0.0
 40
18.72351354842388
100
AcDbArc
 50
162.2455497838
 51
192.5898336885
  0
ARC
  5
81
330
1F
100
AcDbEntity
  8
0
  6
Continuous
 62
     7
100
AcDbCircle
 10
1715.2544100516
 20
2756.5694440088
 30
0.0
 40
15.66713753671829
100
AcDbArc
 50
337.0053872216
 51
12.5898336894
  0
ARC
  5
82
330
1F
100
AcDbEntity
  8
0
  6
Continuous
 62
     7
100
AcDbCircle
 10
1715.2544100516
 20
2756.5694440088
 30
0.0
 40
15.66713753672707
100
AcDbArc
 50
217.0055594622
 51
330.3706826933
  0
ARC
  5
83
330
1F
100
AcDbEntity
  8
0
  6
Continuous
 62
     7
100
AcDbCircle
 10
1715.2544100516
 20
2756.5694440088
 30
0.0
 40
15.66713753712506
100
AcDbArc
 50
158.627723844
 51
210.3699975425
  0
ARC
  5
84
330
1F
100
AcDbEntity
  8
0
  6
Continuous
 62
     7
100
AcDbCircle
 10
1715.2544100516
 20
2756.5694440088
 30
0.0
 40
16.16797226134056
100
AcDbArc
 50
243.380048025
 51
299.4069950836
  0
ARC
  5
85
330
1F
100
AcDbEntity
  8
0
  6
Continuous
 62
     7
100
AcDbCircle
 10
1715.2544100516
 20
2756.5694440088
 30
0.0
 40
16.16797226163458
100
AcDbArc
 50
183.3800480261
 51
210.4693713584
  0
ARC
  5
86
330
1F
100
AcDbEntity
  8
0
  6
Continuous
 62
     7
100
AcDbCircle
 10
1715.2544100516
 20
2756.5694440088
 30
0.0
 40
16.1679722615527
100
AcDbArc
 50
216.9064909382
 51
239.4069233116
  0
ARC
  5
87
330
1F
100
AcDbEntity
  8
0
  6
Continuous
 62
     7
100
AcDbCircle
 10
1715.2544100516
 20
2756.5694440088
 30
0.0
 40
16.16797226166669
100
AcDbArc
 50
159.3206663137
 51
179.4069233122
  0
ARC
  5
88
330
1F
100
AcDbEntity
  8
0
  6
Continuous
 62
     7
100
AcDbCircle
 10
1715.2544100516
 20
2756.5694440088
 30
0.0
 40
16.1679722612678
100
AcDbArc
 50
303.3800480255
 51
330.5986720453
  0
ARC
  5
89
330
1F
100
AcDbEntity
  8
0
  6
Continuous
 62
     7
100
AcDbCircle
 10
1715.2544100516
 20
2756.5694440088
 30
0.0
 40
16.16797226125886
100
AcDbArc
 50
336.9064909386
 51
359.4069233124
  0
ARC
  5
8A
330
1F
100
AcDbEntity
  8
0
  6
Continuous
 62
     7
100
AcDbCircle
 10
1715.2544100516
 20
2756.5694440088
 30
0.0
 40
16.16797226125134
100
AcDbArc
 50
3.3800480264
 51
20.6793336868
  0
ARC
  5
8B
330
1F
100
AcDbEntity
  8
0
  6
Continuous
 62
     7
100
AcDbCircle
 10
1715.2544100516
 20
2756.5694440088
 30
0.0
 40
15.01219982007337
100
AcDbArc
 50
246.6378997213
 51
306.1886005332
  0
ARC
  5
8C
330
1F
100
AcDbEntity
  8
0
  6
Continuous
 62
     7
100
AcDbCircle
 10
1715.2544100516
 20
2756.5694440088
 30
0.0
 40
15.01219982038818
100
AcDbArc
 50
186.6378997225
 51
209.5962223044
  0
ARC
  5
8D
330
1F
100
AcDbEntity
  8
0
  6
Continuous
 62
     7
100
AcDbCircle
 10
1715.2544100516
 20
2756.5694440088
 30
0.0
 40
15.01219982027904
100
AcDbArc
 50
217.1599641065
 51
246.188600533
  0
ARC
  5
8E
330
1F
100
AcDbEntity
  8
0
  6
Continuous
 62
     7
100
AcDbCircle
 10
1715.2544100516
 20
2756.5694440088
 30
0.0
 40
15.01219982041904
100
AcDbArc
 50
157.646180673
 51
186.1886005336
  0
ARC
  5
8F
330
1F
100
AcDbEntity
  8
0
  6
Continuous
 62
     7
100
AcDbCircle
 10
1715.2544100516
 20
2756.5694440088
 30
0.0
 40
15.01219982001932
100
AcDbArc
 50
306.637899722
 51
330.2510383836
  0
ARC
  5
90
330
1F
100
AcDbEntity
  8
0
  6
Continuous
 62
     7
100
AcDbCircle
 10
1715.2544100516
 20
2756.5694440088
 30
0.0
 40
15.01219982000783
100
AcDbArc
 50
337.1599641068
 51
6.188600534
  0
ARC
  5
91
330
1F
100
AcDbEntity
  8
0
  6
Continuous
 62
     7
100
AcDbCircle
 10
1715.2544100516
 20
2756.5694440088
 30
0.0
 40
15.01219982001443
100
AcDbArc
 50
6.637899723
 51
22.3538193276
  0
ARC
  5
92
330
1F
100
AcDbEntity
  8
0
  6
Continuous
 62
     7
100
AcDbCircle
 10
1715.2544100516
 20
2756.5694440088
 30
0.0
 40
12.48837185327604
100
AcDbArc
 50
337.8511822634
 51
27.2057103106
  0
ARC
  5
93
330
1F
100
AcDbEntity
  8
0
  6
Continuous
 62
     7
100
AcDbCircle
 10
1715.2544100516
 20
2756.5694440088
 30
0.0
 40
12.48837185327629
100
AcDbArc
 50
329.5719197668
 51
337.8511822634
  0
ARC
  5
94
330
1F
100
AcDbEntity
  8
0
  6
Continuous
 62
     7
100
AcDbCircle
 10
1715.2544100516
 20
2756.5694440088
 30
0.0
 40
12.48837185327641
100
AcDbArc
 50
217.8511822628
 51
329.5719197668
  0
ARC
  5
95
330
1F
100
AcDbEntity
  8
0
  6
Continuous
 62
     7
100
AcDbCircle
 10
1715.2544100516
 20
2756.5694440088
 30
0.0
 40
12.48837185327641
100
AcDbArc
 50
209.5719197661
 51
217.8511822628
  0
ARC
  5
96
330
1F
100
AcDbEntity
  8
0
  6
Continuous
 62
     7
100
AcDbCircle
 10
1715.2544100516
 20
2756.5694440088
 30
0.0
 40
12.48837185327604
100
AcDbArc
 50
152.7942896903
 51
209.5719197661
  0
ARC
  5
97
330
1F
100
AcDbEntity
  8
0
  6
Continuous
 62
     7
100
AcDbCircle
 10
1715.2544100516
 20
2756.5694440088
 30
0.0
 40
12.52086811367492
100
AcDbArc
 50
209.5826822932
 51
217.8404197358
  0
ARC
  5
98
330
1F
100
AcDbEntity
  8
0
  6
Continuous
 62
     7
100
AcDbCircle
 10
1715.2544100516
 20
2756.5694440088
 30
0.0
 40
20.03338898141926
100
AcDbArc
 50
211.1323699852
 51
216.290732045
  0
ARC
  5
99
330
1F
100
AcDbEntity
  8
0
  6
Continuous
 62
     7
100
AcDbCircle
 10
1715.2544100516
 20
2756.5694440088
 30
0.0
 40
12.52086811335978
100
AcDbArc
 50
329.5826822938
 51
337.8404197364
  0
ARC
  5
9A
330
1F
100
AcDbEntity
  8
0
  6
Continuous
 62
     7
100
AcDbCircle
 10
1715.2544100516
 20
2756.5694440088
 30
0.0
 40
20.03338898141921
100
AcDbArc
 50
331.1323699635
 51
336.2907320668
  0
ARC
  5
9B
330
1F
100
AcDbEntity
  8
0
  6
Continuous
 62
     7
100
AcDbCircle
 10
1715.2544100516
 20
2756.5694440088
 30
0.0
 40
20.03338898141926
100
AcDbArc
 50
216.290732045
 51
331.1323699635
  0
ARC
  5
9C
330
1F
100
AcDbEntity
  8
0
  6
Continuous
 62
     7
100
AcDbCircle
 10
1715.2544100516
 20
2756.5694440088
 30
0.0
 40
20.03338898141921
100
AcDbArc
 50
336.2907320668
 51
16.5588485851
  0
ARC
  5
9D
330
1F
100
AcDbEntity
  8
0
  6
Continuous
 62
     7
100
AcDbCircle
 10
1715.2544100516
 20
2756.5694440088
 30
0.0
 40
20.03338898141923
100
AcDbArc
 50
163.4411514153
 51
211.1323699852
  0
ARC
  5
9E
330
1F
100
AcDbEntity
  8
0
  6
Continuous
 62
     7
100
AcDbCircle
 10
1715.2544100516
 20
2756.5694440088
 30
0.0
 40
22.03672787961323
100
AcDbArc
 50
164.9838732491
 51
15.0161267512
  0
ARC
  5
9F
330
1F
100
AcDbEntity
  8
0
  6
Continuous
 62
     7
100
AcDbCircle
 10
1715.2544100516
 20
2756.5694440088
 30
0.0
 40
35.05843071766554
100
AcDbArc
 50
170.4579330733
 51
9.3727740976
  0
ARC
  5
A0
330
1F
100
AcDbEntity
  8
0
  6
Continuous
 62
     7
100
AcDbCircle
 10
1708.7438002195
 20
2756.6255316021
 30
0.0
 40
26.04340567612698
100
AcDbArc
 50
341.9924546756
 51
360.0
  0
ARC
  5
A1
330
1F
100
AcDbEntity
  8
0
  6
Continuous
 62
     7
100
AcDbCircle
 10
1715.2544100516
 20
2756.5694440088
 30
0.0
 40
11.60965106133915
100
AcDbArc
 50
150.5416673382
 51
29.4583326628
  0
ARC
  5
A2
330
1F
100
AcDbEntity
  8
0
  6
Continuous
 62
     7
100
AcDbCircle
 10
1715.2544100516
 20
2756.5694440088
 30
0.0
 40
23.84228590743133
100
AcDbArc
 50
166.1447295037
 51
13.8552704966
  0
LINE
  5
A3
330
1F
100
AcDbEntity
  8
0
  6
Continuous
 62
     7
100
AcDbLine
 10
811.5431390918
 20
4421.5115718037
 30
0.0
 11
809.5398001937
 21
4421.5115718037
 31
0.0
  0
LINE
  5
A4
330
1F
100
AcDbEntity
  8
0
  6
Continuous
 62
     7
100
AcDbLine
 10
2609.5398001937
 20
4421.5115718037
 30
0.0
 11
2611.5431390918
 21
4421.5115718037
 31
0.0
  0
LINE
  5
A5
330
1F
100
AcDbEntity
  8
0
  6
Continuous
 62
     7
100
AcDbLine
 10
2611.5431390918
 20
4421.5115718037
 30
0.0
 11
811.5431390918
 21
4421.5115718037
 31
0.0
  0
LINE
  5
A6
330
1F
100
AcDbEntity
  8
0
  6
Continuous
 62
     7
100
AcDbLine
 10
1764.4469946693
 20
3320.8057742085
 30
0.0
 11
1764.4469946693
 21
3323.8107825557
 31
0.0
  0
LINE
  5
A7
330
1F
100
AcDbEntity
  8
0
  6
Continuous
 62
     7
100
AcDbLine
 10
1650.256677474
 20
3323.8107825557
 30
0.0
 11
1650.256677474
 21
3320.8057742085
 31
0.0
  0
LINE
  5
A8
330
1F
100
AcDbEntity
  8
0
  6
Continuous
 62
     7
100
AcDbLine
 10
1748.420283484
 20
3323.8107825557
 30
0.0
 11
1748.420283484
 21
3329.8207992502
 31
0.0
  0
LINE
  5
A9
330
1F
100
AcDbEntity
  8
0
  6
Continuous
 62
     7
100
AcDbLine
 10
1666.2833886593
 20
3329.8207992502
 30
0.0
 11
1666.2833886593
 21
3323.8107825557
 31
0.0
  0
LINE
  5
AA
330
1F
100
AcDbEntity
  8
0
  6
Continuous
 62
     7
100
AcDbLine
 10
1656.2666941684
 20
3281.9676242204
 30
0.0
 11
1656.2666941684
 21
3277.7217742331
 31
0.0
  0
LINE
  5
AB
330
1F
100
AcDbEntity
  8
0
  6
Continuous
 62
     7
100
AcDbLine
 10
1758.4369779748
 20
3277.7217742331
 30
0.0
 11
1758.4369779748
 21
3281.9682886153
 31
0.0
  0
LINE
  5
AC
330
1F
100
AcDbEntity
  8
0
  6
Continuous
 62
     7
100
AcDbLine
 10
809.5398001937
 20
3439.4170862348
 30
0.0
 11
2609.5398001937
 21
3439.4170862348
 31
0.0
  0
LINE
  5
AD
330
1F
100
AcDbEntity
  8
0
  6
Continuous
 62
     7
100
AcDbLine
 10
2609.5398001937
 20
3437.4137473366
 30
0.0
 11
2609.5398001937
 21
3439.4170862348
 31
0.0
  0
LINE
  5
AE
330
1F
100
AcDbEntity
  8
0
  6
Continuous
 62
     7
100
AcDbLine
 10
809.5398001937
 20
3437.4137473366
 30
0.0
 11
2609.5398001937
 21
3437.4137473366
 31
0.0
  0
LINE
  5
AF
330
1F
100
AcDbEntity
  8
0
  6
Continuous
 62
     7
100
AcDbLine
 10
809.5398001937
 20
3437.4137473366
 30
0.0
 11
809.5398001937
 21
3439.4170862348
 31
0.0
  0
LINE
  5
B0
330
1F
100
AcDbEntity
  8
0
  6
Continuous
 62
     7
100
AcDbLine
 10
811.5431390918
 20
3332.238455183
 30
0.0
 11
811.5431390918
 21
3337.2468024284
 31
0.0
  0
LINE
  5
B1
330
1F
100
AcDbEntity
  8
0
  6
Continuous
 62
     7
100
AcDbLine
 10
809.5398001937
 20
3332.238455183
 30
0.0
 11
811.5431390918
 21
3332.238455183
 31
0.0
  0
LINE
  5
B2
330
1F
100
AcDbEntity
  8
0
  6
Continuous
 62
     7
100
AcDbLine
 10
809.5398001937
 20
3351.1826382521
 30
0.0
 11
2609.5398001937
 21
3351.1826382521
 31
0.0
  0
LINE
  5
B3
330
1F
100
AcDbEntity
  8
0
  6
Continuous
 62
     7
100
AcDbLine
 10
2611.5431390918
 20
3332.238455183
 30
0.0
 11
2609.5398001937
 21
3332.238455183
 31
0.0
  0
LINE
  5
B4
330
1F
100
AcDbEntity
  8
0
  6
Continuous
 62
     7
100
AcDbLine
 10
2611.5431390918
 20
3337.2468024284
 30
0.0
 11
2611.5431390918
 21
3332.238455183
 31
0.0
  0
LINE
  5
B5
330
1F
100
AcDbEntity
  8
0
  6
Continuous
 62
     7
100
AcDbLine
 10
2611.5431390918
 20
3337.2468024284
 30
0.0
 11
811.5431390918
 21
3337.2468024284
 31
0.0
  0
LINE
  5
B6
330
1F
100
AcDbEntity
  8
0
  6
Continuous
 62
     7
100
AcDbLine
 10
2609.5398001937
 20
3332.238455183
 30
0.0
 11
2609.5398001937
 21
3351.1826382521
 31
0.0
  0
LINE
  5
B7
330
1F
100
AcDbEntity
  8
0
  6
Continuous
 62
     7
100
AcDbLine
 10
809.5398001937
 20
3332.238455183
 30
0.0
 11
809.5398001937
 21
3351.1826382521
 31
0.0
  0
LINE
  5
B8
330
1F
100
AcDbEntity
  8
0
  6
Continuous
 62
     7
100
AcDbLine
 10
2609.5398001937
 20
3351.1826382521
 30
0.0
 11
2609.5398001937
 21
3437.4137473366
 31
0.0
  0
LINE
  5
B9
330
1F
100
AcDbEntity
  8
0
  6
Continuous
 62
     7
100
AcDbLine
 10
809.5398001937
 20
3351.1826382521
 30
0.0
 11
809.5398001937
 21
3437.4137473366
 31
0.0
  0
LINE
  5
BA
330
1F
100
AcDbEntity
  8
0
  6
Continuous
 62
     7
100
AcDbLine
 10
811.5431390918
 20
4266.7497676103
 30
0.0
 11
809.5398001937
 21
4266.7497676103
 31
0.0
  0
LINE
  5
BB
330
1F
100
AcDbEntity
  8
0
  6
Continuous
 62
     7
100
AcDbLine
 10
2611.5431390918
 20
3472.4721780545
 30
0.0
 11
2611.5431390918
 21
4266.7497676103
 31
0.0
  0
LINE
  5
BC
330
1F
100
AcDbEntity
  8
0
  6
Continuous
 62
     7
100
AcDbLine
 10
2611.5431390918
 20
4266.7497676103
 30
0.0
 11
2609.5398001937
 21
4266.7497676103
 31
0.0
  0
LINE
  5
BD
330
1F
100
AcDbEntity
  8
0
  6
Continuous
 62
     7
100
AcDbLine
 10
811.5431390918
 20
3472.4721780545
 30
0.0
 11
2611.5431390918
 21
3472.4721780545
 31
0.0
  0
LINE
  5
BE
330
1F
100
AcDbEntity
  8
0
  6
Continuous
 62
     7
100
AcDbLine
 10
811.5431390918
 20
3472.4721780545
 30
0.0
 11
811.5431390918
 21
4266.7497676103
 31
0.0
  0
LINE
  5
BF
330
1F
100
AcDbEntity
  8
0
  6
Continuous
 62
     7
100
AcDbLine
 10
2609.5398001937
 20
3439.4170862348
 30
0.0
 11
2609.5398001937
 21
4266.7497676103
 31
0.0
  0
LINE
  5
C0
330
1F
100
AcDbEntity
  8
0
  6
Continuous
 62
     7
100
AcDbLine
 10
809.5398001937
 20
3439.4170862348
 30
0.0
 11
809.5398001937
 21
4266.7497676103
 31
0.0
  0
LINE
  5
C1
330
1F
100
AcDbEntity
  8
0
  6
Continuous
 62
     7
100
AcDbLine
 10
811.5431390918
 20
4311.9681575347
 30
0.0
 11
809.5398001937
 21
4311.9681575347
 31
0.0
  0
LINE
  5
C2
330
1F
100
AcDbEntity
  8
0
  6
Continuous
 62
     7
100
AcDbLine
 10
811.5431390918
 20
4266.7497676103
 30
0.0
 11
811.5431390918
 21
4311.9681575347
 31
0.0
  0
LINE
  5
C3
330
1F
100
AcDbEntity
  8
0
  6
Continuous
 62
     7
100
AcDbLine
 10
809.5398001937
 20
4266.7497676103
 30
0.0
 11
809.5398001937
 21
4311.9681575347
 31
0.0
  0
LINE
  5
C4
330
1F
100
AcDbEntity
  8
0
  6
Continuous
 62
     7
100
AcDbLine
 10
2611.5431390918
 20
4311.9681575347
 30
0.0
 11
2609.5398001937
 21
4311.9681575347
 31
0.0
  0
LINE
  5
C5
330
1F
100
AcDbEntity
  8
0
  6
Continuous
 62
     7
100
AcDbLine
 10
2611.5431390918
 20
4266.7497676103
 30
0.0
 11
2611.5431390918
 21
4311.9681575347
 31
0.0
  0
LINE
  5
C6
330
1F
100
AcDbEntity
  8
0
  6
Continuous
 62
     7
100
AcDbLine
 10
2609.5398001937
 20
4266.7497676103
 30
0.0
 11
2609.5398001937
 21
4311.9681575347
 31
0.0
  0
LINE
  5
C7
330
1F
100
AcDbEntity
  8
0
  6
Continuous
 62
     7
100
AcDbLine
 10
811.5431390918
 20
3332.238455183
 30
0.0
 11
1686.5431390918
 21
3332.238455183
 31
0.0
  0
LINE
  5
C8
330
1F
100
AcDbEntity
  8
0
  6
Continuous
 62
     7
100
AcDbLine
 10
1741.2337054622
 20
3332.2032569583
 30
0.0
 11
2609.5398001937
 21
3332.238455183
 31
0.0
  0
LINE
  5
C9
330
1F
100
AcDbEntity
  8
0
  6
Continuous
 62
     7
100
AcDbLine
 10
811.5431390918
 20
4353.9412932465
 30
0.0
 11
2611.5431390918
 21
4353.9412932465
 31
0.0
  0
LINE
  5
CA
330
1F
100
AcDbEntity
  8
0
  6
Continuous
 62
     7
100
AcDbLine
 10
809.5398001937
 20
4421.3656193278
 30
0.0
 11
811.5431390918
 21
4421.3656193278
 31
0.0
  0
LINE
  5
CB
330
1F
100
AcDbEntity
  8
0
  6
Continuous
 62
     7
100
AcDbLine
 10
811.5431390918
 20
4404.0247657006
 30
0.0
 11
2611.5431390918
 21
4404.0247657006
 31
0.0
  0
LINE
  5
CC
330
1F
100
AcDbEntity
  8
0
  6
Continuous
 62
     7
100
AcDbLine
 10
2611.5431390918
 20
4421.3656193278
 30
0.0
 11
2609.5398001937
 21
4421.3656193278
 31
0.0
  0
LINE
  5
CD
330
1F
100
AcDbEntity
  8
0
  6
Continuous
 62
     7
100
AcDbLine
 10
2611.5431390918
 20
4404.0247657006
 30
0.0
 11
2611.5431390918
 21
4421.3656193278
 31
0.0
  0
LINE
  5
CE
330
1F
100
AcDbEntity
  8
0
  6
Continuous
 62
     7
100
AcDbLine
 10
811.5431390918
 20
4404.0247657006
 30
0.0
 11
811.5431390918
 21
4421.3656193278
 31
0.0
  0
LINE
  5
CF
330
1F
100
AcDbEntity
  8
0
  6
Continuous
 62
     7
100
AcDbLine
 10
2611.5431390918
 20
4311.9681575347
 30
0.0
 11
2611.5431390918
 21
4353.9412932465
 31
0.0
  0
LINE
  5
D0
330
1F
100
AcDbEntity
  8
0
  6
Continuous
 62
     7
100
AcDbLine
 10
811.5431390918
 20
4311.9681575347
 30
0.0
 11
811.5431390918
 21
4353.9412932465
 31
0.0
  0
LINE
  5
D1
330
1F
100
AcDbEntity
  8
0
  6
Continuous
 62
     7
100
AcDbLine
 10
2609.5398001937
 20
4311.9681575347
 30
0.0
 11
2609.5398001937
 21
4421.3656193278
 31
0.0
  0
LINE
  5
D2
330
1F
100
AcDbEntity
  8
0
  6
Continuous
 62
     7
100
AcDbLine
 10
809.5398001937
 20
4311.9681575347
 30
0.0
 11
809.5398001937
 21
4421.3656193278
 31
0.0
  0
LINE
  5
D3
330
1F
100
AcDbEntity
  8
0
  6
Continuous
 62
     7
100
AcDbLine
 10
811.5431390918
 20
4298.849473547
 30
0.0
 11
2611.5431390918
 21
4298.849473547
 31
0.0
  0
LINE
  5
D4
330
1F
100
AcDbEntity
  8
0
  6
Continuous
 62
     7
100
AcDbLine
 10
811.5431390918
 20
4421.5115718037
 30
0.0
 11
811.5431390918
 21
4421.3656193278
 31
0.0
  0
LINE
  5
D5
330
1F
100
AcDbEntity
  8
0
  6
Continuous
 62
     7
100
AcDbLine
 10
809.5398001937
 20
4421.3656193278
 30
0.0
 11
809.5398001937
 21
4421.5115718037
 31
0.0
  0
LINE
  5
D6
330
1F
100
AcDbEntity
  8
0
  6
Continuous
 62
     7
100
AcDbLine
 10
2611.5431390918
 20
4421.3656193278
 30
0.0
 11
2611.5431390918
 21
4421.5115718037
 31
0.0
  0
LINE
  5
D7
330
1F
100
AcDbEntity
  8
0
  6
Continuous
 62
     7
100
AcDbLine
 10
2609.5398001937
 20
4421.3656193278
 30
0.0
 11
2609.5398001937
 21
4421.5115718037
 31
0.0
  0
LINE
  5
D8
330
1F
100
AcDbEntity
  8
0
  6
Continuous
 62
     7
100
AcDbLine
 10
811.5431390918
 20
4421.3656193278
 30
0.0
 11
2611.5431390918
 21
4421.3656193278
 31
0.0
  0
LINE
  5
D9
330
1F
100
AcDbEntity
  8
0
  6
Continuous
 62
     7
100
AcDbLine
 10
1650.256677474
 20
3320.8057742085
 30
0.0
 11
1764.4469946693
 21
3320.8057742085
 31
0.0
  0
LINE
  5
DA
330
1F
100
AcDbEntity
  8
0
  6
Continuous
 62
     7
100
AcDbLine
 10
1650.256677474
 20
3323.8107825557
 30
0.0
 11
1764.4469946693
 21
3323.8107825557
 31
0.0
  0
LINE
  5
DB
330
1F
100
AcDbEntity
  8
0
  6
Continuous
 62
     7
100
AcDbLine
 10
1658.8311673327
 20
3274.7428406607
 30
0.0
 11
1659.483674764
 21
3272.9371569224
 31
0.0
  0
LINE
  5
DC
330
1F
100
AcDbEntity
  8
0
  6
Continuous
 62
     7
100
AcDbLine
 10
1659.483674764
 20
3272.9371569224
 30
0.0
 11
1661.2067776185
 21
3269.608976748
 31
0.0
  0
LINE
  5
DD
330
1F
100
AcDbEntity
  8
0
  6
Continuous
 62
     7
100
AcDbLine
 10
1661.2067776185
 20
3269.608976748
 30
0.0
 11
1664.0909085536
 21
3265.5335095189
 31
0.0
  0
LINE
  5
DE
330
1F
100
AcDbEntity
  8
0
  6
Continuous
 62
     7
100
AcDbLine
 10
1664.0909085536
 20
3265.5335095189
 30
0.0
 11
1667.6701314121
 21
3261.7809395452
 31
0.0
  0
LINE
  5
DF
330
1F
100
AcDbEntity
  8
0
  6
Continuous
 62
     7
100
AcDbLine
 10
1667.6701314121
 20
3261.7809395452
 30
0.0
 11
1671.9444461942
 21
3258.3512668267
 31
0.0
  0
LINE
  5
E0
330
1F
100
AcDbEntity
  8
0
  6
Continuous
 62
     7
100
AcDbLine
 10
1671.9444461942
 20
3258.3512668267
 30
0.0
 11
1676.7942983501
 21
3255.3290792124
 31
0.0
  0
LINE
  5
E1
330
1F
100
AcDbEntity
  8
0
  6
Continuous
 62
     7
100
AcDbLine
 10
1676.7942983501
 20
3255.3290792124
 30
0.0
 11
1682.1012336968
 21
3252.7981864564
 31
0.0
  0
LINE
  5
E2
330
1F
100
AcDbEntity
  8
0
  6
Continuous
 62
     7
100
AcDbLine
 10
1682.1012336968
 20
3252.7981864564
 30
0.0
 11
1687.8652522345
 21
3250.7585885589
 31
0.0
  0
LINE
  5
E3
330
1F
100
AcDbEntity
  8
0
  6
Continuous
 62
     7
100
AcDbLine
 10
1687.8652522345
 20
3250.7585885589
 30
0.0
 11
1692.5715591931
 21
3249.5402372716
 31
0.0
  0
LINE
  5
E4
330
1F
100
AcDbEntity
  8
0
  6
Continuous
 62
     7
100
AcDbLine
 10
1692.5715591931
 20
3249.5402372716
 30
0.0
 11
1697.3880921521
 21
3248.6699736811
 31
0.0
  0
LINE
  5
E5
330
1F
100
AcDbEntity
  8
0
  6
Continuous
 62
     7
100
AcDbLine
 10
1697.3880921521
 20
3248.6699736811
 30
0.0
 11
1702.3148511116
 21
3248.1477977875
 31
0.0
  0
LINE
  5
E6
330
1F
100
AcDbEntity
  8
0
  6
Continuous
 62
     7
100
AcDbLine
 10
1702.3148511116
 20
3248.1477977875
 30
0.0
 11
1707.3518360716
 21
3247.9737095907
 31
0.0
  0
LINE
  5
E7
330
1F
100
AcDbEntity
  8
0
  6
Continuous
 62
     7
100
AcDbLine
 10
1707.3518360716
 20
3247.9737095907
 30
0.0
 11
1712.3883701092
 21
3248.1477312689
 31
0.0
  0
LINE
  5
E8
330
1F
100
AcDbEntity
  8
0
  6
Continuous
 62
     7
100
AcDbLine
 10
1712.3883701092
 20
3248.1477312689
 30
0.0
 11
1717.3149787613
 21
3248.6698849896
 31
0.0
  0
LINE
  5
E9
330
1F
100
AcDbEntity
  8
0
  6
Continuous
 62
     7
100
AcDbLine
 10
1717.3149787613
 20
3248.6698849896
 30
0.0
 11
1722.1316620278
 21
3249.5401707529
 31
0.0
  0
LINE
  5
EA
330
1F
100
AcDbEntity
  8
0
  6
Continuous
 62
     7
100
AcDbLine
 10
1722.1316620278
 20
3249.5401707529
 30
0.0
 11
1726.8384199088
 21
3250.7585885589
 31
0.0
  0
LINE
  5
EB
330
1F
100
AcDbEntity
  8
0
  6
Continuous
 62
     7
100
AcDbLine
 10
1726.8384199088
 20
3250.7585885589
 30
0.0
 11
1732.6020008724
 21
3252.7979770664
 31
0.0
  0
LINE
  5
EC
330
1F
100
AcDbEntity
  8
0
  6
Continuous
 62
     7
100
AcDbLine
 10
1732.6020008724
 20
3252.7979770664
 30
0.0
 11
1737.9089362192
 21
3255.3288698223
 31
0.0
  0
LINE
  5
ED
330
1F
100
AcDbEntity
  8
0
  6
Continuous
 62
     7
100
AcDbLine
 10
1737.9089362192
 20
3255.3288698223
 30
0.0
 11
1742.7592259491
 21
3258.3512668267
 31
0.0
  0
LINE
  5
EE
330
1F
100
AcDbEntity
  8
0
  6
Continuous
 62
     7
100
AcDbLine
 10
1742.7592259491
 20
3258.3512668267
 30
0.0
 11
1747.0332446078
 21
3261.7806301329
 31
0.0
  0
LINE
  5
EF
330
1F
100
AcDbEntity
  8
0
  6
Continuous
 62
     7
100
AcDbLine
 10
1747.0332446078
 20
3261.7806301329
 30
0.0
 11
1750.6124674662
 21
3265.5332001067
 31
0.0
  0
LINE
  5
F0
330
1F
100
AcDbEntity
  8
0
  6
Continuous
 62
     7
100
AcDbLine
 10
1750.6124674662
 20
3265.5332001067
 30
0.0
 11
1753.4968945245
 21
3269.6089767481
 31
0.0
  0
LINE
  5
F1
330
1F
100
AcDbEntity
  8
0
  6
Continuous
 62
     7
100
AcDbLine
 10
1753.4968945245
 20
3269.6089767481
 30
0.0
 11
1755.2199033017
 21
3272.9368380622
 31
0.0
  0
LINE
  5
F2
330
1F
100
AcDbEntity
  8
0
  6
Continuous
 62
     7
100
AcDbLine
 10
1755.2199033017
 20
3272.9368380622
 30
0.0
 11
1755.872671204
 21
3274.7432322566
 31
0.0
  0
LINE
  5
F3
330
1F
100
AcDbEntity
  8
0
  6
Continuous
 62
     7
100
AcDbLine
 10
1666.2833886593
 20
3329.8207992502
 30
0.0
 11
1748.420283484
 21
3329.8207992502
 31
0.0
  0
LINE
  5
F4
330
1F
100
AcDbEntity
  8
0
  6
Continuous
 62
     7
100
AcDbLine
 10
1758.359684788
 20
3281.4017323878
 30
0.0
 11
1758.1571282223
 21
3279.6122271921
 31
0.0
  0
LINE
  5
F5
330
1F
100
AcDbEntity
  8
0
  6
Continuous
 62
     7
100
AcDbLine
 10
1758.1571282223
 20
3279.6122271921
 30
0.0
 11
1757.5321196648
 21
3276.6193626211
 31
0.0
  0
LINE
  5
F6
330
1F
100
AcDbEntity
  8
0
  6
Continuous
 62
     7
100
AcDbLine
 10
1757.5321196648
 20
3276.6193626211
 30
0.0
 11
1756.5551324723
 21
3273.6739756853
 31
0.0
  0
LINE
  5
F7
330
1F
100
AcDbEntity
  8
0
  6
Continuous
 62
     7
100
AcDbLine
 10
1756.5551324723
 20
3273.6739756853
 30
0.0
 11
1755.2330195081
 21
3270.7967261577
 31
0.0
  0
LINE
  5
F8
330
1F
100
AcDbEntity
  8
0
  6
Continuous
 62
     7
100
AcDbLine
 10
1755.2330195081
 20
3270.7967261577
 30
0.0
 11
1753.5750544447
 21
3268.0077958765
 31
0.0
  0
LINE
  5
F9
330
1F
100
AcDbEntity
  8
0
  6
Continuous
 62
     7
100
AcDbLine
 10
1753.5750544447
 20
3268.0077958765
 30
0.0
 11
1751.5928667157
 21
3265.3267471839
 31
0.0
  0
LINE
  5
FA
330
1F
100
AcDbEntity
  8
0
  6
Continuous
 62
     7
100
AcDbLine
 10
1751.5928667157
 20
3265.3267471839
 30
0.0
 11
1749.3003599439
 21
3262.7723857099
 31
0.0
  0
LINE
  5
FB
330
1F
100
AcDbEntity
  8
0
  6
Continuous
 62
     7
100
AcDbLine
 10
1749.3003599439
 20
3262.7723857099
 30
0.0
 11
1746.7136144171
 21
3260.3626284652
 31
0.0
  0
LINE
  5
FC
330
1F
100
AcDbEntity
  8
0
  6
Continuous
 62
     7
100
AcDbLine
 10
1746.7136144171
 20
3260.3626284652
 30
0.0
 11
1743.8507742966
 21
3258.1143781652
 31
0.0
  0
LINE
  5
FD
330
1F
100
AcDbEntity
  8
0
  6
Continuous
 62
     7
100
AcDbLine
 10
1743.8507742966
 20
3258.1143781652
 30
0.0
 11
1740.7319203489
 21
3256.0434046706
 31
0.0
  0
LINE
  5
FE
330
1F
100
AcDbEntity
  8
0
  6
Continuous
 62
     7
100
AcDbLine
 10
1740.7319203489
 20
3256.0434046706
 30
0.0
 11
1737.3789290936
 21
3254.1642343724
 31
0.0
  0
LINE
  5
FF
330
1F
100
AcDbEntity
  8
0
  6
Continuous
 62
     7
100
AcDbLine
 10
1737.3789290936
 20
3254.1642343724
 30
0.0
 11
1733.8153193551
 21
3252.4900483
 31
0.0
  0
LINE
  5
100
330
1F
100
AcDbEntity
  8
0
  6
Continuous
 62
     7
100
AcDbLine
 10
1733.8153193551
 20
3252.4900483
 30
0.0
 11
1730.0660872954
 21
3251.0325896659
 31
0.0
  0
LINE
  5
101
330
1F
100
AcDbEntity
  8
0
  6
Continuous
 62
     7
100
AcDbLine
 10
1730.0660872954
 20
3251.0325896659
 30
0.0
 11
1726.1575310836
 21
3249.8020814952
 31
0.0
  0
LINE
  5
102
330
1F
100
AcDbEntity
  8
0
  6
Continuous
 62
     7
100
AcDbLine
 10
1726.1575310836
 20
3249.8020814952
 30
0.0
 11
1722.1170664331
 21
3248.8071549185
 31
0.0
  0
LINE
  5
103
330
1F
100
AcDbEntity
  8
0
  6
Continuous
 62
     7
100
AcDbLine
 10
1722.1170664331
 20
3248.8071549185
 30
0.0
 11
1717.9730343004
 21
3248.0547886311
 31
0.0
  0
LINE
  5
104
330
1F
100
AcDbEntity
  8
0
  6
Continuous
 62
     7
100
AcDbLine
 10
1717.9730343004
 20
3248.0547886311
 30
0.0
 11
1713.7545020935
 21
3247.5502599417
 31
0.0
  0
LINE
  5
105
330
1F
100
AcDbEntity
  8
0
  6
Continuous
 62
     7
100
AcDbLine
 10
1713.7545020935
 20
3247.5502599417
 30
0.0
 11
1709.4910597847
 21
3247.2971077566
 31
0.0
  0
LINE
  5
106
330
1F
100
AcDbEntity
  8
0
  6
Continuous
 62
     7
100
AcDbLine
 10
1709.4910597847
 20
3247.2971077566
 30
0.0
 11
1705.2126123586
 21
3247.2971077566
 31
0.0
  0
LINE
  5
107
330
1F
100
AcDbEntity
  8
0
  6
Continuous
 62
     7
100
AcDbLine
 10
1705.2126123586
 20
3247.2971077566
 30
0.0
 11
1700.9491700498
 21
3247.5502599417
 31
0.0
  0
LINE
  5
108
330
1F
100
AcDbEntity
  8
0
  6
Continuous
 62
     7
100
AcDbLine
 10
1700.9491700498
 20
3247.5502599417
 30
0.0
 11
1696.7306378429
 21
3248.0547886311
 31
0.0
  0
LINE
  5
109
330
1F
100
AcDbEntity
  8
0
  6
Continuous
 62
     7
100
AcDbLine
 10
1696.7306378429
 20
3248.0547886311
 30
0.0
 11
1692.5866057102
 21
3248.8071549185
 31
0.0
  0
LINE
  5
10A
330
1F
100
AcDbEntity
  8
0
  6
Continuous
 62
     7
100
AcDbLine
 10
1692.5866057102
 20
3248.8071549185
 30
0.0
 11
1688.5461410597
 21
3249.8020814952
 31
0.0
  0
LINE
  5
10B
330
1F
100
AcDbEntity
  8
0
  6
Continuous
 62
     7
100
AcDbLine
 10
1688.5461410597
 20
3249.8020814952
 30
0.0
 11
1684.6375848478
 21
3251.0325896659
 31
0.0
  0
LINE
  5
10C
330
1F
100
AcDbEntity
  8
0
  6
Continuous
 62
     7
100
AcDbLine
 10
1684.6375848478
 20
3251.0325896659
 30
0.0
 11
1680.8883527881
 21
3252.4900483
 31
0.0
  0
LINE
  5
10D
330
1F
100
AcDbEntity
  8
0
  6
Continuous
 62
     7
100
AcDbLine
 10
1680.8883527881
 20
3252.4900483
 30
0.0
 11
1677.3247430497
 21
3254.1642343724
 31
0.0
  0
LINE
  5
10E
330
1F
100
AcDbEntity
  8
0
  6
Continuous
 62
     7
100
AcDbLine
 10
1677.3247430497
 20
3254.1642343724
 30
0.0
 11
1673.9717517943
 21
3256.0434046706
 31
0.0
  0
LINE
  5
10F
330
1F
100
AcDbEntity
  8
0
  6
Continuous
 62
     7
100
AcDbLine
 10
1673.9717517943
 20
3256.0434046706
 30
0.0
 11
1670.8528978467
 21
3258.1143781652
 31
0.0
  0
LINE
  5
110
330
1F
100
AcDbEntity
  8
0
  6
Continuous
 62
     7
100
AcDbLine
 10
1670.8528978467
 20
3258.1143781652
 30
0.0
 11
1667.9900577262
 21
3260.3626284652
 31
0.0
  0
LINE
  5
111
330
1F
100
AcDbEntity
  8
0
  6
Continuous
 62
     7
100
AcDbLine
 10
1667.9900577262
 20
3260.3626284652
 30
0.0
 11
1665.4033121994
 21
3262.7723857099
 31
0.0
  0
LINE
  5
112
330
1F
100
AcDbEntity
  8
0
  6
Continuous
 62
     7
100
AcDbLine
 10
1665.4033121994
 20
3262.7723857099
 30
0.0
 11
1663.1108054275
 21
3265.3267471839
 31
0.0
  0
LINE
  5
113
330
1F
100
AcDbEntity
  8
0
  6
Continuous
 62
     7
100
AcDbLine
 10
1663.1108054275
 20
3265.3267471839
 30
0.0
 11
1661.1286176986
 21
3268.0077958765
 31
0.0
  0
LINE
  5
114
330
1F
100
AcDbEntity
  8
0
  6
Continuous
 62
     7
100
AcDbLine
 10
1661.1286176986
 20
3268.0077958765
 30
0.0
 11
1659.4706526351
 21
3270.7967261577
 31
0.0
  0
LINE
  5
115
330
1F
100
AcDbEntity
  8
0
  6
Continuous
 62
     7
100
AcDbLine
 10
1659.4706526351
 20
3270.7967261577
 30
0.0
 11
1658.148539671
 21
3273.6739756853
 31
0.0
  0
LINE
  5
116
330
1F
100
AcDbEntity
  8
0
  6
Continuous
 62
     7
100
AcDbLine
 10
1658.148539671
 20
3273.6739756853
 30
0.0
 11
1657.1715524785
 21
3276.6193626211
 31
0.0
  0
LINE
  5
117
330
1F
100
AcDbEntity
  8
0
  6
Continuous
 62
     7
100
AcDbLine
 10
1657.1715524785
 20
3276.6193626211
 30
0.0
 11
1656.546543921
 21
3279.6122271921
 31
0.0
  0
LINE
  5
118
330
1F
100
AcDbEntity
  8
0
  6
Continuous
 62
     7
100
AcDbLine
 10
1656.546543921
 20
3279.6122271921
 30
0.0
 11
1656.3344389982
 21
3281.5283789082
 31
0.0
  0
LINE
  5
119
330
1F
100
AcDbEntity
  8
0
  6
Continuous
 62
     7
100
AcDbLine
 10
1758.4369779748
 20
3277.7217742331
 30
0.0
 11
1758.425774159
 21
3276.965278524
 31
0.0
  0
LINE
  5
11A
330
1F
100
AcDbEntity
  8
0
  6
Continuous
 62
     7
100
AcDbLine
 10
1758.425774159
 20
3276.965278524
 30
0.0
 11
1758.1571282223
 21
3273.9459291125
 31
0.0
  0
LINE
  5
11B
330
1F
100
AcDbEntity
  8
0
  6
Continuous
 62
     7
100
AcDbLine
 10
1758.1571282223
 20
3273.9459291125
 30
0.0
 11
1757.5321196648
 21
3270.9530645415
 31
0.0
  0
LINE
  5
11C
330
1F
100
AcDbEntity
  8
0
  6
Continuous
 62
     7
100
AcDbLine
 10
1757.5321196648
 20
3270.9530645415
 30
0.0
 11
1756.5551324723
 21
3268.0076776056
 31
0.0
  0
LINE
  5
11D
330
1F
100
AcDbEntity
  8
0
  6
Continuous
 62
     7
100
AcDbLine
 10
1756.5551324723
 20
3268.0076776056
 30
0.0
 11
1755.2330195081
 21
3265.130428078
 31
0.0
  0
LINE
  5
11E
330
1F
100
AcDbEntity
  8
0
  6
Continuous
 62
     7
100
AcDbLine
 10
1755.2330195081
 20
3265.130428078
 30
0.0
 11
1753.5750544447
 21
3262.3414977969
 31
0.0
  0
LINE
  5
11F
330
1F
100
AcDbEntity
  8
0
  6
Continuous
 62
     7
100
AcDbLine
 10
1753.5750544447
 20
3262.3414977969
 30
0.0
 11
1751.5928667157
 21
3259.6604491042
 31
0.0
  0
LINE
  5
120
330
1F
100
AcDbEntity
  8
0
  6
Continuous
 62
     7
100
AcDbLine
 10
1751.5928667157
 20
3259.6604491042
 30
0.0
 11
1749.3003599439
 21
3257.1060876303
 31
0.0
  0
LINE
  5
121
330
1F
100
AcDbEntity
  8
0
  6
Continuous
 62
     7
100
AcDbLine
 10
1749.3003599439
 20
3257.1060876303
 30
0.0
 11
1746.7136144171
 21
3254.6963303855
 31
0.0
  0
LINE
  5
122
330
1F
100
AcDbEntity
  8
0
  6
Continuous
 62
     7
100
AcDbLine
 10
1746.7136144171
 20
3254.6963303855
 30
0.0
 11
1743.8507742966
 21
3252.4480800856
 31
0.0
  0
LINE
  5
123
330
1F
100
AcDbEntity
  8
0
  6
Continuous
 62
     7
100
AcDbLine
 10
1743.8507742966
 20
3252.4480800856
 30
0.0
 11
1740.7319203489
 21
3250.377106591
 31
0.0
  0
LINE
  5
124
330
1F
100
AcDbEntity
  8
0
  6
Continuous
 62
     7
100
AcDbLine
 10
1740.7319203489
 20
3250.377106591
 30
0.0
 11
1737.3789290936
 21
3248.4979362928
 31
0.0
  0
LINE
  5
125
330
1F
100
AcDbEntity
  8
0
  6
Continuous
 62
     7
100
AcDbLine
 10
1737.3789290936
 20
3248.4979362928
 30
0.0
 11
1733.8153193551
 21
3246.8237502204
 31
0.0
  0
LINE
  5
126
330
1F
100
AcDbEntity
  8
0
  6
Continuous
 62
     7
100
AcDbLine
 10
1733.8153193551
 20
3246.8237502204
 30
0.0
 11
1730.0660872954
 21
3245.3662915863
 31
0.0
  0
LINE
  5
127
330
1F
100
AcDbEntity
  8
0
  6
Continuous
 62
     7
100
AcDbLine
 10
1730.0660872954
 20
3245.3662915863
 30
0.0
 11
1726.1575310836
 21
3244.1357834156
 31
0.0
  0
LINE
  5
128
330
1F
100
AcDbEntity
  8
0
  6
Continuous
 62
     7
100
AcDbLine
 10
1726.1575310836
 20
3244.1357834156
 30
0.0
 11
1722.1170664331
 21
3243.1408568389
 31
0.0
  0
LINE
  5
129
330
1F
100
AcDbEntity
  8
0
  6
Continuous
 62
     7
100
AcDbLine
 10
1722.1170664331
 20
3243.1408568389
 30
0.0
 11
1717.9730343004
 21
3242.3884905514
 31
0.0
  0
LINE
  5
12A
330
1F
100
AcDbEntity
  8
0
  6
Continuous
 62
     7
100
AcDbLine
 10
1717.9730343004
 20
3242.3884905514
 30
0.0
 11
1713.7545020935
 21
3241.883961862
 31
0.0
  0
LINE
  5
12B
330
1F
100
AcDbEntity
  8
0
  6
Continuous
 62
     7
100
AcDbLine
 10
1713.7545020935
 20
3241.883961862
 30
0.0
 11
1709.4910597847
 21
3241.630809677
 31
0.0
  0
LINE
  5
12C
330
1F
100
AcDbEntity
  8
0
  6
Continuous
 62
     7
100
AcDbLine
 10
1709.4910597847
 20
3241.630809677
 30
0.0
 11
1705.2126123586
 21
3241.630809677
 31
0.0
  0
LINE
  5
12D
330
1F
100
AcDbEntity
  8
0
  6
Continuous
 62
     7
100
AcDbLine
 10
1705.2126123586
 20
3241.630809677
 30
0.0
 11
1700.9491700498
 21
3241.883961862
 31
0.0
  0
LINE
  5
12E
330
1F
100
AcDbEntity
  8
0
  6
Continuous
 62
     7
100
AcDbLine
 10
1700.9491700498
 20
3241.883961862
 30
0.0
 11
1696.7306378429
 21
3242.3884905514
 31
0.0
  0
LINE
  5
12F
330
1F
100
AcDbEntity
  8
0
  6
Continuous
 62
     7
100
AcDbLine
 10
1696.7306378429
 20
3242.3884905514
 30
0.0
 11
1692.5866057102
 21
3243.1408568389
 31
0.0
  0
LINE
  5
130
330
1F
100
AcDbEntity
  8
0
  6
Continuous
 62
     7
100
AcDbLine
 10
1692.5866057102
 20
3243.1408568389
 30
0.0
 11
1688.5461410597
 21
3244.1357834156
 31
0.0
  0
LINE
  5
131
330
1F
100
AcDbEntity
  8
0
  6
Continuous
 62
     7
100
AcDbLine
 10
1688.5461410597
 20
3244.1357834156
 30
0.0
 11
1684.6375848478
 21
3245.3662915863
 31
0.0
  0
LINE
  5
132
330
1F
100
AcDbEntity
  8
0
  6
Continuous
 62
     7
100
AcDbLine
 10
1684.6375848478
 20
3245.3662915863
 30
0.0
 11
1680.8883527881
 21
3246.8237502204
 31
0.0
  0
LINE
  5
133
330
1F
100
AcDbEntity
  8
0
  6
Continuous
 62
     7
100
AcDbLine
 10
1680.8883527881
 20
3246.8237502204
 30
0.0
 11
1677.3247430497
 21
3248.4979362928
 31
0.0
  0
LINE
  5
134
330
1F
100
AcDbEntity
  8
0
  6
Continuous
 62
     7
100
AcDbLine
 10
1677.3247430497
 20
3248.4979362928
 30
0.0
 11
1673.9717517943
 21
3250.377106591
 31
0.0
  0
LINE
  5
135
330
1F
100
AcDbEntity
  8
0
  6
Continuous
 62
     7
100
AcDbLine
 10
1673.9717517943
 20
3250.377106591
 30
0.0
 11
1670.8528978467
 21
3252.4480800856
 31
0.0
  0
LINE
  5
136
330
1F
100
AcDbEntity
  8
0
  6
Continuous
 62
     7
100
AcDbLine
 10
1670.8528978467
 20
3252.4480800856
 30
0.0
 11
1667.9900577262
 21
3254.6963303855
 31
0.0
  0
LINE
  5
137
330
1F
100
AcDbEntity
  8
0
  6
Continuous
 62
     7
100
AcDbLine
 10
1667.9900577262
 20
3254.6963303855
 30
0.0
 11
1665.4033121994
 21
3257.1060876303
 31
0.0
  0
LINE
  5
138
330
1F
100
AcDbEntity
  8
0
  6
Continuous
 62
     7
100
AcDbLine
 10
1665.4033121994
 20
3257.1060876303
 30
0.0
 11
1663.1108054275
 21
3259.6604491042
 31
0.0
  0
LINE
  5
139
330
1F
100
AcDbEntity
  8
0
  6
Continuous
 62
     7
100
AcDbLine
 10
1663.1108054275
 20
3259.6604491042
 30
0.0
 11
1661.1286176986
 21
3262.3414977969
 31
0.0
  0
LINE
  5
13A
330
1F
100
AcDbEntity
  8
0
  6
Continuous
 62
     7
100
AcDbLine
 10
1661.1286176986
 20
3262.3414977969
 30
0.0
 11
1659.4706526351
 21
3265.130428078
 31
0.0
  0
LINE
  5
13B
330
1F
100
AcDbEntity
  8
0
  6
Continuous
 62
     7
100
AcDbLine
 10
1659.4706526351
 20
3265.130428078
 30
0.0
 11
1658.148539671
 21
3268.0076776056
 31
0.0
  0
LINE
  5
13C
330
1F
100
AcDbEntity
  8
0
  6
Continuous
 62
     7
100
AcDbLine
 10
1658.148539671
 20
3268.0076776056
 30
0.0
 11
1657.1715524785
 21
3270.9530645415
 31
0.0
  0
LINE
  5
13D
330
1F
100
AcDbEntity
  8
0
  6
Continuous
 62
     7
100
AcDbLine
 10
1657.1715524785
 20
3270.9530645415
 30
0.0
 11
1656.546543921
 21
3273.9459291125
 31
0.0
  0
LINE
  5
13E
330
1F
100
AcDbEntity
  8
0
  6
Continuous
 62
     7
100
AcDbLine
 10
1656.546543921
 20
3273.9459291125
 30
0.0
 11
1656.2778979843
 21
3276.965278524
 31
0.0
  0
LINE
  5
13F
330
1F
100
AcDbEntity
  8
0
  6
Continuous
 62
     7
100
AcDbLine
 10
1656.2778979843
 20
3276.965278524
 30
0.0
 11
1656.2666941684
 21
3277.7217742331
 31
0.0
  0
LINE
  5
140
330
1F
100
AcDbEntity
  8
0
  6
Continuous
 62
     7
100
AcDbLine
 10
3161.5608873912
 20
3287.8644985887
 30
0.0
 11
3112.3348380903
 21
3287.8644985887
 31
0.0
  0
LINE
  5
141
330
1F
100
AcDbEntity
  8
0
  6
Continuous
 62
     7
100
AcDbLine
 10
3112.3348380903
 20
3257.8144151163
 30
0.0
 11
3161.5608873912
 21
3257.8144151163
 31
0.0
  0
LINE
  5
142
330
1F
100
AcDbEntity
  8
0
  6
Continuous
 62
     7
100
AcDbLine
 10
3318.8229908971
 20
3320.9195904084
 30
0.0
 11
3318.8229908971
 21
3323.9245987557
 31
0.0
  0
LINE
  5
143
330
1F
100
AcDbEntity
  8
0
  6
Continuous
 62
     7
100
AcDbLine
 10
3204.6326737018
 20
3323.9245987557
 30
0.0
 11
3204.6326737018
 21
3320.9195904084
 31
0.0
  0
LINE
  5
144
330
1F
100
AcDbEntity
  8
0
  6
Continuous
 62
     7
100
AcDbLine
 10
3202.9227169927
 20
3319.6245387702
 30
0.0
 11
3197.2564189131
 21
3313.9582406906
 31
0.0
  0
LINE
  5
145
330
1F
100
AcDbEntity
  8
0
  6
Continuous
 62
     7
100
AcDbLine
 10
3269.5017194283
 20
3241.7129401753
 30
0.0
 11
3275.1680175079
 21
3247.379238255
 31
0.0
  0
LINE
  5
146
330
1F
100
AcDbEntity
  8
0
  6
Continuous
 62
     7
100
AcDbLine
 10
3302.7962797118
 20
3323.9245987557
 30
0.0
 11
3302.7962797118
 21
3329.9346154501
 31
0.0
  0
LINE
  5
147
330
1F
100
AcDbEntity
  8
0
  6
Continuous
 62
     7
100
AcDbLine
 10
3220.6593848871
 20
3329.9346154501
 30
0.0
 11
3220.6593848871
 21
3323.9245987557
 31
0.0
  0
LINE
  5
148
330
1F
100
AcDbEntity
  8
0
  6
Continuous
 62
     7
100
AcDbLine
 10
3178.5892680256
 20
3250.9028959176
 30
0.0
 11
3191.6109708637
 21
3250.9028959176
 31
0.0
  0
LINE
  5
149
330
1F
100
AcDbEntity
  8
0
  6
Continuous
 62
     7
100
AcDbLine
 10
3191.6109708637
 20
3294.7760177874
 30
0.0
 11
3178.5892680256
 21
3294.7760177874
 31
0.0
  0
LINE
  5
14A
330
1F
100
AcDbEntity
  8
0
  6
Continuous
 62
     7
100
AcDbLine
 10
3112.3348380903
 20
3257.8144151163
 30
0.0
 11
3112.3348380903
 21
3287.8644985887
 31
0.0
  0
LINE
  5
14B
330
1F
100
AcDbEntity
  8
0
  6
Continuous
 62
     7
100
AcDbLine
 10
3344.2179890281
 20
4311.9681575348
 30
0.0
 11
3114.4833192628
 21
4421.3656193278
 31
0.0
  0
LINE
  5
14C
330
1F
100
AcDbEntity
  8
0
  6
Continuous
 62
     7
100
AcDbLine
 10
3372.7688948516
 20
3439.4170862348
 30
0.0
 11
3372.7688948516
 21
4266.7497676103
 31
0.0
  0
LINE
  5
14D
330
1F
100
AcDbEntity
  8
0
  6
Continuous
 62
     7
100
AcDbLine
 10
3420.8490284075
 20
3439.4170862348
 30
0.0
 11
3372.7688948516
 21
3439.4170862348
 31
0.0
  0
LINE
  5
14E
330
1F
100
AcDbEntity
  8
0
  6
Continuous
 62
     7
100
AcDbLine
 10
3420.8490284075
 20
3437.4137473366
 30
0.0
 11
3420.8490284075
 21
3439.4170862348
 31
0.0
  0
LINE
  5
14F
330
1F
100
AcDbEntity
  8
0
  6
Continuous
 62
     7
100
AcDbLine
 10
3372.7688948516
 20
3437.4137473366
 30
0.0
 11
3420.8490284075
 21
3437.4137473366
 31
0.0
  0
LINE
  5
150
330
1F
100
AcDbEntity
  8
0
  6
Continuous
 62
     7
100
AcDbLine
 10
3372.7688948516
 20
3351.1826382521
 30
0.0
 11
3372.7688948516
 21
3437.4137473366
 31
0.0
  0
LINE
  5
151
330
1F
100
AcDbEntity
  8
0
  6
Continuous
 62
     7
100
AcDbLine
 10
3353.8247117825
 20
3332.238455183
 30
0.0
 11
3372.7688948516
 21
3351.1826382521
 31
0.0
  0
LINE
  5
152
330
1F
100
AcDbEntity
  8
0
  6
Continuous
 62
     7
100
AcDbLine
 10
3112.3348380903
 20
3332.238455183
 30
0.0
 11
3353.8247117825
 21
3332.238455183
 31
0.0
  0
LINE
  5
153
330
1F
100
AcDbEntity
  8
0
  6
Continuous
 62
     7
100
AcDbLine
 10
3112.3348380903
 20
4420.0090676301
 30
0.0
 11
3112.3348380903
 21
3332.238455183
 31
0.0
  0
LINE
  5
154
330
1F
100
AcDbEntity
  8
0
  6
Continuous
 62
     7
100
AcDbLine
 10
3204.6326737018
 20
3320.9195904084
 30
0.0
 11
3318.8229908971
 21
3320.9195904084
 31
0.0
  0
LINE
  5
155
330
1F
100
AcDbEntity
  8
0
  6
Continuous
 62
     7
100
AcDbLine
 10
3204.6326737018
 20
3323.9245987557
 30
0.0
 11
3318.8229908971
 21
3323.9245987557
 31
0.0
  0
LINE
  5
156
330
1F
100
AcDbEntity
  8
0
  6
Continuous
 62
     7
100
AcDbLine
 10
3275.1680175079
 20
3247.379238255
 30
0.0
 11
3202.9227169927
 21
3319.6245387702
 31
0.0
  0
LINE
  5
157
330
1F
100
AcDbEntity
  8
0
  6
Continuous
 62
     7
100
AcDbLine
 10
3269.5017194283
 20
3241.7129401753
 30
0.0
 11
3197.2564189131
 21
3313.9582406906
 31
0.0
  0
LINE
  5
158
330
1F
100
AcDbEntity
  8
0
  6
Continuous
 62
     7
100
AcDbLine
 10
3191.6109708637
 20
3294.7185273908
 30
0.0
 11
3191.6109708637
 21
3250.9028959176
 31
0.0
  0
LINE
  5
159
330
1F
100
AcDbEntity
  8
0
  6
Continuous
 62
     7
100
AcDbLine
 10
3220.6593848871
 20
3329.9346154501
 30
0.0
 11
3302.7962797118
 21
3329.9346154501
 31
0.0
  0
LINE
  5
15A
330
1F
100
AcDbEntity
  8
0
  6
Continuous
 62
     7
100
AcDbLine
 10
3161.5608873912
 20
3294.8761847323
 30
0.0
 11
3161.5608873912
 21
3250.8027289727
 31
0.0
  0
LINE
  5
15B
330
1F
100
AcDbEntity
  8
0
  6
Continuous
 62
     7
100
AcDbLine
 10
3178.5892680256
 20
3272.8394568525
 30
0.0
 11
3178.5892680256
 21
3246.7960511764
 31
0.0
  0
LINE
  5
15C
330
1F
100
AcDbEntity
  8
0
  6
Continuous
 62
     7
100
AcDbLine
 10
3178.5892680256
 20
3298.8828625286
 30
0.0
 11
3178.5892680256
 21
3272.8394568525
 31
0.0
  0
LINE
  5
15D
330
1F
100
AcDbEntity
  8
0
  6
Continuous
 62
     7
100
AcDbLine
 10
3177.5875985765
 20
3299.8845319777
 30
0.0
 11
3177.5875985765
 21
3245.7943817273
 31
0.0
  0
LINE
  5
15E
330
1F
100
AcDbEntity
  8
0
  6
Continuous
 62
     7
100
AcDbLine
 10
1719.9369020121
 20
2738.5284065529
 30
0.0
 11
1721.1366381231
 21
2739.8308146585
 31
0.0
  0
LINE
  5
15F
330
1F
100
AcDbEntity
  8
0
  6
Continuous
 62
     7
100
AcDbLine
 10
1723.1936776298
 20
2742.5335635005
 30
0.0
 11
1723.6384206045
 21
2743.2289255587
 31
0.0
  0
LINE
  5
160
330
1F
100
AcDbEntity
  8
0
  6
Continuous
 62
     7
100
AcDbLine
 10
1724.149866542
 20
2743.0685484507
 30
0.0
 11
1723.6384206045
 21
2743.2289255587
 31
0.0
  0
LINE
  5
161
330
1F
100
AcDbEntity
  8
0
  6
Continuous
 62
     7
100
AcDbLine
 10
1707.0686147559
 20
2742.6758963443
 30
0.0
 11
1707.8931874505
 21
2742.6384186591
 31
0.0
  0
LINE
  5
162
330
1F
100
AcDbEntity
  8
0
  6
Continuous
 62
     7
100
AcDbLine
 10
1708.0100197695
 20
2742.1153049308
 30
0.0
 11
1707.8931874505
 21
2742.6384186591
 31
0.0
  0
LINE
  5
163
330
1F
100
AcDbEntity
  8
0
  6
Continuous
 62
     7
100
AcDbLine
 10
1701.8373475524
 20
2743.5239142629
 30
0.0
 11
1703.6994458453
 21
2743.1059703927
 31
0.0
  0
LINE
  5
164
330
1F
100
AcDbEntity
  8
0
  6
Continuous
 62
     7
100
AcDbLine
 10
1730.9996432055
 20
2757.1599509083
 30
0.0
 11
1731.3794729252
 21
2756.427111165
 31
0.0
  0
LINE
  5
165
330
1F
100
AcDbEntity
  8
0
  6
Continuous
 62
     7
100
AcDbLine
 10
1731.3942568238
 20
2757.5226875289
 30
0.0
 11
1730.9996432055
 21
2757.1599509083
 31
0.0
  0
LINE
  5
166
330
1F
100
AcDbEntity
  8
0
  6
Continuous
 62
     7
100
AcDbLine
 10
1699.1293471775
 20
2756.7117768526
 30
0.0
 11
1699.5091768973
 21
2755.9789371092
 31
0.0
  0
LINE
  5
167
330
1F
100
AcDbEntity
  8
0
  6
Continuous
 62
     7
100
AcDbLine
 10
1699.1145632789
 20
2755.6162004886
 30
0.0
 11
1699.5091768973
 21
2755.9789371092
 31
0.0
  0
LINE
  5
168
330
1F
100
AcDbEntity
  8
0
  6
Continuous
 62
     7
100
AcDbLine
 10
1697.2936537563
 20
2761.5204453839
 30
0.0
 11
1697.8172177736
 21
2759.844599743
 31
0.0
  0
LINE
  5
169
330
1F
100
AcDbEntity
  8
0
  6
Continuous
 62
     7
100
AcDbLine
 10
1729.8441539578
 20
2762.278959868
 30
0.0
 11
1729.8443487311
 21
2762.2784621312
 31
0.0
  0
LINE
  5
16A
330
1F
100
AcDbEntity
  8
0
  6
Continuous
 62
     7
100
AcDbLine
 10
1729.8443487311
 20
2762.2784621312
 30
0.0
 11
1730.5448383627
 21
2759.984411162
 31
0.0
  0
LINE
  5
16B
330
1F
100
AcDbEntity
  8
0
  6
Continuous
 62
     7
100
AcDbLine
 10
1704.3657099152
 20
2750.3881538796
 30
0.0
 11
1704.3928122012
 21
2750.4062367526
 31
0.0
  0
LINE
  5
16C
330
1F
100
AcDbEntity
  8
0
  6
Continuous
 62
     7
100
AcDbLine
 10
1705.3663995848
 20
2748.8883381424
 30
0.0
 11
1705.3935018708
 21
2748.9064210155
 31
0.0
  0
LINE
  5
16D
330
1F
100
AcDbEntity
  8
0
  6
Continuous
 62
     7
100
AcDbLine
 10
1726.8504480941
 20
2751.8467286851
 30
0.0
 11
1726.821236724
 21
2751.8611585166
 31
0.0
  0
LINE
  5
16E
330
1F
100
AcDbEntity
  8
0
  6
Continuous
 62
     7
100
AcDbLine
 10
1726.0519143996
 20
2750.2301981414
 30
0.0
 11
1726.0227030295
 21
2750.2446279728
 31
0.0
  0
LINE
  5
16F
330
1F
100
AcDbEntity
  8
0
  6
Continuous
 62
     7
100
AcDbLine
 10
2615.2544081104
 20
2906.0185258032
 30
0.0
 11
815.2544119927
 21
2903.8700446302
 31
0.0
  0
LINE
  5
170
330
1F
100
AcDbEntity
  8
0
  6
Continuous
 62
     7
100
AcDbLine
 10
2615.2544081104
 20
2903.8700446306
 30
0.0
 11
2615.2544081104
 21
2906.0185258032
 31
0.0
  0
LINE
  5
171
330
1F
100
AcDbEntity
  8
0
  6
Continuous
 62
     7
100
AcDbLine
 10
2615.2544119927
 20
2867.4542520131
 30
0.0
 11
815.2544119927
 21
2867.4542520131
 31
0.0
  0
LINE
  5
172
330
1F
100
AcDbEntity
  8
0
  6
Continuous
 62
     7
100
AcDbLine
 10
815.2544119927
 20
2903.8700446302
 30
0.0
 11
815.2544119927
 21
2906.0185258027
 31
0.0
  0
LINE
  5
173
330
1F
100
AcDbEntity
  8
0
  6
Continuous
 62
     7
100
AcDbLine
 10
2617.2577508909
 20
2674.1353748653
 30
0.0
 11
2615.2544081104
 21
2674.1353748653
 31
0.0
  0
LINE
  5
174
330
1F
100
AcDbEntity
  8
0
  6
Continuous
 62
     7
100
AcDbLine
 10
2617.2577508909
 20
2674.1353748653
 30
0.0
 11
2617.2577470086
 21
2762.2789598595
 31
0.0
  0
LINE
  5
175
330
1F
100
AcDbEntity
  8
0
  6
Continuous
 62
     7
100
AcDbLine
 10
817.2577508909
 20
2762.2789598595
 30
0.0
 11
2617.2577470086
 21
2762.2789598595
 31
0.0
  0
LINE
  5
176
330
1F
100
AcDbEntity
  8
0
  6
Continuous
 62
     7
100
AcDbLine
 10
817.2577508909
 20
2674.1350818203
 30
0.0
 11
817.2577508909
 21
2762.2789598595
 31
0.0
  0
LINE
  5
177
330
1F
100
AcDbEntity
  8
0
  6
Continuous
 62
     7
100
AcDbLine
 10
817.2577508909
 20
2674.1350818203
 30
0.0
 11
815.2544119927
 21
2674.1353748626
 31
0.0
  0
LINE
  5
178
330
1F
100
AcDbEntity
  8
0
  6
Continuous
 62
     7
100
AcDbLine
 10
2615.2544081104
 20
2674.1353748653
 30
0.0
 11
2615.2544081104
 21
2903.8700446306
 31
0.0
  0
LINE
  5
179
330
1F
100
AcDbEntity
  8
0
  6
Continuous
 62
     7
100
AcDbLine
 10
815.2544119927
 20
2674.1353748626
 30
0.0
 11
815.2544119927
 21
2903.8700446302
 31
0.0
  0
LINE
  5
17A
330
1F
100
AcDbEntity
  8
0
  6
Continuous
 62
     7
100
AcDbLine
 10
2617.2577508909
 20
2645.5844690415
 30
0.0
 11
2615.2544081104
 21
2645.5844690419
 31
0.0
  0
LINE
  5
17B
330
1F
100
AcDbEntity
  8
0
  6
Continuous
 62
     7
100
AcDbLine
 10
2617.2577508909
 20
2645.5844690415
 30
0.0
 11
2617.2577508909
 21
2674.1353748653
 31
0.0
  0
LINE
  5
17C
330
1F
100
AcDbEntity
  8
0
  6
Continuous
 62
     7
100
AcDbLine
 10
2615.2544081104
 20
2645.5844690419
 30
0.0
 11
2615.2544081104
 21
2674.1353748653
 31
0.0
  0
LINE
  5
17D
330
1F
100
AcDbEntity
  8
0
  6
Continuous
 62
     7
100
AcDbLine
 10
817.2577508909
 20
2645.5844690415
 30
0.0
 11
815.2544119927
 21
2645.5844690415
 31
0.0
  0
LINE
  5
17E
330
1F
100
AcDbEntity
  8
0
  6
Continuous
 62
     7
100
AcDbLine
 10
817.2577508909
 20
2645.5844690415
 30
0.0
 11
817.2577508909
 21
2674.1350818203
 31
0.0
  0
LINE
  5
17F
330
1F
100
AcDbEntity
  8
0
  6
Continuous
 62
     7
100
AcDbLine
 10
815.2544119927
 20
2645.5844690415
 30
0.0
 11
815.2544119927
 21
2674.1353748626
 31
0.0
  0
LINE
  5
180
330
1F
100
AcDbEntity
  8
0
  6
Continuous
 62
     7
100
AcDbLine
 10
815.2544119927
 20
2674.1353748626
 30
0.0
 11
2615.2543927355
 21
2673.8720763573
 31
0.0
  0
LINE
  5
181
330
1F
100
AcDbEntity
  8
0
  6
Continuous
 62
     7
100
AcDbLine
 10
817.2577508909
 20
2645.5844690415
 30
0.0
 11
2617.2577508909
 21
2645.5844690415
 31
0.0
  0
LINE
  5
182
330
1F
100
AcDbEntity
  8
0
  6
Continuous
 62
     7
100
AcDbLine
 10
815.2544158751
 20
2586.7150903205
 30
0.0
 11
2615.2544042281
 21
2586.5103238449
 31
0.0
  0
LINE
  5
183
330
1F
100
AcDbEntity
  8
0
  6
Continuous
 62
     7
100
AcDbLine
 10
2615.2544042281
 20
2586.5103238449
 30
0.0
 11
2615.2544081104
 21
2645.5844690419
 31
0.0
  0
LINE
  5
184
330
1F
100
AcDbEntity
  8
0
  6
Continuous
 62
     7
100
AcDbLine
 10
815.2544158751
 20
2586.7150903205
 30
0.0
 11
815.2544119927
 21
2645.5844690415
 31
0.0
  0
LINE
  5
185
330
1F
100
AcDbEntity
  8
0
  6
Continuous
 62
     7
100
AcDbLine
 10
1750.1953504219
 20
2753.7016722562
 30
0.0
 11
2615.2544081104
 21
2674.1353748653
 31
0.0
  0
LINE
  5
186
330
1F
100
AcDbEntity
  8
0
  6
Continuous
 62
     7
100
AcDbLine
 10
1786.6077645013
 20
2762.278959868
 30
0.0
 11
1750.2033776846
 21
2759.3376972066
 31
0.0
  0
LINE
  5
187
330
1F
100
AcDbEntity
  8
0
  6
Continuous
 62
     7
100
AcDbLine
 10
1680.3054424181
 20
2759.3376972066
 30
0.0
 11
1643.9010556014
 21
2762.278959868
 31
0.0
  0
LINE
  5
188
330
1F
100
AcDbEntity
  8
0
  6
Continuous
 62
     7
100
AcDbLine
 10
817.2577508909
 20
2674.1350818203
 30
0.0
 11
1680.3134696812
 21
2753.7016722558
 31
0.0
  0
LINE
  5
189
330
1F
100
AcDbEntity
  8
0
  6
Continuous
 62
     7
100
AcDbLine
 10
1708.7438002195
 20
2745.4121372335
 30
0.0
 11
1709.8781340573
 21
2745.4785727857
 31
0.0
  0
LINE
  5
18A
330
1F
100
AcDbEntity
  8
0
  6
Continuous
 62
     7
100
AcDbLine
 10
1723.0528976543
 20
2746.9560093601
 30
0.0
 11
1724.8451602666
 21
2747.3421775744
 31
0.0
  0
LINE
  5
18B
330
1F
100
AcDbEntity
  8
0
  6
Continuous
 62
     7
100
AcDbLine
 10
1725.6463550301
 20
2747.5858717086
 30
0.0
 11
1727.6521076512
 21
2748.224968188
 31
0.0
  0
LINE
  5
18C
330
1F
100
AcDbEntity
  8
0
  6
Continuous
 62
     7
100
AcDbLine
 10
1700.8831200206
 20
2745.8970563237
 30
0.0
 11
1703.5838896613
 21
2745.6141103708
 31
0.0
  0
LINE
  5
18D
330
1F
100
AcDbEntity
  8
0
  6
Continuous
 62
     7
100
AcDbLine
 10
1705.3210389709
 20
2745.5303218992
 30
0.0
 11
1708.7438002195
 21
2745.4121372335
 31
0.0
  0
LINE
  5
18E
330
1F
100
AcDbEntity
  8
0
  6
Continuous
 62
     7
100
AcDbLine
 10
1734.7872058956
 20
2756.6255316021
 30
0.0
 11
1734.6111097033
 21
2759.6489864608
 31
0.0
  0
LINE
  5
18F
330
1F
100
AcDbEntity
  8
0
  6
Continuous
 62
     7
100
AcDbLine
 10
1734.6111097033
 20
2759.6489864608
 30
0.0
 11
1734.1661865759
 21
2762.278959868
 31
0.0
  0
LINE
  5
190
330
1F
100
AcDbEntity
  8
0
  6
Continuous
 62
     7
100
AcDbLine
 10
1733.7855364466
 20
2756.6255316021
 30
0.0
 11
1733.6097709043
 21
2759.5872971511
 31
0.0
  0
LINE
  5
191
330
1F
100
AcDbEntity
  8
0
  6
Continuous
 62
     7
100
AcDbLine
 10
1733.6097709043
 20
2759.5872971511
 30
0.0
 11
1733.2785350738
 21
2761.6390472243
 31
0.0
  0
LINE
  5
192
330
1F
100
AcDbEntity
  8
0
  6
Continuous
 62
     7
100
AcDbLine
 10
1733.1885192196
 20
2751.1900678431
 30
0.0
 11
1733.3092855627
 21
2751.7649263806
 31
0.0
  0
LINE
  5
193
330
1F
100
AcDbEntity
  8
0
  6
Continuous
 62
     7
100
AcDbLine
 10
1733.5251005532
 20
2753.0233507301
 30
0.0
 11
1733.6097709043
 21
2753.6637660532
 31
0.0
  0
LINE
  5
194
330
1F
100
AcDbEntity
  8
0
  6
Continuous
 62
     7
100
AcDbLine
 10
1733.6097709043
 20
2753.6637660532
 30
0.0
 11
1733.7855364466
 21
2756.6255316021
 31
0.0
  0
LINE
  5
195
330
1F
100
AcDbEntity
  8
0
  6
Continuous
 62
     7
100
AcDbLine
 10
1733.5919297131
 20
2753.5176361828
 30
0.0
 11
1733.4142754581
 21
2753.4461935149
 31
0.0
  0
LINE
  5
196
330
1F
100
AcDbEntity
  8
0
  6
Continuous
 62
     7
100
AcDbLine
 10
1732.7630395021
 20
2753.1900492608
 30
0.0
 11
1731.0126739684
 21
2752.5449460525
 31
0.0
  0
LINE
  5
197
330
1F
100
AcDbEntity
  8
0
  6
Continuous
 62
     7
100
AcDbLine
 10
1731.0126739684
 20
2752.5449460525
 30
0.0
 11
1730.9036321391
 21
2752.506787846
 31
0.0
  0
LINE
  5
198
330
1F
100
AcDbEntity
  8
0
  6
Continuous
 62
     7
100
AcDbLine
 10
1729.573229483
 20
2752.0597263318
 30
0.0
 11
1727.5185069139
 21
2751.4341281339
 31
0.0
  0
LINE
  5
199
330
1F
100
AcDbEntity
  8
0
  6
Continuous
 62
     7
100
AcDbLine
 10
1700.8136603755
 20
2749.2984003529
 30
0.0
 11
1698.3308607796
 21
2749.6255332732
 31
0.0
  0
LINE
  5
19A
330
1F
100
AcDbEntity
  8
0
  6
Continuous
 62
     7
100
AcDbLine
 10
1698.3308607796
 20
2749.6255332732
 30
0.0
 11
1697.8358807169
 21
2749.7017809846
 31
0.0
  0
LINE
  5
19B
330
1F
100
AcDbEntity
  8
0
  6
Continuous
 62
     7
100
AcDbLine
 10
1733.6109832422
 20
2753.8774849093
 30
0.0
 11
1733.2827594037
 21
2753.7348390602
 31
0.0
  0
LINE
  5
19C
330
1F
100
AcDbEntity
  8
0
  6
Continuous
 62
     7
100
AcDbLine
 10
1729.6008521855
 20
2752.413042762
 30
0.0
 11
1727.2665514384
 21
2751.6411819714
 31
0.0
  0
LINE
  5
19D
330
1F
100
AcDbEntity
  8
0
  6
Continuous
 62
     7
100
AcDbLine
 10
1702.8842981381
 20
2749.3997434868
 30
0.0
 11
1702.1811024986
 21
2749.4613892526
 31
0.0
  0
LINE
  5
19E
330
1F
100
AcDbEntity
  8
0
  6
Continuous
 62
     7
100
AcDbLine
 10
1764.5973867454
 20
3321.4073425128
 30
0.0
 11
1764.5973867454
 21
3324.41235086
 31
0.0
  0
LINE
  5
19F
330
1F
100
AcDbEntity
  8
0
  6
Continuous
 62
     7
100
AcDbLine
 10
1650.40706955
 20
3324.41235086
 30
0.0
 11
1650.40706955
 21
3321.4073425128
 31
0.0
  0
LINE
  5
1A0
330
1F
100
AcDbEntity
  8
0
  6
Continuous
 62
     7
100
AcDbLine
 10
1748.57067556
 20
3324.41235086
 30
0.0
 11
1748.57067556
 21
3330.4223675545
 31
0.0
  0
LINE
  5
1A1
330
1F
100
AcDbEntity
  8
0
  6
Continuous
 62
     7
100
AcDbLine
 10
1666.4337807353
 20
3330.4223675545
 30
0.0
 11
1666.4337807353
 21
3324.41235086
 31
0.0
  0
LINE
  5
1A2
330
1F
100
AcDbEntity
  8
0
  6
Continuous
 62
     7
100
AcDbLine
 10
1656.4170862445
 20
3282.5691925247
 30
0.0
 11
1656.4170862445
 21
3278.3233425374
 31
0.0
  0
LINE
  5
1A3
330
1F
100
AcDbEntity
  8
0
  6
Continuous
 62
     7
100
AcDbLine
 10
1758.5873700509
 20
3278.3233425374
 30
0.0
 11
1758.5873700509
 21
3282.5698569196
 31
0.0
  0
LINE
  5
1A4
330
1F
100
AcDbEntity
  8
0
  6
Continuous
 62
     7
100
AcDbLine
 10
1650.40706955
 20
3321.4073425128
 30
0.0
 11
1764.5973867454
 21
3321.4073425128
 31
0.0
  0
LINE
  5
1A5
330
1F
100
AcDbEntity
  8
0
  6
Continuous
 62
     7
100
AcDbLine
 10
1650.40706955
 20
3324.41235086
 30
0.0
 11
1764.5973867454
 21
3324.41235086
 31
0.0
  0
LINE
  5
1A6
330
1F
100
AcDbEntity
  8
0
  6
Continuous
 62
     7
100
AcDbLine
 10
1658.9815594088
 20
3275.344408965
 30
0.0
 11
1659.6340668401
 21
3273.5387252267
 31
0.0
  0
LINE
  5
1A7
330
1F
100
AcDbEntity
  8
0
  6
Continuous
 62
     7
100
AcDbLine
 10
1659.6340668401
 20
3273.5387252267
 30
0.0
 11
1661.3571696946
 21
3270.2105450523
 31
0.0
  0
LINE
  5
1A8
330
1F
100
AcDbEntity
  8
0
  6
Continuous
 62
     7
100
AcDbLine
 10
1661.3571696946
 20
3270.2105450523
 30
0.0
 11
1664.2413006296
 21
3266.1350778232
 31
0.0
  0
LINE
  5
1A9
330
1F
100
AcDbEntity
  8
0
  6
Continuous
 62
     7
100
AcDbLine
 10
1664.2413006296
 20
3266.1350778232
 30
0.0
 11
1667.8205234882
 21
3262.3825078494
 31
0.0
  0
LINE
  5
1AA
330
1F
100
AcDbEntity
  8
0
  6
Continuous
 62
     7
100
AcDbLine
 10
1667.8205234882
 20
3262.3825078494
 30
0.0
 11
1672.0948382703
 21
3258.9528351309
 31
0.0
  0
LINE
  5
1AB
330
1F
100
AcDbEntity
  8
0
  6
Continuous
 62
     7
100
AcDbLine
 10
1672.0948382703
 20
3258.9528351309
 30
0.0
 11
1676.9446904262
 21
3255.9306475166
 31
0.0
  0
LINE
  5
1AC
330
1F
100
AcDbEntity
  8
0
  6
Continuous
 62
     7
100
AcDbLine
 10
1676.9446904262
 20
3255.9306475166
 30
0.0
 11
1682.2516257729
 21
3253.3997547607
 31
0.0
  0
LINE
  5
1AD
330
1F
100
AcDbEntity
  8
0
  6
Continuous
 62
     7
100
AcDbLine
 10
1682.2516257729
 20
3253.3997547607
 30
0.0
 11
1688.0156443106
 21
3251.3601568632
 31
0.0
  0
LINE
  5
1AE
330
1F
100
AcDbEntity
  8
0
  6
Continuous
 62
     7
100
AcDbLine
 10
1688.0156443106
 20
3251.3601568632
 30
0.0
 11
1692.7219512691
 21
3250.1418055759
 31
0.0
  0
LINE
  5
1AF
330
1F
100
AcDbEntity
  8
0
  6
Continuous
 62
     7
100
AcDbLine
 10
1692.7219512691
 20
3250.1418055759
 30
0.0
 11
1697.5384842282
 21
3249.2715419854
 31
0.0
  0
LINE
  5
1B0
330
1F
100
AcDbEntity
  8
0
  6
Continuous
 62
     7
100
AcDbLine
 10
1697.5384842282
 20
3249.2715419854
 30
0.0
 11
1702.4652431877
 21
3248.7493660918
 31
0.0
  0
LINE
  5
1B1
330
1F
100
AcDbEntity
  8
0
  6
Continuous
 62
     7
100
AcDbLine
 10
1702.4652431877
 20
3248.7493660918
 30
0.0
 11
1707.5022281477
 21
3248.575277895
 31
0.0
  0
LINE
  5
1B2
330
1F
100
AcDbEntity
  8
0
  6
Continuous
 62
     7
100
AcDbLine
 10
1707.5022281477
 20
3248.575277895
 30
0.0
 11
1712.5387621853
 21
3248.7492995731
 31
0.0
  0
LINE
  5
1B3
330
1F
100
AcDbEntity
  8
0
  6
Continuous
 62
     7
100
AcDbLine
 10
1712.5387621853
 20
3248.7492995731
 30
0.0
 11
1717.4653708374
 21
3249.2714532939
 31
0.0
  0
LINE
  5
1B4
330
1F
100
AcDbEntity
  8
0
  6
Continuous
 62
     7
100
AcDbLine
 10
1717.4653708374
 20
3249.2714532939
 30
0.0
 11
1722.2820541038
 21
3250.1417390572
 31
0.0
  0
LINE
  5
1B5
330
1F
100
AcDbEntity
  8
0
  6
Continuous
 62
     7
100
AcDbLine
 10
1722.2820541038
 20
3250.1417390572
 30
0.0
 11
1726.9888119849
 21
3251.3601568632
 31
0.0
  0
LINE
  5
1B6
330
1F
100
AcDbEntity
  8
0
  6
Continuous
 62
     7
100
AcDbLine
 10
1726.9888119849
 20
3251.3601568632
 30
0.0
 11
1732.7523929485
 21
3253.3995453707
 31
0.0
  0
LINE
  5
1B7
330
1F
100
AcDbEntity
  8
0
  6
Continuous
 62
     7
100
AcDbLine
 10
1732.7523929485
 20
3253.3995453707
 30
0.0
 11
1738.0593282953
 21
3255.9304381266
 31
0.0
  0
LINE
  5
1B8
330
1F
100
AcDbEntity
  8
0
  6
Continuous
 62
     7
100
AcDbLine
 10
1738.0593282953
 20
3255.9304381266
 30
0.0
 11
1742.9096180252
 21
3258.9528351309
 31
0.0
  0
LINE
  5
1B9
330
1F
100
AcDbEntity
  8
0
  6
Continuous
 62
     7
100
AcDbLine
 10
1742.9096180252
 20
3258.9528351309
 30
0.0
 11
1747.1836366838
 21
3262.3821984372
 31
0.0
  0
LINE
  5
1BA
330
1F
100
AcDbEntity
  8
0
  6
Continuous
 62
     7
100
AcDbLine
 10
1747.1836366838
 20
3262.3821984372
 30
0.0
 11
1750.7628595423
 21
3266.1347684109
 31
0.0
  0
LINE
  5
1BB
330
1F
100
AcDbEntity
  8
0
  6
Continuous
 62
     7
100
AcDbLine
 10
1750.7628595423
 20
3266.1347684109
 30
0.0
 11
1753.6472866006
 21
3270.2105450524
 31
0.0
  0
LINE
  5
1BC
330
1F
100
AcDbEntity
  8
0
  6
Continuous
 62
     7
100
AcDbLine
 10
1753.6472866006
 20
3270.2105450524
 30
0.0
 11
1755.3702953777
 21
3273.5384063664
 31
0.0
  0
LINE
  5
1BD
330
1F
100
AcDbEntity
  8
0
  6
Continuous
 62
     7
100
AcDbLine
 10
1755.3702953777
 20
3273.5384063664
 30
0.0
 11
1756.0230632801
 21
3275.3448005609
 31
0.0
  0
LINE
  5
1BE
330
1F
100
AcDbEntity
  8
0
  6
Continuous
 62
     7
100
AcDbLine
 10
1758.5100768641
 20
3282.0033006921
 30
0.0
 11
1758.3075202984
 21
3280.2137954964
 31
0.0
  0
LINE
  5
1BF
330
1F
100
AcDbEntity
  8
0
  6
Continuous
 62
     7
100
AcDbLine
 10
1758.3075202984
 20
3280.2137954964
 30
0.0
 11
1757.6825117408
 21
3277.2209309254
 31
0.0
  0
LINE
  5
1C0
330
1F
100
AcDbEntity
  8
0
  6
Continuous
 62
     7
100
AcDbLine
 10
1757.6825117408
 20
3277.2209309254
 30
0.0
 11
1756.7055245484
 21
3274.2755439895
 31
0.0
  0
LINE
  5
1C1
330
1F
100
AcDbEntity
  8
0
  6
Continuous
 62
     7
100
AcDbLine
 10
1756.7055245484
 20
3274.2755439895
 30
0.0
 11
1755.3834115842
 21
3271.398294462
 31
0.0
  0
LINE
  5
1C2
330
1F
100
AcDbEntity
  8
0
  6
Continuous
 62
     7
100
AcDbLine
 10
1755.3834115842
 20
3271.398294462
 30
0.0
 11
1753.7254465208
 21
3268.6093641808
 31
0.0
  0
LINE
  5
1C3
330
1F
100
AcDbEntity
  8
0
  6
Continuous
 62
     7
100
AcDbLine
 10
1753.7254465208
 20
3268.6093641808
 30
0.0
 11
1751.7432587918
 21
3265.9283154881
 31
0.0
  0
LINE
  5
1C4
330
1F
100
AcDbEntity
  8
0
  6
Continuous
 62
     7
100
AcDbLine
 10
1751.7432587918
 20
3265.9283154881
 30
0.0
 11
1749.45075202
 21
3263.3739540142
 31
0.0
  0
LINE
  5
1C5
330
1F
100
AcDbEntity
  8
0
  6
Continuous
 62
     7
100
AcDbLine
 10
1749.45075202
 20
3263.3739540142
 30
0.0
 11
1746.8640064932
 21
3260.9641967694
 31
0.0
  0
LINE
  5
1C6
330
1F
100
AcDbEntity
  8
0
  6
Continuous
 62
     7
100
AcDbLine
 10
1746.8640064932
 20
3260.9641967694
 30
0.0
 11
1744.0011663727
 21
3258.7159464695
 31
0.0
  0
LINE
  5
1C7
330
1F
100
AcDbEntity
  8
0
  6
Continuous
 62
     7
100
AcDbLine
 10
1744.0011663727
 20
3258.7159464695
 30
0.0
 11
1740.882312425
 21
3256.6449729749
 31
0.0
  0
LINE
  5
1C8
330
1F
100
AcDbEntity
  8
0
  6
Continuous
 62
     7
100
AcDbLine
 10
1740.882312425
 20
3256.6449729749
 30
0.0
 11
1737.5293211697
 21
3254.7658026767
 31
0.0
  0
LINE
  5
1C9
330
1F
100
AcDbEntity
  8
0
  6
Continuous
 62
     7
100
AcDbLine
 10
1737.5293211697
 20
3254.7658026767
 30
0.0
 11
1733.9657114312
 21
3253.0916166043
 31
0.0
  0
LINE
  5
1CA
330
1F
100
AcDbEntity
  8
0
  6
Continuous
 62
     7
100
AcDbLine
 10
1733.9657114312
 20
3253.0916166043
 30
0.0
 11
1730.2164793715
 21
3251.6341579702
 31
0.0
  0
LINE
  5
1CB
330
1F
100
AcDbEntity
  8
0
  6
Continuous
 62
     7
100
AcDbLine
 10
1730.2164793715
 20
3251.6341579702
 30
0.0
 11
1726.3079231597
 21
3250.4036497995
 31
0.0
  0
LINE
  5
1CC
330
1F
100
AcDbEntity
  8
0
  6
Continuous
 62
     7
100
AcDbLine
 10
1726.3079231597
 20
3250.4036497995
 30
0.0
 11
1722.2674585092
 21
3249.4087232228
 31
0.0
  0
LINE
  5
1CD
330
1F
100
AcDbEntity
  8
0
  6
Continuous
 62
     7
100
AcDbLine
 10
1722.2674585092
 20
3249.4087232228
 30
0.0
 11
1718.1234263764
 21
3248.6563569353
 31
0.0
  0
LINE
  5
1CE
330
1F
100
AcDbEntity
  8
0
  6
Continuous
 62
     7
100
AcDbLine
 10
1718.1234263764
 20
3248.6563569353
 30
0.0
 11
1713.9048941695
 21
3248.1518282459
 31
0.0
  0
LINE
  5
1CF
330
1F
100
AcDbEntity
  8
0
  6
Continuous
 62
     7
100
AcDbLine
 10
1713.9048941695
 20
3248.1518282459
 30
0.0
 11
1709.6414518607
 21
3247.8986760609
 31
0.0
  0
LINE
  5
1D0
330
1F
100
AcDbEntity
  8
0
  6
Continuous
 62
     7
100
AcDbLine
 10
1709.6414518607
 20
3247.8986760609
 30
0.0
 11
1705.3630044346
 21
3247.8986760609
 31
0.0
  0
LINE
  5
1D1
330
1F
100
AcDbEntity
  8
0
  6
Continuous
 62
     7
100
AcDbLine
 10
1705.3630044346
 20
3247.8986760609
 30
0.0
 11
1701.0995621259
 21
3248.1518282459
 31
0.0
  0
LINE
  5
1D2
330
1F
100
AcDbEntity
  8
0
  6
Continuous
 62
     7
100
AcDbLine
 10
1701.0995621259
 20
3248.1518282459
 30
0.0
 11
1696.8810299189
 21
3248.6563569353
 31
0.0
  0
LINE
  5
1D3
330
1F
100
AcDbEntity
  8
0
  6
Continuous
 62
     7
100
AcDbLine
 10
1696.8810299189
 20
3248.6563569353
 30
0.0
 11
1692.7369977863
 21
3249.4087232228
 31
0.0
  0
LINE
  5
1D4
330
1F
100
AcDbEntity
  8
0
  6
Continuous
 62
     7
100
AcDbLine
 10
1692.7369977863
 20
3249.4087232228
 30
0.0
 11
1688.6965331358
 21
3250.4036497995
 31
0.0
  0
LINE
  5
1D5
330
1F
100
AcDbEntity
  8
0
  6
Continuous
 62
     7
100
AcDbLine
 10
1688.6965331358
 20
3250.4036497995
 30
0.0
 11
1684.7879769239
 21
3251.6341579702
 31
0.0
  0
LINE
  5
1D6
330
1F
100
AcDbEntity
  8
0
  6
Continuous
 62
     7
100
AcDbLine
 10
1684.7879769239
 20
3251.6341579702
 30
0.0
 11
1681.0387448642
 21
3253.0916166043
 31
0.0
  0
LINE
  5
1D7
330
1F
100
AcDbEntity
  8
0
  6
Continuous
 62
     7
100
AcDbLine
 10
1681.0387448642
 20
3253.0916166043
 30
0.0
 11
1677.4751351258
 21
3254.7658026767
 31
0.0
  0
LINE
  5
1D8
330
1F
100
AcDbEntity
  8
0
  6
Continuous
 62
     7
100
AcDbLine
 10
1677.4751351258
 20
3254.7658026767
 30
0.0
 11
1674.1221438704
 21
3256.6449729749
 31
0.0
  0
LINE
  5
1D9
330
1F
100
AcDbEntity
  8
0
  6
Continuous
 62
     7
100
AcDbLine
 10
1674.1221438704
 20
3256.6449729749
 30
0.0
 11
1671.0032899227
 21
3258.7159464695
 31
0.0
  0
LINE
  5
1DA
330
1F
100
AcDbEntity
  8
0
  6
Continuous
 62
     7
100
AcDbLine
 10
1671.0032899227
 20
3258.7159464695
 30
0.0
 11
1668.1404498022
 21
3260.9641967694
 31
0.0
  0
LINE
  5
1DB
330
1F
100
AcDbEntity
  8
0
  6
Continuous
 62
     7
100
AcDbLine
 10
1668.1404498022
 20
3260.9641967694
 30
0.0
 11
1665.5537042754
 21
3263.3739540142
 31
0.0
  0
LINE
  5
1DC
330
1F
100
AcDbEntity
  8
0
  6
Continuous
 62
     7
100
AcDbLine
 10
1665.5537042754
 20
3263.3739540142
 30
0.0
 11
1663.2611975036
 21
3265.9283154881
 31
0.0
  0
LINE
  5
1DD
330
1F
100
AcDbEntity
  8
0
  6
Continuous
 62
     7
100
AcDbLine
 10
1663.2611975036
 20
3265.9283154881
 30
0.0
 11
1661.2790097747
 21
3268.6093641808
 31
0.0
  0
LINE
  5
1DE
330
1F
100
AcDbEntity
  8
0
  6
Continuous
 62
     7
100
AcDbLine
 10
1661.2790097747
 20
3268.6093641808
 30
0.0
 11
1659.6210447112
 21
3271.398294462
 31
0.0
  0
LINE
  5
1DF
330
1F
100
AcDbEntity
  8
0
  6
Continuous
 62
     7
100
AcDbLine
 10
1659.6210447112
 20
3271.398294462
 30
0.0
 11
1658.298931747
 21
3274.2755439895
 31
0.0
  0
LINE
  5
1E0
330
1F
100
AcDbEntity
  8
0
  6
Continuous
 62
     7
100
AcDbLine
 10
1658.298931747
 20
3274.2755439895
 30
0.0
 11
1657.3219445546
 21
3277.2209309254
 31
0.0
  0
LINE
  5
1E1
330
1F
100
AcDbEntity
  8
0
  6
Continuous
 62
     7
100
AcDbLine
 10
1657.3219445546
 20
3277.2209309254
 30
0.0
 11
1656.696935997
 21
3280.2137954964
 31
0.0
  0
LINE
  5
1E2
330
1F
100
AcDbEntity
  8
0
  6
Continuous
 62
     7
100
AcDbLine
 10
1656.696935997
 20
3280.2137954964
 30
0.0
 11
1656.4848310743
 21
3282.1299472125
 31
0.0
  0
LINE
  5
1E3
330
1F
100
AcDbEntity
  8
0
  6
Continuous
 62
     7
100
AcDbLine
 10
1758.5873700509
 20
3278.3233425374
 30
0.0
 11
1758.5761662351
 21
3277.5668468283
 31
0.0
  0
LINE
  5
1E4
330
1F
100
AcDbEntity
  8
0
  6
Continuous
 62
     7
100
AcDbLine
 10
1758.5761662351
 20
3277.5668468283
 30
0.0
 11
1758.3075202984
 21
3274.5474974168
 31
0.0
  0
LINE
  5
1E5
330
1F
100
AcDbEntity
  8
0
  6
Continuous
 62
     7
100
AcDbLine
 10
1758.3075202984
 20
3274.5474974168
 30
0.0
 11
1757.6825117408
 21
3271.5546328457
 31
0.0
  0
LINE
  5
1E6
330
1F
100
AcDbEntity
  8
0
  6
Continuous
 62
     7
100
AcDbLine
 10
1757.6825117408
 20
3271.5546328457
 30
0.0
 11
1756.7055245484
 21
3268.6092459099
 31
0.0
  0
LINE
  5
1E7
330
1F
100
AcDbEntity
  8
0
  6
Continuous
 62
     7
100
AcDbLine
 10
1756.7055245484
 20
3268.6092459099
 30
0.0
 11
1755.3834115842
 21
3265.7319963823
 31
0.0
  0
LINE
  5
1E8
330
1F
100
AcDbEntity
  8
0
  6
Continuous
 62
     7
100
AcDbLine
 10
1755.3834115842
 20
3265.7319963823
 30
0.0
 11
1753.7254465208
 21
3262.9430661012
 31
0.0
  0
LINE
  5
1E9
330
1F
100
AcDbEntity
  8
0
  6
Continuous
 62
     7
100
AcDbLine
 10
1753.7254465208
 20
3262.9430661012
 30
0.0
 11
1751.7432587918
 21
3260.2620174085
 31
0.0
  0
LINE
  5
1EA
330
1F
100
AcDbEntity
  8
0
  6
Continuous
 62
     7
100
AcDbLine
 10
1751.7432587918
 20
3260.2620174085
 30
0.0
 11
1749.45075202
 21
3257.7076559346
 31
0.0
  0
LINE
  5
1EB
330
1F
100
AcDbEntity
  8
0
  6
Continuous
 62
     7
100
AcDbLine
 10
1749.45075202
 20
3257.7076559346
 30
0.0
 11
1746.8640064932
 21
3255.2978986898
 31
0.0
  0
LINE
  5
1EC
330
1F
100
AcDbEntity
  8
0
  6
Continuous
 62
     7
100
AcDbLine
 10
1746.8640064932
 20
3255.2978986898
 30
0.0
 11
1744.0011663727
 21
3253.0496483899
 31
0.0
  0
LINE
  5
1ED
330
1F
100
AcDbEntity
  8
0
  6
Continuous
 62
     7
100
AcDbLine
 10
1744.0011663727
 20
3253.0496483899
 30
0.0
 11
1740.882312425
 21
3250.9786748953
 31
0.0
  0
LINE
  5
1EE
330
1F
100
AcDbEntity
  8
0
  6
Continuous
 62
     7
100
AcDbLine
 10
1740.882312425
 20
3250.9786748953
 30
0.0
 11
1737.5293211697
 21
3249.0995045971
 31
0.0
  0
LINE
  5
1EF
330
1F
100
AcDbEntity
  8
0
  6
Continuous
 62
     7
100
AcDbLine
 10
1737.5293211697
 20
3249.0995045971
 30
0.0
 11
1733.9657114312
 21
3247.4253185247
 31
0.0
  0
LINE
  5
1F0
330
1F
100
AcDbEntity
  8
0
  6
Continuous
 62
     7
100
AcDbLine
 10
1733.9657114312
 20
3247.4253185247
 30
0.0
 11
1730.2164793715
 21
3245.9678598906
 31
0.0
  0
LINE
  5
1F1
330
1F
100
AcDbEntity
  8
0
  6
Continuous
 62
     7
100
AcDbLine
 10
1730.2164793715
 20
3245.9678598906
 30
0.0
 11
1726.3079231597
 21
3244.7373517198
 31
0.0
  0
LINE
  5
1F2
330
1F
100
AcDbEntity
  8
0
  6
Continuous
 62
     7
100
AcDbLine
 10
1726.3079231597
 20
3244.7373517198
 30
0.0
 11
1722.2674585092
 21
3243.7424251432
 31
0.0
  0
LINE
  5
1F3
330
1F
100
AcDbEntity
  8
0
  6
Continuous
 62
     7
100
AcDbLine
 10
1722.2674585092
 20
3243.7424251432
 30
0.0
 11
1718.1234263764
 21
3242.9900588557
 31
0.0
  0
LINE
  5
1F4
330
1F
100
AcDbEntity
  8
0
  6
Continuous
 62
     7
100
AcDbLine
 10
1718.1234263764
 20
3242.9900588557
 30
0.0
 11
1713.9048941695
 21
3242.4855301663
 31
0.0
  0
LINE
  5
1F5
330
1F
100
AcDbEntity
  8
0
  6
Continuous
 62
     7
100
AcDbLine
 10
1713.9048941695
 20
3242.4855301663
 30
0.0
 11
1709.6414518607
 21
3242.2323779813
 31
0.0
  0
LINE
  5
1F6
330
1F
100
AcDbEntity
  8
0
  6
Continuous
 62
     7
100
AcDbLine
 10
1709.6414518607
 20
3242.2323779813
 30
0.0
 11
1705.3630044346
 21
3242.2323779813
 31
0.0
  0
LINE
  5
1F7
330
1F
100
AcDbEntity
  8
0
  6
Continuous
 62
     7
100
AcDbLine
 10
1705.3630044346
 20
3242.2323779813
 30
0.0
 11
1701.0995621259
 21
3242.4855301663
 31
0.0
  0
LINE
  5
1F8
330
1F
100
AcDbEntity
  8
0
  6
Continuous
 62
     7
100
AcDbLine
 10
1701.0995621259
 20
3242.4855301663
 30
0.0
 11
1696.8810299189
 21
3242.9900588557
 31
0.0
  0
LINE
  5
1F9
330
1F
100
AcDbEntity
  8
0
  6
Continuous
 62
     7
100
AcDbLine
 10
1696.8810299189
 20
3242.9900588557
 30
0.0
 11
1692.7369977863
 21
3243.7424251432
 31
0.0
  0
LINE
  5
1FA
330
1F
100
AcDbEntity
  8
0
  6
Continuous
 62
     7
100
AcDbLine
 10
1692.7369977863
 20
3243.7424251432
 30
0.0
 11
1688.6965331358
 21
3244.7373517198
 31
0.0
  0
LINE
  5
1FB
330
1F
100
AcDbEntity
  8
0
  6
Continuous
 62
     7
100
AcDbLine
 10
1688.6965331358
 20
3244.7373517198
 30
0.0
 11
1684.7879769239
 21
3245.9678598906
 31
0.0
  0
LINE
  5
1FC
330
1F
100
AcDbEntity
  8
0
  6
Continuous
 62
     7
100
AcDbLine
 10
1684.7879769239
 20
3245.9678598906
 30
0.0
 11
1681.0387448642
 21
3247.4253185247
 31
0.0
  0
LINE
  5
1FD
330
1F
100
AcDbEntity
  8
0
  6
Continuous
 62
     7
100
AcDbLine
 10
1681.0387448642
 20
3247.4253185247
 30
0.0
 11
1677.4751351258
 21
3249.0995045971
 31
0.0
  0
LINE
  5
1FE
330
1F
100
AcDbEntity
  8
0
  6
Continuous
 62
     7
100
AcDbLine
 10
1677.4751351258
 20
3249.0995045971
 30
0.0
 11
1674.1221438704
 21
3250.9786748953
 31
0.0
  0
LINE
  5
1FF
330
1F
100
AcDbEntity
  8
0
  6
Continuous
 62
     7
100
AcDbLine
 10
1674.1221438704
 20
3250.9786748953
 30
0.0
 11
1671.0032899227
 21
3253.0496483899
 31
0.0
  0
LINE
  5
200
330
1F
100
AcDbEntity
  8
0
  6
Continuous
 62
     7
100
AcDbLine
 10
1671.0032899227
 20
3253.0496483899
 30
0.0
 11
1668.1404498022
 21
3255.2978986898
 31
0.0
  0
LINE
  5
201
330
1F
100
AcDbEntity
  8
0
  6
Continuous
 62
     7
100
AcDbLine
 10
1668.1404498022
 20
3255.2978986898
 30
0.0
 11
1665.5537042754
 21
3257.7076559346
 31
0.0
  0
LINE
  5
202
330
1F
100
AcDbEntity
  8
0
  6
Continuous
 62
     7
100
AcDbLine
 10
1665.5537042754
 20
3257.7076559346
 30
0.0
 11
1663.2611975036
 21
3260.2620174085
 31
0.0
  0
LINE
  5
203
330
1F
100
AcDbEntity
  8
0
  6
Continuous
 62
     7
100
AcDbLine
 10
1663.2611975036
 20
3260.2620174085
 30
0.0
 11
1661.2790097747
 21
3262.9430661012
 31
0.0
  0
LINE
  5
204
330
1F
100
AcDbEntity
  8
0
  6
Continuous
 62
     7
100
AcDbLine
 10
1661.2790097747
 20
3262.9430661012
 30
0.0
 11
1659.6210447112
 21
3265.7319963823
 31
0.0
  0
LINE
  5
205
330
1F
100
AcDbEntity
  8
0
  6
Continuous
 62
     7
100
AcDbLine
 10
1659.6210447112
 20
3265.7319963823
 30
0.0
 11
1658.298931747
 21
3268.6092459099
 31
0.0
  0
LINE
  5
206
330
1F
100
AcDbEntity
  8
0
  6
Continuous
 62
     7
100
AcDbLine
 10
1658.298931747
 20
3268.6092459099
 30
0.0
 11
1657.3219445546
 21
3271.5546328457
 31
0.0
  0
LINE
  5
207
330
1F
100
AcDbEntity
  8
0
  6
Continuous
 62
     7
100
AcDbLine
 10
1657.3219445546
 20
3271.5546328457
 30
0.0
 11
1656.696935997
 21
3274.5474974168
 31
0.0
  0
LINE
  5
208
330
1F
100
AcDbEntity
  8
0
  6
Continuous
 62
     7
100
AcDbLine
 10
1656.696935997
 20
3274.5474974168
 30
0.0
 11
1656.4282900603
 21
3277.5668468283
 31
0.0
  0
LINE
  5
209
330
1F
100
AcDbEntity
  8
0
  6
Continuous
 62
     7
100
AcDbLine
 10
1656.4282900603
 20
3277.5668468283
 30
0.0
 11
1656.4170862445
 21
3278.3233425374
 31
0.0
  0
LWPOLYLINE
  5
20A
330
1F
100
AcDbEntity
  8
0
  6
Continuous
 62
     7
100
AcDbPolyline
 90
        5
 70
   128
 43
0.0
 10
1652.2598266602
 20
3320.8057742085
 10
1651.894385053
 20
3304.1129005246
 10
1653.138638568
 20
3293.3827804834
 10
1655.7803865928
 20
3283.449403617
 10
1658.7867673011
 20
3274.7075928329
  0
LWPOLYLINE
  5
20B
330
1F
100
AcDbEntity
  8
0
  6
Continuous
 62
     7
100
AcDbPolyline
 90
        5
 70
   128
 43
0.0
 10
1755.916595459
 20
3274.708027318
 10
1760.4673718942
 20
3288.7009853976
 10
1762.4660315893
 20
3299.2100958625
 10
1762.8597327542
 20
3310.0203399681
 10
1762.4436368887
 20
3320.8057742085
  0
LWPOLYLINE
  5
20C
330
1F
100
AcDbEntity
  8
0
  6
Continuous
 62
     7
100
AcDbPolyline
 90
        3
 70
   128
 43
0.0
 10
1686.5425109863
 20
3332.238455183
 10
1719.031233135
 20
3333.6743106765
 10
1741.1817527151
 20
3332.238455183
  0
LWPOLYLINE
  5
20D
330
1F
100
AcDbEntity
  8
0
  6
Continuous
 62
     7
100
AcDbPolyline
 90
        3
 70
   128
 43
0.0
 10
3206.6345214844
 20
3320.9195904084
 10
3205.3442591767
 20
3319.1664802959
 10
3203.6310042527
 20
3318.9162515102
  0
LWPOLYLINE
  5
20E
330
1F
100
AcDbEntity
  8
0
  6
Continuous
 62
     7
100
AcDbPolyline
 90
        5
 70
   128
 43
0.0
 10
3274.4579315186
 20
3248.0875257906
 10
3297.0685998845
 20
3267.556748115
 10
3307.9406587432
 20
3283.4458441196
 10
3313.7746248787
 20
3301.8346288451
 10
3316.8196330263
 20
3320.9195904084
  0
LWPOLYLINE
  5
20F
330
1F
100
AcDbEntity
  8
0
  6
Continuous
 62
     7
100
AcDbPolyline
 90
        3
 70
   128
 43
0.0
 10
3197.9637145996
 20
3313.2499370867
 10
3194.4545672835
 20
3302.8617686447
 10
3191.6109708637
 20
3294.766403831
  0
LWPOLYLINE
  5
210
330
1F
100
AcDbEntity
  8
0
  6
Continuous
 62
     7
100
AcDbPolyline
 90
        5
 70
   128
 43
0.0
 10
3191.6103363037
 20
3250.9028959176
 10
3217.8661346902
 20
3248.1244269389
 10
3234.8299222561
 20
3246.2652536368
 10
3251.8079050849
 20
3244.370673185
 10
3268.7818574844
 20
3242.4328021193
  0
LWPOLYLINE
  5
211
330
1F
100
AcDbEntity
  8
0
  6
Continuous
 62
     7
100
AcDbPolyline
 90
        3
 70
   128
 43
0.0
 10
1723.1931686401
 20
2742.5335635005
 10
1722.1816978235
 20
2741.0001597368
 10
1721.1366381231
 20
2739.8308146585
  0
LWPOLYLINE
  5
212
330
1F
100
AcDbEntity
  8
0
  6
Continuous
 62
     7
100
AcDbPolyline
 90
        3
 70
   128
 43
0.0
 10
1721.0311889648
 20
2738.8151850701
 10
1723.1685738359
 20
2741.1371934663
 10
1724.149866542
 20
2743.0685484507
  0
LWPOLYLINE
  5
213
330
1F
100
AcDbEntity
  8
0
  6
Continuous
 62
     7
100
AcDbPolyline
 90
        3
 70
   128
 43
0.0
 10
1707.0684432983
 20
2742.6758963443
 10
1705.2346582392
 20
2742.7855946828
 10
1703.6994458453
 20
2743.1059703927
  0
LWPOLYLINE
  5
214
330
1F
100
AcDbEntity
  8
0
  6
Continuous
 62
     7
100
AcDbPolyline
 90
        3
 70
   128
 43
0.0
 10
1703.0639648438
 20
2742.559303085
 10
1705.9665305656
 20
2741.9850237803
 10
1708.0100197695
 20
2742.1153049308
  0
LWPOLYLINE
  5
215
330
1F
100
AcDbEntity
  8
0
  6
Continuous
 62
     7
100
AcDbPolyline
 90
        3
 70
   128
 43
0.0
 10
1732.6908111572
 20
2753.2942882746
 10
1732.9673325624
 20
2752.474136013
 10
1733.168916488
 20
2751.7975873136
  0
LWPOLYLINE
  5
216
330
1F
100
AcDbEntity
  8
0
  6
Continuous
 62
     7
100
AcDbPolyline
 90
        3
 70
   128
 43
0.0
 10
1731.3785552979
 20
2756.427111165
 10
1732.2014496357
 20
2754.7840090628
 10
1732.6916023291
 20
2753.2942882746
  0
LWPOLYLINE
  5
217
330
1F
100
AcDbEntity
  8
0
  6
Continuous
 62
     7
100
AcDbPolyline
 90
        3
 70
   128
 43
0.0
 10
1733.5166931152
 20
2752.7147620511
 10
1732.5730529699
 20
2755.713378552
 10
1731.3942568238
 20
2757.5226875289
  0
LWPOLYLINE
  5
218
330
1F
100
AcDbEntity
  8
0
  6
Continuous
 62
     7
100
AcDbPolyline
 90
        3
 70
   128
 43
0.0
 10
1699.1291046143
 20
2756.7117768526
 10
1698.307370467
 20
2758.3548789548
 10
1697.8172177736
 20
2759.844599743
  0
LWPOLYLINE
  5
219
330
1F
100
AcDbEntity
  8
0
  6
Continuous
 62
     7
100
AcDbPolyline
 90
        3
 70
   128
 43
0.0
 10
1697.0376968384
 20
2760.0767470645
 10
1697.9884816527
 20
2757.304401394
 10
1699.1145632789
 20
2755.6162004886
  0
LWPOLYLINE
  5
21A
330
1F
100
AcDbEntity
  8
0
  6
Continuous
 62
     7
100
AcDbPolyline
 90
        3
 70
   128
 43
0.0
 10
1703.6991119385
 20
2743.1059703927
 10
1705.6048426426
 20
2742.7547856429
 10
1707.0686147559
 20
2742.6758963443
  0
LWPOLYLINE
  5
21B
330
1F
100
AcDbEntity
  8
0
  6
Continuous
 62
     7
100
AcDbPolyline
 90
        3
 70
   128
 43
0.0
 10
1697.8168487549
 20
2759.844599743
 10
1698.4657812575
 20
2758.0188853374
 10
1699.1293471775
 20
2756.7117768526
  0
LWPOLYLINE
  5
21C
330
1F
100
AcDbEntity
  8
0
  6
Continuous
 62
     7
100
AcDbPolyline
 90
        3
 70
   128
 43
0.0
 10
1732.6908111572
 20
2753.2942882746
 10
1732.0430388452
 20
2755.1200026802
 10
1731.3794729252
 20
2756.427111165
  0
LWPOLYLINE
  5
21D
330
1F
100
AcDbEntity
  8
0
  6
Continuous
 62
     7
100
AcDbPolyline
 90
        3
 70
   128
 43
0.0
 10
1721.1360931396
 20
2739.8308146585
 10
1722.3935012114
 20
2741.3053331989
 10
1723.1936776298
 20
2742.5335635005
  0
LWPOLYLINE
  5
21E
330
1F
100
AcDbEntity
  8
0
  6
Continuous
 62
     7
100
AcDbPolyline
 90
        3
 70
   128
 43
0.0
 10
1724.1182327271
 20
2744.4534307743
 10
1724.8051265861
 20
2746.8955195223
 10
1724.9440146004
 20
2748.7827863205
  0
LWPOLYLINE
  5
21F
330
1F
100
AcDbEntity
  8
0
  6
Continuous
 62
     7
100
AcDbPolyline
 90
        3
 70
   128
 43
0.0
 10
1713.9558792114
 20
2744.3177819011
 10
1711.5260686679
 20
2743.1996536605
 10
1709.3014613441
 20
2742.7879874412
  0
LWPOLYLINE
  5
220
330
1F
100
AcDbEntity
  8
0
  6
Continuous
 62
     7
100
AcDbPolyline
 90
        3
 70
   128
 43
0.0
 10
1709.1932296753
 20
2742.8350922287
 10
1711.7264924551
 20
2743.4882316328
 10
1713.4720846959
 20
2744.35242066
  0
LWPOLYLINE
  5
221
330
1F
100
AcDbEntity
  8
0
  6
Continuous
 62
     7
100
AcDbPolyline
 90
        3
 70
   128
 43
0.0
 10
1703.9051055908
 20
2751.62652498
 10
1701.7756976442
 20
2753.1473560635
 10
1700.3428442089
 20
2754.8341205327
  0
LWPOLYLINE
  5
222
330
1F
100
AcDbEntity
  8
0
  6
Continuous
 62
     7
100
AcDbPolyline
 90
        3
 70
   128
 43
0.0
 10
1700.3288269043
 20
2754.9511054632
 10
1702.1011874244
 20
2753.1352431087
 10
1703.6661644082
 20
2752.0713291608
  0
LWPOLYLINE
  5
223
330
1F
100
AcDbEntity
  8
0
  6
Continuous
 62
     7
100
AcDbPolyline
 90
        3
 70
   128
 43
0.0
 10
1730.1788330078
 20
2758.1877825544
 10
1728.3470310795
 20
2760.054783936
 10
1726.7258253079
 20
2761.1344166475
  0
LWPOLYLINE
  5
224
330
1F
100
AcDbEntity
  8
0
  6
Continuous
 62
     7
100
AcDbPolyline
 90
        3
 70
   128
 43
0.0
 10
1725.209236145
 20
2749.2124934339
 10
1724.9573813495
 20
2746.6075806265
 10
1724.2130271867
 20
2744.523310917
  0
LWPOLYLINE
  5
225
330
1F
100
AcDbEntity
  8
0
  6
Continuous
 62
     7
100
AcDbPolyline
 90
        3
 70
   128
 43
0.0
 10
1726.5129089355
 20
2761.5709405243
 10
1728.6971588281
 20
2760.025500831
 10
1730.1659758939
 20
2758.3047674849
  0
LWPOLYLINE
  5
226
330
1F
100
AcDbEntity
  8
0
  6
Continuous
 62
     7
100
AcDbPolyline
 90
        3
 70
   128
 43
0.0
 10
1710.7257843018
 20
2742.4168499524
 10
1713.0617423924
 20
2743.2299392147
 10
1714.6930426025
 20
2744.1254410995
  0
LWPOLYLINE
  5
227
330
1F
100
AcDbEntity
  8
0
  6
Continuous
 62
     7
100
AcDbPolyline
 90
        3
 70
   128
 43
0.0
 10
1725.2464294434
 20
2745.5718709396
 10
1725.7104262475
 20
2748.000785717
 10
1725.7505489711
 20
2749.8612840826
  0
LWPOLYLINE
  5
228
330
1F
100
AcDbEntity
  8
0
  6
Continuous
 62
     7
100
AcDbPolyline
 90
        3
 70
   128
 43
0.0
 10
1700.7331848145
 20
2753.4144230217
 10
1702.6057261961
 20
2751.7985975065
 10
1704.1969036825
 20
2750.8336010258
  0
LWPOLYLINE
  5
229
330
1F
100
AcDbEntity
  8
0
  6
Continuous
 62
     7
100
AcDbPolyline
 90
        3
 70
   128
 43
0.0
 10
1729.7744750977
 20
2759.724464996
 10
1727.9030939065
 20
2761.3402905111
 10
1726.31191642
 20
2762.3052869919
  0
LWPOLYLINE
  5
22A
330
1F
100
AcDbEntity
  8
0
  6
Continuous
 62
     7
100
AcDbPolyline
 90
        3
 70
   128
 43
0.0
 10
1705.2202224731
 20
2748.7910433096
 10
1702.7676777089
 20
2747.1544490614
 10
1699.1070170584
 20
2744.7120255036
  0
LWPOLYLINE
  5
22B
330
1F
100
AcDbEntity
  8
0
  6
Continuous
 62
     7
100
AcDbPolyline
 90
        3
 70
   128
 43
0.0
 10
1704.2198181152
 20
2750.2908590467
 10
1701.7669880426
 20
2748.6542647935
 10
1698.1063273973
 20
2746.2118412281
  0
LWPOLYLINE
  5
22C
330
1F
100
AcDbEntity
  8
0
  6
Continuous
 62
     7
100
AcDbPolyline
 90
        3
 70
   128
 43
0.0
 10
1727.0069122314
 20
2751.7690890285
 10
1729.6514010249
 20
2750.4631140663
 10
1733.5969322
 20
2748.5141007313
  0
LWPOLYLINE
  5
22D
330
1F
100
AcDbEntity
  8
0
  6
Continuous
 62
     7
100
AcDbPolyline
 90
        3
 70
   128
 43
0.0
 10
1726.2086868286
 20
2750.1525584848
 10
1728.8414285457
 20
2748.852234053
 10
1732.7983985054
 20
2746.8975701876
  0
LWPOLYLINE
  5
22E
330
1F
100
AcDbEntity
  8
0
  6
Continuous
 62
     7
100
AcDbPolyline
 90
        3
 70
   128
 43
0.0
 10
1731.6207885742
 20
2749.4898140092
 10
1732.2340685522
 20
2749.6769965596
 10
1732.685035026
 20
2749.8643592275
  0
LWPOLYLINE
  5
22F
330
1F
100
AcDbEntity
  8
0
  6
Continuous
 62
     7
100
AcDbPolyline
 90
        3
 70
   128
 43
0.0
 10
1732.5582504272
 20
2753.4202797093
 10
1731.5959538668
 20
2753.0498326391
 10
1730.8004770211
 20
2752.8097111755
  0
LWPOLYLINE
  5
230
330
1F
100
AcDbEntity
  8
0
  6
Continuous
 62
     7
100
AcDbPolyline
 90
        3
 70
   128
 43
0.0
 10
1700.8485794067
 20
2749.5781524443
 10
1699.1890257914
 20
2749.7574518266
 10
1697.909770751
 20
2749.9959555984
  0
LWPOLYLINE
  5
231
330
1F
100
AcDbEntity
  8
0
  6
Continuous
 62
     7
100
AcDbPolyline
 90
        5
 70
   128
 43
0.0
 10
1652.4095535278
 20
3321.4073425128
 10
1652.0447771291
 20
3304.7144688289
 10
1653.2890306441
 20
3293.9843487877
 10
1655.9307786689
 20
3284.0509719213
 10
1658.9371593771
 20
3275.3091611371
  0
LWPOLYLINE
  5
232
330
1F
100
AcDbEntity
  8
0
  6
Continuous
 62
     7
100
AcDbPolyline
 90
        5
 70
   128
 43
0.0
 10
1756.067276001
 20
3275.3095956223
 10
1760.6177639703
 20
3289.3025537019
 10
1762.6164236654
 20
3299.8116641668
 10
1763.0101248302
 20
3310.6219082724
 10
1762.5940289648
 20
3321.4073425128
  0
POINT
  5
233
330
1F
100
AcDbEntity
  8
0
  6
Continuous
 62
     7
100
AcDbPoint
 10
2615.2544119927
 20
2867.4542520131
 30
0.0
  0
ENDSEC
  0
SECTION
  2
OBJECTS
  0
DICTIONARY
  5
C
330
0
100
AcDbDictionary
281
     1
  3
ACAD_GROUP
350
D
  3
ACAD_LAYOUT
350
1A
  3
ACAD_MLINESTYLE
350
17
  3
ACAD_PLOTSETTINGS
350
19
  3
ACAD_PLOTSTYLENAME
350
E
  3
ACAD_SCALELIST
350
47
  3
DWGPROPS
350
234
  0
DICTIONARY
  5
D
102
{ACAD_REACTORS
330
C
102
}
330
C
100
AcDbDictionary
281
     1
  0
DICTIONARY
  5
1A
102
{ACAD_REACTORS
330
C
102
}
330
C
100
AcDbDictionary
281
     1
  3
Layout1
350
1E
  3
Layout2
350
26
  3
Model
350
22
  0
DICTIONARY
  5
17
102
{ACAD_REACTORS
330
C
102
}
330
C
100
AcDbDictionary
281
     1
  3
Standard
350
18
  0
DICTIONARY
  5
19
102
{ACAD_REACTORS
330
C
102
}
330
C
100
AcDbDictionary
281
     1
  0
ACDBDICTIONARYWDFLT
  5
E
102
{ACAD_REACTORS
330
C
102
}
330
C
100
AcDbDictionary
281
     1
  3
Normal
350
F
100
AcDbDictionaryWithDefault
340
F
  0
DICTIONARY
  5
47
102
{ACAD_REACTORS
330
C
102
}
330
C
100
AcDbDictionary
281
     1
  3
A0
350
48
  3
A1
350
49
  3
A2
350
4A
  3
A3
350
4B
  3
A4
350
4C
  3
A5
350
4D
  3
A6
350
4E
  3
A7
350
4F
  3
A8
350
50
  3
A9
350
51
  3
B0
350
52
  3
B1
350
53
  3
B2
350
54
  3
B3
350
55
  3
B4
350
56
  3
B5
350
57
  3
B6
350
58
  3
B7
350
59
  3
B8
350
5A
  3
B9
350
5B
  3
C0
350
5C
  3
C1
350
5D
  3
C2
350
5E
  3
C3
350
5F
  3
C4
350
60
  3
C5
350
61
  3
C6
350
62
  3
C7
350
63
  3
C8
350
64
  3
C9
350
65
  3
D0
350
66
  3
D1
350
67
  3
D2
350
68
  0
XRECORD
  5
234
102
{ACAD_REACTORS
330
C
102
}
330
C
100
AcDbXrecord
280
     1
  1
DWGPROPS COOKIE
  2

  3

  4

  6

  7

  8
radek.stransky
  9

300
=
301
=
302
=
303
=
304
=
305
=
306
=
307
=
308
=
309
=
 40
0.0
 41
2459094.295666447
 42
2459094.295754144
  1

 90
        0
  0
LAYOUT
  5
1E
102
{ACAD_REACTORS
330
1A
102
}
330
1A
100
AcDbPlotSettings
  1

  2
none_device
  4

  6

 40
0.0
 41
0.0
 42
0.0
 43
0.0
 44
0.0
 45
0.0
 46
0.0
 47
0.0
 48
0.0
 49
0.0
140
0.0
141
0.0
142
1.0
143
1.0
 70
   688
 72
     1
 73
     0
 74
     5
  7

 75
    16
147
1.0
148
0.0
149
0.0
100
AcDbLayout
  1
Layout1
 70
     1
 71
     1
 10
0.0
 20
0.0
 11
420.0
 21
297.0
 12
0.0
 22
0.0
 32
0.0
 14
1.0000000000E+20
 24
1.0000000000E+20
 34
1.0000000000E+20
 15
-1.0000000000E+20
 25
-1.0000000000E+20
 35
-1.0000000000E+20
146
0.0
 13
0.0
 23
0.0
 33
0.0
 16
1.0
 26
0.0
 36
0.0
 17
0.0
 27
1.0
 37
0.0
 76
     0
330
1B
  0
LAYOUT
  5
26
102
{ACAD_REACTORS
330
1A
102
}
330
1A
100
AcDbPlotSettings
  1

  2
none_device
  4

  6

 40
0.0
 41
0.0
 42
0.0
 43
0.0
 44
0.0
 45
0.0
 46
0.0
 47
0.0
 48
0.0
 49
0.0
140
0.0
141
0.0
142
1.0
143
1.0
 70
   688
 72
     1
 73
     0
 74
     5
  7

 75
    16
147
1.0
148
0.0
149
0.0
100
AcDbLayout
  1
Layout2
 70
     1
 71
     2
 10
0.0
 20
0.0
 11
0.0
 21
0.0
 12
0.0
 22
0.0
 32
0.0
 14
0.0
 24
0.0
 34
0.0
 15
0.0
 25
0.0
 35
0.0
146
0.0
 13
0.0
 23
0.0
 33
0.0
 16
1.0
 26
0.0
 36
0.0
 17
0.0
 27
1.0
 37
0.0
 76
     0
330
23
  0
LAYOUT
  5
22
102
{ACAD_REACTORS
330
1A
102
}
330
1A
100
AcDbPlotSettings
  1

  2
none_device
  4
ANSI_A_(11.00_x_8.50_Inches)
  6

 40
6.35
 41
19.05
 42
6.35000508
 43
19.05000254
 44
279.4
 45
215.9
 46
-90.7044576159
 47
-282.2664804299
 48
0.0
 49
0.0
140
0.0
141
0.0
142
0.0041703219
143
1.0
 70
  1696
 72
     0
 73
     0
 74
     0
  7

 75
     0
147
0.0179189148
148
-1300.4909072572
149
0.0
100
AcDbLayout
  1
Model
 70
     1
 71
     0
 10
0.0
 20
0.0
 11
420.0
 21
297.0
 12
0.0
 22
0.0
 32
0.0
 14
809.5398001937
 24
2586.5103238449
 34
0.0
 15
3420.8490284075
 25
4421.5115718037
 35
0.0
146
0.0
 13
0.0
 23
0.0
 33
0.0
 16
1.0
 26
0.0
 36
0.0
 17
0.0
 27
1.0
 37
0.0
 76
     0
330
1F
331
29
  0
MLINESTYLE
  5
18
102
{ACAD_REACTORS
330
17
102
}
330
17
100
AcDbMlineStyle
  2
Standard
 70
     0
  3

 62
   256
 51
90.0
 52
90.0
 71
     2
 49
0.5
 62
   256
  6
BYLAYER
 49
-0.5
 62
   256
  6
BYLAYER
  0
ACDBPLACEHOLDER
  5
F
102
{ACAD_REACTORS
330
E
102
}
330
E
  0
SCALE
  5
48
102
{ACAD_REACTORS
330
47
102
}
330
47
100
AcDbScale
 70
     0
300
1:1
140
1.0
141
1.0
290
     1
  0
SCALE
  5
49
102
{ACAD_REACTORS
330
47
102
}
330
47
100
AcDbScale
 70
     0
300
1:2
140
1.0
141
2.0
290
     0
  0
SCALE
  5
4A
102
{ACAD_REACTORS
330
47
102
}
330
47
100
AcDbScale
 70
     0
300
1:4
140
1.0
141
4.0
290
     0
  0
SCALE
  5
4B
102
{ACAD_REACTORS
330
47
102
}
330
47
100
AcDbScale
 70
     0
300
1:5
140
1.0
141
5.0
290
     0
  0
SCALE
  5
4C
102
{ACAD_REACTORS
330
47
102
}
330
47
100
AcDbScale
 70
     0
300
1:8
140
1.0
141
8.0
290
     0
  0
SCALE
  5
4D
102
{ACAD_REACTORS
330
47
102
}
330
47
100
AcDbScale
 70
     0
300
1:10
140
1.0
141
10.0
290
     0
  0
SCALE
  5
4E
102
{ACAD_REACTORS
330
47
102
}
330
47
100
AcDbScale
 70
     0
300
1:16
140
1.0
141
16.0
290
     0
  0
SCALE
  5
4F
102
{ACAD_REACTORS
330
47
102
}
330
47
100
AcDbScale
 70
     0
300
1:20
140
1.0
141
20.0
290
     0
  0
SCALE
  5
50
102
{ACAD_REACTORS
330
47
102
}
330
47
100
AcDbScale
 70
     0
300
1:30
140
1.0
141
30.0
290
     0
  0
SCALE
  5
51
102
{ACAD_REACTORS
330
47
102
}
330
47
100
AcDbScale
 70
     0
300
1:40
140
1.0
141
40.0
290
     0
  0
SCALE
  5
52
102
{ACAD_REACTORS
330
47
102
}
330
47
100
AcDbScale
 70
     0
300
1:50
140
1.0
141
50.0
290
     0
  0
SCALE
  5
53
102
{ACAD_REACTORS
330
47
102
}
330
47
100
AcDbScale
 70
     0
300
1:100
140
1.0
141
100.0
290
     0
  0
SCALE
  5
54
102
{ACAD_REACTORS
330
47
102
}
330
47
100
AcDbScale
 70
     0
300
2:1
140
2.0
141
1.0
290
     0
  0
SCALE
  5
55
102
{ACAD_REACTORS
330
47
102
}
330
47
100
AcDbScale
 70
     0
300
4:1
140
4.0
141
1.0
290
     0
  0
SCALE
  5
56
102
{ACAD_REACTORS
330
47
102
}
330
47
100
AcDbScale
 70
     0
300
8:1
140
8.0
141
1.0
290
     0
  0
SCALE
  5
57
102
{ACAD_REACTORS
330
47
102
}
330
47
100
AcDbScale
 70
     0
300
10:1
140
10.0
141
1.0
290
     0
  0
SCALE
  5
58
102
{ACAD_REACTORS
330
47
102
}
330
47
100
AcDbScale
 70
     0
300
100:1
140
100.0
141
1.0
290
     0
  0
SCALE
  5
59
102
{ACAD_REACTORS
330
47
102
}
330
47
100
AcDbScale
 70
     0
300
1/128" = 1'-0"
140
0.0078125
141
12.0
290
     0
  0
SCALE
  5
5A
102
{ACAD_REACTORS
330
47
102
}
330
47
100
AcDbScale
 70
     0
300
1/64" = 1'-0"
140
0.015625
141
12.0
290
     0
  0
SCALE
  5
5B
102
{ACAD_REACTORS
330
47
102
}
330
47
100
AcDbScale
 70
     0
300
1/32" = 1'-0"
140
0.03125
141
12.0
290
     0
  0
SCALE
  5
5C
102
{ACAD_REACTORS
330
47
102
}
330
47
100
AcDbScale
 70
     0
300
1/16" = 1'-0"
140
0.0625
141
12.0
290
     0
  0
SCALE
  5
5D
102
{ACAD_REACTORS
330
47
102
}
330
47
100
AcDbScale
 70
     0
300
3/32" = 1'-0"
140
0.09375
141
12.0
290
     0
  0
SCALE
  5
5E
102
{ACAD_REACTORS
330
47
102
}
330
47
100
AcDbScale
 70
     0
300
1/8" = 1'-0"
140
0.125
141
12.0
290
     0
  0
SCALE
  5
5F
102
{ACAD_REACTORS
330
47
102
}
330
47
100
AcDbScale
 70
     0
300
3/16" = 1'-0"
140
0.1875
141
12.0
290
     0
  0
SCALE
  5
60
102
{ACAD_REACTORS
330
47
102
}
330
47
100
AcDbScale
 70
     0
300
1/4" = 1'-0"
140
0.25
141
12.0
290
     0
  0
SCALE
  5
61
102
{ACAD_REACTORS
330
47
102
}
330
47
100
AcDbScale
 70
     0
300
3/8" = 1'-0"
140
0.375
141
12.0
290
     0
  0
SCALE
  5
62
102
{ACAD_REACTORS
330
47
102
}
330
47
100
AcDbScale
 70
     0
300
1/2" = 1'-0"
140
0.5
141
12.0
290
     0
  0
SCALE
  5
63
102
{ACAD_REACTORS
330
47
102
}
330
47
100
AcDbScale
 70
     0
300
3/4" = 1'-0"
140
0.75
141
12.0
290
     0
  0
SCALE
  5
64
102
{ACAD_REACTORS
330
47
102
}
330
47
100
AcDbScale
 70
     0
300
1" = 1'-0"
140
1.0
141
12.0
290
     0
  0
SCALE
  5
65
102
{ACAD_REACTORS
330
47
102
}
330
47
100
AcDbScale
 70
     0
300
1-1/2" = 1'-0"
140
1.5
141
12.0
290
     0
  0
SCALE
  5
66
102
{ACAD_REACTORS
330
47
102
}
330
47
100
AcDbScale
 70
     0
300
3" = 1'-0"
140
3.0
141
12.0
290
     0
  0
SCALE
  5
67
102
{ACAD_REACTORS
330
47
102
}
330
47
100
AcDbScale
 70
     0
300
6" = 1'-0"
140
6.0
141
12.0
290
     0
  0
SCALE
  5
68
102
{ACAD_REACTORS
330
47
102
}
330
47
100
AcDbScale
 70
     0
300
1'-0" = 1'-0"
140
12.0
141
12.0
290
     0
  0
ENDSEC
  0
EOF
