  0
SECTION
  2
HEADER
  9
$ACADVER
  1
AC1015
  9
$ACADMAINTVER
 70
     6
  9
$DWGCODEPAGE
  3
ANSI_1250
  9
$INSBASE
 10
0.0
 20
0.0
 30
0.0
  9
$EXTMIN
 10
809.5398001937
 20
2117.0860144816
 30
0.0
  9
$EXTMAX
 10
1969.3798705301
 20
4421.5115718037
 30
0.0
  9
$LIMMIN
 10
0.0
 20
0.0
  9
$LIMMAX
 10
420.0
 20
297.0
  9
$ORTHOMODE
 70
     0
  9
$REGENMODE
 70
     1
  9
$FILLMODE
 70
     1
  9
$QTEXTMODE
 70
     0
  9
$MIRRTEXT
 70
     1
  9
$LTSCALE
 40
1.0
  9
$ATTMODE
 70
     1
  9
$TEXTSIZE
 40
3.5
  9
$TRACEWID
 40
1.0
  9
$TEXTSTYLE
  7
Standard
  9
$CLAYER
  8
0
  9
$CELTYPE
  6
ByLayer
  9
$CECOLOR
 62
   256
  9
$CELTSCALE
 40
1.0
  9
$DISPSILH
 70
     0
  9
$DIMSCALE
 40
1.0
  9
$DIMASZ
 40
3.302
  9
$DIMEXO
 40
0.0
  9
$DIMDLI
 40
3.75
  9
$DIMRND
 40
0.0
  9
$DIMDLE
 40
0.0
  9
$DIMEXE
 40
1.0
  9
$DIMTP
 40
0.0
  9
$DIMTM
 40
0.0
  9
$DIMTXT
 40
3.5
  9
$DIMCEN
 40
2.5
  9
$DIMTSZ
 40
0.0
  9
$DIMTOL
 70
     0
  9
$DIMLIM
 70
     0
  9
$DIMTIH
 70
     1
  9
$DIMTOH
 70
     1
  9
$DIMSE1
 70
     0
  9
$DIMSE2
 70
     0
  9
$DIMTAD
 70
     1
  9
$DIMZIN
 70
     0
  9
$DIMBLK
  1

  9
$DIMASO
 70
     1
  9
$DIMSHO
 70
     1
  9
$DIMPOST
  1

  9
$DIMAPOST
  1

  9
$DIMALT
 70
     0
  9
$DIMALTD
 70
     3
  9
$DIMALTF
 40
0.0393700787
  9
$DIMLFAC
 40
1.0
  9
$DIMTOFL
 70
     1
  9
$DIMTVP
 40
0.0
  9
$DIMTIX
 70
     0
  9
$DIMSOXD
 70
     0
  9
$DIMSAH
 70
     0
  9
$DIMBLK1
  1

  9
$DIMBLK2
  1

  9
$DIMSTYLE
  2
ISO-25
  9
$DIMCLRD
 70
     0
  9
$DIMCLRE
 70
     0
  9
$DIMCLRT
 70
     0
  9
$DIMTFAC
 40
1.0
  9
$DIMGAP
 40
1.524
  9
$DIMJUST
 70
     0
  9
$DIMSD1
 70
     0
  9
$DIMSD2
 70
     0
  9
$DIMTOLJ
 70
     0
  9
$DIMTZIN
 70
     0
  9
$DIMALTZ
 70
     0
  9
$DIMALTTZ
 70
     0
  9
$DIMUPT
 70
     0
  9
$DIMDEC
 70
     2
  9
$DIMTDEC
 70
     2
  9
$DIMALTU
 70
     2
  9
$DIMALTTD
 70
     3
  9
$DIMTXSTY
  7
Standard
  9
$DIMAUNIT
 70
     0
  9
$DIMADEC
 70
     2
  9
$DIMALTRND
 40
0.0
  9
$DIMAZIN
 70
     0
  9
$DIMDSEP
 70
    44
  9
$DIMATFIT
 70
     3
  9
$DIMFRAC
 70
     0
  9
$DIMLDRBLK
  1

  9
$DIMLUNIT
 70
     2
  9
$DIMLWD
 70
    -2
  9
$DIMLWE
 70
    -2
  9
$DIMTMOVE
 70
     0
  9
$LUNITS
 70
     2
  9
$LUPREC
 70
     2
  9
$SKETCHINC
 40
1.0
  9
$FILLETRAD
 40
10.0
  9
$AUNITS
 70
     0
  9
$AUPREC
 70
     2
  9
$MENU
  1
.
  9
$ELEVATION
 40
0.0
  9
$PELEVATION
 40
0.0
  9
$THICKNESS
 40
0.0
  9
$LIMCHECK
 70
     0
  9
$CHAMFERA
 40
0.0
  9
$CHAMFERB
 40
0.0
  9
$CHAMFERC
 40
0.0
  9
$CHAMFERD
 40
0.0
  9
$SKPOLY
 70
     0
  9
$TDCREATE
 40
2459094.601639387
  9
$TDUCREATE
 40
2459094.518306053
  9
$TDUPDATE
 40
2459094.601669711
  9
$TDUUPDATE
 40
2459094.518336377
  9
$TDINDWG
 40
0.0000000116
  9
$TDUSRTIMER
 40
0.0000000116
  9
$USRTIMER
 70
     1
  9
$ANGBASE
 50
0.0
  9
$ANGDIR
 70
     0
  9
$PDMODE
 70
     0
  9
$PDSIZE
 40
-1.0
  9
$PLINEWID
 40
0.0
  9
$SPLFRAME
 70
     0
  9
$SPLINETYPE
 70
     6
  9
$SPLINESEGS
 70
     8
  9
$HANDSEED
  5
230
  9
$SURFTAB1
 70
     6
  9
$SURFTAB2
 70
     6
  9
$SURFTYPE
 70
     6
  9
$SURFU
 70
     6
  9
$SURFV
 70
     6
  9
$UCSBASE
  2

  9
$UCSNAME
  2

  9
$UCSORG
 10
0.0
 20
0.0
 30
0.0
  9
$UCSXDIR
 10
1.0
 20
0.0
 30
0.0
  9
$UCSYDIR
 10
0.0
 20
1.0
 30
0.0
  9
$UCSORTHOREF
  2

  9
$UCSORTHOVIEW
 70
     0
  9
$UCSORGTOP
 10
0.0
 20
0.0
 30
0.0
  9
$UCSORGBOTTOM
 10
0.0
 20
0.0
 30
0.0
  9
$UCSORGLEFT
 10
0.0
 20
0.0
 30
0.0
  9
$UCSORGRIGHT
 10
0.0
 20
0.0
 30
0.0
  9
$UCSORGFRONT
 10
0.0
 20
0.0
 30
0.0
  9
$UCSORGBACK
 10
0.0
 20
0.0
 30
0.0
  9
$PUCSBASE
  2

  9
$PUCSNAME
  2

  9
$PUCSORG
 10
0.0
 20
0.0
 30
0.0
  9
$PUCSXDIR
 10
1.0
 20
0.0
 30
0.0
  9
$PUCSYDIR
 10
0.0
 20
1.0
 30
0.0
  9
$PUCSORTHOREF
  2

  9
$PUCSORTHOVIEW
 70
     0
  9
$PUCSORGTOP
 10
0.0
 20
0.0
 30
0.0
  9
$PUCSORGBOTTOM
 10
0.0
 20
0.0
 30
0.0
  9
$PUCSORGLEFT
 10
0.0
 20
0.0
 30
0.0
  9
$PUCSORGRIGHT
 10
0.0
 20
0.0
 30
0.0
  9
$PUCSORGFRONT
 10
0.0
 20
0.0
 30
0.0
  9
$PUCSORGBACK
 10
0.0
 20
0.0
 30
0.0
  9
$USERI1
 70
     0
  9
$USERI2
 70
     0
  9
$USERI3
 70
     0
  9
$USERI4
 70
     0
  9
$USERI5
 70
     0
  9
$USERR1
 40
0.0
  9
$USERR2
 40
0.0
  9
$USERR3
 40
0.0
  9
$USERR4
 40
0.0
  9
$USERR5
 40
0.0
  9
$WORLDVIEW
 70
     1
  9
$SHADEDGE
 70
     3
  9
$SHADEDIF
 70
    70
  9
$TILEMODE
 70
     1
  9
$MAXACTVP
 70
    64
  9
$PINSBASE
 10
0.0
 20
0.0
 30
0.0
  9
$PLIMCHECK
 70
     0
  9
$PEXTMIN
 10
1.0000000000E+20
 20
1.0000000000E+20
 30
1.0000000000E+20
  9
$PEXTMAX
 10
-1.0000000000E+20
 20
-1.0000000000E+20
 30
-1.0000000000E+20
  9
$PLIMMIN
 10
0.0
 20
0.0
  9
$PLIMMAX
 10
420.0
 20
297.0
  9
$UNITMODE
 70
     0
  9
$VISRETAIN
 70
     1
  9
$PLINEGEN
 70
     0
  9
$PSLTSCALE
 70
     1
  9
$TREEDEPTH
 70
  3020
  9
$CMLSTYLE
  2
Standard
  9
$CMLJUST
 70
     0
  9
$CMLSCALE
 40
20.0
  9
$PROXYGRAPHICS
 70
     1
  9
$MEASUREMENT
 70
     1
  9
$CELWEIGHT
370
    -1
  9
$ENDCAPS
280
     0
  9
$JOINSTYLE
280
     0
  9
$LWDISPLAY
290
     1
  9
$INSUNITS
 70
     4
  9
$HYPERLINKBASE
  1

  9
$STYLESHEET
  1

  9
$XEDIT
290
     1
  9
$CEPSNTYPE
380
     0
  9
$PSTYLEMODE
290
     1
  9
$FINGERPRINTGUID
  2
{648e173d-aeb9-4764-94ee-768debd380f8}
  9
$VERSIONGUID
  2
{FAEB1C32-E019-11D5-929B-00C0DF256EC4}
  9
$EXTNAMES
290
     1
  9
$PSVPSCALE
 40
0.0
  9
$OLESTARTUP
290
     0
  0
ENDSEC
  0
SECTION
  2
CLASSES
  0
CLASS
  1
ACDBDICTIONARYWDFLT
  2
AcDbDictionaryWithDefault
  3
ObjectDBX Classes
 90
        0
280
     0
281
     0
  0
CLASS
  1
VISUALSTYLE
  2
AcDbVisualStyle
  3
ObjectDBX Classes
 90
     4095
280
     0
281
     0
  0
CLASS
  1
MATERIAL
  2
AcDbMaterial
  3
ObjectDBX Classes
 90
     1153
280
     0
281
     0
  0
CLASS
  1
SCALE
  2
AcDbScale
  3
ObjectDBX Classes
 90
     1153
280
     0
281
     0
  0
CLASS
  1
TABLESTYLE
  2
AcDbTableStyle
  3
ObjectDBX Classes
 90
     4095
280
     0
281
     0
  0
CLASS
  1
MLEADERSTYLE
  2
AcDbMLeaderStyle
  3
ACDB_MLEADERSTYLE_CLASS
 90
     4095
280
     0
281
     0
  0
CLASS
  1
SUN
  2
AcDbSun
  3
SCENEOE
 90
     1153
280
     0
281
     0
  0
CLASS
  1
ACDBPLACEHOLDER
  2
AcDbPlaceHolder
  3
ObjectDBX Classes
 90
        0
280
     0
281
     0
  0
CLASS
  1
LAYOUT
  2
AcDbLayout
  3
ObjectDBX Classes
 90
        0
280
     0
281
     0
  0
ENDSEC
  0
SECTION
  2
TABLES
  0
TABLE
  2
VPORT
  5
8
330
0
100
AcDbSymbolTable
 70
     1
  0
VPORT
  5
29
330
8
100
AcDbSymbolTableRecord
100
AcDbViewportTableRecord
  2
*Active
 70
     0
 10
0.0
 20
0.0
 11
1.0
 21
1.0
 12
1389.4598353619
 22
3269.2987931427
 13
0.0
 23
0.0
 14
10.0
 24
10.0
 15
10.0
 25
10.0
 16
0.0
 26
0.0
 36
1.0
 17
0.0
 27
0.0
 37
0.0
 40
2350.5140684685
 41
0.5033098451
 42
50.0
 43
0.0
 44
0.0
 50
0.0
 51
0.0
 71
     0
 72
   100
 73
     1
 74
     3
 75
     0
 76
     0
 77
     0
 78
     0
281
     0
 65
     1
110
0.0
120
0.0
130
0.0
111
1.0
121
0.0
131
0.0
112
0.0
122
1.0
132
0.0
 79
     0
146
0.0
  0
ENDTAB
  0
TABLE
  2
LTYPE
  5
5
330
0
100
AcDbSymbolTable
 70
     6
  0
LTYPE
  5
14
330
5
100
AcDbSymbolTableRecord
100
AcDbLinetypeTableRecord
  2
ByBlock
 70
     0
  3

 72
    65
 73
     0
 40
0.0
  0
LTYPE
  5
15
330
5
100
AcDbSymbolTableRecord
100
AcDbLinetypeTableRecord
  2
ByLayer
 70
     0
  3

 72
    65
 73
     0
 40
0.0
  0
LTYPE
  5
16
330
5
100
AcDbSymbolTableRecord
100
AcDbLinetypeTableRecord
  2
Continuous
 70
     0
  3
Solid line
 72
    65
 73
     0
 40
0.0
  0
LTYPE
  5
6E
330
5
100
AcDbSymbolTableRecord
100
AcDbLinetypeTableRecord
  2
HIDDEN
 70
     0
  3
Hidden __ __ __ __ __ __ __ __ __ __ __ __ __ __
 72
    65
 73
     2
 40
1.905
 49
1.27
 74
     0
 49
-0.635
 74
     0
  0
LTYPE
  5
6F
330
5
100
AcDbSymbolTableRecord
100
AcDbLinetypeTableRecord
  2
PHANTOM
 70
     0
  3
Phantom ______  __  __  ______  __  __  ______
 72
    65
 73
     6
 40
12.7
 49
6.35
 74
     0
 49
-1.27
 74
     0
 49
1.27
 74
     0
 49
-1.27
 74
     0
 49
1.27
 74
     0
 49
-1.27
 74
     0
  0
LTYPE
  5
70
330
5
100
AcDbSymbolTableRecord
100
AcDbLinetypeTableRecord
  2
CENTER
 70
     0
  3
Center ____ _ ____ _ ____ _ ____ _ ____ _ ____
 72
    65
 73
     4
 40
10.16
 49
6.35
 74
     0
 49
-1.27
 74
     0
 49
1.27
 74
     0
 49
-1.27
 74
     0
  0
LTYPE
  5
71
330
5
100
AcDbSymbolTableRecord
100
AcDbLinetypeTableRecord
  2
CENTERX2
 70
     0
  3
Center (2x) ________  __  ________  __  _____
 72
    65
 73
     4
 40
20.32
 49
12.7
 74
     0
 49
-2.54
 74
     0
 49
2.54
 74
     0
 49
-2.54
 74
     0
  0
LTYPE
  5
72
330
5
100
AcDbSymbolTableRecord
100
AcDbLinetypeTableRecord
  2
DOT2
 70
     0
  3
Dot (.5x) ........................................
 72
    65
 73
     2
 40
0.635
 49
0.0
 74
     0
 49
-0.635
 74
     0
  0
ENDTAB
  0
TABLE
  2
LAYER
  5
2
330
0
100
AcDbSymbolTable
 70
     1
  0
LAYER
  5
10
330
2
100
AcDbSymbolTableRecord
100
AcDbLayerTableRecord
  2
0
 70
     0
 62
     7
  6
Continuous
370
    -3
390
F
  0
ENDTAB
  0
TABLE
  2
STYLE
  5
3
330
0
100
AcDbSymbolTable
 70
     1
  0
STYLE
  5
11
330
3
100
AcDbSymbolTableRecord
100
AcDbTextStyleTableRecord
  2
Standard
 70
     0
 40
0.0
 41
1.0
 50
0.0
 71
     0
 42
3.5
  3
txt
  4

  0
ENDTAB
  0
TABLE
  2
VIEW
  5
6
330
0
100
AcDbSymbolTable
 70
     0
  0
ENDTAB
  0
TABLE
  2
UCS
  5
7
330
0
100
AcDbSymbolTable
 70
     0
  0
ENDTAB
  0
TABLE
  2
APPID
  5
9
330
0
100
AcDbSymbolTable
 70
     1
  0
APPID
  5
12
330
9
100
AcDbSymbolTableRecord
100
AcDbRegAppTableRecord
  2
ACAD
 70
     0
  0
ENDTAB
  0
TABLE
  2
DIMSTYLE
  5
A
330
0
100
AcDbSymbolTable
 70
     1
100
AcDbDimStyleTable
  0
DIMSTYLE
105
27
330
A
100
AcDbSymbolTableRecord
100
AcDbDimStyleTableRecord
  2
ISO-25
 70
     0
 41
2.5
 42
0.625
 43
3.75
 44
1.25
 73
     0
 74
     0
 77
     1
 78
     8
140
2.5
141
2.5
143
0.0393700787
147
0.625
171
     3
172
     1
178
     0
271
     2
272
     2
274
     3
278
    44
283
     0
284
     8
340
11
  0
ENDTAB
  0
TABLE
  2
BLOCK_RECORD
  5
1
330
0
100
AcDbSymbolTable
 70
     1
  0
BLOCK_RECORD
  5
1F
330
1
100
AcDbSymbolTableRecord
100
AcDbBlockTableRecord
  2
*Model_Space
340
22
  0
BLOCK_RECORD
  5
1B
330
1
100
AcDbSymbolTableRecord
100
AcDbBlockTableRecord
  2
*Paper_Space
340
1E
  0
BLOCK_RECORD
  5
23
330
1
100
AcDbSymbolTableRecord
100
AcDbBlockTableRecord
  2
*Paper_Space0
340
26
  0
ENDTAB
  0
ENDSEC
  0
SECTION
  2
BLOCKS
  0
BLOCK
  5
20
330
1F
100
AcDbEntity
  8
0
100
AcDbBlockBegin
  2
*Model_Space
 70
     0
 10
0.0
 20
0.0
 30
0.0
  3
*Model_Space
  1

  0
ENDBLK
  5
21
330
1F
100
AcDbEntity
  8
0
100
AcDbBlockEnd
  0
BLOCK
  5
1C
330
1B
100
AcDbEntity
 67
     1
  8
0
100
AcDbBlockBegin
  2
*Paper_Space
 70
     0
 10
0.0
 20
0.0
 30
0.0
  3
*Paper_Space
  1

  0
ENDBLK
  5
1D
330
1B
100
AcDbEntity
 67
     1
  8
0
100
AcDbBlockEnd
  0
BLOCK
  5
24
330
23
100
AcDbEntity
  8
0
100
AcDbBlockBegin
  2
*Paper_Space0
 70
     0
 10
0.0
 20
0.0
 30
0.0
  3
*Paper_Space0
  1

  0
ENDBLK
  5
25
330
23
100
AcDbEntity
  8
0
100
AcDbBlockEnd
  0
ENDSEC
  0
SECTION
  2
ENTITIES
  0
ARC
  5
73
330
1F
100
AcDbEntity
  8
0
  6
Continuous
 62
     7
100
AcDbCircle
 10
1060.2977014194
 20
3329.7980123361
 30
0.0
 40
7.560779376240436
100
AcDbArc
 50
28.0388921552
 51
51.7443585051
  0
ARC
  5
74
330
1F
100
AcDbEntity
  8
0
  6
Continuous
 62
     7
100
AcDbCircle
 10
1778.2613396452
 20
3299.7822956548
 30
0.0
 40
7.560779376240863
100
AcDbArc
 50
28.0388921552
 51
50.7850988755
  0
ARC
  5
75
330
1F
100
AcDbEntity
  8
0
  6
Continuous
 62
     7
100
AcDbCircle
 10
1842.3681843865
 20
3299.7822956548
 30
0.0
 40
7.560779376240576
100
AcDbArc
 50
129.2149011245
 51
151.9611078448
  0
ARC
  5
76
330
1F
100
AcDbEntity
  8
0
  6
Continuous
 62
     7
100
AcDbCircle
 10
1726.1184406991
 20
3247.3430750311
 30
0.0
 40
28.14691151919964
100
AcDbArc
 50
235.2919507275
 51
270.0
  0
ARC
  5
77
330
1F
100
AcDbEntity
  8
0
  6
Continuous
 62
     7
100
AcDbCircle
 10
1726.1184406991
 20
3245.1394022431
 30
0.0
 40
28.14691151919915
100
AcDbArc
 50
90.0
 51
124.7080492725
  0
ARC
  5
78
330
1F
100
AcDbEntity
  8
0
  6
Continuous
 62
     7
100
AcDbCircle
 10
1726.1184406991
 20
3220.197832961
 30
0.0
 40
1.001669449083238
100
AcDbArc
 50
270.0000000001
 51
0.0
  0
ARC
  5
79
330
1F
100
AcDbEntity
  8
0
  6
Continuous
 62
     7
100
AcDbCircle
 10
1726.1184406991
 20
3272.2846443132
 30
0.0
 40
1.001669449082328
100
AcDbArc
 50
0.0
 51
90.0
  0
ARC
  5
7A
330
1F
100
AcDbEntity
  8
0
  6
Continuous
 62
     7
100
AcDbCircle
 10
1871.21626452
 20
4240.1515493949
 30
0.0
 40
50.08347245409023
100
AcDbArc
 50
360.0
 51
64.5366549381
  0
ARC
  5
7B
330
1F
100
AcDbEntity
  8
0
  6
Continuous
 62
     7
100
AcDbCircle
 10
1662.3681843865
 20
4393.4108494147
 30
0.0
 40
1.502504173622356
100
AcDbArc
 50
64.5366549375
 51
180.0
  0
ARC
  5
7C
330
1F
100
AcDbEntity
  8
0
  6
Continuous
 62
     7
100
AcDbCircle
 10
1117.549480256
 20
2900.0510600809
 30
0.0
 40
18.72351354842409
100
AcDbArc
 50
192.5898336885
 51
210.9554624827
  0
ARC
  5
7D
330
1F
100
AcDbEntity
  8
0
  6
Continuous
 62
     7
100
AcDbCircle
 10
1117.549480256
 20
2900.0510600809
 30
0.0
 40
18.72351354802729
100
AcDbArc
 50
216.4950456213
 51
330.9174379654
  0
ARC
  5
7E
330
1F
100
AcDbEntity
  8
0
  6
Continuous
 62
     7
100
AcDbCircle
 10
1117.549480256
 20
2900.0510600809
 30
0.0
 40
18.7235135480188
100
AcDbArc
 50
336.5043484508
 51
17.7544502166
  0
ARC
  5
7F
330
1F
100
AcDbEntity
  8
0
  6
Continuous
 62
     7
100
AcDbCircle
 10
1117.549480256
 20
2900.0510600809
 30
0.0
 40
18.72351354842388
100
AcDbArc
 50
162.2455497838
 51
192.5898336885
  0
ARC
  5
80
330
1F
100
AcDbEntity
  8
0
  6
Continuous
 62
     7
100
AcDbCircle
 10
1117.549480256
 20
2900.0510600809
 30
0.0
 40
15.66713753671813
100
AcDbArc
 50
337.0053872216
 51
12.5898336894
  0
ARC
  5
81
330
1F
100
AcDbEntity
  8
0
  6
Continuous
 62
     7
100
AcDbCircle
 10
1117.549480256
 20
2900.0510600809
 30
0.0
 40
15.66713753672707
100
AcDbArc
 50
217.0055594622
 51
330.3706826933
  0
ARC
  5
82
330
1F
100
AcDbEntity
  8
0
  6
Continuous
 62
     7
100
AcDbCircle
 10
1117.549480256
 20
2900.0510600809
 30
0.0
 40
15.66713753712509
100
AcDbArc
 50
158.627723844
 51
210.3699975425
  0
ARC
  5
83
330
1F
100
AcDbEntity
  8
0
  6
Continuous
 62
     7
100
AcDbCircle
 10
1117.549480256
 20
2900.0510600809
 30
0.0
 40
16.16797226134086
100
AcDbArc
 50
243.380048025
 51
299.4069950836
  0
ARC
  5
84
330
1F
100
AcDbEntity
  8
0
  6
Continuous
 62
     7
100
AcDbCircle
 10
1117.549480256
 20
2900.0510600809
 30
0.0
 40
16.16797226163475
100
AcDbArc
 50
183.3800480261
 51
210.4693713584
  0
ARC
  5
85
330
1F
100
AcDbEntity
  8
0
  6
Continuous
 62
     7
100
AcDbCircle
 10
1117.549480256
 20
2900.0510600809
 30
0.0
 40
16.16797226155303
100
AcDbArc
 50
216.9064909382
 51
239.4069233116
  0
ARC
  5
86
330
1F
100
AcDbEntity
  8
0
  6
Continuous
 62
     7
100
AcDbCircle
 10
1117.549480256
 20
2900.0510600809
 30
0.0
 40
16.16797226166669
100
AcDbArc
 50
159.3206663137
 51
179.4069233122
  0
ARC
  5
87
330
1F
100
AcDbEntity
  8
0
  6
Continuous
 62
     7
100
AcDbCircle
 10
1117.549480256
 20
2900.0510600809
 30
0.0
 40
16.1679722612678
100
AcDbArc
 50
303.3800480255
 51
330.5986720453
  0
ARC
  5
88
330
1F
100
AcDbEntity
  8
0
  6
Continuous
 62
     7
100
AcDbCircle
 10
1117.549480256
 20
2900.0510600809
 30
0.0
 40
16.16797226125897
100
AcDbArc
 50
336.9064909386
 51
359.4069233124
  0
ARC
  5
89
330
1F
100
AcDbEntity
  8
0
  6
Continuous
 62
     7
100
AcDbCircle
 10
1117.549480256
 20
2900.0510600809
 30
0.0
 40
16.16797226125123
100
AcDbArc
 50
3.3800480264
 51
20.6793336868
  0
ARC
  5
8A
330
1F
100
AcDbEntity
  8
0
  6
Continuous
 62
     7
100
AcDbCircle
 10
1117.549480256
 20
2900.0510600809
 30
0.0
 40
15.01219982007373
100
AcDbArc
 50
246.6378997213
 51
306.1886005332
  0
ARC
  5
8B
330
1F
100
AcDbEntity
  8
0
  6
Continuous
 62
     7
100
AcDbCircle
 10
1117.549480256
 20
2900.0510600809
 30
0.0
 40
15.0121998203888
100
AcDbArc
 50
186.6378997225
 51
209.5962223044
  0
ARC
  5
8C
330
1F
100
AcDbEntity
  8
0
  6
Continuous
 62
     7
100
AcDbCircle
 10
1117.549480256
 20
2900.0510600809
 30
0.0
 40
15.01219982027901
100
AcDbArc
 50
217.1599641065
 51
246.188600533
  0
ARC
  5
8D
330
1F
100
AcDbEntity
  8
0
  6
Continuous
 62
     7
100
AcDbCircle
 10
1117.549480256
 20
2900.0510600809
 30
0.0
 40
15.01219982041946
100
AcDbArc
 50
157.646180673
 51
186.1886005336
  0
ARC
  5
8E
330
1F
100
AcDbEntity
  8
0
  6
Continuous
 62
     7
100
AcDbCircle
 10
1117.549480256
 20
2900.0510600809
 30
0.0
 40
15.01219982001919
100
AcDbArc
 50
306.637899722
 51
330.2510383836
  0
ARC
  5
8F
330
1F
100
AcDbEntity
  8
0
  6
Continuous
 62
     7
100
AcDbCircle
 10
1117.549480256
 20
2900.0510600809
 30
0.0
 40
15.01219982000698
100
AcDbArc
 50
337.1599641068
 51
6.188600534
  0
ARC
  5
90
330
1F
100
AcDbEntity
  8
0
  6
Continuous
 62
     7
100
AcDbCircle
 10
1117.549480256
 20
2900.0510600809
 30
0.0
 40
15.01219982001443
100
AcDbArc
 50
6.637899723
 51
22.3538193276
  0
ARC
  5
91
330
1F
100
AcDbEntity
  8
0
  6
Continuous
 62
     7
100
AcDbCircle
 10
1117.549480256
 20
2900.0510600809
 30
0.0
 40
12.48837185327604
100
AcDbArc
 50
337.8511822634
 51
27.2057103106
  0
ARC
  5
92
330
1F
100
AcDbEntity
  8
0
  6
Continuous
 62
     7
100
AcDbCircle
 10
1117.549480256
 20
2900.0510600809
 30
0.0
 40
12.48837185327632
100
AcDbArc
 50
329.5719197668
 51
337.8511822634
  0
ARC
  5
93
330
1F
100
AcDbEntity
  8
0
  6
Continuous
 62
     7
100
AcDbCircle
 10
1117.549480256
 20
2900.0510600809
 30
0.0
 40
12.48837185327632
100
AcDbArc
 50
217.8511822628
 51
329.5719197668
  0
ARC
  5
94
330
1F
100
AcDbEntity
  8
0
  6
Continuous
 62
     7
100
AcDbCircle
 10
1117.549480256
 20
2900.0510600809
 30
0.0
 40
12.48837185327643
100
AcDbArc
 50
209.5719197661
 51
217.8511822628
  0
ARC
  5
95
330
1F
100
AcDbEntity
  8
0
  6
Continuous
 62
     7
100
AcDbCircle
 10
1117.549480256
 20
2900.0510600809
 30
0.0
 40
12.48837185327643
100
AcDbArc
 50
152.7942896903
 51
209.5719197661
  0
ARC
  5
96
330
1F
100
AcDbEntity
  8
0
  6
Continuous
 62
     7
100
AcDbCircle
 10
1117.549480256
 20
2900.0510600809
 30
0.0
 40
12.52086811367492
100
AcDbArc
 50
209.5826822932
 51
217.8404197358
  0
ARC
  5
97
330
1F
100
AcDbEntity
  8
0
  6
Continuous
 62
     7
100
AcDbCircle
 10
1117.549480256
 20
2900.0510600809
 30
0.0
 40
20.03338898142121
100
AcDbArc
 50
211.1323699851
 51
216.2907320451
  0
ARC
  5
98
330
1F
100
AcDbEntity
  8
0
  6
Continuous
 62
     7
100
AcDbCircle
 10
1117.549480256
 20
2900.0510600809
 30
0.0
 40
12.52086811335978
100
AcDbArc
 50
329.5826822938
 51
337.8404197364
  0
ARC
  5
99
330
1F
100
AcDbEntity
  8
0
  6
Continuous
 62
     7
100
AcDbCircle
 10
1117.549480256
 20
2900.0510600809
 30
0.0
 40
20.03338898141935
100
AcDbArc
 50
331.1323699635
 51
336.2907320668
  0
ARC
  5
9A
330
1F
100
AcDbEntity
  8
0
  6
Continuous
 62
     7
100
AcDbCircle
 10
1117.549480256
 20
2900.0510600809
 30
0.0
 40
20.03338898142054
100
AcDbArc
 50
216.2907320451
 51
331.1323699635
  0
ARC
  5
9B
330
1F
100
AcDbEntity
  8
0
  6
Continuous
 62
     7
100
AcDbCircle
 10
1117.549480256
 20
2900.0510600809
 30
0.0
 40
20.03338898141921
100
AcDbArc
 50
336.2907320668
 51
16.5588485851
  0
ARC
  5
9C
330
1F
100
AcDbEntity
  8
0
  6
Continuous
 62
     7
100
AcDbCircle
 10
1117.549480256
 20
2900.0510600809
 30
0.0
 40
20.03338898142121
100
AcDbArc
 50
163.4411514153
 51
211.1323699851
  0
ARC
  5
9D
330
1F
100
AcDbEntity
  8
0
  6
Continuous
 62
     7
100
AcDbCircle
 10
1117.549480256
 20
2900.0510600809
 30
0.0
 40
22.03672787961312
100
AcDbArc
 50
164.9838732491
 51
15.0161267512
  0
ARC
  5
9E
330
1F
100
AcDbEntity
  8
0
  6
Continuous
 62
     7
100
AcDbCircle
 10
1117.549480256
 20
2900.0510600809
 30
0.0
 40
35.05843069003915
100
AcDbArc
 50
170.4579332353
 51
9.3727741167
  0
ARC
  5
9F
330
1F
100
AcDbEntity
  8
0
  6
Continuous
 62
     7
100
AcDbCircle
 10
1111.0388704239
 20
2900.1071476742
 30
0.0
 40
26.04340567612698
100
AcDbArc
 50
341.9924546756
 51
360.0
  0
ARC
  5
A0
330
1F
100
AcDbEntity
  8
0
  6
Continuous
 62
     7
100
AcDbCircle
 10
1117.549480256
 20
2900.0510600809
 30
0.0
 40
11.60965106133915
100
AcDbArc
 50
150.5416673382
 51
29.4583326628
  0
ARC
  5
A1
330
1F
100
AcDbEntity
  8
0
  6
Continuous
 62
     7
100
AcDbCircle
 10
1117.549480256
 20
2900.0510600809
 30
0.0
 40
23.84228590743123
100
AcDbArc
 50
166.1447295037
 51
13.8552704966
  0
LINE
  5
A2
330
1F
100
AcDbEntity
  8
0
  6
Continuous
 62
     7
100
AcDbLine
 10
811.5431390918
 20
4421.5115718037
 30
0.0
 11
809.5398001937
 21
4421.5115718037
 31
0.0
  0
LINE
  5
A3
330
1F
100
AcDbEntity
  8
0
  6
Continuous
 62
     7
100
AcDbLine
 10
1409.5398001937
 20
4421.5115718037
 30
0.0
 11
1411.5431390918
 21
4421.5115718037
 31
0.0
  0
LINE
  5
A4
330
1F
100
AcDbEntity
  8
0
  6
Continuous
 62
     7
100
AcDbLine
 10
1411.5431390918
 20
4421.5115718037
 30
0.0
 11
811.5431390918
 21
4421.5115718037
 31
0.0
  0
LINE
  5
A5
330
1F
100
AcDbEntity
  8
0
  6
Continuous
 62
     7
100
AcDbLine
 10
1142.9356725558
 20
3324.3370888743
 30
0.0
 11
1142.9356725558
 21
3327.3420972216
 31
0.0
  0
LINE
  5
A6
330
1F
100
AcDbEntity
  8
0
  6
Continuous
 62
     7
100
AcDbLine
 10
1028.7453553605
 20
3327.3420972216
 30
0.0
 11
1028.7453553605
 21
3324.3370888743
 31
0.0
  0
LINE
  5
A7
330
1F
100
AcDbEntity
  8
0
  6
Continuous
 62
     7
100
AcDbLine
 10
1126.9089613705
 20
3327.3420972216
 30
0.0
 11
1126.9089613705
 21
3333.352113916
 31
0.0
  0
LINE
  5
A8
330
1F
100
AcDbEntity
  8
0
  6
Continuous
 62
     7
100
AcDbLine
 10
1044.7720665458
 20
3333.352113916
 30
0.0
 11
1044.7720665458
 21
3327.3420972216
 31
0.0
  0
LINE
  5
A9
330
1F
100
AcDbEntity
  8
0
  6
Continuous
 62
     7
100
AcDbLine
 10
1034.755372055
 20
3285.4989388862
 30
0.0
 11
1034.755372055
 21
3281.2530888989
 31
0.0
  0
LINE
  5
AA
330
1F
100
AcDbEntity
  8
0
  6
Continuous
 62
     7
100
AcDbLine
 10
1136.9256558613
 20
3281.2530888989
 30
0.0
 11
1136.9256558613
 21
3285.4996032812
 31
0.0
  0
LINE
  5
AB
330
1F
100
AcDbEntity
  8
0
  6
Continuous
 62
     7
100
AcDbLine
 10
809.5398001937
 20
3439.4170862348
 30
0.0
 11
1409.5398001937
 21
3439.4170862348
 31
0.0
  0
LINE
  5
AC
330
1F
100
AcDbEntity
  8
0
  6
Continuous
 62
     7
100
AcDbLine
 10
1409.5398001937
 20
3437.4137473366
 30
0.0
 11
1409.5398001937
 21
3439.4170862348
 31
0.0
  0
LINE
  5
AD
330
1F
100
AcDbEntity
  8
0
  6
Continuous
 62
     7
100
AcDbLine
 10
809.5398001937
 20
3437.4137473366
 30
0.0
 11
1409.5398001937
 21
3437.4137473366
 31
0.0
  0
LINE
  5
AE
330
1F
100
AcDbEntity
  8
0
  6
Continuous
 62
     7
100
AcDbLine
 10
809.5398001937
 20
3437.4137473366
 30
0.0
 11
809.5398001937
 21
3439.4170862348
 31
0.0
  0
LINE
  5
AF
330
1F
100
AcDbEntity
  8
0
  6
Continuous
 62
     7
100
AcDbLine
 10
809.5398001937
 20
3351.1826382521
 30
0.0
 11
809.5398001937
 21
3336.058453995
 31
0.0
  0
LINE
  5
B0
330
1F
100
AcDbEntity
  8
0
  6
Continuous
 62
     7
100
AcDbLine
 10
809.5398001937
 20
3336.058453995
 30
0.0
 11
811.4704187157
 21
3336.058453995
 31
0.0
  0
LINE
  5
B1
330
1F
100
AcDbEntity
  8
0
  6
Continuous
 62
     7
100
AcDbLine
 10
809.5398001937
 20
3351.1826382521
 30
0.0
 11
1409.5398001937
 21
3351.1826382521
 31
0.0
  0
LINE
  5
B2
330
1F
100
AcDbEntity
  8
0
  6
Continuous
 62
     7
100
AcDbLine
 10
1409.5398001937
 20
3336.058453995
 30
0.0
 11
1409.5398001937
 21
3351.1826382521
 31
0.0
  0
LINE
  5
B3
330
1F
100
AcDbEntity
  8
0
  6
Continuous
 62
     7
100
AcDbLine
 10
1409.5398001937
 20
3351.1826382521
 30
0.0
 11
1409.5398001937
 21
3437.4137473366
 31
0.0
  0
LINE
  5
B4
330
1F
100
AcDbEntity
  8
0
  6
Continuous
 62
     7
100
AcDbLine
 10
809.5398001937
 20
3351.1826382521
 30
0.0
 11
809.5398001937
 21
3437.4137473366
 31
0.0
  0
LINE
  5
B5
330
1F
100
AcDbEntity
  8
0
  6
Continuous
 62
     7
100
AcDbLine
 10
811.5431390918
 20
4266.7497676103
 30
0.0
 11
809.5398001937
 21
4266.7497676103
 31
0.0
  0
LINE
  5
B6
330
1F
100
AcDbEntity
  8
0
  6
Continuous
 62
     7
100
AcDbLine
 10
1411.5431390918
 20
3472.4721780545
 30
0.0
 11
1411.5431390918
 21
4266.7497676103
 31
0.0
  0
LINE
  5
B7
330
1F
100
AcDbEntity
  8
0
  6
Continuous
 62
     7
100
AcDbLine
 10
1411.5431390918
 20
4266.7497676103
 30
0.0
 11
1409.5398001937
 21
4266.7497676103
 31
0.0
  0
LINE
  5
B8
330
1F
100
AcDbEntity
  8
0
  6
Continuous
 62
     7
100
AcDbLine
 10
811.5431390918
 20
3472.4721780545
 30
0.0
 11
1411.5431390918
 21
3472.4721780545
 31
0.0
  0
LINE
  5
B9
330
1F
100
AcDbEntity
  8
0
  6
Continuous
 62
     7
100
AcDbLine
 10
811.5431390918
 20
3472.4721780545
 30
0.0
 11
811.5431390918
 21
4266.7497676103
 31
0.0
  0
LINE
  5
BA
330
1F
100
AcDbEntity
  8
0
  6
Continuous
 62
     7
100
AcDbLine
 10
1409.5398001937
 20
3439.4170862348
 30
0.0
 11
1409.5398001937
 21
4266.7497676103
 31
0.0
  0
LINE
  5
BB
330
1F
100
AcDbEntity
  8
0
  6
Continuous
 62
     7
100
AcDbLine
 10
809.5398001937
 20
3439.4170862348
 30
0.0
 11
809.5398001937
 21
4266.7497676103
 31
0.0
  0
LINE
  5
BC
330
1F
100
AcDbEntity
  8
0
  6
Continuous
 62
     7
100
AcDbLine
 10
811.5431390918
 20
4311.9681575347
 30
0.0
 11
809.5398001937
 21
4311.9681575347
 31
0.0
  0
LINE
  5
BD
330
1F
100
AcDbEntity
  8
0
  6
Continuous
 62
     7
100
AcDbLine
 10
811.5431390918
 20
4266.7497676103
 30
0.0
 11
811.5431390918
 21
4311.9681575347
 31
0.0
  0
LINE
  5
BE
330
1F
100
AcDbEntity
  8
0
  6
Continuous
 62
     7
100
AcDbLine
 10
809.5398001937
 20
4266.7497676103
 30
0.0
 11
809.5398001937
 21
4311.9681575347
 31
0.0
  0
LINE
  5
BF
330
1F
100
AcDbEntity
  8
0
  6
Continuous
 62
     7
100
AcDbLine
 10
1411.5431390918
 20
4311.9681575347
 30
0.0
 11
1409.5398001937
 21
4311.9681575347
 31
0.0
  0
LINE
  5
C0
330
1F
100
AcDbEntity
  8
0
  6
Continuous
 62
     7
100
AcDbLine
 10
1411.5431390918
 20
4266.7497676103
 30
0.0
 11
1411.5431390918
 21
4311.9681575347
 31
0.0
  0
LINE
  5
C1
330
1F
100
AcDbEntity
  8
0
  6
Continuous
 62
     7
100
AcDbLine
 10
1409.5398001937
 20
4266.7497676103
 30
0.0
 11
1409.5398001937
 21
4311.9681575347
 31
0.0
  0
LINE
  5
C2
330
1F
100
AcDbEntity
  8
0
  6
Continuous
 62
     7
100
AcDbLine
 10
1119.6704306016
 20
3335.7697698489
 30
0.0
 11
1116.5480061818
 21
3333.352113916
 31
0.0
  0
LINE
  5
C3
330
1F
100
AcDbEntity
  8
0
  6
Continuous
 62
     7
100
AcDbLine
 10
811.4704187157
 20
3336.058453995
 30
0.0
 11
1409.5398001937
 21
3336.058453995
 31
0.0
  0
LINE
  5
C4
330
1F
100
AcDbEntity
  8
0
  6
Continuous
 62
     7
100
AcDbLine
 10
811.5431390918
 20
4353.9412932465
 30
0.0
 11
1411.5431390918
 21
4353.9412932465
 31
0.0
  0
LINE
  5
C5
330
1F
100
AcDbEntity
  8
0
  6
Continuous
 62
     7
100
AcDbLine
 10
809.5398001937
 20
4421.3656193278
 30
0.0
 11
811.5431390918
 21
4421.3656193278
 31
0.0
  0
LINE
  5
C6
330
1F
100
AcDbEntity
  8
0
  6
Continuous
 62
     7
100
AcDbLine
 10
811.5431390918
 20
4404.0247657006
 30
0.0
 11
1411.5431390918
 21
4404.0247657006
 31
0.0
  0
LINE
  5
C7
330
1F
100
AcDbEntity
  8
0
  6
Continuous
 62
     7
100
AcDbLine
 10
1411.5431390918
 20
4421.3656193278
 30
0.0
 11
1409.5398001937
 21
4421.3656193278
 31
0.0
  0
LINE
  5
C8
330
1F
100
AcDbEntity
  8
0
  6
Continuous
 62
     7
100
AcDbLine
 10
1411.5431390918
 20
4404.0247657006
 30
0.0
 11
1411.5431390918
 21
4421.3656193278
 31
0.0
  0
LINE
  5
C9
330
1F
100
AcDbEntity
  8
0
  6
Continuous
 62
     7
100
AcDbLine
 10
811.5431390918
 20
4404.0247657006
 30
0.0
 11
811.5431390918
 21
4421.3656193278
 31
0.0
  0
LINE
  5
CA
330
1F
100
AcDbEntity
  8
0
  6
Continuous
 62
     7
100
AcDbLine
 10
1411.5431390918
 20
4311.9681575347
 30
0.0
 11
1411.5431390918
 21
4353.9412932465
 31
0.0
  0
LINE
  5
CB
330
1F
100
AcDbEntity
  8
0
  6
Continuous
 62
     7
100
AcDbLine
 10
811.5431390918
 20
4311.9681575347
 30
0.0
 11
811.5431390918
 21
4353.9412932465
 31
0.0
  0
LINE
  5
CC
330
1F
100
AcDbEntity
  8
0
  6
Continuous
 62
     7
100
AcDbLine
 10
1409.5398001937
 20
4311.9681575347
 30
0.0
 11
1409.5398001937
 21
4421.3656193278
 31
0.0
  0
LINE
  5
CD
330
1F
100
AcDbEntity
  8
0
  6
Continuous
 62
     7
100
AcDbLine
 10
809.5398001937
 20
4311.9681575347
 30
0.0
 11
809.5398001937
 21
4421.3656193278
 31
0.0
  0
LINE
  5
CE
330
1F
100
AcDbEntity
  8
0
  6
Continuous
 62
     7
100
AcDbLine
 10
811.5431390918
 20
4298.849473547
 30
0.0
 11
1411.5431390918
 21
4298.849473547
 31
0.0
  0
LINE
  5
CF
330
1F
100
AcDbEntity
  8
0
  6
Continuous
 62
     7
100
AcDbLine
 10
811.5431390918
 20
4421.5115718037
 30
0.0
 11
811.5431390918
 21
4421.3656193278
 31
0.0
  0
LINE
  5
D0
330
1F
100
AcDbEntity
  8
0
  6
Continuous
 62
     7
100
AcDbLine
 10
809.5398001937
 20
4421.3656193278
 30
0.0
 11
809.5398001937
 21
4421.5115718037
 31
0.0
  0
LINE
  5
D1
330
1F
100
AcDbEntity
  8
0
  6
Continuous
 62
     7
100
AcDbLine
 10
1411.5431390918
 20
4421.3656193278
 30
0.0
 11
1411.5431390918
 21
4421.5115718037
 31
0.0
  0
LINE
  5
D2
330
1F
100
AcDbEntity
  8
0
  6
Continuous
 62
     7
100
AcDbLine
 10
1409.5398001937
 20
4421.3656193278
 30
0.0
 11
1409.5398001937
 21
4421.5115718037
 31
0.0
  0
LINE
  5
D3
330
1F
100
AcDbEntity
  8
0
  6
Continuous
 62
     7
100
AcDbLine
 10
811.5431390918
 20
4421.3656193278
 30
0.0
 11
1411.5431390918
 21
4421.3656193278
 31
0.0
  0
LINE
  5
D4
330
1F
100
AcDbEntity
  8
0
  6
Continuous
 62
     7
100
AcDbLine
 10
1028.7453553605
 20
3324.3370888743
 30
0.0
 11
1142.9356725558
 21
3324.3370888743
 31
0.0
  0
LINE
  5
D5
330
1F
100
AcDbEntity
  8
0
  6
Continuous
 62
     7
100
AcDbLine
 10
1028.7453553605
 20
3327.3420972216
 30
0.0
 11
1142.9356725558
 21
3327.3420972216
 31
0.0
  0
LINE
  5
D6
330
1F
100
AcDbEntity
  8
0
  6
Continuous
 62
     7
100
AcDbLine
 10
1037.3198452193
 20
3278.2741553265
 30
0.0
 11
1037.9723526505
 21
3276.4684715882
 31
0.0
  0
LINE
  5
D7
330
1F
100
AcDbEntity
  8
0
  6
Continuous
 62
     7
100
AcDbLine
 10
1037.9723526505
 20
3276.4684715882
 30
0.0
 11
1039.695455505
 21
3273.1402914138
 31
0.0
  0
LINE
  5
D8
330
1F
100
AcDbEntity
  8
0
  6
Continuous
 62
     7
100
AcDbLine
 10
1039.695455505
 20
3273.1402914138
 30
0.0
 11
1042.5795864401
 21
3269.0648241848
 31
0.0
  0
LINE
  5
D9
330
1F
100
AcDbEntity
  8
0
  6
Continuous
 62
     7
100
AcDbLine
 10
1042.5795864401
 20
3269.0648241848
 30
0.0
 11
1046.1588092986
 21
3265.312254211
 31
0.0
  0
LINE
  5
DA
330
1F
100
AcDbEntity
  8
0
  6
Continuous
 62
     7
100
AcDbLine
 10
1046.1588092986
 20
3265.312254211
 30
0.0
 11
1050.4331240807
 21
3261.8825814925
 31
0.0
  0
LINE
  5
DB
330
1F
100
AcDbEntity
  8
0
  6
Continuous
 62
     7
100
AcDbLine
 10
1050.4331240807
 20
3261.8825814925
 30
0.0
 11
1055.2829762366
 21
3258.8603938782
 31
0.0
  0
LINE
  5
DC
330
1F
100
AcDbEntity
  8
0
  6
Continuous
 62
     7
100
AcDbLine
 10
1055.2829762366
 20
3258.8603938782
 30
0.0
 11
1060.5899115833
 21
3256.3295011222
 31
0.0
  0
LINE
  5
DD
330
1F
100
AcDbEntity
  8
0
  6
Continuous
 62
     7
100
AcDbLine
 10
1060.5899115833
 20
3256.3295011222
 30
0.0
 11
1066.353930121
 21
3254.2899032247
 31
0.0
  0
LINE
  5
DE
330
1F
100
AcDbEntity
  8
0
  6
Continuous
 62
     7
100
AcDbLine
 10
1066.353930121
 20
3254.2899032247
 30
0.0
 11
1071.0602370796
 21
3253.0715519374
 31
0.0
  0
LINE
  5
DF
330
1F
100
AcDbEntity
  8
0
  6
Continuous
 62
     7
100
AcDbLine
 10
1071.0602370796
 20
3253.0715519374
 30
0.0
 11
1075.8767700386
 21
3252.2012883469
 31
0.0
  0
LINE
  5
E0
330
1F
100
AcDbEntity
  8
0
  6
Continuous
 62
     7
100
AcDbLine
 10
1075.8767700386
 20
3252.2012883469
 30
0.0
 11
1080.8035289982
 21
3251.6791124533
 31
0.0
  0
LINE
  5
E1
330
1F
100
AcDbEntity
  8
0
  6
Continuous
 62
     7
100
AcDbLine
 10
1080.8035289982
 20
3251.6791124533
 30
0.0
 11
1085.8405139581
 21
3251.5050242565
 31
0.0
  0
LINE
  5
E2
330
1F
100
AcDbEntity
  8
0
  6
Continuous
 62
     7
100
AcDbLine
 10
1085.8405139581
 20
3251.5050242565
 30
0.0
 11
1090.8770479957
 21
3251.6790459347
 31
0.0
  0
LINE
  5
E3
330
1F
100
AcDbEntity
  8
0
  6
Continuous
 62
     7
100
AcDbLine
 10
1090.8770479957
 20
3251.6790459347
 30
0.0
 11
1095.8036566478
 21
3252.2011996554
 31
0.0
  0
LINE
  5
E4
330
1F
100
AcDbEntity
  8
0
  6
Continuous
 62
     7
100
AcDbLine
 10
1095.8036566478
 20
3252.2011996554
 30
0.0
 11
1100.6203399143
 21
3253.0714854188
 31
0.0
  0
LINE
  5
E5
330
1F
100
AcDbEntity
  8
0
  6
Continuous
 62
     7
100
AcDbLine
 10
1100.6203399143
 20
3253.0714854188
 30
0.0
 11
1105.3270977953
 21
3254.2899032247
 31
0.0
  0
LINE
  5
E6
330
1F
100
AcDbEntity
  8
0
  6
Continuous
 62
     7
100
AcDbLine
 10
1105.3270977953
 20
3254.2899032247
 30
0.0
 11
1111.0906787589
 21
3256.3292917322
 31
0.0
  0
LINE
  5
E7
330
1F
100
AcDbEntity
  8
0
  6
Continuous
 62
     7
100
AcDbLine
 10
1111.0906787589
 20
3256.3292917322
 30
0.0
 11
1116.3976141057
 21
3258.8601844881
 31
0.0
  0
LINE
  5
E8
330
1F
100
AcDbEntity
  8
0
  6
Continuous
 62
     7
100
AcDbLine
 10
1116.3976141057
 20
3258.8601844881
 30
0.0
 11
1121.2479038356
 21
3261.8825814925
 31
0.0
  0
LINE
  5
E9
330
1F
100
AcDbEntity
  8
0
  6
Continuous
 62
     7
100
AcDbLine
 10
1121.2479038356
 20
3261.8825814925
 30
0.0
 11
1125.5219224943
 21
3265.3119447987
 31
0.0
  0
LINE
  5
EA
330
1F
100
AcDbEntity
  8
0
  6
Continuous
 62
     7
100
AcDbLine
 10
1125.5219224943
 20
3265.3119447987
 30
0.0
 11
1129.1011453528
 21
3269.0645147725
 31
0.0
  0
LINE
  5
EB
330
1F
100
AcDbEntity
  8
0
  6
Continuous
 62
     7
100
AcDbLine
 10
1129.1011453528
 20
3269.0645147725
 30
0.0
 11
1131.985572411
 21
3273.1402914139
 31
0.0
  0
LINE
  5
EC
330
1F
100
AcDbEntity
  8
0
  6
Continuous
 62
     7
100
AcDbLine
 10
1131.985572411
 20
3273.1402914139
 30
0.0
 11
1133.7085811882
 21
3276.468152728
 31
0.0
  0
LINE
  5
ED
330
1F
100
AcDbEntity
  8
0
  6
Continuous
 62
     7
100
AcDbLine
 10
1133.7085811882
 20
3276.468152728
 30
0.0
 11
1134.3613490905
 21
3278.2745469224
 31
0.0
  0
LINE
  5
EE
330
1F
100
AcDbEntity
  8
0
  6
Continuous
 62
     7
100
AcDbLine
 10
1044.7720665458
 20
3333.352113916
 30
0.0
 11
1126.9089613705
 21
3333.352113916
 31
0.0
  0
LINE
  5
EF
330
1F
100
AcDbEntity
  8
0
  6
Continuous
 62
     7
100
AcDbLine
 10
1136.8483626745
 20
3284.9330470536
 30
0.0
 11
1136.6458061089
 21
3283.1435418579
 31
0.0
  0
LINE
  5
F0
330
1F
100
AcDbEntity
  8
0
  6
Continuous
 62
     7
100
AcDbLine
 10
1136.6458061089
 20
3283.1435418579
 30
0.0
 11
1136.0207975513
 21
3280.1506772869
 31
0.0
  0
LINE
  5
F1
330
1F
100
AcDbEntity
  8
0
  6
Continuous
 62
     7
100
AcDbLine
 10
1136.0207975513
 20
3280.1506772869
 30
0.0
 11
1135.0438103588
 21
3277.2052903511
 31
0.0
  0
LINE
  5
F2
330
1F
100
AcDbEntity
  8
0
  6
Continuous
 62
     7
100
AcDbLine
 10
1135.0438103588
 20
3277.2052903511
 30
0.0
 11
1133.7216973946
 21
3274.3280408235
 31
0.0
  0
LINE
  5
F3
330
1F
100
AcDbEntity
  8
0
  6
Continuous
 62
     7
100
AcDbLine
 10
1133.7216973946
 20
3274.3280408235
 30
0.0
 11
1132.0637323312
 21
3271.5391105424
 31
0.0
  0
LINE
  5
F4
330
1F
100
AcDbEntity
  8
0
  6
Continuous
 62
     7
100
AcDbLine
 10
1132.0637323312
 20
3271.5391105424
 30
0.0
 11
1130.0815446022
 21
3268.8580618497
 31
0.0
  0
LINE
  5
F5
330
1F
100
AcDbEntity
  8
0
  6
Continuous
 62
     7
100
AcDbLine
 10
1130.0815446022
 20
3268.8580618497
 30
0.0
 11
1127.7890378304
 21
3266.3037003757
 31
0.0
  0
LINE
  5
F6
330
1F
100
AcDbEntity
  8
0
  6
Continuous
 62
     7
100
AcDbLine
 10
1127.7890378304
 20
3266.3037003757
 30
0.0
 11
1125.2022923036
 21
3263.893943131
 31
0.0
  0
LINE
  5
F7
330
1F
100
AcDbEntity
  8
0
  6
Continuous
 62
     7
100
AcDbLine
 10
1125.2022923036
 20
3263.893943131
 30
0.0
 11
1122.3394521831
 21
3261.645692831
 31
0.0
  0
LINE
  5
F8
330
1F
100
AcDbEntity
  8
0
  6
Continuous
 62
     7
100
AcDbLine
 10
1122.3394521831
 20
3261.645692831
 30
0.0
 11
1119.2205982354
 21
3259.5747193364
 31
0.0
  0
LINE
  5
F9
330
1F
100
AcDbEntity
  8
0
  6
Continuous
 62
     7
100
AcDbLine
 10
1119.2205982354
 20
3259.5747193364
 30
0.0
 11
1115.8676069801
 21
3257.6955490382
 31
0.0
  0
LINE
  5
FA
330
1F
100
AcDbEntity
  8
0
  6
Continuous
 62
     7
100
AcDbLine
 10
1115.8676069801
 20
3257.6955490382
 30
0.0
 11
1112.3039972417
 21
3256.0213629658
 31
0.0
  0
LINE
  5
FB
330
1F
100
AcDbEntity
  8
0
  6
Continuous
 62
     7
100
AcDbLine
 10
1112.3039972417
 20
3256.0213629658
 30
0.0
 11
1108.554765182
 21
3254.5639043318
 31
0.0
  0
LINE
  5
FC
330
1F
100
AcDbEntity
  8
0
  6
Continuous
 62
     7
100
AcDbLine
 10
1108.554765182
 20
3254.5639043318
 30
0.0
 11
1104.6462089701
 21
3253.333396161
 31
0.0
  0
LINE
  5
FD
330
1F
100
AcDbEntity
  8
0
  6
Continuous
 62
     7
100
AcDbLine
 10
1104.6462089701
 20
3253.333396161
 30
0.0
 11
1100.6057443196
 21
3252.3384695843
 31
0.0
  0
LINE
  5
FE
330
1F
100
AcDbEntity
  8
0
  6
Continuous
 62
     7
100
AcDbLine
 10
1100.6057443196
 20
3252.3384695843
 30
0.0
 11
1096.4617121869
 21
3251.5861032969
 31
0.0
  0
LINE
  5
FF
330
1F
100
AcDbEntity
  8
0
  6
Continuous
 62
     7
100
AcDbLine
 10
1096.4617121869
 20
3251.5861032969
 30
0.0
 11
1092.24317998
 21
3251.0815746075
 31
0.0
  0
LINE
  5
100
330
1F
100
AcDbEntity
  8
0
  6
Continuous
 62
     7
100
AcDbLine
 10
1092.24317998
 20
3251.0815746075
 30
0.0
 11
1087.9797376712
 21
3250.8284224224
 31
0.0
  0
LINE
  5
101
330
1F
100
AcDbEntity
  8
0
  6
Continuous
 62
     7
100
AcDbLine
 10
1087.9797376712
 20
3250.8284224224
 30
0.0
 11
1083.7012902451
 21
3250.8284224224
 31
0.0
  0
LINE
  5
102
330
1F
100
AcDbEntity
  8
0
  6
Continuous
 62
     7
100
AcDbLine
 10
1083.7012902451
 20
3250.8284224224
 30
0.0
 11
1079.4378479363
 21
3251.0815746075
 31
0.0
  0
LINE
  5
103
330
1F
100
AcDbEntity
  8
0
  6
Continuous
 62
     7
100
AcDbLine
 10
1079.4378479363
 20
3251.0815746075
 30
0.0
 11
1075.2193157294
 21
3251.5861032969
 31
0.0
  0
LINE
  5
104
330
1F
100
AcDbEntity
  8
0
  6
Continuous
 62
     7
100
AcDbLine
 10
1075.2193157294
 20
3251.5861032969
 30
0.0
 11
1071.0752835967
 21
3252.3384695843
 31
0.0
  0
LINE
  5
105
330
1F
100
AcDbEntity
  8
0
  6
Continuous
 62
     7
100
AcDbLine
 10
1071.0752835967
 20
3252.3384695843
 30
0.0
 11
1067.0348189462
 21
3253.333396161
 31
0.0
  0
LINE
  5
106
330
1F
100
AcDbEntity
  8
0
  6
Continuous
 62
     7
100
AcDbLine
 10
1067.0348189462
 20
3253.333396161
 30
0.0
 11
1063.1262627344
 21
3254.5639043318
 31
0.0
  0
LINE
  5
107
330
1F
100
AcDbEntity
  8
0
  6
Continuous
 62
     7
100
AcDbLine
 10
1063.1262627344
 20
3254.5639043318
 30
0.0
 11
1059.3770306747
 21
3256.0213629658
 31
0.0
  0
LINE
  5
108
330
1F
100
AcDbEntity
  8
0
  6
Continuous
 62
     7
100
AcDbLine
 10
1059.3770306747
 20
3256.0213629658
 30
0.0
 11
1055.8134209362
 21
3257.6955490382
 31
0.0
  0
LINE
  5
109
330
1F
100
AcDbEntity
  8
0
  6
Continuous
 62
     7
100
AcDbLine
 10
1055.8134209362
 20
3257.6955490382
 30
0.0
 11
1052.4604296808
 21
3259.5747193364
 31
0.0
  0
LINE
  5
10A
330
1F
100
AcDbEntity
  8
0
  6
Continuous
 62
     7
100
AcDbLine
 10
1052.4604296808
 20
3259.5747193364
 30
0.0
 11
1049.3415757332
 21
3261.645692831
 31
0.0
  0
LINE
  5
10B
330
1F
100
AcDbEntity
  8
0
  6
Continuous
 62
     7
100
AcDbLine
 10
1049.3415757332
 20
3261.645692831
 30
0.0
 11
1046.4787356127
 21
3263.893943131
 31
0.0
  0
LINE
  5
10C
330
1F
100
AcDbEntity
  8
0
  6
Continuous
 62
     7
100
AcDbLine
 10
1046.4787356127
 20
3263.893943131
 30
0.0
 11
1043.8919900859
 21
3266.3037003757
 31
0.0
  0
LINE
  5
10D
330
1F
100
AcDbEntity
  8
0
  6
Continuous
 62
     7
100
AcDbLine
 10
1043.8919900859
 20
3266.3037003757
 30
0.0
 11
1041.5994833141
 21
3268.8580618497
 31
0.0
  0
LINE
  5
10E
330
1F
100
AcDbEntity
  8
0
  6
Continuous
 62
     7
100
AcDbLine
 10
1041.5994833141
 20
3268.8580618497
 30
0.0
 11
1039.6172955851
 21
3271.5391105424
 31
0.0
  0
LINE
  5
10F
330
1F
100
AcDbEntity
  8
0
  6
Continuous
 62
     7
100
AcDbLine
 10
1039.6172955851
 20
3271.5391105424
 30
0.0
 11
1037.9593305216
 21
3274.3280408235
 31
0.0
  0
LINE
  5
110
330
1F
100
AcDbEntity
  8
0
  6
Continuous
 62
     7
100
AcDbLine
 10
1037.9593305216
 20
3274.3280408235
 30
0.0
 11
1036.6372175575
 21
3277.2052903511
 31
0.0
  0
LINE
  5
111
330
1F
100
AcDbEntity
  8
0
  6
Continuous
 62
     7
100
AcDbLine
 10
1036.6372175575
 20
3277.2052903511
 30
0.0
 11
1035.660230365
 21
3280.1506772869
 31
0.0
  0
LINE
  5
112
330
1F
100
AcDbEntity
  8
0
  6
Continuous
 62
     7
100
AcDbLine
 10
1035.660230365
 20
3280.1506772869
 30
0.0
 11
1035.0352218075
 21
3283.1435418579
 31
0.0
  0
LINE
  5
113
330
1F
100
AcDbEntity
  8
0
  6
Continuous
 62
     7
100
AcDbLine
 10
1035.0352218075
 20
3283.1435418579
 30
0.0
 11
1034.8231168847
 21
3285.059693574
 31
0.0
  0
LINE
  5
114
330
1F
100
AcDbEntity
  8
0
  6
Continuous
 62
     7
100
AcDbLine
 10
1136.9256558613
 20
3281.2530888989
 30
0.0
 11
1136.9144520455
 21
3280.4965931899
 31
0.0
  0
LINE
  5
115
330
1F
100
AcDbEntity
  8
0
  6
Continuous
 62
     7
100
AcDbLine
 10
1136.9144520455
 20
3280.4965931899
 30
0.0
 11
1136.6458061089
 21
3277.4772437783
 31
0.0
  0
LINE
  5
116
330
1F
100
AcDbEntity
  8
0
  6
Continuous
 62
     7
100
AcDbLine
 10
1136.6458061089
 20
3277.4772437783
 30
0.0
 11
1136.0207975513
 21
3274.4843792073
 31
0.0
  0
LINE
  5
117
330
1F
100
AcDbEntity
  8
0
  6
Continuous
 62
     7
100
AcDbLine
 10
1136.0207975513
 20
3274.4843792073
 30
0.0
 11
1135.0438103588
 21
3271.5389922714
 31
0.0
  0
LINE
  5
118
330
1F
100
AcDbEntity
  8
0
  6
Continuous
 62
     7
100
AcDbLine
 10
1135.0438103588
 20
3271.5389922714
 30
0.0
 11
1133.7216973946
 21
3268.6617427439
 31
0.0
  0
LINE
  5
119
330
1F
100
AcDbEntity
  8
0
  6
Continuous
 62
     7
100
AcDbLine
 10
1133.7216973946
 20
3268.6617427439
 30
0.0
 11
1132.0637323312
 21
3265.8728124627
 31
0.0
  0
LINE
  5
11A
330
1F
100
AcDbEntity
  8
0
  6
Continuous
 62
     7
100
AcDbLine
 10
1132.0637323312
 20
3265.8728124627
 30
0.0
 11
1130.0815446022
 21
3263.19176377
 31
0.0
  0
LINE
  5
11B
330
1F
100
AcDbEntity
  8
0
  6
Continuous
 62
     7
100
AcDbLine
 10
1130.0815446022
 20
3263.19176377
 30
0.0
 11
1127.7890378304
 21
3260.6374022961
 31
0.0
  0
LINE
  5
11C
330
1F
100
AcDbEntity
  8
0
  6
Continuous
 62
     7
100
AcDbLine
 10
1127.7890378304
 20
3260.6374022961
 30
0.0
 11
1125.2022923036
 21
3258.2276450513
 31
0.0
  0
LINE
  5
11D
330
1F
100
AcDbEntity
  8
0
  6
Continuous
 62
     7
100
AcDbLine
 10
1125.2022923036
 20
3258.2276450513
 30
0.0
 11
1122.3394521831
 21
3255.9793947514
 31
0.0
  0
LINE
  5
11E
330
1F
100
AcDbEntity
  8
0
  6
Continuous
 62
     7
100
AcDbLine
 10
1122.3394521831
 20
3255.9793947514
 30
0.0
 11
1119.2205982354
 21
3253.9084212568
 31
0.0
  0
LINE
  5
11F
330
1F
100
AcDbEntity
  8
0
  6
Continuous
 62
     7
100
AcDbLine
 10
1119.2205982354
 20
3253.9084212568
 30
0.0
 11
1115.8676069801
 21
3252.0292509586
 31
0.0
  0
LINE
  5
120
330
1F
100
AcDbEntity
  8
0
  6
Continuous
 62
     7
100
AcDbLine
 10
1115.8676069801
 20
3252.0292509586
 30
0.0
 11
1112.3039972417
 21
3250.3550648862
 31
0.0
  0
LINE
  5
121
330
1F
100
AcDbEntity
  8
0
  6
Continuous
 62
     7
100
AcDbLine
 10
1112.3039972417
 20
3250.3550648862
 30
0.0
 11
1108.554765182
 21
3248.8976062521
 31
0.0
  0
LINE
  5
122
330
1F
100
AcDbEntity
  8
0
  6
Continuous
 62
     7
100
AcDbLine
 10
1108.554765182
 20
3248.8976062521
 30
0.0
 11
1104.6462089701
 21
3247.6670980814
 31
0.0
  0
LINE
  5
123
330
1F
100
AcDbEntity
  8
0
  6
Continuous
 62
     7
100
AcDbLine
 10
1104.6462089701
 20
3247.6670980814
 30
0.0
 11
1100.6057443196
 21
3246.6721715047
 31
0.0
  0
LINE
  5
124
330
1F
100
AcDbEntity
  8
0
  6
Continuous
 62
     7
100
AcDbLine
 10
1100.6057443196
 20
3246.6721715047
 30
0.0
 11
1096.4617121869
 21
3245.9198052173
 31
0.0
  0
LINE
  5
125
330
1F
100
AcDbEntity
  8
0
  6
Continuous
 62
     7
100
AcDbLine
 10
1096.4617121869
 20
3245.9198052173
 30
0.0
 11
1092.24317998
 21
3245.4152765279
 31
0.0
  0
LINE
  5
126
330
1F
100
AcDbEntity
  8
0
  6
Continuous
 62
     7
100
AcDbLine
 10
1092.24317998
 20
3245.4152765279
 30
0.0
 11
1087.9797376712
 21
3245.1621243428
 31
0.0
  0
LINE
  5
127
330
1F
100
AcDbEntity
  8
0
  6
Continuous
 62
     7
100
AcDbLine
 10
1087.9797376712
 20
3245.1621243428
 30
0.0
 11
1083.7012902451
 21
3245.1621243428
 31
0.0
  0
LINE
  5
128
330
1F
100
AcDbEntity
  8
0
  6
Continuous
 62
     7
100
AcDbLine
 10
1083.7012902451
 20
3245.1621243428
 30
0.0
 11
1079.4378479363
 21
3245.4152765279
 31
0.0
  0
LINE
  5
129
330
1F
100
AcDbEntity
  8
0
  6
Continuous
 62
     7
100
AcDbLine
 10
1079.4378479363
 20
3245.4152765279
 30
0.0
 11
1075.2193157294
 21
3245.9198052173
 31
0.0
  0
LINE
  5
12A
330
1F
100
AcDbEntity
  8
0
  6
Continuous
 62
     7
100
AcDbLine
 10
1075.2193157294
 20
3245.9198052173
 30
0.0
 11
1071.0752835967
 21
3246.6721715047
 31
0.0
  0
LINE
  5
12B
330
1F
100
AcDbEntity
  8
0
  6
Continuous
 62
     7
100
AcDbLine
 10
1071.0752835967
 20
3246.6721715047
 30
0.0
 11
1067.0348189462
 21
3247.6670980814
 31
0.0
  0
LINE
  5
12C
330
1F
100
AcDbEntity
  8
0
  6
Continuous
 62
     7
100
AcDbLine
 10
1067.0348189462
 20
3247.6670980814
 30
0.0
 11
1063.1262627344
 21
3248.8976062521
 31
0.0
  0
LINE
  5
12D
330
1F
100
AcDbEntity
  8
0
  6
Continuous
 62
     7
100
AcDbLine
 10
1063.1262627344
 20
3248.8976062521
 30
0.0
 11
1059.3770306747
 21
3250.3550648862
 31
0.0
  0
LINE
  5
12E
330
1F
100
AcDbEntity
  8
0
  6
Continuous
 62
     7
100
AcDbLine
 10
1059.3770306747
 20
3250.3550648862
 30
0.0
 11
1055.8134209362
 21
3252.0292509586
 31
0.0
  0
LINE
  5
12F
330
1F
100
AcDbEntity
  8
0
  6
Continuous
 62
     7
100
AcDbLine
 10
1055.8134209362
 20
3252.0292509586
 30
0.0
 11
1052.4604296808
 21
3253.9084212568
 31
0.0
  0
LINE
  5
130
330
1F
100
AcDbEntity
  8
0
  6
Continuous
 62
     7
100
AcDbLine
 10
1052.4604296808
 20
3253.9084212568
 30
0.0
 11
1049.3415757332
 21
3255.9793947514
 31
0.0
  0
LINE
  5
131
330
1F
100
AcDbEntity
  8
0
  6
Continuous
 62
     7
100
AcDbLine
 10
1049.3415757332
 20
3255.9793947514
 30
0.0
 11
1046.4787356127
 21
3258.2276450513
 31
0.0
  0
LINE
  5
132
330
1F
100
AcDbEntity
  8
0
  6
Continuous
 62
     7
100
AcDbLine
 10
1046.4787356127
 20
3258.2276450513
 30
0.0
 11
1043.8919900859
 21
3260.6374022961
 31
0.0
  0
LINE
  5
133
330
1F
100
AcDbEntity
  8
0
  6
Continuous
 62
     7
100
AcDbLine
 10
1043.8919900859
 20
3260.6374022961
 30
0.0
 11
1041.5994833141
 21
3263.19176377
 31
0.0
  0
LINE
  5
134
330
1F
100
AcDbEntity
  8
0
  6
Continuous
 62
     7
100
AcDbLine
 10
1041.5994833141
 20
3263.19176377
 30
0.0
 11
1039.6172955851
 21
3265.8728124627
 31
0.0
  0
LINE
  5
135
330
1F
100
AcDbEntity
  8
0
  6
Continuous
 62
     7
100
AcDbLine
 10
1039.6172955851
 20
3265.8728124627
 30
0.0
 11
1037.9593305216
 21
3268.6617427439
 31
0.0
  0
LINE
  5
136
330
1F
100
AcDbEntity
  8
0
  6
Continuous
 62
     7
100
AcDbLine
 10
1037.9593305216
 20
3268.6617427439
 30
0.0
 11
1036.6372175575
 21
3271.5389922714
 31
0.0
  0
LINE
  5
137
330
1F
100
AcDbEntity
  8
0
  6
Continuous
 62
     7
100
AcDbLine
 10
1036.6372175575
 20
3271.5389922714
 30
0.0
 11
1035.660230365
 21
3274.4843792073
 31
0.0
  0
LINE
  5
138
330
1F
100
AcDbEntity
  8
0
  6
Continuous
 62
     7
100
AcDbLine
 10
1035.660230365
 20
3274.4843792073
 30
0.0
 11
1035.0352218075
 21
3277.4772437783
 31
0.0
  0
LINE
  5
139
330
1F
100
AcDbEntity
  8
0
  6
Continuous
 62
     7
100
AcDbLine
 10
1035.0352218075
 20
3277.4772437783
 30
0.0
 11
1034.7665758708
 21
3280.4965931899
 31
0.0
  0
LINE
  5
13A
330
1F
100
AcDbEntity
  8
0
  6
Continuous
 62
     7
100
AcDbLine
 10
1034.7665758708
 20
3280.4965931899
 30
0.0
 11
1034.755372055
 21
3281.2530888989
 31
0.0
  0
LINE
  5
13B
330
1F
100
AcDbEntity
  8
0
  6
Continuous
 62
     7
100
AcDbLine
 10
1710.0917295138
 20
3261.2662803733
 30
0.0
 11
1660.8656802129
 21
3261.2662803733
 31
0.0
  0
LINE
  5
13C
330
1F
100
AcDbEntity
  8
0
  6
Continuous
 62
     7
100
AcDbLine
 10
1660.8656802129
 20
3231.2161969009
 30
0.0
 11
1710.0917295138
 21
3231.2161969009
 31
0.0
  0
LINE
  5
13D
330
1F
100
AcDbEntity
  8
0
  6
Continuous
 62
     7
100
AcDbLine
 10
1867.3538330197
 20
3294.321372193
 30
0.0
 11
1867.3538330197
 21
3297.3263805403
 31
0.0
  0
LINE
  5
13E
330
1F
100
AcDbEntity
  8
0
  6
Continuous
 62
     7
100
AcDbLine
 10
1753.1635158243
 20
3297.3263805403
 30
0.0
 11
1753.1635158243
 21
3294.321372193
 31
0.0
  0
LINE
  5
13F
330
1F
100
AcDbEntity
  8
0
  6
Continuous
 62
     7
100
AcDbLine
 10
1751.4535591153
 20
3293.0263205548
 30
0.0
 11
1745.7872610356
 21
3287.3600224752
 31
0.0
  0
LINE
  5
140
330
1F
100
AcDbEntity
  8
0
  6
Continuous
 62
     7
100
AcDbLine
 10
1818.0325615509
 20
3215.1147219599
 30
0.0
 11
1823.6988596305
 21
3220.7810200396
 31
0.0
  0
LINE
  5
141
330
1F
100
AcDbEntity
  8
0
  6
Continuous
 62
     7
100
AcDbLine
 10
1851.3271218343
 20
3297.3263805403
 30
0.0
 11
1851.3271218343
 21
3303.3363972347
 31
0.0
  0
LINE
  5
142
330
1F
100
AcDbEntity
  8
0
  6
Continuous
 62
     7
100
AcDbLine
 10
1769.1902270096
 20
3303.3363972347
 30
0.0
 11
1769.1902270096
 21
3297.3263805403
 31
0.0
  0
LINE
  5
143
330
1F
100
AcDbEntity
  8
0
  6
Continuous
 62
     7
100
AcDbLine
 10
1727.1201101482
 20
3224.3046777022
 30
0.0
 11
1740.1418129863
 21
3224.3046777022
 31
0.0
  0
LINE
  5
144
330
1F
100
AcDbEntity
  8
0
  6
Continuous
 62
     7
100
AcDbLine
 10
1740.1418129863
 20
3268.177799572
 30
0.0
 11
1727.1201101482
 21
3268.177799572
 31
0.0
  0
LINE
  5
145
330
1F
100
AcDbEntity
  8
0
  6
Continuous
 62
     7
100
AcDbLine
 10
1660.8656802129
 20
3231.2161969009
 30
0.0
 11
1660.8656802129
 21
3261.2662803733
 31
0.0
  0
LINE
  5
146
330
1F
100
AcDbEntity
  8
0
  6
Continuous
 62
     7
100
AcDbLine
 10
1892.7488311507
 20
4285.3699393194
 30
0.0
 11
1663.0141613854
 21
4394.7674011124
 31
0.0
  0
LINE
  5
147
330
1F
100
AcDbEntity
  8
0
  6
Continuous
 62
     7
100
AcDbLine
 10
1921.2997369741
 20
3412.8188680194
 30
0.0
 11
1921.2997369741
 21
4240.1515493949
 31
0.0
  0
LINE
  5
148
330
1F
100
AcDbEntity
  8
0
  6
Continuous
 62
     7
100
AcDbLine
 10
1969.3798705301
 20
3412.8188680194
 30
0.0
 11
1921.2997369741
 21
3412.8188680194
 31
0.0
  0
LINE
  5
149
330
1F
100
AcDbEntity
  8
0
  6
Continuous
 62
     7
100
AcDbLine
 10
1969.3798705301
 20
3410.8155291212
 30
0.0
 11
1969.3798705301
 21
3412.8188680194
 31
0.0
  0
LINE
  5
14A
330
1F
100
AcDbEntity
  8
0
  6
Continuous
 62
     7
100
AcDbLine
 10
1921.2997369741
 20
3410.8155291212
 30
0.0
 11
1969.3798705301
 21
3410.8155291212
 31
0.0
  0
LINE
  5
14B
330
1F
100
AcDbEntity
  8
0
  6
Continuous
 62
     7
100
AcDbLine
 10
1921.2997369741
 20
3324.5844200367
 30
0.0
 11
1921.2997369741
 21
3410.8155291212
 31
0.0
  0
LINE
  5
14C
330
1F
100
AcDbEntity
  8
0
  6
Continuous
 62
     7
100
AcDbLine
 10
1902.355553905
 20
3305.6402369676
 30
0.0
 11
1921.2997369741
 21
3324.5844200367
 31
0.0
  0
LINE
  5
14D
330
1F
100
AcDbEntity
  8
0
  6
Continuous
 62
     7
100
AcDbLine
 10
1660.8656802129
 20
3305.6402369676
 30
0.0
 11
1902.355553905
 21
3305.6402369676
 31
0.0
  0
LINE
  5
14E
330
1F
100
AcDbEntity
  8
0
  6
Continuous
 62
     7
100
AcDbLine
 10
1660.8656802129
 20
4393.4108494147
 30
0.0
 11
1660.8656802129
 21
3305.6402369676
 31
0.0
  0
LINE
  5
14F
330
1F
100
AcDbEntity
  8
0
  6
Continuous
 62
     7
100
AcDbLine
 10
1753.1635158243
 20
3294.321372193
 30
0.0
 11
1867.3538330197
 21
3294.321372193
 31
0.0
  0
LINE
  5
150
330
1F
100
AcDbEntity
  8
0
  6
Continuous
 62
     7
100
AcDbLine
 10
1753.1635158243
 20
3297.3263805403
 30
0.0
 11
1867.3538330197
 21
3297.3263805403
 31
0.0
  0
LINE
  5
151
330
1F
100
AcDbEntity
  8
0
  6
Continuous
 62
     7
100
AcDbLine
 10
1823.6988596305
 20
3220.7810200396
 30
0.0
 11
1751.4535591153
 21
3293.0263205548
 31
0.0
  0
LINE
  5
152
330
1F
100
AcDbEntity
  8
0
  6
Continuous
 62
     7
100
AcDbLine
 10
1818.0325615509
 20
3215.1147219599
 30
0.0
 11
1745.7872610356
 21
3287.3600224752
 31
0.0
  0
LINE
  5
153
330
1F
100
AcDbEntity
  8
0
  6
Continuous
 62
     7
100
AcDbLine
 10
1740.1418129863
 20
3268.1203091753
 30
0.0
 11
1740.1418129863
 21
3224.3046777022
 31
0.0
  0
LINE
  5
154
330
1F
100
AcDbEntity
  8
0
  6
Continuous
 62
     7
100
AcDbLine
 10
1769.1902270096
 20
3303.3363972347
 30
0.0
 11
1851.3271218343
 21
3303.3363972347
 31
0.0
  0
LINE
  5
155
330
1F
100
AcDbEntity
  8
0
  6
Continuous
 62
     7
100
AcDbLine
 10
1710.0917295138
 20
3268.2779665169
 30
0.0
 11
1710.0917295138
 21
3224.2045107573
 31
0.0
  0
LINE
  5
156
330
1F
100
AcDbEntity
  8
0
  6
Continuous
 62
     7
100
AcDbLine
 10
1727.1201101482
 20
3246.2412386371
 30
0.0
 11
1727.1201101482
 21
3220.197832961
 31
0.0
  0
LINE
  5
157
330
1F
100
AcDbEntity
  8
0
  6
Continuous
 62
     7
100
AcDbLine
 10
1727.1201101482
 20
3272.2846443132
 30
0.0
 11
1727.1201101482
 21
3246.2412386371
 31
0.0
  0
LINE
  5
158
330
1F
100
AcDbEntity
  8
0
  6
Continuous
 62
     7
100
AcDbLine
 10
1726.1184406991
 20
3273.2863137623
 30
0.0
 11
1726.1184406991
 21
3219.1961635119
 31
0.0
  0
LINE
  5
159
330
1F
100
AcDbEntity
  8
0
  6
Continuous
 62
     7
100
AcDbLine
 10
1122.2319722165
 20
2882.010022625
 30
0.0
 11
1123.4317083275
 21
2883.3124307306
 31
0.0
  0
LINE
  5
15A
330
1F
100
AcDbEntity
  8
0
  6
Continuous
 62
     7
100
AcDbLine
 10
1125.4887478342
 20
2886.0151795726
 30
0.0
 11
1125.9334908089
 21
2886.7105416308
 31
0.0
  0
LINE
  5
15B
330
1F
100
AcDbEntity
  8
0
  6
Continuous
 62
     7
100
AcDbLine
 10
1126.4449367464
 20
2886.5501645228
 30
0.0
 11
1125.9334908089
 21
2886.7105416308
 31
0.0
  0
LINE
  5
15C
330
1F
100
AcDbEntity
  8
0
  6
Continuous
 62
     7
100
AcDbLine
 10
1109.3636849603
 20
2886.1575124164
 30
0.0
 11
1110.1882576549
 21
2886.1200347312
 31
0.0
  0
LINE
  5
15D
330
1F
100
AcDbEntity
  8
0
  6
Continuous
 62
     7
100
AcDbLine
 10
1110.3050899739
 20
2885.5969210029
 30
0.0
 11
1110.1882576549
 21
2886.1200347312
 31
0.0
  0
LINE
  5
15E
330
1F
100
AcDbEntity
  8
0
  6
Continuous
 62
     7
100
AcDbLine
 10
1104.1324177568
 20
2887.005530335
 30
0.0
 11
1105.9945160497
 21
2886.5875864648
 31
0.0
  0
LINE
  5
15F
330
1F
100
AcDbEntity
  8
0
  6
Continuous
 62
     7
100
AcDbLine
 10
1133.2947134099
 20
2900.6415669804
 30
0.0
 11
1133.6745431296
 21
2899.9087272371
 31
0.0
  0
LINE
  5
160
330
1F
100
AcDbEntity
  8
0
  6
Continuous
 62
     7
100
AcDbLine
 10
1133.6893270282
 20
2901.004303601
 30
0.0
 11
1133.2947134099
 21
2900.6415669804
 31
0.0
  0
LINE
  5
161
330
1F
100
AcDbEntity
  8
0
  6
Continuous
 62
     7
100
AcDbLine
 10
1101.4244173819
 20
2900.1933929247
 30
0.0
 11
1101.8042471017
 21
2899.4605531813
 31
0.0
  0
LINE
  5
162
330
1F
100
AcDbEntity
  8
0
  6
Continuous
 62
     7
100
AcDbLine
 10
1101.4096334833
 20
2899.0978165607
 30
0.0
 11
1101.8042471017
 21
2899.4605531813
 31
0.0
  0
LINE
  5
163
330
1F
100
AcDbEntity
  8
0
  6
Continuous
 62
     7
100
AcDbLine
 10
1099.5887239607
 20
2905.002061456
 30
0.0
 11
1100.112287978
 21
2903.3262158151
 31
0.0
  0
LINE
  5
164
330
1F
100
AcDbEntity
  8
0
  6
Continuous
 62
     7
100
AcDbLine
 10
1132.1392241622
 20
2905.7605759401
 30
0.0
 11
1132.1394189355
 21
2905.7600782033
 31
0.0
  0
LINE
  5
165
330
1F
100
AcDbEntity
  8
0
  6
Continuous
 62
     7
100
AcDbLine
 10
1132.1394189355
 20
2905.7600782033
 30
0.0
 11
1132.8399085671
 21
2903.4660272341
 31
0.0
  0
LINE
  5
166
330
1F
100
AcDbEntity
  8
0
  6
Continuous
 62
     7
100
AcDbLine
 10
1106.6607801196
 20
2893.8697699517
 30
0.0
 11
1106.6878824056
 21
2893.8878528247
 31
0.0
  0
LINE
  5
167
330
1F
100
AcDbEntity
  8
0
  6
Continuous
 62
     7
100
AcDbLine
 10
1107.6614697892
 20
2892.3699542145
 30
0.0
 11
1107.6885720752
 21
2892.3880370876
 31
0.0
  0
LINE
  5
168
330
1F
100
AcDbEntity
  8
0
  6
Continuous
 62
     7
100
AcDbLine
 10
1129.1455182985
 20
2895.3283447572
 30
0.0
 11
1129.1163069284
 21
2895.3427745887
 31
0.0
  0
LINE
  5
169
330
1F
100
AcDbEntity
  8
0
  6
Continuous
 62
     7
100
AcDbLine
 10
1128.346984604
 20
2893.7118142135
 30
0.0
 11
1128.3177732338
 21
2893.7262440449
 31
0.0
  0
LINE
  5
16A
330
1F
100
AcDbEntity
  8
0
  6
Continuous
 62
     7
100
AcDbLine
 10
1417.5495023123
 20
3049.6494631331
 30
0.0
 11
817.5494580809
 21
3047.202339361
 31
0.0
  0
LINE
  5
16B
330
1F
100
AcDbEntity
  8
0
  6
Continuous
 62
     7
100
AcDbLine
 10
1417.5495023123
 20
3047.5009819605
 30
0.0
 11
1417.5495023123
 21
3049.6494631331
 31
0.0
  0
LINE
  5
16C
330
1F
100
AcDbEntity
  8
0
  6
Continuous
 62
     7
100
AcDbLine
 10
1417.5495023123
 20
3047.5009819605
 30
0.0
 11
1417.5495023123
 21
3021.1636924835
 31
0.0
  0
LINE
  5
16D
330
1F
100
AcDbEntity
  8
0
  6
Continuous
 62
     7
100
AcDbLine
 10
1417.5495023123
 20
3021.1636924835
 30
0.0
 11
817.5494580809
 21
3021.1636924835
 31
0.0
  0
LINE
  5
16E
330
1F
100
AcDbEntity
  8
0
  6
Continuous
 62
     7
100
AcDbLine
 10
1082.9761125025
 20
2905.8627555849
 30
0.0
 11
819.5527969791
 21
2817.4673765511
 31
0.0
  0
LINE
  5
16F
330
1F
100
AcDbEntity
  8
0
  6
Continuous
 62
     7
100
AcDbLine
 10
1152.1398689647
 20
2905.7605759471
 30
0.0
 11
1417.5495023123
 21
2817.7663121999
 31
0.0
  0
LINE
  5
170
330
1F
100
AcDbEntity
  8
0
  6
Continuous
 62
     7
100
AcDbLine
 10
817.5494580809
 20
3047.202339361
 30
0.0
 11
817.5494580809
 21
3049.3508205336
 31
0.0
  0
LINE
  5
171
330
1F
100
AcDbEntity
  8
0
  6
Continuous
 62
     7
100
AcDbLine
 10
1419.5527969791
 20
2817.5267954058
 30
0.0
 11
1417.5495023123
 21
2817.7663121999
 31
0.0
  0
LINE
  5
172
330
1F
100
AcDbEntity
  8
0
  6
Continuous
 62
     7
100
AcDbLine
 10
1419.5527969791
 20
2817.5267954058
 30
0.0
 11
1419.5527930993
 21
2905.6112545903
 31
0.0
  0
LINE
  5
173
330
1F
100
AcDbEntity
  8
0
  6
Continuous
 62
     7
100
AcDbLine
 10
819.5527969791
 20
2905.6112545903
 30
0.0
 11
1419.5527930993
 21
2905.6112545903
 31
0.0
  0
LINE
  5
174
330
1F
100
AcDbEntity
  8
0
  6
Continuous
 62
     7
100
AcDbLine
 10
819.5527969791
 20
2817.4673765511
 30
0.0
 11
819.5527969791
 21
2905.6112545903
 31
0.0
  0
LINE
  5
175
330
1F
100
AcDbEntity
  8
0
  6
Continuous
 62
     7
100
AcDbLine
 10
819.5527969791
 20
2817.4673765511
 30
0.0
 11
817.5494580809
 21
2817.4676695934
 31
0.0
  0
LINE
  5
176
330
1F
100
AcDbEntity
  8
0
  6
Continuous
 62
     7
100
AcDbLine
 10
1417.5495023123
 20
2817.7663121999
 30
0.0
 11
1417.5495023123
 21
3047.5009819605
 31
0.0
  0
LINE
  5
177
330
1F
100
AcDbEntity
  8
0
  6
Continuous
 62
     7
100
AcDbLine
 10
817.5494580809
 20
2817.4676695934
 30
0.0
 11
817.5494580809
 21
3047.202339361
 31
0.0
  0
LINE
  5
178
330
1F
100
AcDbEntity
  8
0
  6
Continuous
 62
     7
100
AcDbLine
 10
1419.5527969791
 20
2788.9167637723
 30
0.0
 11
1417.5495023123
 21
2789.2154137636
 31
0.0
  0
LINE
  5
179
330
1F
100
AcDbEntity
  8
0
  6
Continuous
 62
     7
100
AcDbLine
 10
1419.5527969791
 20
2788.9167637723
 30
0.0
 11
1419.5527969791
 21
2817.5267954058
 31
0.0
  0
LINE
  5
17A
330
1F
100
AcDbEntity
  8
0
  6
Continuous
 62
     7
100
AcDbLine
 10
1417.5495023123
 20
2789.2154137636
 30
0.0
 11
1417.5495023123
 21
2817.7663121999
 31
0.0
  0
LINE
  5
17B
330
1F
100
AcDbEntity
  8
0
  6
Continuous
 62
     7
100
AcDbLine
 10
819.5527969791
 20
2788.9167637723
 30
0.0
 11
817.5494580809
 21
2788.9167637723
 31
0.0
  0
LINE
  5
17C
330
1F
100
AcDbEntity
  8
0
  6
Continuous
 62
     7
100
AcDbLine
 10
819.5527969791
 20
2788.9167637723
 30
0.0
 11
819.5527969791
 21
2817.4673765511
 31
0.0
  0
LINE
  5
17D
330
1F
100
AcDbEntity
  8
0
  6
Continuous
 62
     7
100
AcDbLine
 10
817.5494580809
 20
2788.9167637723
 30
0.0
 11
817.5494580809
 21
2817.4676695934
 31
0.0
  0
LINE
  5
17E
330
1F
100
AcDbEntity
  8
0
  6
Continuous
 62
     7
100
AcDbLine
 10
817.5494580809
 20
2817.4676695934
 30
0.0
 11
1417.5494516618
 21
2817.379903425
 31
0.0
  0
LINE
  5
17F
330
1F
100
AcDbEntity
  8
0
  6
Continuous
 62
     7
100
AcDbLine
 10
819.5527969791
 20
2788.9167637723
 30
0.0
 11
1419.5527969791
 21
2788.9167637723
 31
0.0
  0
LINE
  5
180
330
1F
100
AcDbEntity
  8
0
  6
Continuous
 62
     7
100
AcDbLine
 10
817.5495023719
 20
2117.3164014935
 30
0.0
 11
1417.5494581401
 21
2117.0860144816
 31
0.0
  0
LINE
  5
181
330
1F
100
AcDbEntity
  8
0
  6
Continuous
 62
     7
100
AcDbLine
 10
1417.5494581401
 20
2117.0860144816
 30
0.0
 11
1417.5495023123
 21
2789.2154137636
 31
0.0
  0
LINE
  5
182
330
1F
100
AcDbEntity
  8
0
  6
Continuous
 62
     7
100
AcDbLine
 10
817.5495023719
 20
2117.3164014935
 30
0.0
 11
817.5494580809
 21
2788.9167637723
 31
0.0
  0
LINE
  5
183
330
1F
100
AcDbEntity
  8
0
  6
Continuous
 62
     7
100
AcDbLine
 10
1188.9028347057
 20
2905.7605759401
 30
0.0
 11
1152.498447889
 21
2902.8193132786
 31
0.0
  0
LINE
  5
184
330
1F
100
AcDbEntity
  8
0
  6
Continuous
 62
     7
100
AcDbLine
 10
1082.6005126225
 20
2902.8193132786
 30
0.0
 11
1046.1961258058
 21
2905.7605759401
 31
0.0
  0
LINE
  5
185
330
1F
100
AcDbEntity
  8
0
  6
Continuous
 62
     7
100
AcDbLine
 10
1111.0388704239
 20
2888.8937533056
 30
0.0
 11
1112.1732042617
 21
2888.9601888577
 31
0.0
  0
LINE
  5
186
330
1F
100
AcDbEntity
  8
0
  6
Continuous
 62
     7
100
AcDbLine
 10
1125.3479678587
 20
2890.4376254322
 30
0.0
 11
1127.140230471
 21
2890.8237936465
 31
0.0
  0
LINE
  5
187
330
1F
100
AcDbEntity
  8
0
  6
Continuous
 62
     7
100
AcDbLine
 10
1127.9414252345
 20
2891.0674877807
 30
0.0
 11
1129.9471778556
 21
2891.7065842601
 31
0.0
  0
LINE
  5
188
330
1F
100
AcDbEntity
  8
0
  6
Continuous
 62
     7
100
AcDbLine
 10
1103.178190225
 20
2889.3786723958
 30
0.0
 11
1105.8789598657
 21
2889.0957264429
 31
0.0
  0
LINE
  5
189
330
1F
100
AcDbEntity
  8
0
  6
Continuous
 62
     7
100
AcDbLine
 10
1107.6161091753
 20
2889.0119379713
 30
0.0
 11
1111.0388704239
 21
2888.8937533056
 31
0.0
  0
LINE
  5
18A
330
1F
100
AcDbEntity
  8
0
  6
Continuous
 62
     7
100
AcDbLine
 10
1137.0822761
 20
2900.1071476742
 30
0.0
 11
1136.9061799077
 21
2903.1306025329
 31
0.0
  0
LINE
  5
18B
330
1F
100
AcDbEntity
  8
0
  6
Continuous
 62
     7
100
AcDbLine
 10
1136.9061799077
 20
2903.1306025329
 30
0.0
 11
1136.4612567803
 21
2905.7605759401
 31
0.0
  0
LINE
  5
18C
330
1F
100
AcDbEntity
  8
0
  6
Continuous
 62
     7
100
AcDbLine
 10
1136.080606651
 20
2900.1071476742
 30
0.0
 11
1135.9048411087
 21
2903.0689132232
 31
0.0
  0
LINE
  5
18D
330
1F
100
AcDbEntity
  8
0
  6
Continuous
 62
     7
100
AcDbLine
 10
1135.9048411087
 20
2903.0689132232
 30
0.0
 11
1135.5736052782
 21
2905.1206632964
 31
0.0
  0
LINE
  5
18E
330
1F
100
AcDbEntity
  8
0
  6
Continuous
 62
     7
100
AcDbLine
 10
1135.483589424
 20
2894.6716839152
 30
0.0
 11
1135.6043557671
 21
2895.2465424527
 31
0.0
  0
LINE
  5
18F
330
1F
100
AcDbEntity
  8
0
  6
Continuous
 62
     7
100
AcDbLine
 10
1135.8201707576
 20
2896.5049668022
 30
0.0
 11
1135.9048411087
 21
2897.1453821253
 31
0.0
  0
LINE
  5
190
330
1F
100
AcDbEntity
  8
0
  6
Continuous
 62
     7
100
AcDbLine
 10
1135.9048411087
 20
2897.1453821253
 30
0.0
 11
1136.080606651
 21
2900.1071476742
 31
0.0
  0
LINE
  5
191
330
1F
100
AcDbEntity
  8
0
  6
Continuous
 62
     7
100
AcDbLine
 10
1135.8869999175
 20
2896.9992522549
 30
0.0
 11
1135.7093456625
 21
2896.927809587
 31
0.0
  0
LINE
  5
192
330
1F
100
AcDbEntity
  8
0
  6
Continuous
 62
     7
100
AcDbLine
 10
1135.0581097065
 20
2896.6716653329
 30
0.0
 11
1133.3077441728
 21
2896.0265621246
 31
0.0
  0
LINE
  5
193
330
1F
100
AcDbEntity
  8
0
  6
Continuous
 62
     7
100
AcDbLine
 10
1133.3077441728
 20
2896.0265621246
 30
0.0
 11
1133.1987023435
 21
2895.9884039181
 31
0.0
  0
LINE
  5
194
330
1F
100
AcDbEntity
  8
0
  6
Continuous
 62
     7
100
AcDbLine
 10
1131.8682996874
 20
2895.5413424039
 30
0.0
 11
1129.8135771183
 21
2894.915744206
 31
0.0
  0
LINE
  5
195
330
1F
100
AcDbEntity
  8
0
  6
Continuous
 62
     7
100
AcDbLine
 10
1103.1087305799
 20
2892.780016425
 30
0.0
 11
1100.625930984
 21
2893.1071493453
 31
0.0
  0
LINE
  5
196
330
1F
100
AcDbEntity
  8
0
  6
Continuous
 62
     7
100
AcDbLine
 10
1100.625930984
 20
2893.1071493453
 30
0.0
 11
1100.1309509213
 21
2893.1833970567
 31
0.0
  0
LINE
  5
197
330
1F
100
AcDbEntity
  8
0
  6
Continuous
 62
     7
100
AcDbLine
 10
1135.9060534466
 20
2897.3591009814
 30
0.0
 11
1135.5778296081
 21
2897.2164551323
 31
0.0
  0
LINE
  5
198
330
1F
100
AcDbEntity
  8
0
  6
Continuous
 62
     7
100
AcDbLine
 10
1131.8959223899
 20
2895.8946588341
 30
0.0
 11
1129.5616216428
 21
2895.1227980435
 31
0.0
  0
LINE
  5
199
330
1F
100
AcDbEntity
  8
0
  6
Continuous
 62
     7
100
AcDbLine
 10
1105.1793683425
 20
2892.8813595588
 30
0.0
 11
1104.476172703
 21
2892.9430053247
 31
0.0
  0
LINE
  5
19A
330
1F
100
AcDbEntity
  8
0
  6
Continuous
 62
     7
100
AcDbLine
 10
1143.0860646319
 20
3324.9386571786
 30
0.0
 11
1143.0860646319
 21
3327.9436655258
 31
0.0
  0
LINE
  5
19B
330
1F
100
AcDbEntity
  8
0
  6
Continuous
 62
     7
100
AcDbLine
 10
1028.8957474365
 20
3327.9436655258
 30
0.0
 11
1028.8957474365
 21
3324.9386571786
 31
0.0
  0
LINE
  5
19C
330
1F
100
AcDbEntity
  8
0
  6
Continuous
 62
     7
100
AcDbLine
 10
1127.0593534466
 20
3327.9436655258
 30
0.0
 11
1127.0593534466
 21
3333.9536822203
 31
0.0
  0
LINE
  5
19D
330
1F
100
AcDbEntity
  8
0
  6
Continuous
 62
     7
100
AcDbLine
 10
1044.9224586219
 20
3333.9536822203
 30
0.0
 11
1044.9224586219
 21
3327.9436655258
 31
0.0
  0
LINE
  5
19E
330
1F
100
AcDbEntity
  8
0
  6
Continuous
 62
     7
100
AcDbLine
 10
1034.905764131
 20
3286.1005071905
 30
0.0
 11
1034.905764131
 21
3281.8546572032
 31
0.0
  0
LINE
  5
19F
330
1F
100
AcDbEntity
  8
0
  6
Continuous
 62
     7
100
AcDbLine
 10
1137.0760479374
 20
3281.8546572032
 30
0.0
 11
1137.0760479374
 21
3286.1011715854
 31
0.0
  0
LINE
  5
1A0
330
1F
100
AcDbEntity
  8
0
  6
Continuous
 62
     7
100
AcDbLine
 10
1028.8957474365
 20
3324.9386571786
 30
0.0
 11
1143.0860646319
 21
3324.9386571786
 31
0.0
  0
LINE
  5
1A1
330
1F
100
AcDbEntity
  8
0
  6
Continuous
 62
     7
100
AcDbLine
 10
1028.8957474365
 20
3327.9436655258
 30
0.0
 11
1143.0860646319
 21
3327.9436655258
 31
0.0
  0
LINE
  5
1A2
330
1F
100
AcDbEntity
  8
0
  6
Continuous
 62
     7
100
AcDbLine
 10
1037.4702372953
 20
3278.8757236308
 30
0.0
 11
1038.1227447266
 21
3277.0700398925
 31
0.0
  0
LINE
  5
1A3
330
1F
100
AcDbEntity
  8
0
  6
Continuous
 62
     7
100
AcDbLine
 10
1038.1227447266
 20
3277.0700398925
 30
0.0
 11
1039.8458475811
 21
3273.7418597181
 31
0.0
  0
LINE
  5
1A4
330
1F
100
AcDbEntity
  8
0
  6
Continuous
 62
     7
100
AcDbLine
 10
1039.8458475811
 20
3273.7418597181
 30
0.0
 11
1042.7299785161
 21
3269.666392489
 31
0.0
  0
LINE
  5
1A5
330
1F
100
AcDbEntity
  8
0
  6
Continuous
 62
     7
100
AcDbLine
 10
1042.7299785161
 20
3269.666392489
 30
0.0
 11
1046.3092013747
 21
3265.9138225153
 31
0.0
  0
LINE
  5
1A6
330
1F
100
AcDbEntity
  8
0
  6
Continuous
 62
     7
100
AcDbLine
 10
1046.3092013747
 20
3265.9138225153
 30
0.0
 11
1050.5835161568
 21
3262.4841497968
 31
0.0
  0
LINE
  5
1A7
330
1F
100
AcDbEntity
  8
0
  6
Continuous
 62
     7
100
AcDbLine
 10
1050.5835161568
 20
3262.4841497968
 30
0.0
 11
1055.4333683127
 21
3259.4619621824
 31
0.0
  0
LINE
  5
1A8
330
1F
100
AcDbEntity
  8
0
  6
Continuous
 62
     7
100
AcDbLine
 10
1055.4333683127
 20
3259.4619621824
 30
0.0
 11
1060.7403036594
 21
3256.9310694265
 31
0.0
  0
LINE
  5
1A9
330
1F
100
AcDbEntity
  8
0
  6
Continuous
 62
     7
100
AcDbLine
 10
1060.7403036594
 20
3256.9310694265
 30
0.0
 11
1066.5043221971
 21
3254.891471529
 31
0.0
  0
LINE
  5
1AA
330
1F
100
AcDbEntity
  8
0
  6
Continuous
 62
     7
100
AcDbLine
 10
1066.5043221971
 20
3254.891471529
 30
0.0
 11
1071.2106291557
 21
3253.6731202417
 31
0.0
  0
LINE
  5
1AB
330
1F
100
AcDbEntity
  8
0
  6
Continuous
 62
     7
100
AcDbLine
 10
1071.2106291557
 20
3253.6731202417
 30
0.0
 11
1076.0271621147
 21
3252.8028566512
 31
0.0
  0
LINE
  5
1AC
330
1F
100
AcDbEntity
  8
0
  6
Continuous
 62
     7
100
AcDbLine
 10
1076.0271621147
 20
3252.8028566512
 30
0.0
 11
1080.9539210742
 21
3252.2806807576
 31
0.0
  0
LINE
  5
1AD
330
1F
100
AcDbEntity
  8
0
  6
Continuous
 62
     7
100
AcDbLine
 10
1080.9539210742
 20
3252.2806807576
 30
0.0
 11
1085.9909060342
 21
3252.1065925608
 31
0.0
  0
LINE
  5
1AE
330
1F
100
AcDbEntity
  8
0
  6
Continuous
 62
     7
100
AcDbLine
 10
1085.9909060342
 20
3252.1065925608
 30
0.0
 11
1091.0274400718
 21
3252.280614239
 31
0.0
  0
LINE
  5
1AF
330
1F
100
AcDbEntity
  8
0
  6
Continuous
 62
     7
100
AcDbLine
 10
1091.0274400718
 20
3252.280614239
 30
0.0
 11
1095.9540487239
 21
3252.8027679597
 31
0.0
  0
LINE
  5
1B0
330
1F
100
AcDbEntity
  8
0
  6
Continuous
 62
     7
100
AcDbLine
 10
1095.9540487239
 20
3252.8027679597
 30
0.0
 11
1100.7707319904
 21
3253.673053723
 31
0.0
  0
LINE
  5
1B1
330
1F
100
AcDbEntity
  8
0
  6
Continuous
 62
     7
100
AcDbLine
 10
1100.7707319904
 20
3253.673053723
 30
0.0
 11
1105.4774898714
 21
3254.891471529
 31
0.0
  0
LINE
  5
1B2
330
1F
100
AcDbEntity
  8
0
  6
Continuous
 62
     7
100
AcDbLine
 10
1105.4774898714
 20
3254.891471529
 30
0.0
 11
1111.241070835
 21
3256.9308600365
 31
0.0
  0
LINE
  5
1B3
330
1F
100
AcDbEntity
  8
0
  6
Continuous
 62
     7
100
AcDbLine
 10
1111.241070835
 20
3256.9308600365
 30
0.0
 11
1116.5480061818
 21
3259.4617527924
 31
0.0
  0
LINE
  5
1B4
330
1F
100
AcDbEntity
  8
0
  6
Continuous
 62
     7
100
AcDbLine
 10
1116.5480061818
 20
3259.4617527924
 30
0.0
 11
1121.3982959117
 21
3262.4841497968
 31
0.0
  0
LINE
  5
1B5
330
1F
100
AcDbEntity
  8
0
  6
Continuous
 62
     7
100
AcDbLine
 10
1121.3982959117
 20
3262.4841497968
 30
0.0
 11
1125.6723145703
 21
3265.913513103
 31
0.0
  0
LINE
  5
1B6
330
1F
100
AcDbEntity
  8
0
  6
Continuous
 62
     7
100
AcDbLine
 10
1125.6723145703
 20
3265.913513103
 30
0.0
 11
1129.2515374288
 21
3269.6660830768
 31
0.0
  0
LINE
  5
1B7
330
1F
100
AcDbEntity
  8
0
  6
Continuous
 62
     7
100
AcDbLine
 10
1129.2515374288
 20
3269.6660830768
 30
0.0
 11
1132.1359644871
 21
3273.7418597182
 31
0.0
  0
LINE
  5
1B8
330
1F
100
AcDbEntity
  8
0
  6
Continuous
 62
     7
100
AcDbLine
 10
1132.1359644871
 20
3273.7418597182
 30
0.0
 11
1133.8589732643
 21
3277.0697210322
 31
0.0
  0
LINE
  5
1B9
330
1F
100
AcDbEntity
  8
0
  6
Continuous
 62
     7
100
AcDbLine
 10
1133.8589732643
 20
3277.0697210322
 30
0.0
 11
1134.5117411666
 21
3278.8761152267
 31
0.0
  0
LINE
  5
1BA
330
1F
100
AcDbEntity
  8
0
  6
Continuous
 62
     7
100
AcDbLine
 10
1136.9987547506
 20
3285.5346153579
 30
0.0
 11
1136.7961981849
 21
3283.7451101622
 31
0.0
  0
LINE
  5
1BB
330
1F
100
AcDbEntity
  8
0
  6
Continuous
 62
     7
100
AcDbLine
 10
1136.7961981849
 20
3283.7451101622
 30
0.0
 11
1136.1711896273
 21
3280.7522455912
 31
0.0
  0
LINE
  5
1BC
330
1F
100
AcDbEntity
  8
0
  6
Continuous
 62
     7
100
AcDbLine
 10
1136.1711896273
 20
3280.7522455912
 30
0.0
 11
1135.1942024349
 21
3277.8068586554
 31
0.0
  0
LINE
  5
1BD
330
1F
100
AcDbEntity
  8
0
  6
Continuous
 62
     7
100
AcDbLine
 10
1135.1942024349
 20
3277.8068586554
 30
0.0
 11
1133.8720894707
 21
3274.9296091278
 31
0.0
  0
LINE
  5
1BE
330
1F
100
AcDbEntity
  8
0
  6
Continuous
 62
     7
100
AcDbLine
 10
1133.8720894707
 20
3274.9296091278
 30
0.0
 11
1132.2141244073
 21
3272.1406788466
 31
0.0
  0
LINE
  5
1BF
330
1F
100
AcDbEntity
  8
0
  6
Continuous
 62
     7
100
AcDbLine
 10
1132.2141244073
 20
3272.1406788466
 30
0.0
 11
1130.2319366783
 21
3269.459630154
 31
0.0
  0
LINE
  5
1C0
330
1F
100
AcDbEntity
  8
0
  6
Continuous
 62
     7
100
AcDbLine
 10
1130.2319366783
 20
3269.459630154
 30
0.0
 11
1127.9394299065
 21
3266.90526868
 31
0.0
  0
LINE
  5
1C1
330
1F
100
AcDbEntity
  8
0
  6
Continuous
 62
     7
100
AcDbLine
 10
1127.9394299065
 20
3266.90526868
 30
0.0
 11
1125.3526843797
 21
3264.4955114353
 31
0.0
  0
LINE
  5
1C2
330
1F
100
AcDbEntity
  8
0
  6
Continuous
 62
     7
100
AcDbLine
 10
1125.3526843797
 20
3264.4955114353
 30
0.0
 11
1122.4898442592
 21
3262.2472611353
 31
0.0
  0
LINE
  5
1C3
330
1F
100
AcDbEntity
  8
0
  6
Continuous
 62
     7
100
AcDbLine
 10
1122.4898442592
 20
3262.2472611353
 30
0.0
 11
1119.3709903115
 21
3260.1762876407
 31
0.0
  0
LINE
  5
1C4
330
1F
100
AcDbEntity
  8
0
  6
Continuous
 62
     7
100
AcDbLine
 10
1119.3709903115
 20
3260.1762876407
 30
0.0
 11
1116.0179990562
 21
3258.2971173425
 31
0.0
  0
LINE
  5
1C5
330
1F
100
AcDbEntity
  8
0
  6
Continuous
 62
     7
100
AcDbLine
 10
1116.0179990562
 20
3258.2971173425
 30
0.0
 11
1112.4543893177
 21
3256.6229312701
 31
0.0
  0
LINE
  5
1C6
330
1F
100
AcDbEntity
  8
0
  6
Continuous
 62
     7
100
AcDbLine
 10
1112.4543893177
 20
3256.6229312701
 30
0.0
 11
1108.705157258
 21
3255.165472636
 31
0.0
  0
LINE
  5
1C7
330
1F
100
AcDbEntity
  8
0
  6
Continuous
 62
     7
100
AcDbLine
 10
1108.705157258
 20
3255.165472636
 30
0.0
 11
1104.7966010462
 21
3253.9349644653
 31
0.0
  0
LINE
  5
1C8
330
1F
100
AcDbEntity
  8
0
  6
Continuous
 62
     7
100
AcDbLine
 10
1104.7966010462
 20
3253.9349644653
 30
0.0
 11
1100.7561363957
 21
3252.9400378886
 31
0.0
  0
LINE
  5
1C9
330
1F
100
AcDbEntity
  8
0
  6
Continuous
 62
     7
100
AcDbLine
 10
1100.7561363957
 20
3252.9400378886
 30
0.0
 11
1096.612104263
 21
3252.1876716012
 31
0.0
  0
LINE
  5
1CA
330
1F
100
AcDbEntity
  8
0
  6
Continuous
 62
     7
100
AcDbLine
 10
1096.612104263
 20
3252.1876716012
 30
0.0
 11
1092.393572056
 21
3251.6831429118
 31
0.0
  0
LINE
  5
1CB
330
1F
100
AcDbEntity
  8
0
  6
Continuous
 62
     7
100
AcDbLine
 10
1092.393572056
 20
3251.6831429118
 30
0.0
 11
1088.1301297473
 21
3251.4299907267
 31
0.0
  0
LINE
  5
1CC
330
1F
100
AcDbEntity
  8
0
  6
Continuous
 62
     7
100
AcDbLine
 10
1088.1301297473
 20
3251.4299907267
 30
0.0
 11
1083.8516823212
 21
3251.4299907267
 31
0.0
  0
LINE
  5
1CD
330
1F
100
AcDbEntity
  8
0
  6
Continuous
 62
     7
100
AcDbLine
 10
1083.8516823212
 20
3251.4299907267
 30
0.0
 11
1079.5882400124
 21
3251.6831429118
 31
0.0
  0
LINE
  5
1CE
330
1F
100
AcDbEntity
  8
0
  6
Continuous
 62
     7
100
AcDbLine
 10
1079.5882400124
 20
3251.6831429118
 30
0.0
 11
1075.3697078055
 21
3252.1876716012
 31
0.0
  0
LINE
  5
1CF
330
1F
100
AcDbEntity
  8
0
  6
Continuous
 62
     7
100
AcDbLine
 10
1075.3697078055
 20
3252.1876716012
 30
0.0
 11
1071.2256756728
 21
3252.9400378886
 31
0.0
  0
LINE
  5
1D0
330
1F
100
AcDbEntity
  8
0
  6
Continuous
 62
     7
100
AcDbLine
 10
1071.2256756728
 20
3252.9400378886
 30
0.0
 11
1067.1852110223
 21
3253.9349644653
 31
0.0
  0
LINE
  5
1D1
330
1F
100
AcDbEntity
  8
0
  6
Continuous
 62
     7
100
AcDbLine
 10
1067.1852110223
 20
3253.9349644653
 30
0.0
 11
1063.2766548104
 21
3255.165472636
 31
0.0
  0
LINE
  5
1D2
330
1F
100
AcDbEntity
  8
0
  6
Continuous
 62
     7
100
AcDbLine
 10
1063.2766548104
 20
3255.165472636
 30
0.0
 11
1059.5274227507
 21
3256.6229312701
 31
0.0
  0
LINE
  5
1D3
330
1F
100
AcDbEntity
  8
0
  6
Continuous
 62
     7
100
AcDbLine
 10
1059.5274227507
 20
3256.6229312701
 30
0.0
 11
1055.9638130123
 21
3258.2971173425
 31
0.0
  0
LINE
  5
1D4
330
1F
100
AcDbEntity
  8
0
  6
Continuous
 62
     7
100
AcDbLine
 10
1055.9638130123
 20
3258.2971173425
 30
0.0
 11
1052.6108217569
 21
3260.1762876407
 31
0.0
  0
LINE
  5
1D5
330
1F
100
AcDbEntity
  8
0
  6
Continuous
 62
     7
100
AcDbLine
 10
1052.6108217569
 20
3260.1762876407
 30
0.0
 11
1049.4919678092
 21
3262.2472611353
 31
0.0
  0
LINE
  5
1D6
330
1F
100
AcDbEntity
  8
0
  6
Continuous
 62
     7
100
AcDbLine
 10
1049.4919678092
 20
3262.2472611353
 30
0.0
 11
1046.6291276887
 21
3264.4955114353
 31
0.0
  0
LINE
  5
1D7
330
1F
100
AcDbEntity
  8
0
  6
Continuous
 62
     7
100
AcDbLine
 10
1046.6291276887
 20
3264.4955114353
 30
0.0
 11
1044.042382162
 21
3266.90526868
 31
0.0
  0
LINE
  5
1D8
330
1F
100
AcDbEntity
  8
0
  6
Continuous
 62
     7
100
AcDbLine
 10
1044.042382162
 20
3266.90526868
 30
0.0
 11
1041.7498753901
 21
3269.459630154
 31
0.0
  0
LINE
  5
1D9
330
1F
100
AcDbEntity
  8
0
  6
Continuous
 62
     7
100
AcDbLine
 10
1041.7498753901
 20
3269.459630154
 30
0.0
 11
1039.7676876612
 21
3272.1406788466
 31
0.0
  0
LINE
  5
1DA
330
1F
100
AcDbEntity
  8
0
  6
Continuous
 62
     7
100
AcDbLine
 10
1039.7676876612
 20
3272.1406788466
 30
0.0
 11
1038.1097225977
 21
3274.9296091278
 31
0.0
  0
LINE
  5
1DB
330
1F
100
AcDbEntity
  8
0
  6
Continuous
 62
     7
100
AcDbLine
 10
1038.1097225977
 20
3274.9296091278
 30
0.0
 11
1036.7876096336
 21
3277.8068586554
 31
0.0
  0
LINE
  5
1DC
330
1F
100
AcDbEntity
  8
0
  6
Continuous
 62
     7
100
AcDbLine
 10
1036.7876096336
 20
3277.8068586554
 30
0.0
 11
1035.8106224411
 21
3280.7522455912
 31
0.0
  0
LINE
  5
1DD
330
1F
100
AcDbEntity
  8
0
  6
Continuous
 62
     7
100
AcDbLine
 10
1035.8106224411
 20
3280.7522455912
 30
0.0
 11
1035.1856138835
 21
3283.7451101622
 31
0.0
  0
LINE
  5
1DE
330
1F
100
AcDbEntity
  8
0
  6
Continuous
 62
     7
100
AcDbLine
 10
1035.1856138835
 20
3283.7451101622
 30
0.0
 11
1034.9735089608
 21
3285.6612618783
 31
0.0
  0
LINE
  5
1DF
330
1F
100
AcDbEntity
  8
0
  6
Continuous
 62
     7
100
AcDbLine
 10
1137.0760479374
 20
3281.8546572032
 30
0.0
 11
1137.0648441216
 21
3281.0981614941
 31
0.0
  0
LINE
  5
1E0
330
1F
100
AcDbEntity
  8
0
  6
Continuous
 62
     7
100
AcDbLine
 10
1137.0648441216
 20
3281.0981614941
 30
0.0
 11
1136.7961981849
 21
3278.0788120826
 31
0.0
  0
LINE
  5
1E1
330
1F
100
AcDbEntity
  8
0
  6
Continuous
 62
     7
100
AcDbLine
 10
1136.7961981849
 20
3278.0788120826
 30
0.0
 11
1136.1711896273
 21
3275.0859475115
 31
0.0
  0
LINE
  5
1E2
330
1F
100
AcDbEntity
  8
0
  6
Continuous
 62
     7
100
AcDbLine
 10
1136.1711896273
 20
3275.0859475115
 30
0.0
 11
1135.1942024349
 21
3272.1405605757
 31
0.0
  0
LINE
  5
1E3
330
1F
100
AcDbEntity
  8
0
  6
Continuous
 62
     7
100
AcDbLine
 10
1135.1942024349
 20
3272.1405605757
 30
0.0
 11
1133.8720894707
 21
3269.2633110481
 31
0.0
  0
LINE
  5
1E4
330
1F
100
AcDbEntity
  8
0
  6
Continuous
 62
     7
100
AcDbLine
 10
1133.8720894707
 20
3269.2633110481
 30
0.0
 11
1132.2141244073
 21
3266.474380767
 31
0.0
  0
LINE
  5
1E5
330
1F
100
AcDbEntity
  8
0
  6
Continuous
 62
     7
100
AcDbLine
 10
1132.2141244073
 20
3266.474380767
 30
0.0
 11
1130.2319366783
 21
3263.7933320743
 31
0.0
  0
LINE
  5
1E6
330
1F
100
AcDbEntity
  8
0
  6
Continuous
 62
     7
100
AcDbLine
 10
1130.2319366783
 20
3263.7933320743
 30
0.0
 11
1127.9394299065
 21
3261.2389706004
 31
0.0
  0
LINE
  5
1E7
330
1F
100
AcDbEntity
  8
0
  6
Continuous
 62
     7
100
AcDbLine
 10
1127.9394299065
 20
3261.2389706004
 30
0.0
 11
1125.3526843797
 21
3258.8292133556
 31
0.0
  0
LINE
  5
1E8
330
1F
100
AcDbEntity
  8
0
  6
Continuous
 62
     7
100
AcDbLine
 10
1125.3526843797
 20
3258.8292133556
 30
0.0
 11
1122.4898442592
 21
3256.5809630557
 31
0.0
  0
LINE
  5
1E9
330
1F
100
AcDbEntity
  8
0
  6
Continuous
 62
     7
100
AcDbLine
 10
1122.4898442592
 20
3256.5809630557
 30
0.0
 11
1119.3709903115
 21
3254.5099895611
 31
0.0
  0
LINE
  5
1EA
330
1F
100
AcDbEntity
  8
0
  6
Continuous
 62
     7
100
AcDbLine
 10
1119.3709903115
 20
3254.5099895611
 30
0.0
 11
1116.0179990562
 21
3252.6308192629
 31
0.0
  0
LINE
  5
1EB
330
1F
100
AcDbEntity
  8
0
  6
Continuous
 62
     7
100
AcDbLine
 10
1116.0179990562
 20
3252.6308192629
 30
0.0
 11
1112.4543893177
 21
3250.9566331905
 31
0.0
  0
LINE
  5
1EC
330
1F
100
AcDbEntity
  8
0
  6
Continuous
 62
     7
100
AcDbLine
 10
1112.4543893177
 20
3250.9566331905
 30
0.0
 11
1108.705157258
 21
3249.4991745564
 31
0.0
  0
LINE
  5
1ED
330
1F
100
AcDbEntity
  8
0
  6
Continuous
 62
     7
100
AcDbLine
 10
1108.705157258
 20
3249.4991745564
 30
0.0
 11
1104.7966010462
 21
3248.2686663857
 31
0.0
  0
LINE
  5
1EE
330
1F
100
AcDbEntity
  8
0
  6
Continuous
 62
     7
100
AcDbLine
 10
1104.7966010462
 20
3248.2686663857
 30
0.0
 11
1100.7561363957
 21
3247.273739809
 31
0.0
  0
LINE
  5
1EF
330
1F
100
AcDbEntity
  8
0
  6
Continuous
 62
     7
100
AcDbLine
 10
1100.7561363957
 20
3247.273739809
 30
0.0
 11
1096.612104263
 21
3246.5213735215
 31
0.0
  0
LINE
  5
1F0
330
1F
100
AcDbEntity
  8
0
  6
Continuous
 62
     7
100
AcDbLine
 10
1096.612104263
 20
3246.5213735215
 30
0.0
 11
1092.393572056
 21
3246.0168448321
 31
0.0
  0
LINE
  5
1F1
330
1F
100
AcDbEntity
  8
0
  6
Continuous
 62
     7
100
AcDbLine
 10
1092.393572056
 20
3246.0168448321
 30
0.0
 11
1088.1301297473
 21
3245.7636926471
 31
0.0
  0
LINE
  5
1F2
330
1F
100
AcDbEntity
  8
0
  6
Continuous
 62
     7
100
AcDbLine
 10
1088.1301297473
 20
3245.7636926471
 30
0.0
 11
1083.8516823212
 21
3245.7636926471
 31
0.0
  0
LINE
  5
1F3
330
1F
100
AcDbEntity
  8
0
  6
Continuous
 62
     7
100
AcDbLine
 10
1083.8516823212
 20
3245.7636926471
 30
0.0
 11
1079.5882400124
 21
3246.0168448321
 31
0.0
  0
LINE
  5
1F4
330
1F
100
AcDbEntity
  8
0
  6
Continuous
 62
     7
100
AcDbLine
 10
1079.5882400124
 20
3246.0168448321
 30
0.0
 11
1075.3697078055
 21
3246.5213735215
 31
0.0
  0
LINE
  5
1F5
330
1F
100
AcDbEntity
  8
0
  6
Continuous
 62
     7
100
AcDbLine
 10
1075.3697078055
 20
3246.5213735215
 30
0.0
 11
1071.2256756728
 21
3247.273739809
 31
0.0
  0
LINE
  5
1F6
330
1F
100
AcDbEntity
  8
0
  6
Continuous
 62
     7
100
AcDbLine
 10
1071.2256756728
 20
3247.273739809
 30
0.0
 11
1067.1852110223
 21
3248.2686663857
 31
0.0
  0
LINE
  5
1F7
330
1F
100
AcDbEntity
  8
0
  6
Continuous
 62
     7
100
AcDbLine
 10
1067.1852110223
 20
3248.2686663857
 30
0.0
 11
1063.2766548104
 21
3249.4991745564
 31
0.0
  0
LINE
  5
1F8
330
1F
100
AcDbEntity
  8
0
  6
Continuous
 62
     7
100
AcDbLine
 10
1063.2766548104
 20
3249.4991745564
 30
0.0
 11
1059.5274227507
 21
3250.9566331905
 31
0.0
  0
LINE
  5
1F9
330
1F
100
AcDbEntity
  8
0
  6
Continuous
 62
     7
100
AcDbLine
 10
1059.5274227507
 20
3250.9566331905
 30
0.0
 11
1055.9638130123
 21
3252.6308192629
 31
0.0
  0
LINE
  5
1FA
330
1F
100
AcDbEntity
  8
0
  6
Continuous
 62
     7
100
AcDbLine
 10
1055.9638130123
 20
3252.6308192629
 30
0.0
 11
1052.6108217569
 21
3254.5099895611
 31
0.0
  0
LINE
  5
1FB
330
1F
100
AcDbEntity
  8
0
  6
Continuous
 62
     7
100
AcDbLine
 10
1052.6108217569
 20
3254.5099895611
 30
0.0
 11
1049.4919678092
 21
3256.5809630557
 31
0.0
  0
LINE
  5
1FC
330
1F
100
AcDbEntity
  8
0
  6
Continuous
 62
     7
100
AcDbLine
 10
1049.4919678092
 20
3256.5809630557
 30
0.0
 11
1046.6291276887
 21
3258.8292133556
 31
0.0
  0
LINE
  5
1FD
330
1F
100
AcDbEntity
  8
0
  6
Continuous
 62
     7
100
AcDbLine
 10
1046.6291276887
 20
3258.8292133556
 30
0.0
 11
1044.042382162
 21
3261.2389706004
 31
0.0
  0
LINE
  5
1FE
330
1F
100
AcDbEntity
  8
0
  6
Continuous
 62
     7
100
AcDbLine
 10
1044.042382162
 20
3261.2389706004
 30
0.0
 11
1041.7498753901
 21
3263.7933320743
 31
0.0
  0
LINE
  5
1FF
330
1F
100
AcDbEntity
  8
0
  6
Continuous
 62
     7
100
AcDbLine
 10
1041.7498753901
 20
3263.7933320743
 30
0.0
 11
1039.7676876612
 21
3266.474380767
 31
0.0
  0
LINE
  5
200
330
1F
100
AcDbEntity
  8
0
  6
Continuous
 62
     7
100
AcDbLine
 10
1039.7676876612
 20
3266.474380767
 30
0.0
 11
1038.1097225977
 21
3269.2633110481
 31
0.0
  0
LINE
  5
201
330
1F
100
AcDbEntity
  8
0
  6
Continuous
 62
     7
100
AcDbLine
 10
1038.1097225977
 20
3269.2633110481
 30
0.0
 11
1036.7876096336
 21
3272.1405605757
 31
0.0
  0
LINE
  5
202
330
1F
100
AcDbEntity
  8
0
  6
Continuous
 62
     7
100
AcDbLine
 10
1036.7876096336
 20
3272.1405605757
 30
0.0
 11
1035.8106224411
 21
3275.0859475115
 31
0.0
  0
LINE
  5
203
330
1F
100
AcDbEntity
  8
0
  6
Continuous
 62
     7
100
AcDbLine
 10
1035.8106224411
 20
3275.0859475115
 30
0.0
 11
1035.1856138835
 21
3278.0788120826
 31
0.0
  0
LINE
  5
204
330
1F
100
AcDbEntity
  8
0
  6
Continuous
 62
     7
100
AcDbLine
 10
1035.1856138835
 20
3278.0788120826
 30
0.0
 11
1034.9169679469
 21
3281.0981614941
 31
0.0
  0
LINE
  5
205
330
1F
100
AcDbEntity
  8
0
  6
Continuous
 62
     7
100
AcDbLine
 10
1034.9169679469
 20
3281.0981614941
 30
0.0
 11
1034.905764131
 21
3281.8546572032
 31
0.0
  0
LWPOLYLINE
  5
206
330
1F
100
AcDbEntity
  8
0
  6
Continuous
 62
     7
100
AcDbPolyline
 90
        5
 70
   128
 43
0.0
 10
1030.7483673096
 20
3324.3370888743
 10
1030.3830629395
 20
3307.6442151904
 10
1031.6273164545
 20
3296.9140951493
 10
1034.2690644793
 20
3286.9807182828
 10
1037.2754451876
 20
3278.2389074987
  0
LWPOLYLINE
  5
207
330
1F
100
AcDbEntity
  8
0
  6
Continuous
 62
     7
100
AcDbPolyline
 90
        5
 70
   128
 43
0.0
 10
1134.4051361084
 20
3278.2393419838
 10
1138.9560497807
 20
3292.2323000634
 10
1140.9547094758
 20
3302.7414105284
 10
1141.3484106407
 20
3313.5516546339
 10
1140.9323147752
 20
3324.3370888743
  0
LWPOLYLINE
  5
208
330
1F
100
AcDbEntity
  8
0
  6
Continuous
 62
     7
100
AcDbPolyline
 90
        3
 70
   128
 43
0.0
 10
1065.0310516357
 20
3335.7697698489
 10
1097.5199110215
 20
3337.2056253423
 10
1119.6704306016
 20
3335.7697698489
  0
LWPOLYLINE
  5
209
330
1F
100
AcDbEntity
  8
0
  6
Continuous
 62
     7
100
AcDbPolyline
 90
        3
 70
   128
 43
0.0
 10
1755.166053772
 20
3294.321372193
 10
1753.8751012993
 20
3292.5682620805
 10
1752.1618463752
 20
3292.3180332948
  0
LWPOLYLINE
  5
20A
330
1F
100
AcDbEntity
  8
0
  6
Continuous
 62
     7
100
AcDbPolyline
 90
        5
 70
   128
 43
0.0
 10
1822.9904174805
 20
3221.4893075752
 10
1845.5994420071
 20
3240.9585298996
 10
1856.4715008658
 20
3256.8476259042
 10
1862.3054670013
 20
3275.2364106297
 10
1865.3504751489
 20
3294.321372193
  0
LWPOLYLINE
  5
20B
330
1F
100
AcDbEntity
  8
0
  6
Continuous
 62
     7
100
AcDbPolyline
 90
        3
 70
   128
 43
0.0
 10
1746.4952468872
 20
3286.6517188713
 10
1742.9854094061
 20
3276.2635504293
 10
1740.1418129862
 20
3268.1681856156
  0
LWPOLYLINE
  5
20C
330
1F
100
AcDbEntity
  8
0
  6
Continuous
 62
     7
100
AcDbPolyline
 90
        5
 70
   128
 43
0.0
 10
1740.140914917
 20
3224.3046777022
 10
1766.3969768128
 20
3221.5262087235
 10
1783.3607643787
 20
3219.6670354214
 10
1800.3387472074
 20
3217.7724549696
 10
1817.312699607
 20
3215.8345839039
  0
LWPOLYLINE
  5
20D
330
1F
100
AcDbEntity
  8
0
  6
Continuous
 62
     7
100
AcDbPolyline
 90
        3
 70
   128
 43
0.0
 10
1125.48828125
 20
2886.0151795726
 10
1124.4767680279
 20
2884.4817758089
 10
1123.4317083275
 20
2883.3124307306
  0
LWPOLYLINE
  5
20E
330
1F
100
AcDbEntity
  8
0
  6
Continuous
 62
     7
100
AcDbPolyline
 90
        3
 70
   128
 43
0.0
 10
1123.3263015747
 20
2882.2968011422
 10
1125.4636440403
 20
2884.6188095384
 10
1126.4449367464
 20
2886.5501645228
  0
LWPOLYLINE
  5
20F
330
1F
100
AcDbEntity
  8
0
  6
Continuous
 62
     7
100
AcDbPolyline
 90
        3
 70
   128
 43
0.0
 10
1109.3635559082
 20
2886.1575124164
 10
1107.5297284436
 20
2886.2672107549
 10
1105.9945160497
 20
2886.5875864648
  0
LWPOLYLINE
  5
210
330
1F
100
AcDbEntity
  8
0
  6
Continuous
 62
     7
100
AcDbPolyline
 90
        3
 70
   128
 43
0.0
 10
1105.3590774536
 20
2886.0409191571
 10
1108.26160077
 20
2885.4666398524
 10
1110.3050899739
 20
2885.5969210029
  0
LWPOLYLINE
  5
211
330
1F
100
AcDbEntity
  8
0
  6
Continuous
 62
     7
100
AcDbPolyline
 90
        3
 70
   128
 43
0.0
 10
1134.9859237671
 20
2896.7759043467
 10
1135.2624027668
 20
2895.9557520851
 10
1135.4639866924
 20
2895.2792033857
  0
LWPOLYLINE
  5
212
330
1F
100
AcDbEntity
  8
0
  6
Continuous
 62
     7
100
AcDbPolyline
 90
        3
 70
   128
 43
0.0
 10
1133.6736679077
 20
2899.9087272371
 10
1134.4965198401
 20
2898.2656251349
 10
1134.9866725335
 20
2896.7759043467
  0
LWPOLYLINE
  5
213
330
1F
100
AcDbEntity
  8
0
  6
Continuous
 62
     7
100
AcDbPolyline
 90
        3
 70
   128
 43
0.0
 10
1135.8118057251
 20
2896.1963781232
 10
1134.8681231743
 20
2899.1949946241
 10
1133.6893270282
 20
2901.004303601
  0
LWPOLYLINE
  5
214
330
1F
100
AcDbEntity
  8
0
  6
Continuous
 62
     7
100
AcDbPolyline
 90
        3
 70
   128
 43
0.0
 10
1101.4242172241
 20
2900.1933929247
 10
1100.6024406714
 20
2901.8364950269
 10
1100.112287978
 20
2903.3262158151
  0
LWPOLYLINE
  5
215
330
1F
100
AcDbEntity
  8
0
  6
Continuous
 62
     7
100
AcDbPolyline
 90
        3
 70
   128
 43
0.0
 10
1099.3328094482
 20
2903.5583631366
 10
1100.2835518571
 20
2900.7860174661
 10
1101.4096334833
 20
2899.0978165607
  0
LWPOLYLINE
  5
216
330
1F
100
AcDbEntity
  8
0
  6
Continuous
 62
     7
100
AcDbPolyline
 90
        3
 70
   128
 43
0.0
 10
1105.9942245483
 20
2886.5875864648
 10
1107.899912847
 20
2886.236401715
 10
1109.3636849603
 20
2886.1575124164
  0
LWPOLYLINE
  5
217
330
1F
100
AcDbEntity
  8
0
  6
Continuous
 62
     7
100
AcDbPolyline
 90
        3
 70
   128
 43
0.0
 10
1100.1119613647
 20
2903.3262158151
 10
1100.7608514619
 20
2901.5005014095
 10
1101.4244173819
 20
2900.1933929247
  0
LWPOLYLINE
  5
218
330
1F
100
AcDbEntity
  8
0
  6
Continuous
 62
     7
100
AcDbPolyline
 90
        3
 70
   128
 43
0.0
 10
1134.9859237671
 20
2896.7759043467
 10
1134.3381090496
 20
2898.6016187523
 10
1133.6745431296
 20
2899.9087272371
  0
LWPOLYLINE
  5
219
330
1F
100
AcDbEntity
  8
0
  6
Continuous
 62
     7
100
AcDbPolyline
 90
        3
 70
   128
 43
0.0
 10
1123.4312057495
 20
2883.3124307306
 10
1124.6885714158
 20
2884.7869492709
 10
1125.4887478342
 20
2886.0151795726
  0
LWPOLYLINE
  5
21A
330
1F
100
AcDbEntity
  8
0
  6
Continuous
 62
     7
100
AcDbPolyline
 90
        3
 70
   128
 43
0.0
 10
1126.4133453369
 20
2887.9350468464
 10
1127.1001967905
 20
2890.3771355944
 10
1127.2390848048
 20
2892.2644023926
  0
LWPOLYLINE
  5
21B
330
1F
100
AcDbEntity
  8
0
  6
Continuous
 62
     7
100
AcDbPolyline
 90
        3
 70
   128
 43
0.0
 10
1116.2509918213
 20
2887.7993979732
 10
1113.8211388723
 20
2886.6812697326
 10
1111.5965315485
 20
2886.2696035133
  0
LWPOLYLINE
  5
21C
330
1F
100
AcDbEntity
  8
0
  6
Continuous
 62
     7
100
AcDbPolyline
 90
        3
 70
   128
 43
0.0
 10
1111.4883422852
 20
2886.3167083008
 10
1114.0215626595
 20
2886.9698477049
 10
1115.7671549003
 20
2887.8340367321
  0
LWPOLYLINE
  5
21D
330
1F
100
AcDbEntity
  8
0
  6
Continuous
 62
     7
100
AcDbPolyline
 90
        3
 70
   128
 43
0.0
 10
1106.2002182007
 20
2895.1081410521
 10
1104.0707678486
 20
2896.6289721356
 10
1102.6379144133
 20
2898.3157366048
  0
LWPOLYLINE
  5
21E
330
1F
100
AcDbEntity
  8
0
  6
Continuous
 62
     7
100
AcDbPolyline
 90
        3
 70
   128
 43
0.0
 10
1102.6239395142
 20
2898.4327215353
 10
1104.3962576288
 20
2896.6168591807
 10
1105.9612346126
 20
2895.5529452329
  0
LWPOLYLINE
  5
21F
330
1F
100
AcDbEntity
  8
0
  6
Continuous
 62
     7
100
AcDbPolyline
 90
        3
 70
   128
 43
0.0
 10
1132.4739456177
 20
2901.6693986265
 10
1130.6421012839
 20
2903.5364000081
 10
1129.0208955123
 20
2904.6160327196
  0
LWPOLYLINE
  5
220
330
1F
100
AcDbEntity
  8
0
  6
Continuous
 62
     7
100
AcDbPolyline
 90
        3
 70
   128
 43
0.0
 10
1127.5043487549
 20
2892.694109506
 10
1127.2524515539
 20
2890.0891966986
 10
1126.5080973911
 20
2888.0049269891
  0
LWPOLYLINE
  5
221
330
1F
100
AcDbEntity
  8
0
  6
Continuous
 62
     7
100
AcDbPolyline
 90
        3
 70
   128
 43
0.0
 10
1128.8080215454
 20
2905.0525565964
 10
1130.9922290325
 20
2903.5071169031
 10
1132.4610460983
 20
2901.786383557
  0
LWPOLYLINE
  5
222
330
1F
100
AcDbEntity
  8
0
  6
Continuous
 62
     7
100
AcDbPolyline
 90
        3
 70
   128
 43
0.0
 10
1113.0208969116
 20
2885.8984660245
 10
1115.3568125968
 20
2886.7115552867
 10
1116.9881128069
 20
2887.6070571716
  0
LWPOLYLINE
  5
223
330
1F
100
AcDbEntity
  8
0
  6
Continuous
 62
     7
100
AcDbPolyline
 90
        3
 70
   128
 43
0.0
 10
1127.5415420532
 20
2889.0534870117
 10
1128.0054964519
 20
2891.4824017891
 10
1128.0456191755
 20
2893.3429001547
  0
LWPOLYLINE
  5
224
330
1F
100
AcDbEntity
  8
0
  6
Continuous
 62
     7
100
AcDbPolyline
 90
        3
 70
   128
 43
0.0
 10
1103.0282974243
 20
2896.8960390938
 10
1104.9007964005
 20
2895.2802135786
 10
1106.4919738869
 20
2894.3152170979
  0
LWPOLYLINE
  5
225
330
1F
100
AcDbEntity
  8
0
  6
Continuous
 62
     7
100
AcDbPolyline
 90
        3
 70
   128
 43
0.0
 10
1132.0695877075
 20
2903.2060810681
 10
1130.1981641109
 20
2904.8219065832
 10
1128.6069866244
 20
2905.786903064
  0
LWPOLYLINE
  5
226
330
1F
100
AcDbEntity
  8
0
  6
Continuous
 62
     7
100
AcDbPolyline
 90
        3
 70
   128
 43
0.0
 10
1107.515335083
 20
2892.2726593817
 10
1105.0627479133
 20
2890.6360651335
 10
1101.4020872628
 20
2888.1936415757
  0
LWPOLYLINE
  5
227
330
1F
100
AcDbEntity
  8
0
  6
Continuous
 62
     7
100
AcDbPolyline
 90
        3
 70
   128
 43
0.0
 10
1106.5149307251
 20
2893.7724751188
 10
1104.062058247
 20
2892.1358808656
 10
1100.4013976016
 20
2889.6934573002
  0
LWPOLYLINE
  5
228
330
1F
100
AcDbEntity
  8
0
  6
Continuous
 62
     7
100
AcDbPolyline
 90
        3
 70
   128
 43
0.0
 10
1129.3020248413
 20
2895.2507051006
 10
1131.9464712293
 20
2893.9447301384
 10
1135.8920024044
 20
2891.9957168034
  0
LWPOLYLINE
  5
229
330
1F
100
AcDbEntity
  8
0
  6
Continuous
 62
     7
100
AcDbPolyline
 90
        3
 70
   128
 43
0.0
 10
1128.5037994385
 20
2893.6341745569
 10
1131.1364987501
 20
2892.3338501251
 10
1135.0934687098
 20
2890.3791862597
  0
LWPOLYLINE
  5
22A
330
1F
100
AcDbEntity
  8
0
  6
Continuous
 62
     7
100
AcDbPolyline
 90
        3
 70
   128
 43
0.0
 10
1133.9159011841
 20
2892.9714300813
 10
1134.5291387566
 20
2893.1586126317
 10
1134.9801052304
 20
2893.3459752996
  0
LWPOLYLINE
  5
22B
330
1F
100
AcDbEntity
  8
0
  6
Continuous
 62
     7
100
AcDbPolyline
 90
        3
 70
   128
 43
0.0
 10
1134.8533630371
 20
2896.9018957814
 10
1133.8910240712
 20
2896.5314487111
 10
1133.0955472255
 20
2896.2913272476
  0
LWPOLYLINE
  5
22C
330
1F
100
AcDbEntity
  8
0
  6
Continuous
 62
     7
100
AcDbPolyline
 90
        3
 70
   128
 43
0.0
 10
1103.1436920166
 20
2893.0597685163
 10
1101.4840959958
 20
2893.2390678987
 10
1100.2048409554
 20
2893.4775716705
  0
LWPOLYLINE
  5
22D
330
1F
100
AcDbEntity
  8
0
  6
Continuous
 62
     7
100
AcDbPolyline
 90
        5
 70
   128
 43
0.0
 10
1030.8990478516
 20
3324.9386571786
 10
1030.5334550156
 20
3308.2457834947
 10
1031.7777085306
 20
3297.5156634535
 10
1034.4194565554
 20
3287.5822865871
 10
1037.4258372637
 20
3278.8404758029
  0
LWPOLYLINE
  5
22E
330
1F
100
AcDbEntity
  8
0
  6
Continuous
 62
     7
100
AcDbPolyline
 90
        5
 70
   128
 43
0.0
 10
1134.5558166504
 20
3278.8409102881
 10
1139.1064418568
 20
3292.8338683677
 10
1141.1051015519
 20
3303.3429788326
 10
1141.4988027168
 20
3314.1532229382
 10
1141.0827068513
 20
3324.9386571786
  0
ENDSEC
  0
SECTION
  2
OBJECTS
  0
DICTIONARY
  5
C
330
0
100
AcDbDictionary
281
     1
  3
ACAD_GROUP
350
D
  3
ACAD_LAYOUT
350
1A
  3
ACAD_MLINESTYLE
350
17
  3
ACAD_PLOTSETTINGS
350
19
  3
ACAD_PLOTSTYLENAME
350
E
  3
ACAD_SCALELIST
350
47
  3
DWGPROPS
350
22F
  0
DICTIONARY
  5
D
102
{ACAD_REACTORS
330
C
102
}
330
C
100
AcDbDictionary
281
     1
  0
DICTIONARY
  5
1A
102
{ACAD_REACTORS
330
C
102
}
330
C
100
AcDbDictionary
281
     1
  3
Layout1
350
1E
  3
Layout2
350
26
  3
Model
350
22
  0
DICTIONARY
  5
17
102
{ACAD_REACTORS
330
C
102
}
330
C
100
AcDbDictionary
281
     1
  3
Standard
350
18
  0
DICTIONARY
  5
19
102
{ACAD_REACTORS
330
C
102
}
330
C
100
AcDbDictionary
281
     1
  0
ACDBDICTIONARYWDFLT
  5
E
102
{ACAD_REACTORS
330
C
102
}
330
C
100
AcDbDictionary
281
     1
  3
Normal
350
F
100
AcDbDictionaryWithDefault
340
F
  0
DICTIONARY
  5
47
102
{ACAD_REACTORS
330
C
102
}
330
C
100
AcDbDictionary
281
     1
  3
A0
350
48
  3
A1
350
49
  3
A2
350
4A
  3
A3
350
4B
  3
A4
350
4C
  3
A5
350
4D
  3
A6
350
4E
  3
A7
350
4F
  3
A8
350
50
  3
A9
350
51
  3
B0
350
52
  3
B1
350
53
  3
B2
350
54
  3
B3
350
55
  3
B4
350
56
  3
B5
350
57
  3
B6
350
58
  3
B7
350
59
  3
B8
350
5A
  3
B9
350
5B
  3
C0
350
5C
  3
C1
350
5D
  3
C2
350
5E
  3
C3
350
5F
  3
C4
350
60
  3
C5
350
61
  3
C6
350
62
  3
C7
350
63
  3
C8
350
64
  3
C9
350
65
  3
D0
350
66
  3
D1
350
67
  3
D2
350
68
  0
XRECORD
  5
22F
102
{ACAD_REACTORS
330
C
102
}
330
C
100
AcDbXrecord
280
     1
  1
DWGPROPS COOKIE
  2

  3

  4

  6

  7

  8
radek.stransky
  9

300
=
301
=
302
=
303
=
304
=
305
=
306
=
307
=
308
=
309
=
 40
0.0
 41
2459094.518306053
 42
2459094.518336377
  1

 90
        0
  0
LAYOUT
  5
1E
102
{ACAD_REACTORS
330
1A
102
}
330
1A
100
AcDbPlotSettings
  1

  2
none_device
  4

  6

 40
0.0
 41
0.0
 42
0.0
 43
0.0
 44
0.0
 45
0.0
 46
0.0
 47
0.0
 48
0.0
 49
0.0
140
0.0
141
0.0
142
1.0
143
1.0
 70
   688
 72
     1
 73
     0
 74
     5
  7

 75
    16
147
1.0
148
0.0
149
0.0
100
AcDbLayout
  1
Layout1
 70
     1
 71
     1
 10
0.0
 20
0.0
 11
420.0
 21
297.0
 12
0.0
 22
0.0
 32
0.0
 14
1.0000000000E+20
 24
1.0000000000E+20
 34
1.0000000000E+20
 15
-1.0000000000E+20
 25
-1.0000000000E+20
 35
-1.0000000000E+20
146
0.0
 13
0.0
 23
0.0
 33
0.0
 16
1.0
 26
0.0
 36
0.0
 17
0.0
 27
1.0
 37
0.0
 76
     0
330
1B
  0
LAYOUT
  5
26
102
{ACAD_REACTORS
330
1A
102
}
330
1A
100
AcDbPlotSettings
  1

  2
none_device
  4

  6

 40
0.0
 41
0.0
 42
0.0
 43
0.0
 44
0.0
 45
0.0
 46
0.0
 47
0.0
 48
0.0
 49
0.0
140
0.0
141
0.0
142
1.0
143
1.0
 70
   688
 72
     1
 73
     0
 74
     5
  7

 75
    16
147
1.0
148
0.0
149
0.0
100
AcDbLayout
  1
Layout2
 70
     1
 71
     2
 10
0.0
 20
0.0
 11
0.0
 21
0.0
 12
0.0
 22
0.0
 32
0.0
 14
0.0
 24
0.0
 34
0.0
 15
0.0
 25
0.0
 35
0.0
146
0.0
 13
0.0
 23
0.0
 33
0.0
 16
1.0
 26
0.0
 36
0.0
 17
0.0
 27
1.0
 37
0.0
 76
     0
330
23
  0
LAYOUT
  5
22
102
{ACAD_REACTORS
330
1A
102
}
330
1A
100
AcDbPlotSettings
  1

  2
none_device
  4
ANSI_A_(11.00_x_8.50_Inches)
  6

 40
6.35
 41
19.05
 42
6.35000508
 43
19.05000254
 44
279.4
 45
215.9
 46
4.4742636675
 47
-214.3353091431
 48
0.0
 49
0.0
140
0.0
141
0.0
142
0.0036516693
143
1.0
 70
  1696
 72
     0
 73
     0
 74
     0
  7

 75
     0
147
0.0179189148
148
-1300.4909072572
149
0.0
100
AcDbLayout
  1
Model
 70
     1
 71
     0
 10
0.0
 20
0.0
 11
420.0
 21
297.0
 12
0.0
 22
0.0
 32
0.0
 14
809.5398001937
 24
2117.0860144816
 34
0.0
 15
1969.3798705301
 25
4421.5115718037
 35
0.0
146
0.0
 13
0.0
 23
0.0
 33
0.0
 16
1.0
 26
0.0
 36
0.0
 17
0.0
 27
1.0
 37
0.0
 76
     0
330
1F
331
29
  0
MLINESTYLE
  5
18
102
{ACAD_REACTORS
330
17
102
}
330
17
100
AcDbMlineStyle
  2
Standard
 70
     0
  3

 62
   256
 51
90.0
 52
90.0
 71
     2
 49
0.5
 62
   256
  6
BYLAYER
 49
-0.5
 62
   256
  6
BYLAYER
  0
ACDBPLACEHOLDER
  5
F
102
{ACAD_REACTORS
330
E
102
}
330
E
  0
SCALE
  5
48
102
{ACAD_REACTORS
330
47
102
}
330
47
100
AcDbScale
 70
     0
300
1:1
140
1.0
141
1.0
290
     1
  0
SCALE
  5
49
102
{ACAD_REACTORS
330
47
102
}
330
47
100
AcDbScale
 70
     0
300
1:2
140
1.0
141
2.0
290
     0
  0
SCALE
  5
4A
102
{ACAD_REACTORS
330
47
102
}
330
47
100
AcDbScale
 70
     0
300
1:4
140
1.0
141
4.0
290
     0
  0
SCALE
  5
4B
102
{ACAD_REACTORS
330
47
102
}
330
47
100
AcDbScale
 70
     0
300
1:5
140
1.0
141
5.0
290
     0
  0
SCALE
  5
4C
102
{ACAD_REACTORS
330
47
102
}
330
47
100
AcDbScale
 70
     0
300
1:8
140
1.0
141
8.0
290
     0
  0
SCALE
  5
4D
102
{ACAD_REACTORS
330
47
102
}
330
47
100
AcDbScale
 70
     0
300
1:10
140
1.0
141
10.0
290
     0
  0
SCALE
  5
4E
102
{ACAD_REACTORS
330
47
102
}
330
47
100
AcDbScale
 70
     0
300
1:16
140
1.0
141
16.0
290
     0
  0
SCALE
  5
4F
102
{ACAD_REACTORS
330
47
102
}
330
47
100
AcDbScale
 70
     0
300
1:20
140
1.0
141
20.0
290
     0
  0
SCALE
  5
50
102
{ACAD_REACTORS
330
47
102
}
330
47
100
AcDbScale
 70
     0
300
1:30
140
1.0
141
30.0
290
     0
  0
SCALE
  5
51
102
{ACAD_REACTORS
330
47
102
}
330
47
100
AcDbScale
 70
     0
300
1:40
140
1.0
141
40.0
290
     0
  0
SCALE
  5
52
102
{ACAD_REACTORS
330
47
102
}
330
47
100
AcDbScale
 70
     0
300
1:50
140
1.0
141
50.0
290
     0
  0
SCALE
  5
53
102
{ACAD_REACTORS
330
47
102
}
330
47
100
AcDbScale
 70
     0
300
1:100
140
1.0
141
100.0
290
     0
  0
SCALE
  5
54
102
{ACAD_REACTORS
330
47
102
}
330
47
100
AcDbScale
 70
     0
300
2:1
140
2.0
141
1.0
290
     0
  0
SCALE
  5
55
102
{ACAD_REACTORS
330
47
102
}
330
47
100
AcDbScale
 70
     0
300
4:1
140
4.0
141
1.0
290
     0
  0
SCALE
  5
56
102
{ACAD_REACTORS
330
47
102
}
330
47
100
AcDbScale
 70
     0
300
8:1
140
8.0
141
1.0
290
     0
  0
SCALE
  5
57
102
{ACAD_REACTORS
330
47
102
}
330
47
100
AcDbScale
 70
     0
300
10:1
140
10.0
141
1.0
290
     0
  0
SCALE
  5
58
102
{ACAD_REACTORS
330
47
102
}
330
47
100
AcDbScale
 70
     0
300
100:1
140
100.0
141
1.0
290
     0
  0
SCALE
  5
59
102
{ACAD_REACTORS
330
47
102
}
330
47
100
AcDbScale
 70
     0
300
1/128" = 1'-0"
140
0.0078125
141
12.0
290
     0
  0
SCALE
  5
5A
102
{ACAD_REACTORS
330
47
102
}
330
47
100
AcDbScale
 70
     0
300
1/64" = 1'-0"
140
0.015625
141
12.0
290
     0
  0
SCALE
  5
5B
102
{ACAD_REACTORS
330
47
102
}
330
47
100
AcDbScale
 70
     0
300
1/32" = 1'-0"
140
0.03125
141
12.0
290
     0
  0
SCALE
  5
5C
102
{ACAD_REACTORS
330
47
102
}
330
47
100
AcDbScale
 70
     0
300
1/16" = 1'-0"
140
0.0625
141
12.0
290
     0
  0
SCALE
  5
5D
102
{ACAD_REACTORS
330
47
102
}
330
47
100
AcDbScale
 70
     0
300
3/32" = 1'-0"
140
0.09375
141
12.0
290
     0
  0
SCALE
  5
5E
102
{ACAD_REACTORS
330
47
102
}
330
47
100
AcDbScale
 70
     0
300
1/8" = 1'-0"
140
0.125
141
12.0
290
     0
  0
SCALE
  5
5F
102
{ACAD_REACTORS
330
47
102
}
330
47
100
AcDbScale
 70
     0
300
3/16" = 1'-0"
140
0.1875
141
12.0
290
     0
  0
SCALE
  5
60
102
{ACAD_REACTORS
330
47
102
}
330
47
100
AcDbScale
 70
     0
300
1/4" = 1'-0"
140
0.25
141
12.0
290
     0
  0
SCALE
  5
61
102
{ACAD_REACTORS
330
47
102
}
330
47
100
AcDbScale
 70
     0
300
3/8" = 1'-0"
140
0.375
141
12.0
290
     0
  0
SCALE
  5
62
102
{ACAD_REACTORS
330
47
102
}
330
47
100
AcDbScale
 70
     0
300
1/2" = 1'-0"
140
0.5
141
12.0
290
     0
  0
SCALE
  5
63
102
{ACAD_REACTORS
330
47
102
}
330
47
100
AcDbScale
 70
     0
300
3/4" = 1'-0"
140
0.75
141
12.0
290
     0
  0
SCALE
  5
64
102
{ACAD_REACTORS
330
47
102
}
330
47
100
AcDbScale
 70
     0
300
1" = 1'-0"
140
1.0
141
12.0
290
     0
  0
SCALE
  5
65
102
{ACAD_REACTORS
330
47
102
}
330
47
100
AcDbScale
 70
     0
300
1-1/2" = 1'-0"
140
1.5
141
12.0
290
     0
  0
SCALE
  5
66
102
{ACAD_REACTORS
330
47
102
}
330
47
100
AcDbScale
 70
     0
300
3" = 1'-0"
140
3.0
141
12.0
290
     0
  0
SCALE
  5
67
102
{ACAD_REACTORS
330
47
102
}
330
47
100
AcDbScale
 70
     0
300
6" = 1'-0"
140
6.0
141
12.0
290
     0
  0
SCALE
  5
68
102
{ACAD_REACTORS
330
47
102
}
330
47
100
AcDbScale
 70
     0
300
1'-0" = 1'-0"
140
12.0
141
12.0
290
     0
  0
ENDSEC
  0
EOF
