  0
SECTION
  2
HEADER
  9
$ACADVER
  1
AC1015
  9
$ACADMAINTVER
 70
     6
  9
$DWGCODEPAGE
  3
ANSI_1250
  9
$INSBASE
 10
0.0
 20
0.0
 30
0.0
  9
$EXTMIN
 10
0.0
 20
0.0
 30
0.0
  9
$EXTMAX
 10
20000.0
 20
10000.0
 30
0.0
  9
$LIMMIN
 10
0.0
 20
0.0
  9
$LIMMAX
 10
20000.0
 20
10000.0
  9
$ORTHOMODE
 70
     0
  9
$REGENMODE
 70
     1
  9
$FILLMODE
 70
     1
  9
$QTEXTMODE
 70
     0
  9
$MIRRTEXT
 70
     1
  9
$LTSCALE
 40
1.0
  9
$ATTMODE
 70
     1
  9
$TEXTSIZE
 40
2.0
  9
$TRACEWID
 40
1.0
  9
$TEXTSTYLE
  7
Standard
  9
$CLAYER
  8
0
  9
$CELTYPE
  6
ByLayer
  9
$CECOLOR
 62
   256
  9
$CELTSCALE
 40
1.0
  9
$DISPSILH
 70
     0
  9
$DIMSCALE
 40
1.0
  9
$DIMASZ
 40
2.0
  9
$DIMEXO
 40
1.0
  9
$DIMDLI
 40
3.75
  9
$DIMRND
 40
0.0
  9
$DIMDLE
 40
0.0
  9
$DIMEXE
 40
1.0
  9
$DIMTP
 40
0.0
  9
$DIMTM
 40
0.0
  9
$DIMTXT
 40
2.0
  9
$DIMCEN
 40
2.5
  9
$DIMTSZ
 40
0.0
  9
$DIMTOL
 70
     0
  9
$DIMLIM
 70
     0
  9
$DIMTIH
 70
     1
  9
$DIMTOH
 70
     1
  9
$DIMSE1
 70
     0
  9
$DIMSE2
 70
     0
  9
$DIMTAD
 70
     1
  9
$DIMZIN
 70
     0
  9
$DIMBLK
  1

  9
$DIMASO
 70
     1
  9
$DIMSHO
 70
     1
  9
$DIMPOST
  1

  9
$DIMAPOST
  1

  9
$DIMALT
 70
     0
  9
$DIMALTD
 70
     3
  9
$DIMALTF
 40
0.0393700787
  9
$DIMLFAC
 40
1.0
  9
$DIMTOFL
 70
     1
  9
$DIMTVP
 40
0.0
  9
$DIMTIX
 70
     0
  9
$DIMSOXD
 70
     0
  9
$DIMSAH
 70
     0
  9
$DIMBLK1
  1

  9
$DIMBLK2
  1

  9
$DIMSTYLE
  2
ISO-25
  9
$DIMCLRD
 70
     0
  9
$DIMCLRE
 70
     0
  9
$DIMCLRT
 70
     0
  9
$DIMTFAC
 40
1.0
  9
$DIMGAP
 40
1.524
  9
$DIMJUST
 70
     0
  9
$DIMSD1
 70
     0
  9
$DIMSD2
 70
     0
  9
$DIMTOLJ
 70
     0
  9
$DIMTZIN
 70
     0
  9
$DIMALTZ
 70
     0
  9
$DIMALTTZ
 70
     0
  9
$DIMUPT
 70
     0
  9
$DIMDEC
 70
     2
  9
$DIMTDEC
 70
     0
  9
$DIMALTU
 70
     2
  9
$DIMALTTD
 70
     3
  9
$DIMTXSTY
  7
Standard
  9
$DIMAUNIT
 70
     0
  9
$DIMADEC
 70
     2
  9
$DIMALTRND
 40
0.0
  9
$DIMAZIN
 70
     0
  9
$DIMDSEP
 70
    44
  9
$DIMATFIT
 70
     3
  9
$DIMFRAC
 70
     0
  9
$DIMLDRBLK
  1

  9
$DIMLUNIT
 70
     2
  9
$DIMLWD
 70
    -2
  9
$DIMLWE
 70
    -2
  9
$DIMTMOVE
 70
     0
  9
$LUNITS
 70
     2
  9
$LUPREC
 70
     3
  9
$SKETCHINC
 40
1.0
  9
$FILLETRAD
 40
10.0
  9
$AUNITS
 70
     0
  9
$AUPREC
 70
     2
  9
$MENU
  1
.
  9
$ELEVATION
 40
0.0
  9
$PELEVATION
 40
0.0
  9
$THICKNESS
 40
0.0
  9
$LIMCHECK
 70
     0
  9
$CHAMFERA
 40
0.0
  9
$CHAMFERB
 40
0.0
  9
$CHAMFERC
 40
0.0
  9
$CHAMFERD
 40
0.0
  9
$SKPOLY
 70
     0
  9
$TDCREATE
 40
2458673.455320891
  9
$TDUCREATE
 40
2458673.371987558
  9
$TDUPDATE
 40
2458673.455321597
  9
$TDUUPDATE
 40
2458673.371988264
  9
$TDINDWG
 40
0.0000000116
  9
$TDUSRTIMER
 40
0.0000000116
  9
$USRTIMER
 70
     1
  9
$ANGBASE
 50
0.0
  9
$ANGDIR
 70
     0
  9
$PDMODE
 70
     0
  9
$PDSIZE
 40
-1.0
  9
$PLINEWID
 40
0.0
  9
$SPLFRAME
 70
     0
  9
$SPLINETYPE
 70
     6
  9
$SPLINESEGS
 70
     8
  9
$HANDSEED
  5
136
  9
$SURFTAB1
 70
     6
  9
$SURFTAB2
 70
     6
  9
$SURFTYPE
 70
     6
  9
$SURFU
 70
     6
  9
$SURFV
 70
     6
  9
$UCSBASE
  2

  9
$UCSNAME
  2

  9
$UCSORG
 10
0.0
 20
0.0
 30
0.0
  9
$UCSXDIR
 10
1.0
 20
0.0
 30
0.0
  9
$UCSYDIR
 10
0.0
 20
1.0
 30
0.0
  9
$UCSORTHOREF
  2

  9
$UCSORTHOVIEW
 70
     0
  9
$UCSORGTOP
 10
0.0
 20
0.0
 30
0.0
  9
$UCSORGBOTTOM
 10
0.0
 20
0.0
 30
0.0
  9
$UCSORGLEFT
 10
0.0
 20
0.0
 30
0.0
  9
$UCSORGRIGHT
 10
0.0
 20
0.0
 30
0.0
  9
$UCSORGFRONT
 10
0.0
 20
0.0
 30
0.0
  9
$UCSORGBACK
 10
0.0
 20
0.0
 30
0.0
  9
$PUCSBASE
  2

  9
$PUCSNAME
  2

  9
$PUCSORG
 10
0.0
 20
0.0
 30
0.0
  9
$PUCSXDIR
 10
1.0
 20
0.0
 30
0.0
  9
$PUCSYDIR
 10
0.0
 20
1.0
 30
0.0
  9
$PUCSORTHOREF
  2

  9
$PUCSORTHOVIEW
 70
     0
  9
$PUCSORGTOP
 10
0.0
 20
0.0
 30
0.0
  9
$PUCSORGBOTTOM
 10
0.0
 20
0.0
 30
0.0
  9
$PUCSORGLEFT
 10
0.0
 20
0.0
 30
0.0
  9
$PUCSORGRIGHT
 10
0.0
 20
0.0
 30
0.0
  9
$PUCSORGFRONT
 10
0.0
 20
0.0
 30
0.0
  9
$PUCSORGBACK
 10
0.0
 20
0.0
 30
0.0
  9
$USERI1
 70
     0
  9
$USERI2
 70
     0
  9
$USERI3
 70
     0
  9
$USERI4
 70
     0
  9
$USERI5
 70
     0
  9
$USERR1
 40
0.0
  9
$USERR2
 40
0.0
  9
$USERR3
 40
0.0
  9
$USERR4
 40
0.0
  9
$USERR5
 40
0.0
  9
$WORLDVIEW
 70
     1
  9
$SHADEDGE
 70
     3
  9
$SHADEDIF
 70
    70
  9
$TILEMODE
 70
     1
  9
$MAXACTVP
 70
    64
  9
$PINSBASE
 10
0.0
 20
0.0
 30
0.0
  9
$PLIMCHECK
 70
     0
  9
$PEXTMIN
 10
1.0000000000E+20
 20
1.0000000000E+20
 30
1.0000000000E+20
  9
$PEXTMAX
 10
-1.0000000000E+20
 20
-1.0000000000E+20
 30
-1.0000000000E+20
  9
$PLIMMIN
 10
0.0
 20
0.0
  9
$PLIMMAX
 10
420.0
 20
297.0
  9
$UNITMODE
 70
     0
  9
$VISRETAIN
 70
     1
  9
$PLINEGEN
 70
     0
  9
$PSLTSCALE
 70
     1
  9
$TREEDEPTH
 70
  3020
  9
$CMLSTYLE
  2
Standard
  9
$CMLJUST
 70
     0
  9
$CMLSCALE
 40
20.0
  9
$PROXYGRAPHICS
 70
     1
  9
$MEASUREMENT
 70
     1
  9
$CELWEIGHT
370
    -1
  9
$ENDCAPS
280
     0
  9
$JOINSTYLE
280
     0
  9
$LWDISPLAY
290
     1
  9
$INSUNITS
 70
     4
  9
$HYPERLINKBASE
  1

  9
$STYLESHEET
  1

  9
$XEDIT
290
     1
  9
$CEPSNTYPE
380
     0
  9
$PSTYLEMODE
290
     1
  9
$FINGERPRINTGUID
  2
{F6E253C0-F113-4CD1-9E42-3AA903A1B539}
  9
$VERSIONGUID
  2
{FAEB1C32-E019-11D5-929B-00C0DF256EC4}
  9
$EXTNAMES
290
     1
  9
$PSVPSCALE
 40
0.0
  9
$OLESTARTUP
290
     0
  0
ENDSEC
  0
SECTION
  2
CLASSES
  0
CLASS
  1
ACDBDICTIONARYWDFLT
  2
AcDbDictionaryWithDefault
  3
ObjectDBX Classes
 90
        0
280
     0
281
     0
  0
CLASS
  1
VISUALSTYLE
  2
AcDbVisualStyle
  3
ObjectDBX Classes
 90
     4095
280
     0
281
     0
  0
CLASS
  1
MATERIAL
  2
AcDbMaterial
  3
ObjectDBX Classes
 90
     1153
280
     0
281
     0
  0
CLASS
  1
SCALE
  2
AcDbScale
  3
ObjectDBX Classes
 90
     1153
280
     0
281
     0
  0
CLASS
  1
TABLESTYLE
  2
AcDbTableStyle
  3
ObjectDBX Classes
 90
     4095
280
     0
281
     0
  0
CLASS
  1
MLEADERSTYLE
  2
AcDbMLeaderStyle
  3
ACDB_MLEADERSTYLE_CLASS
 90
     4095
280
     0
281
     0
  0
CLASS
  1
SUN
  2
AcDbSun
  3
SCENEOE
 90
     1153
280
     0
281
     0
  0
CLASS
  1
ACDBPLACEHOLDER
  2
AcDbPlaceHolder
  3
ObjectDBX Classes
 90
        0
280
     0
281
     0
  0
CLASS
  1
LAYOUT
  2
AcDbLayout
  3
ObjectDBX Classes
 90
        0
280
     0
281
     0
  0
ENDSEC
  0
SECTION
  2
TABLES
  0
TABLE
  2
VPORT
  5
8
330
0
100
AcDbSymbolTable
 70
     1
  0
VPORT
  5
29
330
8
100
AcDbSymbolTableRecord
100
AcDbViewportTableRecord
  2
*Active
 70
     0
 10
0.0
 20
0.0
 11
1.0
 21
1.0
 12
10000.0
 22
5000.0
 13
0.0
 23
0.0
 14
10.0
 24
10.0
 15
10.0
 25
10.0
 16
0.0
 26
0.0
 36
1.0
 17
0.0
 27
0.0
 37
0.0
 40
10000.0
 41
2.0
 42
50.0
 43
0.0
 44
0.0
 50
0.0
 51
0.0
 71
     0
 72
  2000
 73
     1
 74
     3
 75
     0
 76
     0
 77
     0
 78
     0
281
     0
 65
     1
110
0.0
120
0.0
130
0.0
111
1.0
121
0.0
131
0.0
112
0.0
122
1.0
132
0.0
 79
     0
146
0.0
  0
ENDTAB
  0
TABLE
  2
LTYPE
  5
5
330
0
100
AcDbSymbolTable
 70
     6
  0
LTYPE
  5
14
330
5
100
AcDbSymbolTableRecord
100
AcDbLinetypeTableRecord
  2
ByBlock
 70
     0
  3

 72
    65
 73
     0
 40
0.0
  0
LTYPE
  5
15
330
5
100
AcDbSymbolTableRecord
100
AcDbLinetypeTableRecord
  2
ByLayer
 70
     0
  3

 72
    65
 73
     0
 40
0.0
  0
LTYPE
  5
16
330
5
100
AcDbSymbolTableRecord
100
AcDbLinetypeTableRecord
  2
Continuous
 70
     0
  3
Solid line
 72
    65
 73
     0
 40
0.0
  0
LTYPE
  5
6E
330
5
100
AcDbSymbolTableRecord
100
AcDbLinetypeTableRecord
  2
HIDDEN
 70
     0
  3
Hidden __ __ __ __ __ __ __ __ __ __ __ __ __ __
 72
    65
 73
     2
 40
1.905
 49
1.27
 74
     0
 49
-0.635
 74
     0
  0
LTYPE
  5
6F
330
5
100
AcDbSymbolTableRecord
100
AcDbLinetypeTableRecord
  2
PHANTOM
 70
     0
  3
Phantom ______  __  __  ______  __  __  ______
 72
    65
 73
     6
 40
12.7
 49
6.35
 74
     0
 49
-1.27
 74
     0
 49
1.27
 74
     0
 49
-1.27
 74
     0
 49
1.27
 74
     0
 49
-1.27
 74
     0
  0
LTYPE
  5
70
330
5
100
AcDbSymbolTableRecord
100
AcDbLinetypeTableRecord
  2
CENTER
 70
     0
  3
Center ____ _ ____ _ ____ _ ____ _ ____ _ ____
 72
    65
 73
     4
 40
10.16
 49
6.35
 74
     0
 49
-1.27
 74
     0
 49
1.27
 74
     0
 49
-1.27
 74
     0
  0
LTYPE
  5
71
330
5
100
AcDbSymbolTableRecord
100
AcDbLinetypeTableRecord
  2
CENTERX2
 70
     0
  3
Center (2x) ________  __  ________  __  _____
 72
    65
 73
     4
 40
20.32
 49
12.7
 74
     0
 49
-2.54
 74
     0
 49
2.54
 74
     0
 49
-2.54
 74
     0
  0
LTYPE
  5
72
330
5
100
AcDbSymbolTableRecord
100
AcDbLinetypeTableRecord
  2
DOT2
 70
     0
  3
Dot (.5x) ........................................
 72
    65
 73
     2
 40
0.635
 49
0.0
 74
     0
 49
-0.635
 74
     0
  0
ENDTAB
  0
TABLE
  2
LAYER
  5
2
330
0
100
AcDbSymbolTable
 70
    13
  0
LAYER
  5
10
330
2
100
AcDbSymbolTableRecord
100
AcDbLayerTableRecord
  2
0
 70
     0
 62
     7
  6
Continuous
370
    -3
390
F
  0
LAYER
  5
73
330
2
100
AcDbSymbolTableRecord
100
AcDbLayerTableRecord
  2
FORMAT
 70
     0
 62
     7
  6
Continuous
370
    -3
390
F
  0
LAYER
  5
74
330
2
100
AcDbSymbolTableRecord
100
AcDbLayerTableRecord
  2
OSA
 70
     0
 62
     7
  6
CENTER
370
    -3
390
F
  0
LAYER
  5
75
330
2
100
AcDbSymbolTableRecord
100
AcDbLayerTableRecord
  2
0_35
 70
     0
 62
     7
  6
Continuous
370
    35
390
F
  0
LAYER
  5
76
330
2
100
AcDbSymbolTableRecord
100
AcDbLayerTableRecord
  2
0_5
 70
     0
 62
     7
  6
Continuous
370
    50
390
F
  0
LAYER
  5
77
330
2
100
AcDbSymbolTableRecord
100
AcDbLayerTableRecord
  2
0_25
 70
     0
 62
     7
  6
Continuous
370
    25
390
F
  0
LAYER
  5
78
330
2
100
AcDbSymbolTableRecord
100
AcDbLayerTableRecord
  2
0_18
 70
     0
 62
     7
  6
Continuous
370
    -3
390
F
  0
LAYER
  5
79
330
2
100
AcDbSymbolTableRecord
100
AcDbLayerTableRecord
  2
SLD-0
 70
     0
 62
   179
  6
Continuous
370
    -3
390
F
  0
LAYER
  5
7A
330
2
100
AcDbSymbolTableRecord
100
AcDbLayerTableRecord
  2
KOTY
 70
     0
 62
     7
  6
Continuous
370
    -3
390
F
  0
LAYER
  5
7B
330
2
100
AcDbSymbolTableRecord
100
AcDbLayerTableRecord
  2
SILNA
 70
     0
 62
   179
  6
Continuous
370
    -3
390
F
  0
LAYER
  5
7C
330
2
100
AcDbSymbolTableRecord
100
AcDbLayerTableRecord
  2
0_18_1
 70
     0
 62
   179
  6
Continuous
370
    -3
390
F
  0
LAYER
  5
7D
330
2
100
AcDbSymbolTableRecord
100
AcDbLayerTableRecord
  2
0_35_1
 70
     0
 62
   179
  6
Continuous
370
    35
390
F
  0
LAYER
  5
7E
330
2
100
AcDbSymbolTableRecord
100
AcDbLayerTableRecord
  2
0_5_1
 70
     0
 62
   179
  6
Continuous
370
    50
390
F
  0
ENDTAB
  0
TABLE
  2
STYLE
  5
3
330
0
100
AcDbSymbolTable
 70
     1
  0
STYLE
  5
11
330
3
100
AcDbSymbolTableRecord
100
AcDbTextStyleTableRecord
  2
Standard
 70
     0
 40
0.0
 41
1.0
 50
0.0
 71
     0
 42
2.0
  3
txt
  4

  0
ENDTAB
  0
TABLE
  2
VIEW
  5
6
330
0
100
AcDbSymbolTable
 70
     0
  0
ENDTAB
  0
TABLE
  2
UCS
  5
7
330
0
100
AcDbSymbolTable
 70
     0
  0
ENDTAB
  0
TABLE
  2
APPID
  5
9
330
0
100
AcDbSymbolTable
 70
     1
  0
APPID
  5
12
330
9
100
AcDbSymbolTableRecord
100
AcDbRegAppTableRecord
  2
ACAD
 70
     0
  0
ENDTAB
  0
TABLE
  2
DIMSTYLE
  5
A
330
0
100
AcDbSymbolTable
 70
     1
100
AcDbDimStyleTable
  0
DIMSTYLE
105
27
330
A
100
AcDbSymbolTableRecord
100
AcDbDimStyleTableRecord
  2
ISO-25
 70
     0
 41
2.5
 42
0.625
 43
3.75
 44
1.25
 73
     0
 74
     0
 77
     1
 78
     8
140
2.5
141
2.5
143
0.0393700787
147
0.625
171
     3
172
     1
178
     0
271
     2
272
     2
274
     3
278
    44
283
     0
284
     8
340
11
  0
ENDTAB
  0
TABLE
  2
BLOCK_RECORD
  5
1
330
0
100
AcDbSymbolTable
 70
     1
  0
BLOCK_RECORD
  5
1F
330
1
100
AcDbSymbolTableRecord
100
AcDbBlockTableRecord
  2
*Model_Space
340
22
  0
BLOCK_RECORD
  5
1B
330
1
100
AcDbSymbolTableRecord
100
AcDbBlockTableRecord
  2
*Paper_Space
340
1E
  0
BLOCK_RECORD
  5
23
330
1
100
AcDbSymbolTableRecord
100
AcDbBlockTableRecord
  2
*Paper_Space0
340
26
  0
ENDTAB
  0
ENDSEC
  0
SECTION
  2
BLOCKS
  0
BLOCK
  5
20
330
1F
100
AcDbEntity
  8
0
100
AcDbBlockBegin
  2
*Model_Space
 70
     0
 10
0.0
 20
0.0
 30
0.0
  3
*Model_Space
  1

  0
ENDBLK
  5
21
330
1F
100
AcDbEntity
  8
0
100
AcDbBlockEnd
  0
BLOCK
  5
1C
330
1B
100
AcDbEntity
 67
     1
  8
0
100
AcDbBlockBegin
  2
*Paper_Space
 70
     0
 10
0.0
 20
0.0
 30
0.0
  3
*Paper_Space
  1

  0
ENDBLK
  5
1D
330
1B
100
AcDbEntity
 67
     1
  8
0
100
AcDbBlockEnd
  0
BLOCK
  5
24
330
23
100
AcDbEntity
  8
0
100
AcDbBlockBegin
  2
*Paper_Space0
 70
     0
 10
0.0
 20
0.0
 30
0.0
  3
*Paper_Space0
  1

  0
ENDBLK
  5
25
330
23
100
AcDbEntity
  8
0
100
AcDbBlockEnd
  0
ENDSEC
  0
SECTION
  2
ENTITIES
  0
LINE
  5
7F
330
1F
100
AcDbEntity
  8
0
  6
Continuous
 62
     7
370
    25
100
AcDbLine
 10
6266.3792754789
 20
5226.9733436539
 30
0.0
 11
6266.7698277503
 21
5226.7221617821
 31
0.0
  0
LINE
  5
80
330
1F
100
AcDbEntity
  8
0
  6
Continuous
 62
     7
370
    25
100
AcDbLine
 10
6283.071054023
 20
5226.8774382851
 30
0.0
 11
6283.4567506217
 21
5227.136014276
 31
0.0
  0
LINE
  5
81
330
1F
100
AcDbEntity
  8
0
  6
Continuous
 62
     7
370
    25
100
AcDbLine
 10
6263.8360768704
 20
5235.6041081276
 30
0.0
 11
6263.8832903779
 21
5230.647543189
 31
0.0
  0
LINE
  5
82
330
1F
100
AcDbEntity
  8
0
  6
Continuous
 62
     7
370
    25
100
AcDbLine
 10
6285.8822923698
 20
5230.8570935652
 30
0.0
 11
6285.8351355123
 21
5235.8077112735
 31
0.0
  0
LINE
  5
83
330
1F
100
AcDbEntity
  8
0
  6
Continuous
 62
     7
370
    25
100
AcDbLine
 10
6262.6662841713
 20
5190.4835687855
 30
0.0
 11
6262.6766989377
 21
5190.2557224607
 31
0.0
  0
LINE
  5
84
330
1F
100
AcDbEntity
  8
0
  6
Continuous
 62
     7
370
    25
100
AcDbLine
 10
6284.6535861639
 20
5191.2639094532
 30
0.0
 11
6284.6433370717
 21
5191.4881312839
 31
0.0
  0
LINE
  5
85
330
1F
100
AcDbEntity
  8
0
  6
Continuous
 62
     7
370
    25
100
AcDbLine
 10
6282.3629432732
 20
5232.8717298272
 30
0.0
 11
6282.3579083226
 21
5233.4003086353
 31
0.0
  0
LINE
  5
86
330
1F
100
AcDbEntity
  8
0
  6
Continuous
 62
     7
370
    25
100
AcDbLine
 10
6267.3585887827
 20
5233.2574333788
 30
0.0
 11
6267.3636237333
 21
5232.7288545707
 31
0.0
  0
SPLINE
  5
87
330
1F
100
AcDbEntity
  8
0
  6
Continuous
 62
     7
370
    25
100
AcDbSpline
210
0.0
220
0.0
230
1.0
 70
     8
 71
     3
 72
    52
 73
    48
 74
     0
 42
0.000000001
 43
0.00000001
 40
0.0
 40
0.0
 40
0.0
 40
0.0
 40
0.0385122144554899
 40
0.0724982476966661
 40
0.1018979544093185
 40
0.1266378751012484
 40
0.146649054967029
 40
0.1618774039304666
 40
0.1722975143055816
 40
0.1805877870147543
 40
0.1896647882158255
 40
0.199995396828116
 40
0.2119094002423742
 40
0.2256443063779494
 40
0.2461440153112636
 40
0.2666318009489872
 40
0.2869752993851274
 40
0.3173312184098807
 40
0.3476968565263152
 40
0.3781760481126476
 40
0.4085300340387329
 40
0.4386215309975871
 40
0.4683283300021294
 40
0.4975807068690032
 40
0.5272863199776616
 40
0.5580542185341313
 40
0.5899899188634883
 40
0.6118855155758849
 40
0.6342083520619985
 40
0.6559810665134848
 40
0.6855816201875579
 40
0.7115647789142361
 40
0.7343468213128649
 40
0.7578915948512298
 40
0.7748454405762829
 40
0.7909757397185172
 40
0.8049946419414653
 40
0.8170010739232463
 40
0.8271211844541853
 40
0.8370017036568037
 40
0.8505382516076103
 40
0.8679606671679585
 40
0.8892120251481688
 40
0.9089337510733018
 40
0.9340062199331327
 40
0.9643872593619417
 40
1.0
 40
1.0
 40
1.0
 40
1.0
 10
6298.925824265411
 20
5243.751862488272
 30
0.0
 10
6298.89386133919
 20
5244.31503571405
 30
0.0
 10
6298.833691957214
 20
5245.375194746605
 30
0.0
 10
6298.741263206601
 20
5246.653121143177
 30
0.0
 10
6298.654867290722
 20
5247.662088143908
 30
0.0
 10
6298.574460751461
 20
5248.450116533815
 30
0.0
 10
6298.502286696893
 20
5249.060671942145
 30
0.0
 10
6298.436344196798
 20
5249.547255279209
 30
0.0
 10
6298.38119524583
 20
5249.918037367934
 30
0.0
 10
6298.301295659006
 20
5250.404603256759
 30
0.0
 10
6298.175791188635
 20
5251.071692393257
 30
0.0
 10
6297.984125803046
 20
5251.929182113583
 30
0.0
 10
6297.700029958674
 20
5252.981257038395
 30
0.0
 10
6297.244435233045
 20
5254.365179014184
 30
0.0
 10
6296.565789785476
 20
5256.001854292866
 30
0.0
 10
6295.637834610143
 20
5257.770849348219
 30
0.0
 10
6294.370341372456
 20
5259.738927711453
 30
0.0
 10
6292.67183385065
 20
5261.829895991761
 30
0.0
 10
6290.46502663783
 20
5263.92419285004
 30
0.0
 10
6288.024246137208
 20
5265.71848309784
 30
0.0
 10
6285.388463999667
 20
5267.199187868023
 30
0.0
 10
6282.619053563734
 20
5268.345503723473
 30
0.0
 10
6279.769322107801
 20
5269.150984848853
 30
0.0
 10
6276.858356432189
 20
5269.621999089331
 30
0.0
 10
6273.876464751254
 20
5269.757153798188
 30
0.0
 10
6270.809845146306
 20
5269.530744434361
 30
0.0
 10
6268.046951243075
 20
5268.981825140939
 30
0.0
 10
6265.628784454073
 20
5268.230841109323
 30
0.0
 10
6263.596666288439
 20
5267.400587543659
 30
0.0
 10
6261.417149025525
 20
5266.279947639747
 30
0.0
 10
6259.259486598933
 20
5264.873874887377
 30
0.0
 10
6257.254675941388
 20
5263.219419829172
 30
0.0
 10
6255.568834180624
 20
5261.515392455589
 30
0.0
 10
6254.286335935499
 20
5259.941061418914
 30
0.0
 10
6253.301005113495
 20
5258.511291396269
 30
0.0
 10
6252.572818425739
 20
5257.294472128364
 30
0.0
 10
6251.995120941589
 20
5256.189893766825
 30
0.0
 10
6251.561225927107
 20
5255.25435137219
 30
0.0
 10
6251.225603118354
 20
5254.450151373986
 30
0.0
 10
6250.946668547821
 20
5253.717268910214
 30
0.0
 10
6250.683750286669
 20
5252.959210217562
 30
0.0
 10
6250.398890126753
 20
5252.043515709865
 30
0.0
 10
6250.123554197691
 20
5251.028336112461
 30
0.0
 10
6249.865326961648
 20
5249.931058963386
 30
0.0
 10
6249.629485798513
 20
5248.77163643026
 30
0.0
 10
6249.379977173536
 20
5247.351577596236
 30
0.0
 10
6249.225969918937
 20
5246.252661975781
 30
0.0
 10
6249.1428617774
 20
5245.659645528857
 30
0.0
  0
SPLINE
  5
88
330
1F
100
AcDbEntity
  8
0
  6
Continuous
 62
     7
370
    25
100
AcDbSpline
210
0.0
220
0.0
230
1.0
 70
     8
 71
     3
 72
    13
 73
     9
 74
     0
 42
0.000000001
 43
0.00000001
 40
0.0
 40
0.0
 40
0.0
 40
0.0
 40
0.0107311982196529
 40
0.1694665205131275
 40
0.3556629503147989
 40
0.5677078131664338
 40
0.798992828881852
 40
1.0
 40
1.0
 40
1.0
 40
1.0
 10
6250.756282295516
 20
5236.486347610247
 30
0.0
 10
6250.755644638528
 20
5236.487160067914
 30
0.0
 10
6250.745574792755
 20
5236.499990356858
 30
0.0
 10
6250.782666800384
 20
5236.443170166893
 30
0.0
 10
6250.841327118381
 20
5236.297620142845
 30
0.0
 10
6250.934292637935
 20
5236.014129945325
 30
0.0
 10
6251.035017105944
 20
5235.633107661749
 30
0.0
 10
6251.106375775729
 20
5235.286105290213
 30
0.0
 10
6251.139556121766
 20
5235.124756167562
 30
0.0
  0
SPLINE
  5
89
330
1F
100
AcDbEntity
  8
0
  6
Continuous
 62
     7
370
    25
100
AcDbSpline
210
0.0
220
0.0
230
1.0
 70
     8
 71
     3
 72
     9
 73
     5
 74
     0
 42
0.000000001
 43
0.00000001
 40
0.0
 40
0.0
 40
0.0
 40
0.0
 40
0.5336772925600907
 40
1.0
 40
1.0
 40
1.0
 40
1.0
 10
6298.010062288422
 20
5236.560867171212
 30
0.0
 10
6298.021664849851
 20
5236.612990538883
 30
0.0
 10
6298.043405631388
 20
5236.710658864666
 30
0.0
 10
6298.048780789873
 20
5236.72424438915
 30
0.0
 10
6298.051287348332
 20
5236.730579627711
 30
0.0
  0
SPLINE
  5
8A
330
1F
100
AcDbEntity
  8
0
  6
Continuous
 62
     7
370
    25
100
AcDbSpline
210
0.0
220
0.0
230
1.0
 70
     8
 71
     3
 72
    42
 73
    38
 74
     0
 42
0.000000001
 43
0.00000001
 40
0.0
 40
0.0
 40
0.0
 40
0.0
 40
0.0289231099905848
 40
0.0565964238642946
 40
0.0801789922348776
 40
0.0986783566700783
 40
0.1136358938570972
 40
0.1250939555059448
 40
0.1358189527683708
 40
0.1477597563889974
 40
0.1609168296907454
 40
0.1752921962505486
 40
0.1970549322152951
 40
0.2210624303755112
 40
0.2433855199136507
 40
0.2618497205859403
 40
0.2766982301281773
 40
0.287512592086781
 40
0.2969048686807801
 40
0.3068503550046403
 40
0.3173505242693488
 40
0.3284067729001563
 40
0.3401389181470517
 40
0.358835957677459
 40
0.3821787193292696
 40
0.4101788693475213
 40
0.4428325939932896
 40
0.4801053045382599
 40
0.5219105771160721
 40
0.568113188165767
 40
0.6186255126691997
 40
0.673346956036731
 40
0.7321126565150247
 40
0.7946593295735972
 40
0.8605851599693637
 40
0.92930472359724
 40
1.0
 40
1.0
 40
1.0
 40
1.0
 10
6249.135662153525
 20
5245.599050629982
 30
0.0
 10
6249.081491382773
 20
5245.185567615216
 30
0.0
 10
6248.975490613716
 20
5244.376468594675
 30
0.0
 10
6248.831332486304
 20
5243.08117240852
 30
0.0
 10
6248.709388174683
 20
5241.880040480828
 30
0.0
 10
6248.612657603504
 20
5240.845039381976
 30
0.0
 10
6248.538482604809
 20
5240.00179889298
 30
0.0
 10
6248.479340510406
 20
5239.297706403516
 30
0.0
 10
6248.426537441419
 20
5238.645717262206
 30
0.0
 10
6248.371629433914
 20
5237.94282065352
 30
0.0
 10
6248.31191357291
 20
5237.147901643467
 30
0.0
 10
6248.238199708602
 20
5236.124819351166
 30
0.0
 10
6248.149536746636
 20
5234.82838468923
 30
0.0
 10
6248.050833374887
 20
5233.294823818019
 30
0.0
 10
6247.958333425681
 20
5231.774415037897
 30
0.0
 10
6247.880035245709
 20
5230.427102577935
 30
0.0
 10
6247.818701562887
 20
5229.334064598728
 30
0.0
 10
6247.770619070663
 20
5228.455045425088
 30
0.0
 10
6247.729727959163
 20
5227.693045402883
 30
0.0
 10
6247.689510908069
 20
5226.930234125051
 30
0.0
 10
6247.647357029393
 20
5226.116101551363
 30
0.0
 10
6247.603121826876
 20
5225.245945815647
 30
0.0
 10
6247.548376473544
 20
5224.148736731268
 30
0.0
 10
6247.478145656391
 20
5222.70703934342
 30
0.0
 10
6247.387732359906
 20
5220.792591775065
 30
0.0
 10
6247.280699295434
 20
5218.445630457291
 30
0.0
 10
6247.157647661623
 20
5215.64446334308
 30
0.0
 10
6247.019281389701
 20
5212.371218593647
 30
0.0
 10
6246.866365586792
 20
5208.614174527973
 30
0.0
 10
6246.699536397998
 20
5204.366404786617
 30
0.0
 10
6246.519709933938
 20
5199.627152846819
 30
0.0
 10
6246.327679523817
 20
5194.402205481314
 30
0.0
 10
6246.124154214253
 20
5188.708227011634
 30
0.0
 10
6245.909814989746
 20
5182.576592892247
 30
0.0
 10
6245.685065652922
 20
5176.055732168878
 30
0.0
 10
6245.45090350327
 20
5169.217689697891
 30
0.0
 10
6245.288663781073
 20
5164.547072229721
 30
0.0
 10
6245.206394332557
 20
5162.178668745478
 30
0.0
  0
SPLINE
  5
8B
330
1F
100
AcDbEntity
  8
0
  6
Continuous
 62
     7
370
    25
100
AcDbSpline
210
0.0
220
0.0
230
1.0
 70
     8
 71
     3
 72
    53
 73
    49
 74
     0
 42
0.000000001
 43
0.00000001
 40
0.0
 40
0.0
 40
0.0
 40
0.0
 40
0.0141585205116606
 40
0.0306797808935271
 40
0.0442205434555885
 40
0.0502063178624746
 40
0.0559799518893745
 40
0.0618660080488282
 40
0.0681804412774086
 40
0.078973097449524
 40
0.090875711223423
 40
0.1018494601163641
 40
0.1119275688257296
 40
0.1241979399182016
 40
0.1354732807218652
 40
0.1461879814014302
 40
0.1566016833345117
 40
0.1672862960848741
 40
0.1794249778002385
 40
0.1938652593866874
 40
0.2110087284940886
 40
0.232413169159535
 40
0.2483046087141315
 40
0.2592223454491714
 40
0.2648534762800429
 40
0.2674497920516791
 40
0.2700555601683469
 40
0.2756786610906261
 40
0.282397251054888
 40
0.2952148601136437
 40
0.3118022022065968
 40
0.3298353214846068
 40
0.3732927355835093
 40
0.4071116796676148
 40
0.4417086199728322
 40
0.4770545222771289
 40
0.5140320695346082
 40
0.5561585155952321
 40
0.6037061641360136
 40
0.6428613706829422
 40
0.6849536687782714
 40
0.729940944175954
 40
0.7778099725311346
 40
0.8182122217463439
 40
0.8605509653686664
 40
0.9049062694513439
 40
0.9513616567857673
 40
1.0
 40
1.0
 40
1.0
 40
1.0
 10
6300.726075939104
 20
5181.508885915864
 30
0.0
 10
6300.720646058905
 20
5181.646867756779
 30
0.0
 10
6300.708880173152
 20
5181.945857516554
 30
0.0
 10
6300.682493279224
 20
5182.561032572438
 30
0.0
 10
6300.653893350969
 20
5183.280272773991
 30
0.0
 10
6300.629619426881
 20
5183.935376217708
 30
0.0
 10
6300.611528618376
 20
5184.444915049657
 30
0.0
 10
6300.593029000222
 20
5184.986438065419
 30
0.0
 10
6300.570525156684
 20
5185.66697765965
 30
0.0
 10
6300.545123751524
 20
5186.462034011171
 30
0.0
 10
6300.51846311107
 20
5187.305927204538
 30
0.0
 10
6300.489728338479
 20
5188.194857043614
 30
0.0
 10
6300.459420278269
 20
5189.124359703248
 30
0.0
 10
6300.427283696539
 20
5190.103953931723
 30
0.0
 10
6300.393610994022
 20
5191.131145451636
 30
0.0
 10
6300.362123750821
 20
5192.096875417771
 30
0.0
 10
6300.333009954532
 20
5192.996004486586
 30
0.0
 10
6300.309044823124
 20
5193.735930599231
 30
0.0
 10
6300.290845088944
 20
5194.288730090047
 30
0.0
 10
6300.277454070398
 20
5194.678310729506
 30
0.0
 10
6300.269337000188
 20
5194.885676157399
 30
0.0
 10
6300.26283115947
 20
5195.054157217237
 30
0.0
 10
6300.256203660989
 20
5195.28058638711
 30
0.0
 10
6300.251516882279
 20
5195.486580109175
 30
0.0
 10
6300.247202654158
 20
5195.691362392623
 30
0.0
 10
6300.242351149553
 20
5195.903721140164
 30
0.0
 10
6300.236374433686
 20
5196.160582668804
 30
0.0
 10
6300.226164932572
 20
5196.589068701931
 30
0.0
 10
6300.20780863181
 20
5197.345245309315
 30
0.0
 10
6300.180586085487
 20
5198.418071787612
 30
0.0
 10
6300.145794963109
 20
5199.749397710441
 30
0.0
 10
6300.090021941213
 20
5201.918364206515
 30
0.0
 10
6300.022878305883
 20
5204.543520595943
 30
0.0
 10
6299.946128716091
 20
5207.577548371217
 30
0.0
 10
6299.876543463644
 20
5210.350258364896
 30
0.0
 10
6299.806485200463
 20
5213.158414494971
 30
0.0
 10
6299.733170099824
 20
5216.104653036226
 30
0.0
 10
6299.653727680949
 20
5219.292072188905
 30
0.0
 10
6299.574853588465
 20
5222.433014861286
 30
0.0
 10
6299.497812419214
 20
5225.457348731189
 30
0.0
 10
6299.423951798204
 20
5228.300256889262
 30
0.0
 10
6299.346913966644
 20
5231.179473410423
 30
0.0
 10
6299.272946308141
 20
5233.828576695365
 30
0.0
 10
6299.202585872205
 20
5236.214608290065
 30
0.0
 10
6299.136192572602
 20
5238.325038433531
 30
0.0
 10
6299.068879632141
 20
5240.292524168611
 30
0.0
 10
6299.000532542263
 20
5242.107440173177
 30
0.0
 10
6298.955801381541
 20
5243.102436868877
 30
0.0
 10
6298.932922380633
 20
5243.611355706147
 30
0.0
  0
ARC
  5
8C
330
1F
100
AcDbEntity
  8
0
  6
Continuous
 62
     7
370
    25
100
AcDbCircle
 10
6268.7233231151
 20
5240.8343188337
 30
0.0
 40
12.57642479124109
100
AcDbArc
 50
218.4977259333
 51
249.4704044401
  0
ARC
  5
8D
330
1F
100
AcDbEntity
  8
0
  6
Continuous
 62
     7
370
    25
100
AcDbCircle
 10
6281.2592306089
 20
5240.4038860574
 30
0.0
 40
11.91913749581389
100
AcDbArc
 50
290.7551940777
 51
323.6039202358
  0
LWPOLYLINE
  5
8E
330
1F
100
AcDbEntity
  8
0
  6
Continuous
 62
     7
370
    25
100
AcDbPolyline
 90
       54
 70
   128
 43
0.0
 10
6285.0372006732
 20
5231.8308136685
 10
6284.6483179395
 20
5232.4583512702
 10
6284.1224051749
 20
5233.0560025704
 10
6283.4668450419
 20
5233.615377855
 10
6282.6908401677
 20
5234.128624721
 10
6281.8052839597
 20
5234.5885383077
 10
6280.8226076859
 20
5234.9886624363
 10
6279.7566059671
 20
5235.3233802412
 10
6278.6222431309
 20
5235.5879930181
 10
6277.4354431447
 20
5235.7787861836
 10
6276.212866079
 20
5235.89308142
 10
6274.9716742359
 20
5235.9292742726
 10
6273.729291228
 20
5235.8868566732
 10
6272.5031573894
 20
5235.7664240718
 10
6271.3104849516
 20
5235.5696670783
 10
6270.1680164213
 20
5235.2993477294
 10
6269.0917895521
 20
5234.9592607163
 10
6268.0969122103
 20
5234.5541801151
 10
6267.197350293
 20
5234.0897923697
 10
6266.4057316776
 20
5233.5726164659
 10
6265.7331689542
 20
5233.0099124198
 10
6265.1891034292
 20
5232.4095793627
 10
6264.7811725899
 20
5231.7800446548
 10
6264.5151028912
 20
5231.1301455835
 10
6264.3946293683
 20
5230.4690053071
 10
6264.4214432054
 20
5229.8059047859
 10
6264.5951679951
 20
5229.1501524976
 10
6264.9133650222
 20
5228.5109537669
 10
6265.3715674978
 20
5227.8972815429
 10
6265.9633432635
 20
5227.3177504385
 10
6266.6803850849
 20
5226.7804957999
 10
6267.5126272665
 20
5226.2930595047
 10
6268.4483869524
 20
5225.8622840899
 10
6269.4745281278
 20
5225.4942166981
 10
6270.57664602
 20
5225.1940241886
 10
6271.7392693096
 20
5224.9659206063
 10
6272.946077314
 20
5224.8131080255
 10
6274.1801290944
 20
5224.7377315997
 10
6275.4241012688
 20
5224.7408494489
 10
6276.6605311946
 20
5224.8224178052
 10
6277.872062106
 20
5224.9812916277
 10
6279.0416867647
 20
5225.2152406763
 10
6280.1529862044
 20
5225.520980819
 10
6281.1903602169
 20
5225.8942201344
 10
6282.139246345
 20
5226.3297191608
 10
6282.9863243075
 20
5226.8213644465
 10
6283.7197029866
 20
5227.3622543692
 10
6284.3290873532
 20
5227.9447960202
 10
6284.8059229866
 20
5228.5608117916
 10
6285.1435161598
 20
5229.2016541723
 10
6285.3371278046
 20
5229.8583271401
 10
6285.3840400379
 20
5230.5216124458
 10
6285.2835943148
 20
5231.1821990178
 10
6285.0372006732
 20
5231.8308136685
  0
LWPOLYLINE
  5
8F
330
1F
100
AcDbEntity
  8
0
  6
Continuous
 62
     7
370
    25
100
AcDbPolyline
 90
       10
 70
   128
 43
0.0
 10
6285.5165233029
 20
5232.3252646778
 10
6285.7712514334
 20
5231.6584907303
 10
6285.8787318206
 20
5230.9794623563
 10
6285.8375109767
 20
5230.2973622497
 10
6285.6481463427
 20
5229.6214146442
 10
6285.3131987506
 20
5228.9607605716
 10
6284.837197792
 20
5228.324334245
 10
6284.2265805631
 20
5227.7207422386
 10
6283.4896046146
 20
5227.1581470988
 10
6283.4567506217
 20
5227.136014276
  0
LWPOLYLINE
  5
90
330
1F
100
AcDbEntity
  8
0
  6
Continuous
 62
     7
370
    25
100
AcDbPolyline
 90
       32
 70
   128
 43
0.0
 10
6266.3792754789
 20
5226.9733436539
 10
6265.8526321265
 20
5227.3411901865
 10
6265.1845352034
 20
5227.9183676973
 10
6264.6475905578
 20
5228.5338695294
 10
6264.2490594449
 20
5229.1793720765
 10
6263.9943313144
 20
5229.8461460239
 10
6263.8868509271
 20
5230.5251743979
 10
6263.9280717711
 20
5231.2072745046
 10
6264.117436405
 20
5231.8832221101
 10
6264.4523839972
 20
5232.5438761826
 10
6264.9283849558
 20
5233.1803025092
 10
6265.5390021847
 20
5233.7838945156
 10
6266.2759781332
 20
5234.3464896554
 10
6267.129346466
 20
5234.8604797943
 10
6268.0875668402
 20
5235.3189140976
 10
6269.1376809691
 20
5235.7155930277
 10
6270.2654878607
 20
5236.0451521825
 10
6271.4557358613
 20
5236.3031348399
 10
6272.6923289087
 20
5236.486052227
 10
6273.9585442032
 20
5236.5914306999
 10
6275.2372583552
 20
5236.6178451955
 10
6276.5111789493
 20
5236.5649385031
 10
6277.7630783949
 20
5236.433426095
 10
6278.9760268997
 20
5236.2250864508
 10
6280.1336214159
 20
5235.9427370069
 10
6281.2202074634
 20
5235.5901960551
 10
6282.2210908301
 20
5235.172231107
 10
6283.1227362854
 20
5234.6944944215
 10
6283.9129506212
 20
5234.1634465678
 10
6284.5810475444
 20
5233.586269057
 10
6285.11799219
 20
5232.9707672248
 10
6285.5165233029
 20
5232.3252646778
  0
LWPOLYLINE
  5
91
330
1F
100
AcDbEntity
  8
0
  6
Continuous
 62
     7
370
    25
100
AcDbPolyline
 90
       51
 70
   128
 43
0.0
 10
6283.9496599077
 20
5231.6699441605
 10
6283.5776619629
 20
5232.2630917827
 10
6283.0686042517
 20
5232.8257433773
 10
6282.4305149184
 20
5233.3490255924
 10
6281.673457013
 20
5233.824685955
 10
6280.8093697908
 20
5234.245223017
 10
6279.8518804235
 20
5234.6040046576
 10
6278.8160890904
 20
5234.8953726762
 10
6277.7183308397
 20
5235.1147320249
 10
6276.5759179746
 20
5235.2586232759
 10
6275.4068670285
 20
5235.3247771782
 10
6274.2296146332
 20
5235.3121504451
 10
6273.0627267622
 20
5235.2209422078
 10
6271.9246059344
 20
5235.0525908747
 10
6270.8332009949
 20
5234.8097514469
 10
6269.8057240518
 20
5234.4962536472
 10
6268.8583790302
 20
5234.1170415233
 10
6268.0061061269
 20
5233.6780954767
 10
6267.2623461948
 20
5233.186337949
 10
6266.6388287724
 20
5232.64952425
 10
6266.1453871019
 20
5232.0761202525
 10
6265.7898030531
 20
5231.4751688801
 10
6265.5776843989
 20
5230.8561474949
 10
6265.5123763772
 20
5230.2288184338
 10
6265.5949089346
 20
5229.6030750511
 10
6265.8239804833
 20
5228.9887856935
 10
6266.1959784281
 20
5228.3956380713
 10
6266.7050361393
 20
5227.8329864768
 10
6267.3431254726
 20
5227.3097042616
 10
6268.100183378
 20
5226.8340438991
 10
6268.9642706002
 20
5226.4135068371
 10
6269.9217599675
 20
5226.0547251964
 10
6270.9575513006
 20
5225.7633571779
 10
6272.0553095513
 20
5225.5439978291
 10
6273.1977224164
 20
5225.4001065781
 10
6274.3667733625
 20
5225.3339526759
 10
6275.5440257578
 20
5225.346579409
 10
6276.7109136288
 20
5225.4377876463
 10
6277.8490344566
 20
5225.6061389793
 10
6278.9404393961
 20
5225.8489784071
 10
6279.9679163392
 20
5226.1624762068
 10
6280.9152613608
 20
5226.5416883308
 10
6281.7675342641
 20
5226.9806343773
 10
6282.5112941962
 20
5227.472391905
 10
6283.1348116186
 20
5228.009205604
 10
6283.6282532891
 20
5228.5826096015
 10
6283.9838373379
 20
5229.1835609739
 10
6284.1959559921
 20
5229.8025823592
 10
6284.2612640138
 20
5230.4299114202
 10
6284.1787314564
 20
5231.055654803
 10
6283.9496599077
 20
5231.6699441605
  0
SPLINE
  5
92
330
1F
100
AcDbEntity
  8
0
  6
Continuous
 62
     7
370
    25
100
AcDbSpline
210
0.0
220
0.0
230
1.0
 70
     8
 71
     3
 72
    12
 73
     8
 74
     0
 42
0.000000001
 43
0.00000001
 40
0.0
 40
0.0
 40
0.0
 40
0.0
 40
0.2179458376044553
 40
0.4359471863523127
 40
0.6532823962233638
 40
0.8707033133960695
 40
1.0
 40
1.0
 40
1.0
 40
1.0
 10
6273.581637864288
 20
5179.443392512645
 30
0.0
 10
6274.163646959241
 20
5179.470187612688
 30
0.0
 10
6275.327813387767
 20
5179.52378463753
 30
0.0
 10
6277.023702255724
 20
5179.976322417396
 30
0.0
 10
6278.6093059192
 20
5180.69597590305
 30
0.0
 10
6279.892657698944
 20
5181.499182597659
 30
0.0
 10
6280.562753893118
 20
5182.137745688692
 30
0.0
 10
6280.812643765074
 20
5182.3758763488
 30
0.0
  0
SPLINE
  5
93
330
1F
100
AcDbEntity
  8
0
  6
Continuous
 62
     7
370
    25
100
AcDbSpline
210
0.0
220
0.0
230
1.0
 70
     8
 71
     3
 72
    28
 73
    24
 74
     0
 42
0.000000001
 43
0.00000001
 40
0.0
 40
0.0
 40
0.0
 40
0.0
 40
0.0043535393113497
 40
0.0514994780374529
 40
0.0986653630359318
 40
0.1469277422160649
 40
0.1952072358167496
 40
0.2490417787535329
 40
0.3028679014546371
 40
0.3588097944003206
 40
0.4147188685481932
 40
0.4662596222584227
 40
0.5177951562645532
 40
0.5657367033959775
 40
0.6136941000044117
 40
0.663093815186108
 40
0.7125094393374749
 40
0.7664688580329593
 40
0.8204198668359366
 40
0.8764074695877998
 40
0.9323515221391733
 40
0.9830996328491233
 40
1.0
 40
1.0
 40
1.0
 40
1.0
 10
6284.641627413585
 20
5191.264172362318
 30
0.0
 10
6284.643354296522
 20
5191.312691167215
 30
0.0
 10
6284.663782174524
 20
5191.886636398549
 30
0.0
 10
6284.449551914211
 20
5192.93297966262
 30
0.0
 10
6284.01768145026
 20
5194.367571500262
 30
0.0
 10
6283.322675539372
 20
5195.678184811019
 30
0.0
 10
6282.389443221586
 20
5196.903248457727
 30
0.0
 10
6281.198252712911
 20
5197.996474552036
 30
0.0
 10
6279.737494881167
 20
5198.941360283077
 30
0.0
 10
6278.061239438134
 20
5199.668067527348
 30
0.0
 10
6276.25928848964
 20
5200.143344427081
 30
0.0
 10
6274.415950199024
 20
5200.353262087809
 30
0.0
 10
6272.640995154821
 20
5200.325513148289
 30
0.0
 10
6270.941947138473
 20
5200.075816363807
 30
0.0
 10
6269.341854379253
 20
5199.634532592075
 30
0.0
 10
6267.842900480651
 20
5198.993386662291
 30
0.0
 10
6266.433719955236
 20
5198.138877033614
 30
0.0
 10
6265.176046082844
 20
5197.063637275949
 30
0.0
 10
6264.099518762786
 20
5195.748415561993
 30
0.0
 10
6263.281955931218
 20
5194.22172028263
 30
0.0
 10
6262.800916361314
 20
5192.558552650235
 30
0.0
 10
6262.623022654386
 20
5191.208576914778
 30
0.0
 10
6262.692269668757
 20
5190.448045146965
 30
0.0
 10
6262.709569392328
 20
5190.258044329321
 30
0.0
  0
SPLINE
  5
94
330
1F
100
AcDbEntity
  8
0
  6
Continuous
 62
     7
370
    25
100
AcDbSpline
210
0.0
220
0.0
230
1.0
 70
     8
 71
     3
 72
    12
 73
     8
 74
     0
 42
0.000000001
 43
0.00000001
 40
0.0
 40
0.0
 40
0.0
 40
0.0
 40
0.1638308782466036
 40
0.3936107282411442
 40
0.6228480069800427
 40
0.851966741407279
 40
1.0
 40
1.0
 40
1.0
 40
1.0
 10
6266.076702322492
 20
5182.756385152273
 30
0.0
 10
6266.402043058451
 20
5182.43014556284
 30
0.0
 10
6267.183688163314
 20
5181.646340923859
 30
0.0
 10
6268.662737107402
 20
5180.686381186487
 30
0.0
 10
6270.436740682376
 20
5179.908983744831
 30
0.0
 10
6272.106878951043
 20
5179.507013875245
 30
0.0
 10
6273.165949558313
 20
5179.461325380319
 30
0.0
 10
6273.581637864288
 20
5179.443392512645
 30
0.0
  0
ARC
  5
95
330
1F
100
AcDbEntity
  8
0
  6
Continuous
 62
     7
370
    25
100
AcDbCircle
 10
6279.3267783057
 20
5234.1493507252
 30
0.0
 40
5.171569021534052
100
AcDbArc
 50
305.2065619695
 51
324.6112974263
  0
LWPOLYLINE
  5
96
330
1F
100
AcDbEntity
  8
0
  6
Continuous
 62
     7
370
    25
100
AcDbPolyline
 90
        3
 70
   128
 43
0.0
 10
6284.0559923185
 20
5231.4329988419
 10
6284.0369531873
 20
5231.3532249563
 10
6283.9786973619
 20
5231.1543894166
  0
LINE
  5
97
330
1F
100
AcDbEntity
  8
0
  6
Continuous
 62
     7
370
    25
100
AcDbLine
 10
6265.7256446437
 20
5231.1543894166
 30
0.0
 11
6265.6982885262
 21
5231.2581334667
 31
0.0
  0
ARC
  5
98
330
1F
100
AcDbEntity
  8
0
  6
Continuous
 62
     7
370
    25
100
AcDbCircle
 10
6270.1213154832
 20
5233.8143829147
 30
0.0
 40
4.817441317058525
100
AcDbArc
 50
213.5152546649
 51
233.8630387495
  0
LINE
  5
99
330
1F
100
AcDbEntity
  8
0
  6
Continuous
 62
     7
370
    25
100
AcDbLine
 10
6267.2803862001
 20
5229.9237709253
 30
0.0
 11
6267.2884438433
 21
5229.0778640251
 31
0.0
  0
ARC
  5
9A
330
1F
100
AcDbEntity
  8
0
  6
Continuous
 62
     7
370
    25
100
AcDbCircle
 10
6272.3972836145
 20
5236.0299979993
 30
0.0
 40
8.627422013693055
100
AcDbArc
 50
233.689350774
 51
249.5461827314
  0
ARC
  5
9B
330
1F
100
AcDbEntity
  8
0
  6
Continuous
 62
     7
370
    25
100
AcDbCircle
 10
6274.4184822926
 20
5242.4245907574
 30
0.0
 40
14.5395968175694
100
AcDbArc
 50
251.2320512607
 51
265.3777864234
  0
LINE
  5
9C
330
1F
100
AcDbEntity
  8
0
  6
Continuous
 62
     7
370
    25
100
AcDbLine
 10
6273.2468035105
 20
5227.9322809191
 30
0.0
 11
6273.2548611537
 21
5227.0863740189
 31
0.0
  0
ARC
  5
9D
330
1F
100
AcDbEntity
  8
0
  6
Continuous
 62
     7
370
    25
100
AcDbCircle
 10
6274.7546899516
 20
5244.2651291946
 30
0.0
 40
17.24410379835397
100
AcDbArc
 50
265.010318994
 51
274.9896810061
  0
ARC
  5
9E
330
1F
100
AcDbEntity
  8
0
  6
Continuous
 62
     7
370
    25
100
AcDbCircle
 10
6275.0355290849
 20
5242.8380409454
 30
0.0
 40
14.9548667102897
100
AcDbArc
 50
274.6444636944
 51
288.6149204822
  0
ARC
  5
9F
330
1F
100
AcDbEntity
  8
0
  6
Continuous
 62
     7
370
    25
100
AcDbCircle
 10
6277.0136158808
 20
5236.5414026838
 30
0.0
 40
9.155528958701252
100
AcDbArc
 50
290.1545760856
 51
305.3933823283
  0
LINE
  5
A0
330
1F
100
AcDbEntity
  8
0
  6
Continuous
 62
     7
370
    25
100
AcDbLine
 10
6282.3083217817
 20
5229.9237709253
 30
0.0
 11
6282.3163794249
 21
5229.0778640251
 31
0.0
  0
LWPOLYLINE
  5
A1
330
1F
100
AcDbEntity
  8
0
  6
Continuous
 62
     7
370
    25
100
AcDbPolyline
 90
       13
 70
   128
 43
0.0
 10
6274.7578477131
 20
5228.4003148469
 10
6273.6592965879
 20
5228.439573697
 10
6272.5822306378
 20
5228.556649672
 10
6271.54587013
 20
5228.7494535484
 10
6270.5687089425
 20
5229.0145447366
 10
6269.6681845398
 20
5229.3471926778
 10
6268.8603668011
 20
5229.7414612619
 10
6268.1596712532
 20
5230.1903147565
 10
6267.5786018247
 20
5230.6857433604
 10
6267.1275277134
 20
5231.2189061383
 10
6266.8144983474
 20
5231.7802887881
 10
6266.6450997431
 20
5232.3598734228
 10
6266.6164647843
 20
5232.6271615182
  0
LWPOLYLINE
  5
A2
330
1F
100
AcDbEntity
  8
0
  6
Continuous
 62
     7
370
    25
100
AcDbPolyline
 90
       13
 70
   128
 43
0.0
 10
6283.1119038171
 20
5232.784287985
 10
6283.0603599267
 20
5232.3598734228
 10
6282.8631843777
 20
5231.7802887881
 10
6282.5232504081
 20
5231.2189061383
 10
6282.0466241476
 20
5230.6857433604
 10
6281.4418110032
 20
5230.1903147565
 10
6280.7196038796
 20
5229.7414612619
 10
6279.8928905802
 20
5229.3471926778
 10
6278.9764238233
 20
5229.0145447366
 10
6277.98655798
 20
5228.7494535484
 10
6276.9409572297
 20
5228.556649672
 10
6275.8582803425
 20
5228.439573697
 10
6274.7578477131
 20
5228.4003148469
  0
LWPOLYLINE
  5
A3
330
1F
100
AcDbEntity
  8
0
  6
Continuous
 62
     7
370
    25
100
AcDbPolyline
 90
        3
 70
   128
 43
0.0
 10
6283.5497228439
 20
5232.299330086
 10
6283.5249447049
 20
5232.1989933615
 10
6283.4635992893
 20
5232.0002963168
  0
LINE
  5
A4
330
1F
100
AcDbEntity
  8
0
  6
Continuous
 62
     7
370
    25
100
AcDbLine
 10
6281.9543726485
 20
5230.1150086885
 30
0.0
 11
6282.3083217817
 21
5229.9237709253
 31
0.0
  0
ARC
  5
A5
330
1F
100
AcDbEntity
  8
0
  6
Continuous
 62
     7
370
    25
100
AcDbCircle
 10
6276.8864357427
 20
5237.1326682834
 30
0.0
 40
8.656300056670714
100
AcDbArc
 50
289.712305861
 51
305.8356525529
  0
ARC
  5
A6
330
1F
100
AcDbEntity
  8
0
  6
Continuous
 62
     7
370
    25
100
AcDbCircle
 10
6274.7531130733
 20
5244.434851786
 30
0.0
 40
16.3012637716361
100
AcDbArc
 50
264.7209266877
 51
275.2790733123
  0
LINE
  5
A7
330
1F
100
AcDbEntity
  8
0
  6
Continuous
 62
     7
370
    25
100
AcDbLine
 10
6273.2468035105
 20
5227.9322809191
 30
0.0
 11
6273.2532842754
 21
5228.2027319574
 31
0.0
  0
ARC
  5
A8
330
1F
100
AcDbEntity
  8
0
  6
Continuous
 62
     7
370
    25
100
AcDbCircle
 10
6272.5265720389
 20
5236.649283368
 30
0.0
 40
8.157274854803584
100
AcDbArc
 50
233.2291925382
 51
250.0063409672
  0
LINE
  5
A9
330
1F
100
AcDbEntity
  8
0
  6
Continuous
 62
     7
370
    25
100
AcDbLine
 10
6267.6435005189
 20
5230.1150086885
 30
0.0
 11
6267.2803862001
 21
5229.9237709253
 31
0.0
  0
LINE
  5
AA
330
1F
100
AcDbEntity
  8
0
  6
Continuous
 62
     7
370
    25
100
AcDbLine
 10
6266.2246274299
 20
5232.0002963168
 30
0.0
 11
6266.187963246
 21
5232.1339515267
 31
0.0
  0
ARC
  5
AB
330
1F
100
AcDbEntity
  8
0
  6
Continuous
 62
     7
370
    25
100
AcDbCircle
 10
6270.1390754391
 20
5234.0988725622
 30
0.0
 40
3.64024012446002
100
AcDbArc
 50
201.5719588709
 51
233.5141767823
  0
ARC
  5
AC
330
1F
100
AcDbEntity
  8
0
  6
Continuous
 62
     7
370
    25
100
AcDbCircle
 10
6279.4951529096
 20
5234.2379302915
 30
0.0
 40
3.720085796831416
100
AcDbArc
 50
307.928977227
 51
339.1678932483
  0
LWPOLYLINE
  5
AD
330
1F
100
AcDbEntity
  8
0
  6
Continuous
 62
     7
370
    25
100
AcDbPolyline
 90
       14
 70
   128
 43
0.0
 10
6274.767432785
 20
5228.800312788
 10
6273.724686474
 20
5228.8392403127
 10
6272.7041016591
 20
5228.9552652067
 10
6271.7255428627
 20
5229.1461291774
 10
6270.8080566188
 20
5229.4081172749
 10
6269.9695007535
 20
5229.7361301986
 10
6269.2261968028
 20
5230.1237835503
 10
6268.5926123326
 20
5230.5635320983
 10
6268.0810793439
 20
5231.0468166375
 10
6267.7015542446
 20
5231.5642305839
 10
6267.461424059
 20
5232.1057030636
 10
6267.3653626479
 20
5232.6606949307
 10
6267.4152397376
 20
5233.2184038999
 10
6267.4387478221
 20
5233.3147386397
  0
LWPOLYLINE
  5
AE
330
1F
100
AcDbEntity
  8
0
  6
Continuous
 62
     7
370
    25
100
AcDbPolyline
 90
       14
 70
   128
 43
0.0
 10
6282.2766722106
 20
5233.4560765349
 10
6282.3313655255
 20
5233.2184038999
 10
6282.354514075
 20
5232.6606949307
 10
6282.2318543424
 20
5232.1057030636
 10
6281.9657737602
 20
5231.5642305839
 10
6281.561451284
 20
5231.0468166375
 10
6281.026756591
 20
5230.5635320983
 10
6280.3720969052
 20
5230.1237835503
 10
6279.6102144328
 20
5229.7361301986
 10
6278.7559383493
 20
5229.4081172749
 10
6277.8258961671
 20
5229.1461291774
 10
6276.8381900994
 20
5228.9552652067
 10
6275.8120447211
 20
5228.8392403127
 10
6274.767432785
 20
5228.800312788
  0
ARC
  5
AF
330
1F
100
AcDbEntity
  8
0
  6
Continuous
 62
     7
370
    25
100
AcDbCircle
 10
6268.6543320606
 20
5231.8956964244
 30
0.0
 40
2.532569882884008
100
AcDbArc
 50
176.5135924722
 51
197.0202336013
  0
LINE
  5
B0
330
1F
100
AcDbEntity
  8
0
  6
Continuous
 62
     7
370
    25
100
AcDbLine
 10
6265.7256446437
 20
5231.1543894166
 30
0.0
 11
6266.2326850732
 21
5231.1543894166
 31
0.0
  0
LINE
  5
B1
330
1F
100
AcDbEntity
  8
0
  6
Continuous
 62
     7
370
    25
100
AcDbLine
 10
6266.2246274299
 20
5232.0002963168
 30
0.0
 11
6266.2326850732
 21
5231.1543894166
 31
0.0
  0
LINE
  5
B2
330
1F
100
AcDbEntity
  8
0
  6
Continuous
 62
     7
370
    25
100
AcDbLine
 10
6283.9786973619
 20
5231.1543894166
 30
0.0
 11
6283.4716569325
 21
5231.1543894166
 31
0.0
  0
ARC
  5
B3
330
1F
100
AcDbEntity
  8
0
  6
Continuous
 62
     7
370
    25
100
AcDbCircle
 10
6281.0575289231
 20
5232.0156646104
 30
0.0
 40
2.563163866217494
100
AcDbArc
 50
340.3654037651
 51
4.488876842
  0
LINE
  5
B4
330
1F
100
AcDbEntity
  8
0
  6
Continuous
 62
     7
370
    25
100
AcDbLine
 10
6283.4635992893
 20
5232.0002963168
 30
0.0
 11
6283.4716569325
 21
5231.1543894166
 31
0.0
  0
LINE
  5
B5
330
1F
100
AcDbEntity
  8
0
  6
Continuous
 62
     7
370
    25
100
AcDbLine
 10
6267.6435005189
 20
5230.1150086885
 30
0.0
 11
6267.6515581621
 21
5229.2691017883
 31
0.0
  0
LINE
  5
B6
330
1F
100
AcDbEntity
  8
0
  6
Continuous
 62
     7
370
    25
100
AcDbLine
 10
6267.6515581621
 20
5229.2691017883
 30
0.0
 11
6267.2884438433
 21
5229.0778640251
 31
0.0
  0
ARC
  5
B7
330
1F
100
AcDbEntity
  8
0
  6
Continuous
 62
     7
370
    25
100
AcDbCircle
 10
6272.5346296821
 20
5235.8033764677
 30
0.0
 40
8.157274854725532
100
AcDbArc
 50
233.2291925382
 51
250.0063409673
  0
LINE
  5
B8
330
1F
100
AcDbEntity
  8
0
  6
Continuous
 62
     7
370
    25
100
AcDbLine
 10
6269.7455257122
 20
5228.1377367618
 30
0.0
 11
6269.3824113934
 21
5227.9464989987
 31
0.0
  0
LINE
  5
B9
330
1F
100
AcDbEntity
  8
0
  6
Continuous
 62
     7
370
    25
100
AcDbLine
 10
6269.737468069
 20
5228.983643662
 30
0.0
 11
6269.7455257122
 21
5228.1377367618
 31
0.0
  0
LINE
  5
BA
330
1F
100
AcDbEntity
  8
0
  6
Continuous
 62
     7
370
    25
100
AcDbLine
 10
6279.8061837442
 20
5228.983643662
 30
0.0
 11
6279.8142413874
 21
5228.1377367618
 31
0.0
  0
LINE
  5
BB
330
1F
100
AcDbEntity
  8
0
  6
Continuous
 62
     7
370
    25
100
AcDbLine
 10
6281.9543726485
 20
5230.1150086885
 30
0.0
 11
6281.9624302918
 21
5229.2691017883
 31
0.0
  0
ARC
  5
BC
330
1F
100
AcDbEntity
  8
0
  6
Continuous
 62
     7
370
    25
100
AcDbCircle
 10
6276.894493386
 20
5236.2867613831
 30
0.0
 40
8.656300056572775
100
AcDbArc
 50
289.712305861
 51
305.835652553
  0
LINE
  5
BD
330
1F
100
AcDbEntity
  8
0
  6
Continuous
 62
     7
370
    25
100
AcDbLine
 10
6279.8142413874
 20
5228.1377367618
 30
0.0
 11
6280.1681905205
 21
5227.9464989987
 31
0.0
  0
LINE
  5
BE
330
1F
100
AcDbEntity
  8
0
  6
Continuous
 62
     7
370
    25
100
AcDbLine
 10
6281.9624302918
 20
5229.2691017883
 30
0.0
 11
6282.3163794249
 21
5229.0778640251
 31
0.0
  0
ARC
  5
BF
330
1F
100
AcDbEntity
  8
0
  6
Continuous
 62
     7
370
    25
100
AcDbCircle
 10
6274.7611707165
 20
5243.5889448856
 30
0.0
 40
16.30126377139529
100
AcDbArc
 50
264.7209266877
 51
275.2790733123
  0
LINE
  5
C0
330
1F
100
AcDbEntity
  8
0
  6
Continuous
 62
     7
370
    25
100
AcDbLine
 10
6273.2532842754
 20
5228.2027319574
 30
0.0
 11
6273.2613419186
 21
5227.3568250572
 31
0.0
  0
LINE
  5
C1
330
1F
100
AcDbEntity
  8
0
  6
Continuous
 62
     7
370
    25
100
AcDbLine
 10
6276.2529418712
 20
5228.2027319574
 30
0.0
 11
6276.2609995144
 21
5227.3568250572
 31
0.0
  0
LINE
  5
C2
330
1F
100
AcDbEntity
  8
0
  6
Continuous
 62
     7
370
    25
100
AcDbLine
 10
6273.2548611537
 20
5227.0863740189
 30
0.0
 11
6273.2613419186
 21
5227.3568250572
 31
0.0
  0
LINE
  5
C3
330
1F
100
AcDbEntity
  8
0
  6
Continuous
 62
     7
370
    25
100
AcDbLine
 10
6276.2545187495
 20
5227.0863740189
 30
0.0
 11
6276.2609995144
 21
5227.3568250572
 31
0.0
  0
LWPOLYLINE
  5
C4
330
1F
100
AcDbEntity
  8
0
  6
Continuous
 62
     7
370
    18
100
AcDbPolyline
 90
        3
 70
   128
 43
0.0
 10
6249.1428901923
 20
5245.6595587212
 10
6249.1463523608
 20
5245.6854060283
 10
6249.2790238938
 20
5246.5373092396
  0
LINE
  5
C5
330
1F
100
AcDbEntity
  8
0
  6
Continuous
 62
     7
370
    18
100
AcDbLine
 10
6298.9258805206
 20
5243.7518606069
 30
0.0
 11
6298.9328571362
 21
5243.6140956195
 31
0.0
  0
LINE
  5
C6
330
1F
100
AcDbEntity
  8
0
  6
Continuous
 62
     7
370
    18
100
AcDbLine
 10
6298.9502416787
 20
5242.1413518778
 30
0.0
 11
6298.7522514919
 21
5233.785818583
 31
0.0
  0
SPLINE
  5
C7
330
1F
100
AcDbEntity
  8
0
  6
Continuous
 62
     7
370
    25
100
AcDbSpline
210
0.0
220
0.0
230
1.0
 70
     8
 71
     3
 72
     9
 73
     5
 74
     0
 42
0.000000001
 43
0.00000001
 40
0.0
 40
0.0
 40
0.0
 40
0.0
 40
0.9979593022776418
 40
1.0
 40
1.0
 40
1.0
 40
1.0
 10
6298.751333790255
 20
5233.796559050594
 30
0.0
 10
6298.751640068014
 20
5233.79303053956
 30
0.0
 10
6298.751946972072
 20
5233.78949481318
 30
0.0
 10
6298.75225390392
 20
5233.785954032425
 30
0.0
 10
6298.752254530275
 20
5233.785946806762
 30
0.0
  0
SPLINE
  5
C8
330
1F
100
AcDbEntity
  8
0
  6
Continuous
 62
     7
370
    25
100
AcDbSpline
210
0.0
220
0.0
230
1.0
 70
     8
 71
     3
 72
    16
 73
    12
 74
     0
 42
0.000000001
 43
0.00000001
 40
0.0
 40
0.0
 40
0.0
 40
0.0
 40
0.0000023275802144
 40
0.1366152940986325
 40
0.2736257539630547
 40
0.4102337510318995
 40
0.5403289463146217
 40
0.6709428653885585
 40
0.8016447868806662
 40
0.9318604487582183
 40
1.0
 40
1.0
 40
1.0
 40
1.0
 10
6297.214834213376
 20
5225.095336967399
 30
0.0
 10
6297.214834893127
 20
5225.09535207911
 30
0.0
 10
6297.25473225806
 20
5225.982320796559
 30
0.0
 10
6297.334143807674
 20
5227.675561950022
 30
0.0
 10
6297.450918865533
 20
5229.938322023134
 30
0.0
 10
6297.562870257205
 20
5231.866382912433
 30
0.0
 10
6297.670220650536
 20
5233.454848854015
 30
0.0
 10
6297.77421403784
 20
5234.74864158737
 30
0.0
 10
6297.876475740099
 20
5235.752107205821
 30
0.0
 10
6297.961509560924
 20
5236.423691908443
 30
0.0
 10
6298.012143415188
 20
5236.631958989439
 30
0.0
 10
6298.029537301907
 20
5236.703503493938
 30
0.0
  0
LINE
  5
C9
330
1F
100
AcDbEntity
  8
0
  6
Continuous
 62
     7
370
    25
100
AcDbLine
 10
6297.2148342134
 20
5225.0953369681
 30
0.0
 11
6297.4557894298
 21
5230.9001824003
 31
0.0
  0
LWPOLYLINE
  5
CA
330
1F
100
AcDbEntity
  8
0
  6
Continuous
 62
     7
370
    25
100
AcDbPolyline
 90
       40
 70
   128
 43
0.0
 10
6297.4557894298
 20
5230.9001824003
 10
6297.4085408733
 20
5231.519409116
 10
6297.2156942624
 20
5232.1346199089
 10
6296.8785002816
 20
5232.7418249008
 10
6296.3991457631
 20
5233.3370861344
 10
6295.780739505
 20
5233.9165431122
 10
6295.0272921091
 20
5234.4764378332
 10
6294.143689971
 20
5235.0131391655
 10
6293.1356635895
 20
5235.5231663949
 10
6292.0097504026
 20
5236.0032117991
 10
6290.7732523893
 20
5236.4501620994
 10
6289.4341887137
 20
5236.8611186517
 10
6288.0012437176
 20
5237.2334162451
 10
6286.4837105992
 20
5237.5646403866
 10
6284.891431143
 20
5237.8526429608
 10
6283.2347318923
 20
5238.0955561603
 10
6281.5243571776
 20
5238.2918045999
 10
6279.7713994352
 20
5238.4401155332
 10
6277.9872272686
 20
5238.5395271068
 10
6276.183411719
 20
5238.5893945985
 10
6274.3716512225
 20
5238.5893945985
 10
6272.5636957411
 20
5238.5395271068
 10
6270.7712705599
 20
5238.4401155332
 10
6269.0060002439
 20
5238.2918045999
 10
6267.2793332487
 20
5238.0955561603
 10
6265.6024676721
 20
5237.8526429608
 10
6263.9862786309
 20
5237.5646403866
 10
6262.4412477313
 20
5237.2334162451
 10
6260.9773950915
 20
5236.8611186517
 10
6259.6042143576
 20
5236.4501620994
 10
6258.3306111336
 20
5236.0032117991
 10
6257.1648452252
 20
5235.5231663949
 10
6256.1144770715
 20
5235.0131391655
 10
6255.1863187131
 20
5234.4764378332
 10
6254.3863896132
 20
5233.9165431122
 10
6253.7198776189
 20
5233.3370861344
 10
6253.1911053163
 20
5232.7418249008
 10
6252.8035019966
 20
5232.1346199089
 10
6252.5595814161
 20
5231.519409116
 10
6252.4609254933
 20
5230.9001824003
  0
LINE
  5
CB
330
1F
100
AcDbEntity
  8
0
  6
Continuous
 62
     7
370
    25
100
AcDbLine
 10
6252.4609254933
 20
5230.9001824003
 30
0.0
 11
6252.2199702769
 21
5225.0953369674
 31
0.0
  0
ARC
  5
CC
330
1F
100
AcDbEntity
  8
0
  6
Continuous
 62
     7
370
    25
100
AcDbCircle
 10
6146.5131316468
 20
5218.8377175212
 30
0.0
 40
105.8918955080749
100
AcDbArc
 50
3.3878342377
 51
8.9229170702
  0
SPLINE
  5
CD
330
1F
100
AcDbEntity
  8
0
  6
Continuous
 62
     7
370
    25
100
AcDbSpline
210
0.0
220
0.0
230
1.0
 70
     8
 71
     3
 72
     9
 73
     5
 74
     0
 42
0.000000001
 43
0.00000001
 40
0.0
 40
0.0
 40
0.0
 40
0.0
 40
0.0020406977230432
 40
1.0
 40
1.0
 40
1.0
 40
1.0
 10
6249.287547506528
 20
5233.785946806762
 30
0.0
 10
6249.287548695724
 20
5233.785954032425
 30
0.0
 10
6249.288131435052
 20
5233.789494813218
 30
0.0
 10
6249.288714205793
 20
5233.793030539579
 30
0.0
 10
6249.289295787273
 20
5233.796559050594
 30
0.0
  0
LINE
  5
CE
330
1F
100
AcDbEntity
  8
0
  6
Continuous
 62
     7
370
    18
100
AcDbLine
 10
6249.2875522986
 20
5233.785818583
 30
0.0
 11
6248.9752844127
 21
5242.1413518778
 31
0.0
  0
ELLIPSE
  5
CF
330
1F
100
AcDbEntity
  8
0
  6
Continuous
 62
     7
370
    25
100
AcDbEllipse
 10
6274.9370619236
 20
5230.3871521853
 30
0.0
 11
17.50023137193602
 21
0.1309911625330642
 31
0.0
210
0.0
220
0.0
230
1.0
 40
0.3908033208
 41
0.0
 42
6.283185307179586
  0
SPLINE
  5
D0
330
1F
100
AcDbEntity
  8
0
  6
Continuous
 62
     7
370
    25
100
AcDbSpline
210
0.0
220
0.0
230
1.0
 70
     8
 71
     3
 72
    10
 73
     6
 74
     0
 42
0.000000001
 43
0.00000001
 40
0.0
 40
0.0
 40
0.0
 40
0.0
 40
0.3605689837777926
 40
0.7204241999982086
 40
1.0
 40
1.0
 40
1.0
 40
1.0
 10
6296.805723497355
 20
5224.805850429781
 30
0.0
 10
6296.890278789525
 20
5224.833743509376
 30
0.0
 10
6297.059221991682
 20
5224.889474452572
 30
0.0
 10
6297.189477844734
 20
5224.994475236825
 30
0.0
 10
6297.207120421788
 20
5225.064653300514
 30
0.0
 10
6297.214834213376
 20
5225.095336967399
 30
0.0
  0
ARC
  5
D1
330
1F
100
AcDbEntity
  8
0
  6
Continuous
 62
     7
370
    25
100
AcDbCircle
 10
6274.7053862425
 20
5314.7466387849
 30
0.0
 40
92.61623883842864
100
AcDbArc
 50
256.1947480848
 51
283.8052519154
  0
SPLINE
  5
D2
330
1F
100
AcDbEntity
  8
0
  6
Continuous
 62
     7
370
    25
100
AcDbSpline
210
0.0
220
0.0
230
1.0
 70
     8
 71
     3
 72
    10
 73
     6
 74
     0
 42
0.000000001
 43
0.00000001
 40
0.0
 40
0.0
 40
0.0
 40
0.0
 40
0.3887479228133268
 40
0.7781092624590042
 40
1.0
 40
1.0
 40
1.0
 40
1.0
 10
6252.219970276877
 20
5225.095336967399
 30
0.0
 10
6252.230329539526
 20
5225.052564523166
 30
0.0
 10
6252.251064411012
 20
5224.966952142798
 30
0.0
 10
6252.409139247053
 20
5224.867350437379
 30
0.0
 10
6252.55287182111
 20
5224.822229712904
 30
0.0
 10
6252.605048211271
 20
5224.805850429781
 30
0.0
  0
SPLINE
  5
D3
330
1F
100
AcDbEntity
  8
0
  6
Continuous
 62
     7
370
    25
100
AcDbSpline
210
0.0
220
0.0
230
1.0
 70
     8
 71
     3
 72
    15
 73
    11
 74
     0
 42
0.000000001
 43
0.00000001
 40
0.0
 40
0.0
 40
0.0
 40
0.0
 40
0.0517637821201157
 40
0.1907141690175078
 40
0.3332134899572756
 40
0.4761971949736412
 40
0.6185757443116123
 40
0.780202131471772
 40
0.9416970629604755
 40
1.0
 40
1.0
 40
1.0
 40
1.0
 10
6257.723109509117
 20
5231.376568612016
 30
0.0
 10
6257.76449303178
 20
5231.266648362975
 30
0.0
 10
6257.916963037107
 20
5230.861667349308
 30
0.0
 10
6258.477491106694
 20
5230.172955808222
 30
0.0
 10
6259.415651848049
 20
5229.324895382478
 30
0.0
 10
6260.670700327795
 20
5228.517533951482
 30
0.0
 10
6262.272520690961
 20
5227.735284068444
 30
0.0
 10
6264.283131708304
 20
5227.018586276322
 30
0.0
 10
6266.162521291925
 20
5226.510591620029
 30
0.0
 10
6267.382802950694
 20
5226.296889012815
 30
0.0
 10
6267.70649127942
 20
5226.240202886889
 30
0.0
  0
SPLINE
  5
D4
330
1F
100
AcDbEntity
  8
0
  6
Continuous
 62
     7
370
    25
100
AcDbSpline
210
0.0
220
0.0
230
1.0
 70
     8
 71
     3
 72
    15
 73
    11
 74
     0
 42
0.000000001
 43
0.00000001
 40
0.0
 40
0.0
 40
0.0
 40
0.0
 40
0.0027871819891223
 40
0.1383288592281911
 40
0.273945222987425
 40
0.4309725786821853
 40
0.5880734035432046
 40
0.7708983693428645
 40
0.953773181883833
 40
1.0
 40
1.0
 40
1.0
 40
1.0
 10
6282.084080562722
 20
5226.326802405477
 30
0.0
 10
6282.100237880702
 20
5226.329429113523
 30
0.0
 10
6282.902131468251
 20
5226.459793592366
 30
0.0
 10
6284.321640491508
 20
5226.828115877601
 30
0.0
 10
6286.380540270117
 20
5227.452228660925
 30
0.0
 10
6288.217639358551
 20
5228.222344293723
 30
0.0
 10
6289.893057045389
 20
5229.155777562501
 30
0.0
 10
6291.188557041371
 20
5230.216923177987
 30
0.0
 10
6291.918568813899
 20
5231.090843505635
 30
0.0
 10
6292.087447054824
 20
5231.588660267466
 30
0.0
 10
6292.121522341432
 20
5231.68910688951
 30
0.0
  0
SPLINE
  5
D5
330
1F
100
AcDbEntity
  8
0
  6
Continuous
 62
     7
370
    18
100
AcDbSpline
210
0.0
220
0.0
230
1.0
 70
     8
 71
     3
 72
    11
 73
     7
 74
     0
 42
0.000000001
 43
0.00000001
 40
0.0
 40
0.0
 40
0.0
 40
0.0
 40
0.2500000425549305
 40
0.5000000567395378
 40
0.7500000425542257
 40
0.9999999999999999
 40
0.9999999999999999
 40
0.9999999999999999
 40
0.9999999999999999
 10
6249.62030122089
 20
5233.134639957132
 30
0.0
 10
6249.572941760137
 20
5233.179677522625
 30
0.0
 10
6249.478222844005
 20
5233.269752648497
 30
0.0
 10
6249.376876980155
 20
5233.433753057992
 30
0.0
 10
6249.307593890818
 20
5233.610775337673
 30
0.0
 10
6249.29540451405
 20
5233.734368779701
 30
0.0
 10
6249.289309826014
 20
5233.796165497209
 30
0.0
  0
LINE
  5
D6
330
1F
100
AcDbEntity
  8
0
  6
Continuous
 62
     7
370
    18
100
AcDbLine
 10
6298.4278555693
 20
5233.1341422154
 30
0.0
 11
6297.6437173043
 21
5232.5014109399
 31
0.0
  0
LWPOLYLINE
  5
D7
330
1F
100
AcDbEntity
  8
0
  6
Continuous
 62
     7
370
    18
100
AcDbPolyline
 90
        3
 70
   128
 43
0.0
 10
6251.6447459583
 20
5231.5881258116
 10
6251.4027776432
 20
5231.7613191351
 10
6249.6208611264
 20
5233.1341422154
  0
SPLINE
  5
D8
330
1F
100
AcDbEntity
  8
0
  6
Continuous
 62
     7
370
    18
100
AcDbSpline
210
0.0
220
0.0
230
1.0
 70
     8
 71
     3
 72
    10
 73
     6
 74
     0
 42
0.000000001
 43
0.00000001
 40
0.0
 40
0.0
 40
0.0
 40
0.0
 40
0.4283131449578503
 40
0.6964609841899936
 40
0.9999999999999999
 40
0.9999999999999999
 40
0.9999999999999999
 40
0.9999999999999999
 10
6298.751333546453
 20
5233.796561858087
 30
0.0
 10
6298.737315231674
 20
5233.690167654298
 30
0.0
 10
6298.714520672547
 20
5233.517164764346
 30
0.0
 10
6298.588930457962
 20
5233.292646908554
 30
0.0
 10
6298.48334739939
 20
5233.188813163026
 30
0.0
 10
6298.427287727206
 20
5233.133682294357
 30
0.0
  0
SPLINE
  5
D9
330
1F
100
AcDbEntity
  8
0
  6
Continuous
 62
     7
370
    25
100
AcDbSpline
210
0.0
220
0.0
230
1.0
 70
     8
 71
     3
 72
    25
 73
    21
 74
     0
 42
0.000000001
 43
0.00000001
 40
0.0
 40
0.0
 40
0.0
 40
0.0
 40
0.0000007104908857
 40
0.0965251741542625
 40
0.19304660958226
 40
0.2663474900009367
 40
0.33976803115832
 40
0.4131454493867956
 40
0.4863874234442694
 40
0.5431382386333121
 40
0.6001282817622388
 40
0.6571123942270686
 40
0.7139332088028582
 40
0.7705415247732017
 40
0.8206354340287106
 40
0.8709690260326144
 40
0.9212581990590633
 40
0.9712912370389998
 40
0.9999992895091159
 40
1.0
 40
1.0
 40
1.0
 40
1.0
 10
6245.486874338253
 20
5162.178668745478
 30
0.0
 10
6245.486875208979
 20
5162.178688723417
 30
0.0
 10
6245.60516929526
 20
5164.892831974397
 30
0.0
 10
6245.834538202998
 20
5170.319887315091
 30
0.0
 10
6246.140517510494
 20
5177.770419831458
 30
0.0
 10
6246.418615010371
 20
5184.519795637966
 30
0.0
 10
6246.671133705877
 20
5190.564718344318
 30
0.0
 10
6246.926614622151
 20
5196.519666292857
 30
0.0
 10
6247.167333856037
 20
5201.912440886907
 30
0.0
 10
6247.393309235691
 20
5206.749741180312
 30
0.0
 10
6247.604530944292
 20
5211.045593806497
 30
0.0
 10
6247.82202722593
 20
5215.18986443268
 30
0.0
 10
6248.046208713869
 20
5219.129754748829
 30
0.0
 10
6248.268668518133
 20
5222.680530629433
 30
0.0
 10
6248.489467074112
 20
5225.812542078337
 30
0.0
 10
6248.707415663262
 20
5228.521681939045
 30
0.0
 10
6248.930273212033
 20
5230.901909005951
 30
0.0
 10
6249.12452315284
 20
5232.61743091617
 30
0.0
 10
6249.243946961677
 20
5233.489982726231
 30
0.0
 10
6249.287556010616
 20
5233.785683061873
 30
0.0
 10
6249.287557089862
 20
5233.785690379931
 30
0.0
  0
SPLINE
  5
DA
330
1F
100
AcDbEntity
  8
0
  6
Continuous
 62
     7
370
    25
100
AcDbSpline
210
0.0
220
0.0
230
1.0
 70
     8
 71
     3
 72
    11
 73
     7
 74
     0
 42
0.000000001
 43
0.00000001
 40
0.0
 40
0.0
 40
0.0
 40
0.0
 40
0.2499998055689026
 40
0.4999997378150227
 40
0.7499998006599259
 40
1.0
 40
1.0
 40
1.0
 40
1.0
 10
6249.287547511125
 20
5233.78594683469
 30
0.0
 10
6249.293553330643
 20
5233.723353476945
 30
0.0
 10
6249.30556497272
 20
5233.598166729739
 30
0.0
 10
6249.374782812305
 20
5233.418901040702
 30
0.0
 10
6249.476200060909
 20
5233.252898289452
 30
0.0
 10
6249.571082145128
 20
5233.161846392938
 30
0.0
 10
6249.618523200188
 20
5233.116320432252
 30
0.0
  0
SPLINE
  5
DB
330
1F
100
AcDbEntity
  8
0
  6
Continuous
 62
     7
370
    25
100
AcDbSpline
210
0.0
220
0.0
230
1.0
 70
     8
 71
     3
 72
    24
 73
    20
 74
     0
 42
0.000000001
 43
0.00000001
 40
0.0
 40
0.0
 40
0.0
 40
0.0
 40
0.0285076607026974
 40
0.0782414433190525
 40
0.1282315695803185
 40
0.1782663321720848
 40
0.2280612859385022
 40
0.2846486653906731
 40
0.3414489458071433
 40
0.398414181313235
 40
0.4553864604059299
 40
0.5121186734438171
 40
0.5856127903092129
 40
0.6592428006115703
 40
0.7329167068769757
 40
0.8064707859686395
 40
0.9032337872033958
 40
0.999999281657839
 40
1.0
 40
1.0
 40
1.0
 40
1.0
 10
6249.618508031795
 20
5233.116333492027
 30
0.0
 10
6249.575098903364
 20
5232.812371403178
 30
0.0
 10
6249.455959248339
 20
5231.978124328547
 30
0.0
 10
6249.26306201892
 20
5230.275070720959
 30
0.0
 10
6249.043178509693
 20
5227.935645867051
 30
0.0
 10
6248.829821225741
 20
5225.266342622149
 30
0.0
 10
6248.615488958082
 20
5222.175709165685
 30
0.0
 10
6248.401211331248
 20
5218.664794512556
 30
0.0
 10
6248.186177363073
 20
5214.763005930542
 30
0.0
 10
6247.978845103286
 20
5210.659284445902
 30
0.0
 10
6247.778521675546
 20
5206.406280689177
 30
0.0
 10
6247.56471339525
 20
5201.611229759078
 30
0.0
 10
6247.337727320116
 20
5196.259889402541
 30
0.0
 10
6247.09757247035
 20
5190.345326908378
 30
0.0
 10
6246.86049055249
 20
5184.342323951479
 30
0.0
 10
6246.599095551517
 20
5177.643222969722
 30
0.0
 10
6246.310254576633
 20
5170.251827275402
 30
0.0
 10
6246.09015790353
 20
5164.870030275609
 30
0.0
 10
6245.975134155665
 20
5162.178688724601
 30
0.0
 10
6245.975133301788
 20
5162.178668745478
 30
0.0
  0
SPLINE
  5
DC
330
1F
100
AcDbEntity
  8
0
  6
Continuous
 62
     7
370
    25
100
AcDbSpline
210
0.0
220
0.0
230
1.0
 70
    24
 71
     3
 72
    10
 73
     6
 74
     0
 42
0.000000001
 43
0.00000001
 40
0.0
 40
0.0
 40
0.0
 40
0.0
 40
0.3317097585614548
 40
0.6634278230378698
 40
1.0
 40
1.0
 40
1.0
 40
1.0
 10
6245.975133301788
 20
5162.178668745478
 30
0.0
 10
6245.884509992327
 20
5162.178668745478
 30
0.0
 10
6245.703261104224
 20
5162.178668745478
 30
0.0
 10
6245.526830698985
 20
5162.178668745479
 30
0.0
 10
6245.500257463215
 20
5162.178668745478
 30
0.0
 10
6245.486874338253
 20
5162.178668745478
 30
0.0
  0
SPLINE
  5
DD
330
1F
100
AcDbEntity
  8
0
  6
Continuous
 62
     7
370
    25
100
AcDbSpline
210
0.0
220
0.0
230
1.0
 70
     8
 71
     3
 72
    43
 73
    39
 74
     0
 42
0.000000001
 43
0.00000001
 40
0.0
 40
0.0
 40
0.0
 40
0.0
 40
0.0280586581265858
 40
0.0561217451689598
 40
0.0841318668087712
 40
0.1121487094209272
 40
0.1411542669385984
 40
0.1701600716724687
 40
0.2002137093708442
 40
0.2302575089138641
 40
0.259321748911516
 40
0.2883806359438715
 40
0.3157549491944913
 40
0.3431352126102556
 40
0.3706464976501933
 40
0.3981647414392638
 40
0.4274472292187213
 40
0.4567267753034288
 40
0.4868360337105677
 40
0.5169321691466062
 40
0.5452715874434153
 40
0.5736107046491906
 40
0.6004900307186603
 40
0.6273777335548442
 40
0.6553817840279362
 40
0.6833901863814105
 40
0.7132903951793049
 40
0.7431823449101648
 40
0.7728312788175901
 40
0.8024714101588394
 40
0.8301753639232308
 40
0.8578832473164798
 40
0.8851527939949917
 40
0.9124294635415943
 40
0.9411491663285655
 40
0.9698703468559938
 40
0.9998855472064395
 40
1.0
 40
1.0
 40
1.0
 40
1.0
 10
6273.648393391667
 20
5179.540955685145
 30
0.0
 10
6274.24539144806
 20
5179.571621935917
 30
0.0
 10
6275.439481793936
 20
5179.632959277974
 30
0.0
 10
6277.177385243732
 20
5180.106684703789
 30
0.0
 10
6278.811146935257
 20
5180.846579337342
 30
0.0
 10
6280.322912471504
 20
5181.852649569004
 30
0.0
 10
6281.667654911216
 20
5183.103086336278
 30
0.0
 10
6282.827406904089
 20
5184.579564977279
 30
0.0
 10
6283.739625306906
 20
5186.238098361882
 30
0.0
 10
6284.368913917761
 20
5188.00913625298
 30
0.0
 10
6284.67906581973
 20
5189.813944572851
 30
0.0
 10
6284.682932284335
 20
5191.557371882554
 30
0.0
 10
6284.389711898977
 20
5193.201080401099
 30
0.0
 10
6283.842057009638
 20
5194.713397870267
 30
0.0
 10
6283.040907582844
 20
5196.086796371428
 30
0.0
 10
6281.995136549997
 20
5197.328619072468
 30
0.0
 10
6280.707336798035
 20
5198.400452422388
 30
0.0
 10
6279.184932504616
 20
5199.288417528667
 30
0.0
 10
6277.475632791431
 20
5199.9410938638
 30
0.0
 10
6275.661484711038
 20
5200.337731246025
 30
0.0
 10
6273.817183240938
 20
5200.468246109857
 30
0.0
 10
6272.036091010571
 20
5200.359301739354
 30
0.0
 10
6270.336158366586
 20
5200.021456509236
 30
0.0
 10
6268.732397580983
 20
5199.477236885848
 30
0.0
 10
6267.23974328575
 20
5198.713820183689
 30
0.0
 10
6265.861980908066
 20
5197.718182632953
 30
0.0
 10
6264.669408730585
 20
5196.490257793217
 30
0.0
 10
6263.705803871064
 20
5195.044798740832
 30
0.0
 10
6263.037376279462
 20
5193.429239963115
 30
0.0
 10
6262.682119684118
 20
5191.731304316284
 30
0.0
 10
6262.64411050843
 20
5190.001165207662
 30
0.0
 10
6262.884993177359
 20
5188.30737833326
 30
0.0
 10
6263.400213160098
 20
5186.66035966563
 30
0.0
 10
6264.171841492447
 20
5185.078736637115
 30
0.0
 10
6265.198830938582
 20
5183.593790607616
 30
0.0
 10
6266.502782896347
 20
5182.273883499971
 30
0.0
 10
6267.472298380274
 20
5181.453010328914
 30
0.0
 10
6268.043394911821
 20
5181.163222380883
 30
0.0
 10
6268.04556432257
 20
5181.162121570329
 30
0.0
  0
SPLINE
  5
DE
330
1F
100
AcDbEntity
  8
0
  6
Continuous
 62
     7
370
    25
100
AcDbSpline
210
0.0
220
0.0
230
1.0
 70
     8
 71
     3
 72
     9
 73
     5
 74
     0
 42
0.000000001
 43
0.00000001
 40
0.0
 40
0.0
 40
0.0
 40
0.0
 40
0.9987531813376408
 40
1.0
 40
1.0
 40
1.0
 40
1.0
 10
6298.428845318388
 20
5233.116320432252
 30
0.0
 10
6298.428326748977
 20
5233.122105107458
 30
0.0
 10
6298.427807532199
 20
5233.127897004107
 30
0.0
 10
6298.427288374502
 20
5233.133675090131
 30
0.0
 10
6298.427287727206
 20
5233.133682294357
 30
0.0
  0
SPLINE
  5
DF
330
1F
100
AcDbEntity
  8
0
  6
Continuous
 62
     7
370
    25
100
AcDbSpline
210
0.0
220
0.0
230
1.0
 70
     8
 71
     3
 72
    24
 73
    20
 74
     0
 42
0.000000001
 43
0.00000001
 40
0.0
 40
0.0
 40
0.0
 40
0.0
 40
0.0000007183421597
 40
0.096766212796603
 40
0.1935292140313591
 40
0.2670832931230229
 40
0.3407571993884297
 40
0.4143872096907872
 40
0.4878813265561832
 40
0.5446135395940715
 40
0.6015858186867664
 40
0.6585510541928584
 40
0.7153513346093285
 40
0.7719387140614993
 40
0.8217336678279148
 40
0.871768430419678
 40
0.9217585566809415
 40
0.9714923392972948
 40
0.9999999999999999
 40
0.9999999999999999
 40
0.9999999999999999
 40
0.9999999999999999
 10
6301.017583822337
 20
5162.178668745478
 30
0.0
 10
6301.017582978664
 20
5162.178688724601
 30
0.0
 10
6300.903933815391
 20
5164.870030281204
 30
0.0
 10
6300.691543419643
 20
5170.251827272778
 30
0.0
 10
6300.427206571674
 20
5177.64322297024
 30
0.0
 10
6300.199546399179
 20
5184.342323951356
 30
0.0
 10
6300.002636377475
 20
5190.34532690841
 30
0.0
 10
6299.813122560912
 20
5196.259889402532
 30
0.0
 10
6299.643376342308
 20
5201.61122975908
 30
0.0
 10
6299.491245426014
 20
5206.406280689176
 30
0.0
 10
6299.354970901186
 20
5210.659284445902
 30
0.0
 10
6299.22019788554
 20
5214.763005930541
 30
0.0
 10
6299.086729266689
 20
5218.664794512556
 30
0.0
 10
6298.959741016932
 20
5222.175709165685
 30
0.0
 10
6298.838235864165
 20
5225.266342622149
 30
0.0
 10
6298.721874463127
 20
5227.93564586705
 30
0.0
 10
6298.606365554276
 20
5230.275070720959
 30
0.0
 10
6298.508503245244
 20
5231.978124328547
 30
0.0
 10
6298.450129223009
 20
5232.812371403178
 30
0.0
 10
6298.42886035642
 20
5233.116333492027
 30
0.0
  0
LINE
  5
E0
330
1F
100
AcDbEntity
  8
0
  6
Continuous
 62
     7
370
    25
100
AcDbLine
 10
6245.9751587791
 20
5162.1786687455
 30
0.0
 11
6301.0175570637
 21
5162.1786687455
 31
0.0
  0
SPLINE
  5
E1
330
1F
100
AcDbEntity
  8
0
  6
Continuous
 62
     7
370
    25
100
AcDbSpline
210
0.0
220
0.0
230
1.0
 70
     8
 71
     3
 72
     9
 73
     5
 74
     0
 42
0.000000001
 43
0.00000001
 40
0.0
 40
0.0
 40
0.0
 40
0.0
 40
0.0012468186621906
 40
0.9999999999999999
 40
0.9999999999999999
 40
0.9999999999999999
 40
0.9999999999999999
 10
6249.621435258751
 20
5233.133682294357
 30
0.0
 10
6249.621434048396
 20
5233.133675090131
 30
0.0
 10
6249.620463294003
 20
5233.127897004118
 30
0.0
 10
6249.619492641981
 20
5233.122105107463
 30
0.0
 10
6249.618523200187
 20
5233.116320432253
 30
0.0
  0
SPLINE
  5
E2
330
1F
100
AcDbEntity
  8
0
  6
Continuous
 62
     7
370
    25
100
AcDbSpline
210
0.0
220
0.0
230
1.0
 70
     8
 71
     3
 72
    25
 73
    21
 74
     0
 42
0.000000001
 43
0.00000001
 40
0.0
 40
0.0
 40
0.0
 40
0.0
 40
0.0000007104734326
 40
0.0287080577271622
 40
0.0778695044614708
 40
0.1270347507462934
 40
0.1782565830340739
 40
0.2294930678906638
 40
0.2759957433564328
 40
0.3225648033885299
 40
0.3690927692538391
 40
0.4413517096060784
 40
0.5136291660962022
 40
0.5864289473363008
 40
0.6592391981645277
 40
0.7330961214674571
 40
0.8069586102489736
 40
0.9032899951924379
 40
0.999999289526569
 40
1.0
 40
1.0
 40
1.0
 40
1.0
 10
6298.752248454063
 20
5233.785690379931
 30
0.0
 10
6298.752248971408
 20
5233.785683061873
 30
0.0
 10
6298.77315333938
 20
5233.489982726979
 30
0.0
 10
6298.830398666807
 20
5232.626038420464
 30
0.0
 10
6298.926093291877
 20
5230.947613942717
 30
0.0
 10
6299.04166238291
 20
5228.607046798135
 30
0.0
 10
6299.161608625585
 20
5225.880911512357
 30
0.0
 10
6299.281585035344
 20
5222.905635831472
 30
0.0
 10
6299.399450908807
 20
5219.796314390553
 30
0.0
 10
6299.514816949998
 20
5216.617929155736
 30
0.0
 10
6299.653074788107
 20
5212.686626480373
 30
0.0
 10
6299.815522538957
 20
5207.941484373803
 30
0.0
 10
6300.004816475144
 20
5202.335700621534
 30
0.0
 10
6300.200540286214
 20
5196.557617884252
 30
0.0
 10
6300.404129527429
 20
5190.618550376455
 30
0.0
 10
6300.615972081616
 20
5184.562996961075
 30
0.0
 10
6300.860185190817
 20
5177.791465691734
 30
0.0
 10
6301.142172870365
 20
5170.325065039224
 30
0.0
 10
6301.363087888567
 20
5164.898095927257
 30
0.0
 10
6301.480110313151
 20
5162.178688723417
 30
0.0
 10
6301.480111172848
 20
5162.178668745478
 30
0.0
  0
SPLINE
  5
E3
330
1F
100
AcDbEntity
  8
0
  6
Continuous
 62
     7
370
    25
100
AcDbSpline
210
0.0
220
0.0
230
1.0
 70
    24
 71
     3
 72
    10
 73
     6
 74
     0
 42
0.000000001
 43
0.00000001
 40
0.0
 40
0.0
 40
0.0
 40
0.0
 40
0.3312130039957996
 40
0.6624157689881183
 40
1.0
 40
1.0
 40
1.0
 40
1.0
 10
6301.480111172848
 20
5162.178668745478
 30
0.0
 10
6301.470503260757
 20
5162.178668745478
 30
0.0
 10
6301.451287733587
 20
5162.178668745478
 30
0.0
 10
6301.285985665741
 20
5162.178668745478
 30
0.0
 10
6301.107618421374
 20
5162.178668745478
 30
0.0
 10
6301.017583822337
 20
5162.178668745478
 30
0.0
  0
SPLINE
  5
E4
330
1F
100
AcDbEntity
  8
0
  6
Continuous
 62
     7
370
    25
100
AcDbSpline
210
0.0
220
0.0
230
1.0
 70
     8
 71
     3
 72
    11
 73
     7
 74
     0
 42
0.000000001
 43
0.00000001
 40
0.0
 40
0.0
 40
0.0
 40
0.0
 40
0.2500000000000096
 40
0.5000000000000024
 40
0.7500000000000356
 40
1.0
 40
1.0
 40
1.0
 40
1.0
 10
6298.752248454063
 20
5233.785690379931
 30
0.0
 10
6298.746973208652
 20
5233.723088451322
 30
0.0
 10
6298.73642271783
 20
5233.597884594104
 30
0.0
 10
6298.669251104609
 20
5233.418689031775
 30
0.0
 10
6298.569697958452
 20
5233.252793457826
 30
0.0
 10
6298.475806223764
 20
5233.161820147293
 30
0.0
 10
6298.42886035642
 20
5233.116333492027
 30
0.0
  0
LINE
  5
E5
330
1F
100
AcDbEntity
  8
0
  6
Continuous
 62
     7
370
    25
100
AcDbLine
 10
6245.2063956273
 20
5162.1786687455
 30
0.0
 11
6245.2095784792
 21
5162.1786687455
 31
0.0
  0
LINE
  5
E6
330
1F
100
AcDbEntity
  8
0
  6
Continuous
 62
     7
370
    25
100
AcDbLine
 10
6245.2095784792
 20
5162.1786687455
 30
0.0
 11
6245.4868743382
 21
5162.1786687455
 31
0.0
  0
LWPOLYLINE
  5
E7
330
1F
100
AcDbEntity
  8
0
  6
Continuous
 62
     7
370
    18
100
AcDbPolyline
 90
        3
 70
   128
 43
0.0
 10
6248.9752844127
 20
5242.1413518778
 10
6248.984924541
 20
5243.9168498178
 10
6249.1428901923
 20
5245.6595587212
  0
LINE
  5
E8
330
1F
100
AcDbEntity
  8
0
  6
Continuous
 62
     7
370
    18
100
AcDbLine
 10
6298.9328571362
 20
5243.6140956195
 30
0.0
 11
6298.9502416787
 21
5242.1413518778
 31
0.0
  0
SPLINE
  5
E9
330
1F
100
AcDbEntity
  8
0
  6
Continuous
 62
     8
370
    25
100
AcDbSpline
210
0.0
220
0.0
230
1.0
 70
     8
 71
     3
 72
    13
 73
     9
 74
     0
 42
0.000000001
 43
0.00000001
 40
0.0
 40
0.0
 40
0.0
 40
0.0
 40
0.096034922474747
 40
0.2648208376964291
 40
0.4332964098687553
 40
0.6221291426473845
 40
0.8113846385183598
 40
1.0
 40
1.0
 40
1.0
 40
1.0
 10
6298.029537301907
 20
5236.703503493938
 30
0.0
 10
6298.052680891303
 20
5236.819872642071
 30
0.0
 10
6298.116500432912
 20
5237.140766068086
 30
0.0
 10
6298.219781257786
 20
5237.248707375263
 30
0.0
 10
6298.345117992454
 20
5237.077068588981
 30
0.0
 10
6298.475522259848
 20
5236.474664381612
 30
0.0
 10
6298.611795177995
 20
5235.445199495995
 30
0.0
 10
6298.704867804875
 20
5234.345218433562
 30
0.0
 10
6298.751325283195
 20
5233.7961596171
 30
0.0
  0
SPLINE
  5
EA
330
1F
100
AcDbEntity
  8
0
  6
Continuous
 62
     8
370
    25
100
AcDbSpline
210
0.0
220
0.0
230
1.0
 70
     8
 71
     3
 72
    15
 73
    11
 74
     0
 42
0.000000001
 43
0.00000001
 40
0.0
 40
0.0
 40
0.0
 40
0.0
 40
0.1481744390820157
 40
0.2968517616690277
 40
0.4451969655803281
 40
0.5775497771913624
 40
0.7101463913585522
 40
0.8424466909404051
 40
0.9510996592389623
 40
1.0
 40
1.0
 40
1.0
 40
1.0
 10
6249.289308950018
 20
5233.7961596171
 30
0.0
 10
6249.378790194537
 20
5234.345146912037
 30
0.0
 10
6249.558056370517
 20
5235.444984688684
 30
0.0
 10
6249.829586991372
 20
5236.475526210977
 30
0.0
 10
6250.092393188732
 20
5237.073991847888
 30
0.0
 10
6250.346208830293
 20
5237.258832610824
 30
0.0
 10
6250.590440766684
 20
5237.084761371068
 30
0.0
 10
6250.820005818307
 20
5236.552182134291
 30
0.0
 10
6250.997740918229
 20
5235.928275997935
 30
0.0
 10
6251.093723152405
 20
5235.419917641484
 30
0.0
 10
6251.123513475352
 20
5235.262136779834
 30
0.0
  0
LWPOLYLINE
  5
EB
330
1F
100
AcDbEntity
  8
0
  6
Continuous
 62
     8
370
    25
100
AcDbPolyline
 90
       10
 70
   128
 43
0.0
 10
6250.8489333651
 20
5236.3957886338
 10
6250.8383847369
 20
5236.4093444769
 10
6250.649721909
 20
5236.447537368
 10
6250.460676498
 20
5236.2856941255
 10
6250.2529496337
 20
5235.8817882419
 10
6250.045019704
 20
5235.2398666009
 10
6249.8321835639
 20
5234.3258055113
 10
6249.620300518
 20
5233.1346355095
 10
6249.6202968181
 20
5233.1346120959
 10
6249.6202968181
 20
5233.1346120959
  0
SPLINE
  5
EC
330
1F
100
AcDbEntity
  8
0
  6
Continuous
 62
     8
370
    25
100
AcDbSpline
210
0.0
220
0.0
230
1.0
 70
     8
 71
     3
 72
    13
 73
     9
 74
     0
 42
0.000000001
 43
0.00000001
 40
0.0
 40
0.0
 40
0.0
 40
0.0
 40
0.0000041944181116
 40
0.2333519779480779
 40
0.4667466373958872
 40
0.7061765715778497
 40
0.9456197735027595
 40
1.0
 40
1.0
 40
1.0
 40
1.0
 10
6298.428413451113
 20
5233.134612095865
 30
0.0
 10
6298.428412773448
 20
5233.134619900415
 30
0.0
 10
6298.390711596489
 20
5233.568817678177
 30
0.0
 10
6298.315807031111
 20
5234.343580910704
 30
0.0
 10
6298.204260063525
 20
5235.253056017871
 30
0.0
 10
6298.093556158038
 20
5235.899125698067
 30
0.0
 10
6298.011574153692
 20
5236.247383256764
 30
0.0
 10
6297.966881679414
 20
5236.31496944387
 30
0.0
 10
6297.958610089612
 20
5236.32747815423
 30
0.0
  0
LINE
  5
ED
330
1F
100
AcDbEntity
  8
0
  6
Continuous
 62
     7
370
    25
100
AcDbLine
 10
6634.2487056713
 20
5225.4413483477
 30
0.0
 11
6634.5987023052
 21
5224.8861610597
 31
0.0
  0
LINE
  5
EE
330
1F
100
AcDbEntity
  8
0
  6
Continuous
 62
     7
370
    25
100
AcDbLine
 10
6634.5993852814
 20
5224.8857473366
 30
0.0
 11
6635.2889562763
 21
5224.7294562065
 31
0.0
  0
LINE
  5
EF
330
1F
100
AcDbEntity
  8
0
  6
Continuous
 62
     7
370
    25
100
AcDbLine
 10
6562.20844956
 20
5179.5410870425
 30
0.0
 11
6562.5042971117
 21
5179.4432909318
 31
0.0
  0
LINE
  5
F0
330
1F
100
AcDbEntity
  8
0
  6
Continuous
 62
     7
370
    25
100
AcDbLine
 10
6569.4091963019
 20
5200.331621817
 30
0.0
 11
6569.1056014711
 21
5200.4319788878
 31
0.0
  0
LINE
  5
F1
330
1F
100
AcDbEntity
  8
0
  6
Continuous
 62
     7
370
    25
100
AcDbLine
 10
6562.5096033007
 20
5179.4461640734
 30
0.0
 11
6569.4107068214
 21
5200.3342917969
 31
0.0
  0
SPLINE
  5
F2
330
1F
100
AcDbEntity
  8
0
  6
Continuous
 62
     7
370
    25
100
AcDbSpline
210
0.0
220
0.0
230
1.0
 70
     8
 71
     3
 72
     9
 73
     5
 74
     0
 42
0.000000001
 43
0.00000001
 40
0.0
 40
0.0
 40
0.0
 40
0.0
 40
0.4999663927330625
 40
1.0
 40
1.0
 40
1.0
 40
1.0
 10
6615.461495105836
 20
5226.362769872978
 30
0.0
 10
6615.402648566633
 20
5226.32614153243
 30
0.0
 10
6615.284947577012
 20
5226.252879927089
 30
0.0
 10
6615.166647847489
 20
5226.179633349748
 30
0.0
 10
6615.107494006998
 20
5226.14300759946
 30
0.0
  0
LINE
  5
F3
330
1F
100
AcDbEntity
  8
0
  6
Continuous
 62
     7
370
    25
100
AcDbLine
 10
6614.946569762
 20
5226.094225723
 30
0.0
 11
6615.446569762
 21
5225.594225723
 31
0.0
  0
LINE
  5
F4
330
1F
100
AcDbEntity
  8
0
  6
Continuous
 62
     7
370
    25
100
AcDbLine
 10
6615.3486915642
 20
5226.4225151376
 30
0.0
 11
6615.3486915642
 21
5226.3350151376
 31
0.0
  0
SPLINE
  5
F5
330
1F
100
AcDbEntity
  8
0
  6
Continuous
 62
     7
370
    25
100
AcDbSpline
210
0.0
220
0.0
230
1.0
 70
     8
 71
     3
 72
    27
 73
    23
 74
     0
 42
0.000000001
 43
0.00000001
 40
0.0
 40
0.0
 40
0.0
 40
0.0
 40
0.0321472628700389
 40
0.0661718098051185
 40
0.1020418221569821
 40
0.1397376846471955
 40
0.179267290832581
 40
0.2206948212292509
 40
0.2641104863775338
 40
0.3095780602225876
 40
0.3571195048670898
 40
0.4067020659110169
 40
0.4582261361138162
 40
0.5115140726015834
 40
0.5663695325629186
 40
0.6228518897923041
 40
0.6810858656728399
 40
0.7411623633494979
 40
0.8031280978833588
 40
0.8669770129635027
 40
0.9326438231243405
 40
0.9999999999999999
 40
0.9999999999999999
 40
0.9999999999999999
 40
0.9999999999999999
 10
6572.418825123339
 20
5265.550061027112
 30
0.0
 10
6571.081924540184
 20
5265.127879849239
 30
0.0
 10
6568.330053207485
 20
5264.258863637238
 30
0.0
 10
6564.177307097532
 20
5262.65323660045
 30
0.0
 10
6559.895601351316
 20
5260.730616071884
 30
0.0
 10
6555.532152885749
 20
5258.42485249642
 30
0.0
 10
6551.137797597081
 20
5255.685140412291
 30
0.0
 10
6546.765448637697
 20
5252.468117396089
 30
0.0
 10
6542.447146956431
 20
5248.767481416488
 30
0.0
 10
6538.218382977097
 20
5244.576599675132
 30
0.0
 10
6534.115114155042
 20
5239.898838307888
 30
0.0
 10
6530.175171433556
 20
5234.746190909565
 30
0.0
 10
6526.438047536782
 20
5229.141000800595
 30
0.0
 10
6522.943143953856
 20
5223.11442012832
 30
0.0
 10
6519.725355292049
 20
5216.692794106271
 30
0.0
 10
6516.801947067725
 20
5209.896859063392
 30
0.0
 10
6514.173780452153
 20
5202.738836518639
 30
0.0
 10
6511.833624305711
 20
5195.23130767039
 30
0.0
 10
6509.765472517309
 20
5187.391371012996
 30
0.0
 10
6507.949294354739
 20
5179.240142348568
 30
0.0
 10
6506.339940645295
 20
5170.806272483163
 30
0.0
 10
6505.421312121167
 20
5165.078782669616
 30
0.0
 10
6504.956164655058
 20
5162.178668745478
 30
0.0
  0
SPLINE
  5
F6
330
1F
100
AcDbEntity
  8
0
  6
Continuous
 62
     7
370
    25
100
AcDbSpline
210
0.0
220
0.0
230
1.0
 70
     8
 71
     3
 72
    15
 73
    11
 74
     0
 42
0.000000001
 43
0.00000001
 40
0.0
 40
0.0
 40
0.0
 40
0.0
 40
0.1045076380660107
 40
0.2444552476804562
 40
0.3802049495890877
 40
0.5115712335238259
 40
0.6386635380739665
 40
0.7618990950049068
 40
0.8820048376380387
 40
1.0
 40
1.0
 40
1.0
 40
1.0
 10
6569.12297684124
 20
5200.374944748404
 30
0.0
 10
6569.618008673725
 20
5201.423603429717
 30
0.0
 10
6570.775944413731
 20
5203.876535315047
 30
0.0
 10
6572.883526021292
 20
5207.535830780404
 30
0.0
 10
6575.386478665831
 20
5211.298187080213
 30
0.0
 10
6578.104759606664
 20
5214.730275459733
 30
0.0
 10
6581.021775369274
 20
5217.808496591673
 30
0.0
 10
6584.140510492988
 20
5220.49161518467
 30
0.0
 10
6587.435507182917
 20
5222.796907001872
 30
0.0
 10
6589.80379845542
 20
5223.972391798049
 30
0.0
 10
6590.977447556943
 20
5224.554924314596
 30
0.0
  0
SPLINE
  5
F7
330
1F
100
AcDbEntity
  8
0
  6
Continuous
 62
     7
370
    25
100
AcDbSpline
210
0.0
220
0.0
230
1.0
 70
     8
 71
     3
 72
    11
 73
     7
 74
     0
 42
0.000000001
 43
0.00000001
 40
0.0
 40
0.0
 40
0.0
 40
0.0
 40
0.2787931147681912
 40
0.5773350346021403
 40
0.8894574239474479
 40
1.0
 40
1.0
 40
1.0
 40
1.0
 10
6559.95909960341
 20
5162.178668745478
 30
0.0
 10
6560.046466050445
 20
5163.811851136837
 30
0.0
 10
6560.227387701843
 20
5167.193905292695
 30
0.0
 10
6560.886267056459
 20
5172.370896235166
 30
0.0
 10
6561.556960860747
 20
5176.550324234087
 30
0.0
 10
6562.113974458566
 20
5178.965893759859
 30
0.0
 10
6562.25965418847
 20
5179.597654846945
 30
0.0
  0
SPLINE
  5
F8
330
1F
100
AcDbEntity
  8
0
  6
Continuous
 62
     7
370
    25
100
AcDbSpline
210
0.0
220
0.0
230
1.0
 70
     8
 71
     3
 72
    40
 73
    36
 74
     0
 42
0.000000001
 43
0.00000001
 40
0.0
 40
0.0
 40
0.0
 40
0.0
 40
0.0411318673547966
 40
0.0804861810890166
 40
0.1181735356907038
 40
0.1542547591044335
 40
0.1887560697454192
 40
0.2296626793503899
 40
0.2680856298246974
 40
0.3039920385803311
 40
0.3373726387080997
 40
0.3724434106075473
 40
0.4042369329660355
 40
0.4327518065706303
 40
0.4583938547013509
 40
0.4834055157104068
 40
0.5081262581429151
 40
0.5325591770307164
 40
0.5662848672205862
 40
0.5994526487341849
 40
0.6311025946718084
 40
0.6578764065442859
 40
0.6794856765406215
 40
0.6879850913743805
 40
0.6996245509984106
 40
0.714603073863206
 40
0.7329218232809942
 40
0.7545837859872202
 40
0.7795945861145671
 40
0.8079633398607647
 40
0.8396988928970252
 40
0.8747898930081343
 40
0.9132146479851524
 40
0.954953080073006
 40
1.0
 40
1.0
 40
1.0
 40
1.0
 10
6670.048397045623
 20
5238.594971594086
 30
0.0
 10
6669.203469546821
 20
5239.808997834019
 30
0.0
 10
6667.550128912198
 20
5242.18458499011
 30
0.0
 10
6664.783840835706
 20
5245.415603210784
 30
0.0
 10
6661.942056505099
 20
5248.326185391938
 30
0.0
 10
6659.043185801942
 20
5250.926145527362
 30
0.0
 10
6655.907417896288
 20
5253.42364880124
 30
0.0
 10
6652.557927856705
 20
5255.777564895301
 30
0.0
 10
6649.032081496823
 20
5257.95427912581
 30
0.0
 10
6645.633664320376
 20
5259.811204858655
 30
0.0
 10
6642.259622536228
 20
5261.451804810444
 30
0.0
 10
6638.950167494892
 20
5262.878793222814
 30
0.0
 10
6635.746292915886
 20
5264.100029419577
 30
0.0
 10
6632.82003445221
 20
5265.091286010505
 30
0.0
 10
6630.096277509285
 20
5265.915267224081
 30
0.0
 10
6627.480696017895
 20
5266.621507131074
 30
0.0
 10
6624.888108518786
 20
5267.241847455514
 30
0.0
 10
6621.972784851454
 20
5267.854127611468
 30
0.0
 10
6618.7399022701
 20
5268.425202358771
 30
0.0
 10
6615.231856252553
 20
5268.916157283618
 30
0.0
 10
6611.957879315632
 20
5269.262751186864
 30
0.0
 10
6609.089595616873
 20
5269.481476793783
 30
0.0
 10
6607.047962513941
 20
5269.588526632497
 30
0.0
 10
6605.548654045499
 20
5269.645067090672
 30
0.0
 10
6604.287052094324
 20
5269.680259557308
 30
0.0
 10
6602.67222042756
 20
5269.704427375605
 30
0.0
 10
6600.696968673429
 20
5269.702178779727
 30
0.0
 10
6598.361590073368
 20
5269.654575368369
 30
0.0
 10
6595.66691706763
 20
5269.539405258284
 30
0.0
 10
6592.614722313296
 20
5269.331307902858
 30
0.0
 10
6589.20894512614
 20
5269.00189988796
 30
0.0
 10
6585.457082224577
 20
5268.513317285622
 30
0.0
 10
6581.373803257513
 20
5267.813185764916
 30
0.0
 10
6576.971327973445
 20
5266.867115498444
 30
0.0
 10
6573.974392608737
 20
5266.000091652069
 30
0.0
 10
6572.418799363262
 20
5265.550053104368
 30
0.0
  0
SPLINE
  5
F9
330
1F
100
AcDbEntity
  8
0
  6
Continuous
 62
     7
370
    25
100
AcDbSpline
210
0.0
220
0.0
230
1.0
 70
     8
 71
     3
 72
    10
 73
     6
 74
     0
 42
0.000000001
 43
0.00000001
 40
0.0
 40
0.0
 40
0.0
 40
0.0
 40
0.2405858192151741
 40
0.6042155978513977
 40
1.0
 40
1.0
 40
1.0
 40
1.0
 10
6618.548610085019
 20
5225.437940257581
 30
0.0
 10
6619.087368667578
 20
5225.231979058149
 30
0.0
 10
6620.440425718569
 20
5224.714720935226
 30
0.0
 10
6622.596257329932
 20
5223.653155479616
 30
0.0
 10
6624.138237595521
 20
5222.684263519098
 30
0.0
 10
6624.941872493291
 20
5222.179305440829
 30
0.0
  0
SPLINE
  5
FA
330
1F
100
AcDbEntity
  8
0
  6
Continuous
 62
     7
370
    25
100
AcDbSpline
210
0.0
220
0.0
230
1.0
 70
     8
 71
     3
 72
    22
 73
    18
 74
     0
 42
0.000000001
 43
0.00000001
 40
0.0
 40
0.0
 40
0.0
 40
0.0
 40
0.1136139699271043
 40
0.2145884319309375
 40
0.3025858451338074
 40
0.3773478197335276
 40
0.4387082056883868
 40
0.4865835505749785
 40
0.5371708957620486
 40
0.5817029964303212
 40
0.6238019158305664
 40
0.6716866659148992
 40
0.7273169538666259
 40
0.7906456145085616
 40
0.8646940636344532
 40
0.9522357427172933
 40
1.0
 40
1.0
 40
1.0
 40
1.0
 10
6590.977431934066
 20
5224.554918974896
 30
0.0
 10
6591.837705808333
 20
5224.918688040004
 30
0.0
 10
6593.462548438413
 20
5225.605757009747
 30
0.0
 10
6595.841627655961
 20
5226.339197230291
 30
0.0
 10
6597.947286420479
 20
5226.853899429228
 30
0.0
 10
6599.758412524691
 20
5227.190999991075
 30
0.0
 10
6601.255691765986
 20
5227.402048089198
 30
0.0
 10
6602.561765503209
 20
5227.539480721873
 30
0.0
 10
6603.733590240495
 20
5227.625716265336
 30
0.0
 10
6604.860052931206
 20
5227.674250873572
 30
0.0
 10
6605.965246005269
 20
5227.691099491251
 30
0.0
 10
6607.16167070649
 20
5227.674638259233
 30
0.0
 10
6608.531118451381
 20
5227.609445514024
 30
0.0
 10
6610.111506903672
 20
5227.473059730821
 30
0.0
 10
6611.942941910892
 20
5227.225356463339
 30
0.0
 10
6613.636957815608
 20
5226.917064947282
 30
0.0
 10
6614.712401790723
 20
5226.635422084189
 30
0.0
 10
6615.092043542594
 20
5226.535999527161
 30
0.0
  0
ARC
  5
FB
330
1F
100
AcDbEntity
  8
0
  6
Continuous
 62
     7
370
    25
100
AcDbCircle
 10
6605.3450038004
 20
5276.530087633
 30
0.0
 40
59.35380382177249
100
AcDbArc
 50
299.5293815758
 51
302.7370547591
  0
ARC
  5
FC
330
1F
100
AcDbEntity
  8
0
  6
Continuous
 62
     7
370
    25
100
AcDbCircle
 10
6568.5696132729
 20
5338.8745335014
 30
0.0
 40
132.2141043968696
100
AcDbArc
 50
300.3068640436
 51
302.5487911167
  0
LINE
  5
FD
330
1F
100
AcDbEntity
  8
0
  6
Continuous
 62
     7
370
    25
100
AcDbLine
 10
6562.5061949464
 20
5179.4433925126
 30
0.0
 11
6562.5027642753
 21
5179.4531930947
 31
0.0
  0
SPLINE
  5
FE
330
1F
100
AcDbEntity
  8
0
  6
Continuous
 62
     7
370
    25
100
AcDbSpline
210
0.0
220
0.0
230
1.0
 70
     8
 71
     3
 72
    14
 73
    10
 74
     0
 42
0.000000001
 43
0.00000001
 40
0.0
 40
0.0
 40
0.0
 40
0.0
 40
0.0928114153845156
 40
0.2651650941225924
 40
0.4422588938364636
 40
0.6201171586775484
 40
0.8023256356430717
 40
0.9963265434751832
 40
1.0
 40
1.0
 40
1.0
 40
1.0
 10
6569.379710132495
 20
5200.298883013681
 30
0.0
 10
6569.384008904868
 20
5200.299879834052
 30
0.0
 10
6569.396290630946
 20
5200.30272778079
 30
0.0
 10
6569.190834407861
 20
5200.071514815997
 30
0.0
 10
6568.807503225653
 20
5199.639702239095
 30
0.0
 10
6568.24876728032
 20
5199.00002922539
 30
0.0
 10
6567.544998104981
 20
5198.133212899062
 30
0.0
 10
6567.007799476067
 20
5197.467058733741
 30
0.0
 10
6566.712627810483
 20
5197.031758458634
 30
0.0
 10
6566.707142525204
 20
5197.023669111079
 30
0.0
  0
SPLINE
  5
FF
330
1F
100
AcDbEntity
  8
0
  6
Continuous
 62
     7
370
    25
100
AcDbSpline
210
0.0
220
0.0
230
1.0
 70
     8
 71
     3
 72
    12
 73
     8
 74
     0
 42
0.000000001
 43
0.00000001
 40
0.0
 40
0.0
 40
0.0
 40
0.0
 40
0.1644767652968924
 40
0.407841220010038
 40
0.6430148796218081
 40
0.8864071080987033
 40
1.0
 40
1.0
 40
1.0
 40
1.0
 10
6562.371796518037
 20
5182.738432387289
 30
0.0
 10
6562.377637336421
 20
5182.424419462508
 30
0.0
 10
6562.392120394202
 20
5181.645784169494
 30
0.0
 10
6562.452112625461
 20
5180.69687098522
 30
0.0
 10
6562.503502021475
 20
5179.912056923776
 30
0.0
 10
6562.524251563583
 20
5179.526452947797
 30
0.0
 10
6562.51286485908
 20
5179.480585483107
 30
0.0
 10
6562.509241602481
 20
5179.465990426727
 30
0.0
  0
LINE
  5
100
330
1F
100
AcDbEntity
  8
0
  6
Continuous
 62
     7
370
    25
100
AcDbLine
 10
6614.9479942075
 20
5226.094225723
 30
0.0
 11
6614.9479942075
 21
5226.586774722
 31
0.0
  0
LINE
  5
101
330
1F
100
AcDbEntity
  8
0
  6
Continuous
 62
     7
370
    25
100
AcDbLine
 10
6614.9479942075
 20
5226.094225723
 30
0.0
 11
6616.9348465187
 21
5226.094225723
 31
0.0
  0
SPLINE
  5
102
330
1F
100
AcDbEntity
  8
0
  6
Continuous
 62
     7
370
    25
100
AcDbSpline
210
0.0
220
0.0
230
1.0
 70
     8
 71
     3
 72
    11
 73
     7
 74
     0
 42
0.000000001
 43
0.00000001
 40
0.0
 40
0.0
 40
0.0
 40
0.0
 40
0.3231141930490976
 40
0.6531269223042732
 40
0.9708969404579422
 40
1.0
 40
1.0
 40
1.0
 40
1.0
 10
6614.947994207479
 20
5226.094225723026
 30
0.0
 10
6614.971809139642
 20
5226.109417610199
 30
0.0
 10
6615.019947456318
 20
5226.140125733601
 30
0.0
 10
6615.536058932463
 20
5226.191595426874
 30
0.0
 10
6616.031235554622
 20
5226.219941648869
 30
0.0
 10
6616.33015138204
 20
5226.23745738378
 30
0.0
 10
6616.355230771831
 20
5226.238926974558
 30
0.0
  0
SPLINE
  5
103
330
1F
100
AcDbEntity
  8
0
  6
Continuous
 62
     7
370
    25
100
AcDbSpline
210
0.0
220
0.0
230
1.0
 70
     8
 71
     3
 72
     9
 73
     5
 74
     0
 42
0.000000001
 43
0.00000001
 40
0.0
 40
0.0
 40
0.0
 40
0.0
 40
0.8611039150024813
 40
1.0
 40
1.0
 40
1.0
 40
1.0
 10
6615.326610472173
 20
5226.400475724091
 30
0.0
 10
6615.327443036061
 20
5226.41569458421
 30
0.0
 10
6615.328409892525
 20
5226.433368246882
 30
0.0
 10
6615.484115430645
 20
5226.452225261799
 30
0.0
 10
6615.505742320302
 20
5226.454844427346
 30
0.0
  0
LINE
  5
104
330
1F
100
AcDbEntity
  8
0
  6
Continuous
 62
     7
370
    25
100
AcDbLine
 10
6615.0485771324
 20
5226.561112757
 30
0.0
 11
6615.3266104722
 21
5226.4004757241
 31
0.0
  0
LINE
  5
105
330
1F
100
AcDbEntity
  8
0
  6
Continuous
 62
     7
370
    25
100
AcDbLine
 10
6615.3266104722
 20
5226.3129757241
 30
0.0
 11
6614.9479942075
 21
5226.094225723
 31
0.0
  0
SPLINE
  5
106
330
1F
100
AcDbEntity
  8
0
  6
Continuous
 62
     7
370
    25
100
AcDbSpline
210
0.0
220
0.0
230
1.0
 70
     8
 71
     3
 72
     9
 73
     5
 74
     0
 42
0.000000001
 43
0.00000001
 40
0.0
 40
0.0
 40
0.0
 40
0.0
 40
0.5625721119353949
 40
1.0
 40
1.0
 40
1.0
 40
1.0
 10
6615.326610472172
 20
5226.312975724092
 30
0.0
 10
6615.34070243402
 20
5226.328295984443
 30
0.0
 10
6615.365751599359
 20
5226.355528511663
 30
0.0
 10
6615.627652328702
 20
5226.384572343124
 30
0.0
 10
6615.74221501162
 20
5226.397276924981
 30
0.0
  0
LINE
  5
107
330
1F
100
AcDbEntity
  8
0
  6
Continuous
 62
     7
370
    25
100
AcDbLine
 10
6618.446569762
 20
5225.594225723
 30
0.0
 11
6618.2435574833
 21
5225.594225723
 31
0.0
  0
LINE
  5
108
330
1F
100
AcDbEntity
  8
0
  6
Continuous
 62
     7
370
    25
100
AcDbLine
 10
6618.2175432734
 20
5225.594225723
 30
0.0
 11
6615.446569762
 21
5225.594225723
 31
0.0
  0
SPLINE
  5
109
330
1F
100
AcDbEntity
  8
0
  6
Continuous
 62
     7
370
    18
100
AcDbSpline
210
0.0
220
0.0
230
1.0
 70
     8
 71
     3
 72
    25
 73
    21
 74
     0
 42
0.000000001
 43
0.00000001
 40
0.0
 40
0.0
 40
0.0
 40
0.0
 40
0.0000007104729927
 40
0.0963350724673499
 40
0.1930412656961368
 40
0.265900904194914
 40
0.3387553024936569
 40
0.4125683133146398
 40
0.4863703115905997
 40
0.5563446773412889
 40
0.6263030193437483
 40
0.6743658418938656
 40
0.7224731623649242
 40
0.7705075301916892
 40
0.8197355146468004
 40
0.8689507119668118
 40
0.9201236026583529
 40
0.9712919600379191
 40
0.9999992895270094
 40
1.0
 40
1.0
 40
1.0
 40
1.0
 10
6551.718837804012
 20
5162.178668745478
 30
0.0
 10
6551.718838155854
 20
5162.178688723417
 30
0.0
 10
6551.766545367405
 20
5164.887554812456
 30
0.0
 10
6552.029033398068
 20
5170.314511259477
 30
0.0
 10
6552.851582922058
 20
5177.753022390513
 30
0.0
 10
6553.98478477916
 20
5184.479607452798
 30
0.0
 10
6555.330138223151
 20
5190.509029003495
 30
0.0
 10
6557.026346783804
 20
5196.477462098045
 30
0.0
 10
6559.076205776572
 20
5202.248799523743
 30
0.0
 10
6561.479411943251
 20
5207.764012134531
 30
0.0
 10
6563.955572862201
 20
5212.442167353221
 30
0.0
 10
6566.435591660582
 20
5216.404535645495
 30
0.0
 10
6568.809459928054
 20
5219.695934475744
 30
0.0
 10
6571.437516825518
 20
5222.831689864728
 30
0.0
 10
6574.338476548798
 20
5225.762244155619
 30
0.0
 10
6577.565225893755
 20
5228.470747569735
 30
0.0
 10
6581.098728227459
 20
5230.864978581498
 30
0.0
 10
6584.354738827899
 20
5232.603798611786
 30
0.0
 10
6586.419271008703
 20
5233.489982725088
 30
0.0
 10
6587.170102482151
 20
5233.785683061873
 30
0.0
 10
6587.170121063897
 20
5233.785690379931
 30
0.0
  0
SPLINE
  5
10A
330
1F
100
AcDbEntity
  8
0
  6
Continuous
 62
     7
370
    18
100
AcDbSpline
210
0.0
220
0.0
230
1.0
 70
     8
 71
     3
 72
    11
 73
     7
 74
     0
 42
0.000000001
 43
0.00000001
 40
0.0
 40
0.0
 40
0.0
 40
0.0
 40
0.2499998055688217
 40
0.4999997378150895
 40
0.7499998006598881
 40
0.9999999999999999
 40
0.9999999999999999
 40
0.9999999999999999
 40
0.9999999999999999
 10
6587.170005200257
 20
5233.78594683469
 30
0.0
 10
6587.194490123446
 20
5233.723353476945
 30
0.0
 10
6587.243459982235
 20
5233.598166729739
 30
0.0
 10
6587.31030806963
 20
5233.418901040702
 30
0.0
 10
6587.369920460843
 20
5233.252898289452
 30
0.0
 10
6587.400268924755
 20
5233.161846392938
 30
0.0
 10
6587.415443160852
 20
5233.116320432252
 30
0.0
  0
SPLINE
  5
10B
330
1F
100
AcDbEntity
  8
0
  6
Continuous
 62
     7
370
    18
100
AcDbSpline
210
0.0
220
0.0
230
1.0
 70
     8
 71
     3
 72
    24
 73
    20
 74
     0
 42
0.000000001
 43
0.00000001
 40
0.0
 40
0.0
 40
0.0
 40
0.0
 40
0.0285069731616707
 40
0.0773684213750906
 40
0.126233510468733
 40
0.1771578403997435
 40
0.2280971768865292
 40
0.2745809066955638
 40
0.321131661226698
 40
0.3676413236684882
 40
0.4398791356787245
 40
0.5121355636278068
 40
0.5851866397517598
 40
0.6582483781140441
 40
0.7323595202636959
 40
0.8064763301614385
 40
0.9030509705226745
 40
0.9999992816751638
 40
1.0
 40
1.0
 40
1.0
 40
1.0
 10
6587.415439075314
 20
5233.116333492027
 30
0.0
 10
6586.683383777619
 20
5232.812155297916
 30
0.0
 10
6584.696572956957
 20
5231.986610384342
 30
0.0
 10
6581.598123842471
 20
5230.320567871582
 30
0.0
 10
6578.156933048177
 20
5228.020734775584
 30
0.0
 10
6574.929768851774
 20
5225.334296656237
 30
0.0
 10
6572.023206551354
 20
5222.398717510953
 30
0.0
 10
6569.451230596333
 20
5219.325012440786
 30
0.0
 10
6567.175678786606
 20
5216.177218620654
 30
0.0
 10
6564.72467073738
 20
5212.284080912308
 30
0.0
 10
6562.22872814839
 20
5207.586027824018
 30
0.0
 10
6559.815710419695
 20
5202.030217555062
 30
0.0
 10
6557.791153241646
 20
5196.297522018272
 30
0.0
 10
6556.121454981261
 20
5190.398709029887
 30
0.0
 10
6554.78689532394
 20
5184.385152260354
 30
0.0
 10
6553.666962774678
 20
5177.664047402719
 30
0.0
 10
6552.861390457953
 20
5170.256826809489
 30
0.0
 10
6552.606980282769
 20
5164.875179965658
 30
0.0
 10
6552.563137841506
 20
5162.178688724602
 30
0.0
 10
6552.563137516664
 20
5162.178668745478
 30
0.0
  0
SPLINE
  5
10C
330
1F
100
AcDbEntity
  8
0
  6
Continuous
 62
     7
370
    25
100
AcDbSpline
210
0.0
220
0.0
230
1.0
 70
    24
 71
     3
 72
    10
 73
     6
 74
     0
 42
0.000000001
 43
0.00000001
 40
0.0
 40
0.0
 40
0.0
 40
0.0
 40
0.3317097585614866
 40
0.6634278230378386
 40
1.0
 40
1.0
 40
1.0
 40
1.0
 10
6552.563137516664
 20
5162.178668745478
 30
0.0
 10
6552.495924598324
 20
5162.178668745478
 30
0.0
 10
6552.361497078649
 20
5162.178668745478
 30
0.0
 10
6552.05840979
 20
5162.178668745479
 30
0.0
 10
6551.832575247533
 20
5162.178668745478
 30
0.0
 10
6551.718837804012
 20
5162.178668745478
 30
0.0
  0
LINE
  5
10D
330
1F
100
AcDbEntity
  8
0
  6
Continuous
 62
     7
370
    18
100
AcDbLine
 10
6587.1700631008
 20
5233.785818583
 30
0.0
 11
6583.3923634296
 21
5242.1413518778
 31
0.0
  0
LINE
  5
10E
330
1F
100
AcDbEntity
  8
0
  6
Continuous
 62
     7
370
    25
100
AcDbLine
 10
6504.9561574236
 20
5162.1786687455
 30
0.0
 11
6533.3791855268
 21
5162.1786687455
 31
0.0
  0
LINE
  5
10F
330
1F
100
AcDbEntity
  8
0
  6
Continuous
 62
     7
370
    25
100
AcDbLine
 10
6533.3791855269
 20
5162.1786687455
 30
0.0
 11
6551.7188378032
 21
5162.1786687455
 31
0.0
  0
SPLINE
  5
110
330
1F
100
AcDbEntity
  8
0
  6
Continuous
 62
     7
370
    25
100
AcDbSpline
210
0.0
220
0.0
230
1.0
 70
     8
 71
     3
 72
    26
 73
    22
 74
     0
 42
0.000000001
 43
0.00000001
 40
0.0
 40
0.0
 40
0.0
 40
0.0
 40
0.0365703286025859
 40
0.0868444546275851
 40
0.138470510043347
 40
0.1908795749390937
 40
0.2446246684644627
 40
0.3004657110518389
 40
0.3579435553064587
 40
0.4132135957433556
 40
0.4703124256397618
 40
0.5220449126402547
 40
0.5753317285528472
 40
0.626349657317563
 40
0.6787080074044348
 40
0.7324257504386668
 40
0.7875696495702725
 40
0.8436017047824234
 40
0.9013253887218827
 40
0.9596028403249208
 40
1.0
 40
1.0
 40
1.0
 40
1.0
 10
6569.087812891605
 20
5200.392041876007
 30
0.0
 10
6569.080453188803
 20
5200.376590029624
 30
0.0
 10
6569.062975922387
 20
5200.33989615173
 30
0.0
 10
6568.810524736632
 20
5200.019098295584
 30
0.0
 10
6568.395007510776
 20
5199.483752916795
 30
0.0
 10
6567.826083917309
 20
5198.718141459893
 30
0.0
 10
6567.142160191187
 20
5197.727596354952
 30
0.0
 10
6566.373635071899
 20
5196.498360243241
 30
0.0
 10
6565.58241151585
 20
5195.059781892991
 30
0.0
 10
6564.818480845522
 20
5193.440041878234
 30
0.0
 10
6564.152166818492
 20
5191.74872111578
 30
0.0
 10
6563.592502982675
 20
5190.01006556429
 30
0.0
 10
6563.157756148236
 20
5188.322635906494
 30
0.0
 10
6562.825954322015
 20
5186.667300357028
 30
0.0
 10
6562.588132835355
 20
5185.090922101642
 30
0.0
 10
6562.427932350164
 20
5183.6045871393
 30
0.0
 10
6562.331284495644
 20
5182.265554226653
 30
0.0
 10
6562.279923922378
 20
5181.120686129221
 30
0.0
 10
6562.25415119563
 20
5180.250794937088
 30
0.0
 10
6562.238756436181
 20
5179.707752155117
 30
0.0
 10
6562.22392365673
 20
5179.636288452334
 30
0.0
 10
6562.217851150823
 20
5179.607031376225
 30
0.0
  0
SPLINE
  5
111
330
1F
100
AcDbEntity
  8
0
  6
Continuous
 62
     7
370
    25
100
AcDbSpline
210
0.0
220
0.0
230
1.0
 70
     8
 71
     3
 72
     9
 73
     5
 74
     0
 42
0.000000001
 43
0.00000001
 40
0.0
 40
0.0
 40
0.0
 40
0.0
 40
0.0012468186578952
 40
1.0
 40
1.0
 40
1.0
 40
1.0
 10
6587.460229969924
 20
5233.133682294357
 30
0.0
 10
6587.460211351809
 20
5233.133675090131
 30
0.0
 10
6587.445278856207
 20
5233.127897004085
 30
0.0
 10
6587.430351702802
 20
5233.122105107446
 30
0.0
 10
6587.415443160852
 20
5233.116320432252
 30
0.0
  0
ARC
  5
112
330
1F
100
AcDbEntity
  8
0
  6
Continuous
 62
     7
370
    18
100
AcDbCircle
 10
6508.034591234
 20
5195.5594222565
 30
0.0
 40
87.86500995284959
100
AcDbArc
 50
19.268809075
 51
25.3179732751
  0
LINE
  5
113
330
1F
100
AcDbEntity
  8
0
  6
Continuous
 62
     7
370
    25
100
AcDbLine
 10
6552.5630947779
 20
5162.1786687455
 30
0.0
 11
6559.9590572254
 21
5162.1786687455
 31
0.0
  0
SPLINE
  5
114
330
1F
100
AcDbEntity
  8
0
  6
Continuous
 62
     7
370
    18
100
AcDbSpline
210
0.0
220
0.0
230
1.0
 70
     8
 71
     3
 72
    25
 73
    21
 74
     0
 42
0.000000001
 43
0.00000001
 40
0.0
 40
0.0
 40
0.0
 40
0.0
 40
0.0000012288685361
 40
0.0507319715694742
 40
0.101466909891022
 40
0.1535954897338258
 40
0.2057291406482358
 40
0.2718706183091856
 40
0.3385674665295157
 40
0.4068792346619764
 40
0.4756901948246506
 40
0.536932408622842
 40
0.5981786570531834
 40
0.6605666160153655
 40
0.7229562339669793
 40
0.7912178199157532
 40
0.8598314198458814
 40
0.9296670848965946
 40
0.9999987711314644
 40
1.0
 40
1.0
 40
1.0
 40
1.0
 10
6632.496888723882
 20
5224.805850429781
 30
0.0
 10
6632.496875709954
 20
5224.805865572268
 30
0.0
 10
6631.95961545079
 20
5225.43100014536
 30
0.0
 10
6630.830093532337
 20
5226.635068525962
 30
0.0
 10
6628.975367068522
 20
5228.308483619269
 30
0.0
 10
6626.971467948793
 20
5229.838097962271
 30
0.0
 10
6624.64352803848
 20
5231.341089111073
 30
0.0
 10
6621.984906118052
 20
5232.751281530755
 30
0.0
 10
6618.967777178584
 20
5234.017058768808
 30
0.0
 10
6615.810267276732
 20
5235.027064330344
 30
0.0
 10
6612.665468880717
 20
5235.746636870177
 30
0.0
 10
6609.589565501748
 20
5236.206041010396
 30
0.0
 10
6606.593549238833
 20
5236.443806187846
 30
0.0
 10
6603.569799488862
 20
5236.480756695267
 30
0.0
 10
6600.436380841009
 20
5236.313527270102
 30
0.0
 10
6597.220774121086
 20
5235.920723794562
 30
0.0
 10
6593.922189441214
 20
5235.277400262935
 30
0.0
 10
6590.649802249644
 20
5234.373829482608
 30
0.0
 10
6588.511403939388
 20
5233.581304544451
 30
0.0
 10
6587.459844638187
 20
5233.134619900415
 30
0.0
 10
6587.459826265166
 20
5233.134612095865
 30
0.0
  0
SPLINE
  5
115
330
1F
100
AcDbEntity
  8
0
  6
Continuous
 62
     7
370
    25
100
AcDbSpline
210
0.0
220
0.0
230
1.0
 70
     8
 71
     3
 72
    11
 73
     7
 74
     0
 42
0.000000001
 43
0.00000001
 40
0.0
 40
0.0
 40
0.0
 40
0.0
 40
0.2500000425549605
 40
0.5000000567395423
 40
0.7500000425542405
 40
1.0
 40
1.0
 40
1.0
 40
1.0
 10
6587.459891854638
 20
5233.134639957132
 30
0.0
 10
6587.44360803393
 20
5233.179677522625
 30
0.0
 10
6587.411040394363
 20
5233.269752648497
 30
0.0
 10
6587.347225771021
 20
5233.433753057992
 30
0.0
 10
6587.275794818683
 20
5233.610775337674
 30
0.0
 10
6587.22362275356
 20
5233.7343687797
 30
0.0
 10
6587.197536722479
 20
5233.796165497209
 30
0.0
  0
SPLINE
  5
116
330
1F
100
AcDbEntity
  8
0
  6
Continuous
 62
     7
370
    18
100
AcDbSpline
210
0.0
220
0.0
230
1.0
 70
     8
 71
     3
 72
    21
 73
    17
 74
     0
 42
0.000000001
 43
0.00000001
 40
0.0
 40
0.0
 40
0.0
 40
0.0
 40
0.0914657963533768
 40
0.1832420149397823
 40
0.2748132217890343
 40
0.3565125714785654
 40
0.4383624167265052
 40
0.5200293515501725
 40
0.5870991534212308
 40
0.654419411616329
 40
0.7216943426620974
 40
0.7887020961548669
 40
0.8590643795031337
 40
0.9296339581918435
 40
0.9999988011400346
 40
1.0
 40
1.0
 40
1.0
 40
1.0
 10
6587.197522948321
 20
5233.7961596171
 30
0.0
 10
6588.620183500035
 20
5234.345140387714
 30
0.0
 10
6591.470332916153
 20
5235.444965093574
 30
0.0
 10
6595.943183958352
 20
5236.475604828598
 30
0.0
 10
6600.321041247038
 20
5237.073711182037
 30
0.0
 10
6604.571252055802
 20
5237.259756253005
 30
0.0
 10
6608.656053544945
 20
5237.081297206541
 30
0.0
 10
6612.467018039387
 20
5236.564106970858
 30
0.0
 10
6615.978677352774
 20
5235.762978632759
 30
0.0
 10
6619.183552283602
 20
5234.74572614641
 30
0.0
 10
6622.287854143986
 20
5233.455625114681
 30
0.0
 10
6625.308634003688
 20
5231.866163605422
 30
0.0
 10
6628.194166348289
 20
5229.938382485121
 30
0.0
 10
6630.897873451775
 20
5227.675544707809
 30
0.0
 10
6632.531782624083
 20
5225.98232079517
 30
0.0
 10
6633.298142663366
 20
5225.09535207911
 30
0.0
 10
6633.29815572021
 20
5225.095336967399
 30
0.0
  0
SPLINE
  5
117
330
1F
100
AcDbEntity
  8
0
  6
Continuous
 62
     7
370
    25
100
AcDbSpline
210
0.0
220
0.0
230
1.0
 70
     8
 71
     3
 72
    10
 73
     6
 74
     0
 42
0.000000001
 43
0.00000001
 40
0.0
 40
0.0
 40
0.0
 40
0.0
 40
0.3887479228133332
 40
0.778109262458868
 40
1.0
 40
1.0
 40
1.0
 40
1.0
 10
6633.29815572021
 20
5225.095336967399
 30
0.0
 10
6633.180469454028
 20
5225.052564523166
 30
0.0
 10
6632.944911221029
 20
5224.966952142798
 30
0.0
 10
6632.66883805519
 20
5224.867350437379
 30
0.0
 10
6632.542683950425
 20
5224.822229712904
 30
0.0
 10
6632.496888723882
 20
5224.805850429781
 30
0.0
  0
LWPOLYLINE
  5
118
330
1F
100
AcDbEntity
  8
0
  6
Continuous
 62
     7
370
    25
100
AcDbPolyline
 90
       21
 70
   128
 43
0.0
 10
6670.0483974887
 20
5238.5949687885
 10
6670.0422970283
 20
5238.5893945985
 10
6669.9325895779
 20
5238.5395271068
 10
6669.6865106824
 20
5238.4401155332
 10
6669.3056562578
 20
5238.2918045999
 10
6668.7924962911
 20
5238.0955561603
 10
6668.1503588217
 20
5237.8526429608
 10
6667.3834083574
 20
5237.5646403866
 10
6666.4966188664
 20
5237.2334162451
 10
6665.4957415187
 20
5236.8611186517
 10
6664.387267388
 20
5236.4501620994
 10
6663.1783853545
 20
5236.0032117991
 10
6661.876935482
 20
5235.5231663949
 10
6660.4913581723
 20
5235.0131391655
 10
6659.030639426
 20
5234.4764378332
 10
6657.5042525646
 20
5233.9165431122
 10
6655.9220967927
 20
5233.3370861344
 10
6654.2944329976
 20
5232.7418249008
 10
6652.6318172036
 20
5232.1346199089
 10
6650.9450321122
 20
5231.519409116
 10
6649.2450171718
 20
5230.9001824003
  0
LINE
  5
119
330
1F
100
AcDbEntity
  8
0
  6
Continuous
 62
     7
370
    25
100
AcDbLine
 10
6649.2450171718
 20
5230.9001824003
 30
0.0
 11
6633.2981557202
 21
5225.0953369674
 31
0.0
  0
SPLINE
  5
11A
330
1F
100
AcDbEntity
  8
0
  6
Continuous
 62
     7
370
    25
100
AcDbSpline
210
0.0
220
0.0
230
1.0
 70
     8
 71
     3
 72
     9
 73
     5
 74
     0
 42
0.000000001
 43
0.00000001
 40
0.0
 40
0.0
 40
0.0
 40
0.0
 40
0.0020406977160155
 40
1.0
 40
1.0
 40
1.0
 40
1.0
 10
6587.170005128322
 20
5233.785946806762
 30
0.0
 10
6587.170023739491
 20
5233.785954032425
 30
0.0
 10
6587.179143742249
 20
5233.789494813212
 30
0.0
 10
6587.188265704257
 20
5233.793030539577
 30
0.0
 10
6587.197369051098
 20
5233.796559050594
 30
0.0
  0
ARC
  5
11B
330
1F
100
AcDbEntity
  8
0
  6
Continuous
 62
     7
370
    25
100
AcDbCircle
 10
6574.1529966047
 20
5380.4470586246
 30
0.0
 40
166.2173140338044
100
AcDbArc
 50
287.7916936751
 51
290.5490956002
  0
SPLINE
  5
11C
330
1F
100
AcDbEntity
  8
0
  6
Continuous
 62
     7
370
    25
100
AcDbSpline
210
0.0
220
0.0
230
1.0
 70
     8
 71
     3
 72
     9
 73
     5
 74
     0
 42
0.000000001
 43
0.00000001
 40
0.0
 40
0.0
 40
0.0
 40
0.0
 40
0.6005642909108596
 40
1.0
 40
1.0
 40
1.0
 40
1.0
 10
6615.795936751774
 20
5226.384541875733
 30
0.0
 10
6615.697936931583
 20
5226.408095475131
 30
0.0
 10
6615.534757365841
 20
5226.447314589145
 30
0.0
 10
6615.465775509954
 20
5226.461523841086
 30
0.0
 10
6615.438221693435
 20
5226.46719952371
 30
0.0
  0
SPLINE
  5
11D
330
1F
100
AcDbEntity
  8
0
  6
Continuous
 62
     7
370
    25
100
AcDbSpline
210
0.0
220
0.0
230
1.0
 70
     8
 71
     3
 72
     9
 73
     5
 74
     0
 42
0.000000001
 43
0.00000001
 40
0.0
 40
0.0
 40
0.0
 40
0.0
 40
0.1165980708186534
 40
1.0
 40
1.0
 40
1.0
 40
1.0
 10
6618.20581673738
 20
5225.594225723027
 30
0.0
 10
6618.224543527519
 20
5225.586995206557
 30
0.0
 10
6618.3851533044
 20
5225.524982890066
 30
0.0
 10
6618.459008329672
 20
5225.494175944665
 30
0.0
 10
6618.524252001476
 20
5225.466961029665
 30
0.0
  0
SPLINE
  5
11E
330
1F
100
AcDbEntity
  8
0
  6
Continuous
 62
     7
370
    25
100
AcDbSpline
210
0.0
220
0.0
230
1.0
 70
     8
 71
     3
 72
    12
 73
     8
 74
     0
 42
0.000000001
 43
0.00000001
 40
0.0
 40
0.0
 40
0.0
 40
0.0
 40
0.0325963658290269
 40
0.3433250561879956
 40
0.6561467320868214
 40
0.987541295123188
 40
1.0
 40
1.0
 40
1.0
 40
1.0
 10
6618.588590869088
 20
5225.442719460479
 30
0.0
 10
6618.591198082598
 20
5225.441724035278
 30
0.0
 10
6618.618658865485
 20
5225.431239602291
 30
0.0
 10
6618.514543567352
 20
5225.47852461954
 30
0.0
 10
6618.270253505767
 20
5225.581322504139
 30
0.0
 10
6618.028109515057
 20
5225.682591560327
 30
0.0
 10
6617.864228768845
 20
5225.742247643437
 30
0.0
 10
6617.858290940003
 20
5225.744409139641
 30
0.0
  0
LINE
  5
11F
330
1F
100
AcDbEntity
  8
0
  6
Continuous
 62
     7
370
    25
100
AcDbLine
 10
6615.3122775564
 20
5229.5879729892
 30
0.0
 11
6615.3079759228
 21
5229.5885370924
 31
0.0
  0
ARC
  5
120
330
1F
100
AcDbEntity
  8
0
  6
Continuous
 62
     7
370
    18
100
AcDbCircle
 10
6163.4632630063
 20
5059.5632949948
 30
0.0
 40
457.9030423981812
100
AcDbArc
 50
23.4985871495
 51
26.7339319507
  0
SPLINE
  5
121
330
1F
100
AcDbEntity
  8
0
  6
Continuous
 62
     7
370
    25
100
AcDbSpline
210
0.0
220
0.0
230
1.0
 70
     8
 71
     3
 72
    34
 73
    30
 74
     0
 42
0.000000001
 43
0.00000001
 40
0.0
 40
0.0
 40
0.0
 40
0.0
 40
0.0499564582141869
 40
0.0949668928735119
 40
0.1351372672157024
 40
0.170489627243949
 40
0.2010094840177637
 40
0.2266717541067057
 40
0.248192988209185
 40
0.270071933643236
 40
0.3073901409117064
 40
0.3475451345110128
 40
0.3905336759453707
 40
0.4352588121106725
 40
0.4769925692844927
 40
0.5046402676417332
 40
0.5304956346240124
 40
0.5545670646279834
 40
0.5768609085368643
 40
0.5975508171625623
 40
0.6213241624812008
 40
0.6503102149251979
 40
0.6845136725898109
 40
0.7239458714624406
 40
0.7686267592151745
 40
0.8185817991858951
 40
0.8738167376663534
 40
0.9342912404234477
 40
1.0
 40
1.0
 40
1.0
 40
1.0
 10
6297.439602869111
 20
4814.99328444705
 30
0.0
 10
6297.471533858215
 20
4815.809797959464
 30
0.0
 10
6297.532234454892
 20
4817.361984684363
 30
0.0
 10
6297.614015790701
 20
4819.827413624803
 30
0.0
 10
6297.684461781753
 20
4822.144367094746
 30
0.0
 10
6297.744411373375
 20
4824.274719153786
 30
0.0
 10
6297.794804725593
 20
4826.170707122299
 30
0.0
 10
6297.836681878972
 20
4827.817083780618
 30
0.0
 10
6297.873271793717
 20
4829.303550450055
 30
0.0
 10
6297.915546617531
 20
4831.069710319323
 30
0.0
 10
6297.966777173604
 20
4833.286041046827
 30
0.0
 10
6298.027599834488
 20
4836.028362211007
 30
0.0
 10
6298.090653888844
 20
4838.989595571813
 30
0.0
 10
6298.152832003047
 20
4842.028419503155
 30
0.0
 10
6298.206673708498
 20
4844.729269079041
 30
0.0
 10
6298.251241317897
 20
4846.994410518038
 30
0.0
 10
6298.287419581343
 20
4848.844658061853
 30
0.0
 10
6298.321102073153
 20
4850.570490935563
 30
0.0
 10
6298.352436828433
 20
4852.174894997999
 30
0.0
 10
6298.383884181697
 20
4853.773235535179
 30
0.0
 10
6298.418312349816
 20
4855.533282868819
 30
0.0
 10
6298.458825738522
 20
4857.617449972442
 30
0.0
 10
6298.506458977226
 20
4860.074802388681
 30
0.0
 10
6298.561200167972
 20
4862.901618536695
 30
0.0
 10
6298.623138559096
 20
4866.091291095304
 30
0.0
 10
6298.692364614392
 20
4869.633802067618
 30
0.0
 10
6298.76909296248
 20
4873.508837491227
 30
0.0
 10
6298.853727785136
 20
4877.696793140251
 30
0.0
 10
6298.913769550938
 20
4880.515567118493
 30
0.0
 10
6298.945035741721
 20
4881.983417435655
 30
0.0
  0
SPLINE
  5
122
330
1F
100
AcDbEntity
  8
0
  6
Continuous
 62
     7
370
    25
100
AcDbSpline
210
0.0
220
0.0
230
1.0
 70
     8
 71
     3
 72
    30
 73
    26
 74
     0
 42
0.000000001
 43
0.00000001
 40
0.0
 40
0.0
 40
0.0
 40
0.0
 40
0.0705038382432838
 40
0.1372619741295447
 40
0.2002692266808347
 40
0.2594847294341174
 40
0.3149418031719404
 40
0.3666842875936125
 40
0.4238872471643473
 40
0.4757583156333323
 40
0.5223209141363692
 40
0.5636059072316454
 40
0.5996273132278335
 40
0.6391085252134635
 40
0.6775152603443797
 40
0.7151728301539635
 40
0.7520746470716836
 40
0.7706151206498849
 40
0.792270151715964
 40
0.8176416757805014
 40
0.8467126499596872
 40
0.879468611917632
 40
0.9159073208715457
 40
0.9560560569008277
 40
1.0
 40
1.0
 40
1.0
 40
1.0
 10
6248.983495157729
 20
4881.228504385036
 30
0.0
 10
6249.064832656006
 20
4879.651825531914
 30
0.0
 10
6249.223186383439
 20
4876.582233048154
 30
0.0
 10
6249.456817074886
 20
4871.948320016664
 30
0.0
 10
6249.678313843634
 20
4867.517002828668
 30
0.0
 10
6249.887606726952
 20
4863.306255826758
 30
0.0
 10
6250.084223896649
 20
4859.337328989441
 30
0.0
 10
6250.278920906289
 20
4855.403021692346
 30
0.0
 10
6250.469751237751
 20
4851.550825263019
 30
0.0
 10
6250.654740627815
 20
4847.830973350665
 30
0.0
 10
6250.820975634399
 20
4844.507734170937
 30
0.0
 10
6250.96841139628
 20
4841.581567641461
 30
0.0
 10
6251.107478574282
 20
4838.844789231315
 30
0.0
 10
6251.243325952445
 20
4836.200105327861
 30
0.0
 10
6251.381146423543
 20
4833.558242788039
 30
0.0
 10
6251.515612089981
 20
4831.022194090567
 30
0.0
 10
6251.625988986594
 20
4828.977537997736
 30
0.0
 10
6251.716977429121
 20
4827.318476811466
 30
0.0
 10
6251.794298178166
 20
4825.926174436324
 30
0.0
 10
6251.883881004745
 20
4824.339323372137
 30
0.0
 10
6251.986260909163
 20
4822.56441935693
 30
0.0
 10
6252.101187372478
 20
4820.626248491382
 30
0.0
 10
6252.228268470799
 20
4818.561291383488
 30
0.0
 10
6252.367279616554
 20
4816.396128685755
 30
0.0
 10
6252.462464523572
 20
4815.028902240473
 30
0.0
 10
6252.512204883628
 20
4814.314436703904
 30
0.0
  0
SPLINE
  5
123
330
1F
100
AcDbEntity
  8
0
  6
Continuous
 62
     7
370
    25
100
AcDbSpline
210
0.0
220
0.0
230
1.0
 70
     8
 71
     3
 72
    16
 73
    12
 74
     0
 42
0.000000001
 43
0.00000001
 40
0.0
 40
0.0
 40
0.0
 40
0.0
 40
0.0012004112117041
 40
0.0235731238986531
 40
0.053087509477059
 40
0.0910259505994926
 40
0.1942890575233492
 40
0.3358927669959923
 40
0.5168742774195076
 40
0.7380058686482622
 40
1.0
 40
1.0
 40
1.0
 40
1.0
 10
6248.500755419213
 20
4891.342049105208
 30
0.0
 10
6248.500722220145
 20
4891.342504278134
 30
0.0
 10
6248.500070272086
 20
4891.351442754928
 30
0.0
 10
6248.503345071231
 20
4891.278551947255
 30
0.0
 10
6248.511363637158
 20
4891.106965379765
 30
0.0
 10
6248.531785647301
 20
4890.678139781287
 30
0.0
 10
6248.571661496109
 20
4889.844223318721
 30
0.0
 10
6248.636651705859
 20
4888.472494177224
 30
0.0
 10
6248.724766548607
 20
4886.616275641346
 30
0.0
 10
6248.83664421707
 20
4884.256217641634
 30
0.0
 10
6248.919479218915
 20
4882.471651868495
 30
0.0
 10
6248.964399792048
 20
4881.503900126616
 30
0.0
  0
SPLINE
  5
124
330
1F
100
AcDbEntity
  8
0
  6
Continuous
 62
     7
370
    25
100
AcDbSpline
210
0.0
220
0.0
230
1.0
 70
     8
 71
     3
 72
    18
 73
    14
 74
     0
 42
0.000000001
 43
0.00000001
 40
0.0
 40
0.0
 40
0.0
 40
0.0
 40
0.2144124354294022
 40
0.4023963752958978
 40
0.5642517096024217
 40
0.7002029701445034
 40
0.810408739709716
 40
0.9121178758565679
 40
0.9480047181167274
 40
0.9626091917941927
 40
0.9757527491095167
 40
0.9881461545114877
 40
1.0
 40
1.0
 40
1.0
 40
1.0
 10
6298.956047448728
 20
4882.302034881266
 30
0.0
 10
6298.970485021385
 20
4883.193834959413
 30
0.0
 10
6298.997580590229
 20
4884.867511759997
 30
0.0
 10
6299.036623486598
 20
4887.158684785451
 30
0.0
 10
6299.070835946267
 20
4889.095637442258
 30
0.0
 10
6299.100010002614
 20
4890.689346932749
 30
0.0
 10
6299.125253493747
 20
4892.02740612294
 30
0.0
 10
6299.143199436276
 20
4892.951744943845
 30
0.0
 10
6299.154511557995
 20
4893.525965471813
 30
0.0
 10
6299.158874944824
 20
4893.7435822016
 30
0.0
 10
6299.160963892139
 20
4893.849804695138
 30
0.0
 10
6299.161884290742
 20
4893.914678558856
 30
0.0
 10
6299.161749886067
 20
4893.921216910438
 30
0.0
 10
6299.161684179144
 20
4893.924413339169
 30
0.0
  0
SPLINE
  5
125
330
1F
100
AcDbEntity
  8
0
  6
Continuous
 62
     7
370
    25
100
AcDbSpline
210
0.0
220
0.0
230
1.0
 70
     8
 71
     3
 72
    14
 73
    10
 74
     0
 42
0.000000001
 43
0.00000001
 40
0.0
 40
0.0
 40
0.0
 40
0.0
 40
0.0720855509037584
 40
0.265730498374926
 40
0.4608116146978863
 40
0.6543594971956904
 40
0.820345646889334
 40
0.9967511002035525
 40
1.0
 40
1.0
 40
1.0
 40
1.0
 10
6300.575673892539
 20
4911.178771761744
 30
0.0
 10
6300.590840845514
 20
4911.269926421379
 30
0.0
 10
6300.646751106621
 20
4911.605951780554
 30
0.0
 10
6300.744377828613
 20
4912.0569506979
 30
0.0
 10
6300.865151691578
 20
4912.528960740711
 30
0.0
 10
6300.974517989245
 20
4912.845875475525
 30
0.0
 10
6301.056721114478
 20
4913.028847408388
 30
0.0
 10
6301.094055909416
 20
4913.073198960206
 30
0.0
 10
6301.0851789356
 20
4913.064784651514
 30
0.0
 10
6301.0850184029
 20
4913.064632485728
 30
0.0
  0
SPLINE
  5
126
330
1F
100
AcDbEntity
  8
0
  6
Continuous
 62
     7
370
    25
100
AcDbSpline
210
0.0
220
0.0
230
1.0
 70
     8
 71
     3
 72
    13
 73
     9
 74
     0
 42
0.000000001
 43
0.00000001
 40
0.0
 40
0.0
 40
0.0
 40
0.0
 40
0.0982586409614312
 40
0.262245790339744
 40
0.4347563492398133
 40
0.6208430657701705
 40
0.8155334422263815
 40
1.0
 40
1.0
 40
1.0
 40
1.0
 10
6245.91193245974
 20
4912.222602024054
 30
0.0
 10
6245.910997203029
 20
4912.224012868945
 30
0.0
 10
6245.90850106495
 20
4912.227778320307
 30
0.0
 10
6245.972982962206
 20
4912.123915403056
 30
0.0
 10
6246.06919228088
 20
4911.900982161143
 30
0.0
 10
6246.1898793598
 20
4911.543635778281
 30
0.0
 10
6246.320195903794
 20
4911.071370538708
 30
0.0
 10
6246.411352728544
 20
4910.651341712221
 30
0.0
 10
6246.455702136826
 20
4910.446990255627
 30
0.0
  0
LINE
  5
127
330
1F
100
AcDbEntity
  8
0
  6
Continuous
 62
     7
370
    18
100
AcDbLine
 10
6248.9752844127
 20
4881.3278348965
 30
0.0
 11
6248.964328372
 21
4881.5053983654
 31
0.0
  0
LINE
  5
128
330
1F
100
AcDbEntity
  8
0
  6
Continuous
 62
     7
370
    18
100
AcDbLine
 10
6298.9560631598
 20
4882.3037107045
 30
0.0
 11
6298.9502416787
 21
4882.0829506716
 31
0.0
  0
LINE
  5
129
330
1F
100
AcDbEntity
  8
0
  6
Continuous
 62
     7
370
    25
100
AcDbLine
 10
6298.9502416787
 20
4882.0829506716
 30
0.0
 11
6298.9450357417
 21
4881.9834174357
 31
0.0
  0
LWPOLYLINE
  5
12A
330
1F
100
AcDbEntity
  8
0
  6
Continuous
 62
     7
370
    25
100
AcDbPolyline
 90
       40
 70
   128
 43
0.0
 10
6297.4405582799
 20
4815.0211241735
 10
6297.4085408733
 20
4814.45282876
 10
6297.2156942624
 20
4812.7594441672
 10
6296.8785002816
 20
4811.0858767705
 10
6296.3991457631
 20
4809.4429802968
 10
6295.780739505
 20
4807.84140956
 10
6295.0272921091
 20
4806.2915513609
 10
6294.143689971
 20
4804.8034571248
 10
6293.1356635895
 20
4803.3867777138
 10
6292.0097504026
 20
4802.0507008375
 10
6290.7732523893
 20
4800.803891467
 10
6289.4341887137
 20
4799.6544356397
 10
6288.0012437176
 20
4798.6097880177
 10
6286.4837105992
 20
4797.6767235415
 10
6284.891431143
 20
4796.8612934925
 10
6283.2347318923
 20
4796.1687862474
 10
6281.5243571776
 20
4795.6036929814
 10
6279.7713994352
 20
4795.1696785411
 10
6277.9872272686
 20
4794.8695576768
 10
6276.183411719
 20
4794.7052767875
 10
6274.3716512225
 20
4794.6779012978
 10
6272.5636957411
 20
4794.7876087481
 10
6270.7712705599
 20
4795.0336876436
 10
6269.0060002439
 20
4795.4145420683
 10
6267.2793332487
 20
4795.9277020349
 10
6265.6024676721
 20
4796.5698395044
 10
6263.9862786309
 20
4797.3367899686
 10
6262.4412477313
 20
4798.2235794597
 10
6260.9773950915
 20
4799.2244568073
 10
6259.6042143576
 20
4800.332930938
 10
6258.3306111336
 20
4801.5418129715
 10
6257.1648452252
 20
4802.843262844
 10
6256.1144770715
 20
4804.2288401537
 10
6255.1863187131
 20
4805.6895589001
 10
6254.3863896132
 20
4807.2159457614
 10
6253.7198776189
 20
4808.7981015333
 10
6253.1911053163
 20
4810.4257653284
 10
6252.8035019966
 20
4812.0883811224
 10
6252.5595814161
 20
4813.7751662139
 10
6252.5102737165
 20
4814.3441040915
  0
LINE
  5
12B
330
1F
100
AcDbEntity
  8
0
  6
Continuous
 62
     7
370
    25
100
AcDbLine
 10
6248.9834951577
 20
4881.228504385
 30
0.0
 11
6248.9752844127
 21
4881.3278348965
 31
0.0
  0
ARC
  5
12C
330
1F
100
AcDbEntity
  8
0
  6
Continuous
 62
     7
370
    25
100
AcDbCircle
 10
6273.2063827064
 20
4931.7640412455
 30
0.0
 40
28.00000000000026
100
AcDbArc
 50
0.8656666697
 51
180.8656666696
  0
LINE
  5
12D
330
1F
100
AcDbEntity
  8
0
  6
Continuous
 62
     7
370
    25
100
AcDbLine
 10
6301.4801111728
 20
4913.8474117994
 30
0.0
 11
6301.2031869335
 21
4932.1870696918
 31
0.0
  0
SPLINE
  5
12E
330
1F
100
AcDbEntity
  8
0
  6
Continuous
 62
     7
370
    25
100
AcDbSpline
210
0.0
220
0.0
230
1.0
 70
     8
 71
     3
 72
    18
 73
    14
 74
     0
 42
0.000000001
 43
0.00000001
 40
0.0
 40
0.0
 40
0.0
 40
0.0
 40
0.0791998624253345
 40
0.1659798312009866
 40
0.2244164741211552
 40
0.2830301195363103
 40
0.3421176607364392
 40
0.4013393039452834
 40
0.5227741515297972
 40
0.6450008408436395
 40
0.767479289265064
 40
0.8904728050278405
 40
1.0
 40
1.0
 40
1.0
 40
1.0
 10
6299.050004170846
 20
4887.904923834842
 30
0.0
 10
6299.086980766443
 20
4888.942257681808
 30
0.0
 10
6299.164472935087
 20
4891.116207124975
 30
0.0
 10
6299.271889237397
 20
4893.74420851691
 30
0.0
 10
6299.370421751278
 20
4895.965640045452
 30
0.0
 10
6299.456381592729
 20
4897.758053179447
 30
0.0
 10
6299.543479118663
 20
4899.438926590625
 30
0.0
 10
6299.662575546499
 20
4901.559071011558
 30
0.0
 10
6299.815336226072
 20
4903.948416179742
 30
0.0
 10
6300.004448432438
 20
4906.406892095163
 30
0.0
 10
6300.200547609071
 20
4908.464664717293
 30
0.0
 10
6300.395262726972
 20
4910.122807366585
 30
0.0
 10
6300.528877817866
 20
4910.936336030682
 30
0.0
 10
6300.591816237697
 20
4911.319542809667
 30
0.0
  0
SPLINE
  5
12F
330
1F
100
AcDbEntity
  8
0
  6
Continuous
 62
     7
370
    25
100
AcDbSpline
210
0.0
220
0.0
230
1.0
 70
     8
 71
     3
 72
    18
 73
    14
 74
     0
 42
0.000000001
 43
0.00000001
 40
0.0
 40
0.0
 40
0.0
 40
0.0
 40
0.1132749654752687
 40
0.2365035575370732
 40
0.360226402871658
 40
0.4769499407399165
 40
0.5943253778308102
 40
0.6543309961725847
 40
0.7143331563051569
 40
0.7749655367657059
 40
0.8355926497376452
 40
0.9175970456065282
 40
1.0
 40
1.0
 40
1.0
 40
1.0
 10
6246.434790966531
 20
4910.587170595573
 30
0.0
 10
6246.512406168985
 20
4910.192439104101
 30
0.0
 10
6246.67445672819
 20
4909.36829052358
 30
0.0
 10
6246.92457856416
 20
4907.690158646808
 30
0.0
 10
6247.181853449794
 20
4905.64903850899
 30
0.0
 10
6247.441033031957
 20
4903.242338531163
 30
0.0
 10
6247.660689244992
 20
4900.928247595549
 30
0.0
 10
6247.842952902733
 20
4898.835894695376
 30
0.0
 10
6247.984491189201
 20
4897.122022913726
 30
0.0
 10
6248.129548937271
 20
4895.275120000307
 30
0.0
 10
6248.295878624182
 20
4893.050640482134
 30
0.0
 10
6248.484522080464
 20
4890.402060819059
 30
0.0
 10
6248.627167110864
 20
4888.246441000445
 30
0.0
 10
6248.698662527072
 20
4887.166018249763
 30
0.0
  0
LINE
  5
130
330
1F
100
AcDbEntity
  8
0
  6
Continuous
 62
     7
370
    25
100
AcDbLine
 10
6245.2095784792
 20
4931.3410127992
 30
0.0
 11
6245.4868743382
 21
4913.0013605228
 31
0.0
  0
SPLINE
  5
131
330
1F
100
AcDbEntity
  8
0
  6
Continuous
 62
     7
370
    25
100
AcDbSpline
210
0.0
220
0.0
230
1.0
 70
     8
 71
     3
 72
    10
 73
     6
 74
     0
 42
0.000000001
 43
0.00000001
 40
0.0
 40
0.0
 40
0.0
 40
0.0
 40
0.3312130039957002
 40
0.6624157689881748
 40
1.0
 40
1.0
 40
1.0
 40
1.0
 10
6301.480111172848
 20
4913.847411799426
 30
0.0
 10
6301.470503260757
 20
4913.73516137877
 30
0.0
 10
6301.451287733587
 20
4913.510664007527
 30
0.0
 10
6301.285985665741
 20
4913.201400213836
 30
0.0
 10
6301.107618421374
 20
4913.060080100757
 30
0.0
 10
6301.017583822337
 20
4912.98874581647
 30
0.0
  0
SPLINE
  5
132
330
1F
100
AcDbEntity
  8
0
  6
Continuous
 62
     7
370
    25
100
AcDbSpline
210
0.0
220
0.0
230
1.0
 70
     8
 71
     3
 72
    10
 73
     6
 74
     0
 42
0.000000001
 43
0.00000001
 40
0.0
 40
0.0
 40
0.0
 40
0.0
 40
0.3317097585614945
 40
0.6634278230378308
 40
1.0
 40
1.0
 40
1.0
 40
1.0
 10
6245.975133301788
 20
4912.157060809357
 30
0.0
 10
6245.884509992327
 20
4912.224273727698
 30
0.0
 10
6245.703261104225
 20
4912.358701247372
 30
0.0
 10
6245.526830698985
 20
4912.661788536021
 30
0.0
 10
6245.500257463215
 20
4912.887623078488
 30
0.0
 10
6245.486874338253
 20
4913.001360522009
 30
0.0
  0
LWPOLYLINE
  5
133
330
1F
100
AcDbEntity
  8
0
  6
Continuous
 62
     7
370
    18
100
AcDbPolyline
 90
       42
 70
   128
 43
0.0
 10
6248.964328372
 20
4881.5053983654
 10
6248.984924541
 20
4882.131720443
 10
6249.1463523608
 20
4882.9347570724
 10
6249.4585867221
 20
4883.7320639695
 10
6249.9197298806
 20
4884.518795144
 10
6250.5269790317
 20
4885.2901688842
 10
6251.2766433464
 20
4886.0414968202
 10
6252.1641664037
 20
4886.7682124196
 10
6253.184153884
 20
4887.4658987423
 10
6254.3304063559
 20
4888.1303152868
 10
6255.5959569559
 20
4888.7574237634
 10
6256.9731137325
 20
4889.3434126391
 10
6258.4535063977
 20
4889.8847203038
 10
6260.0281372012
 20
4890.3780567171
 10
6261.6874356178
 20
4890.8204234059
 10
6263.4213165172
 20
4891.2091316882
 10
6265.2192414605
 20
4891.541819015
 10
6267.0702827524
 20
4891.8164633298
 10
6268.9631898592
 20
4892.0313953586
 10
6270.8864577889
 20
4892.1853087558
 10
6272.828397018
 20
4892.2772680434
 10
6274.7772045398
 20
4892.3067142977
 10
6276.7210356025
 20
4892.273468546
 10
6278.6480757008
 20
4892.1777328541
 10
6280.5466123843
 20
4892.0200890986
 10
6282.4051064446
 20
4891.8014954303
 10
6284.2122620505
 20
4891.5232804501
 10
6285.9570954032
 20
4891.1871351344
 10
6287.6290014954
 20
4890.7951025572
 10
6289.2178185679
 20
4890.3495654722
 10
6290.7138898722
 20
4889.853231831
 10
6292.108122364
 20
4889.3091183239
 10
6293.3920419699
 20
4888.7205320447
 10
6294.5578450927
 20
4888.0910503906
 10
6295.5984460409
 20
4887.4244993187
 10
6296.5075200955
 20
4886.7249300921
 10
6297.2795419512
 20
4885.9965946566
 10
6297.9098192989
 20
4885.2439197974
 10
6298.3945213453
 20
4884.4714802337
 10
6298.7307020963
 20
4883.6839708133
 10
6298.9163182626
 20
4882.886177978
 10
6298.9560631598
 20
4882.3037107045
  0
LWPOLYLINE
  5
134
330
1F
100
AcDbEntity
  8
0
  6
Continuous
 62
     8
370
    25
100
AcDbPolyline
 90
        7
 70
   128
 43
0.0
 10
6300.5918162377
 20
4911.3195428097
 10
6300.617154975
 20
4911.4831036828
 10
6300.8394917117
 20
4912.5337421631
 10
6301.1459978859
 20
4913.4415869861
 10
6301.4801085938
 20
4913.8474106655
 10
6301.4801111728
 20
4913.8474117994
 10
6301.4801111728
 20
4913.8474117994
  0
SPLINE
  5
135
330
1F
100
AcDbEntity
  8
0
  6
Continuous
 62
     8
370
    25
100
AcDbSpline
210
0.0
220
0.0
230
1.0
 70
     8
 71
     3
 72
    12
 73
     8
 74
     0
 42
0.000000001
 43
0.00000001
 40
0.0
 40
0.0
 40
0.0
 40
0.0
 40
0.0000026212342846
 40
0.3554206808153371
 40
0.7122105825210133
 40
0.9806473961074668
 40
1.0
 40
1.0
 40
1.0
 40
1.0
 10
6245.486874338253
 20
4913.001360522009
 30
0.0
 10
6245.486875208979
 20
4913.001360170167
 30
0.0
 10
6245.604939294436
 20
4912.953652950251
 30
0.0
 10
6245.833882999343
 20
4912.700639730475
 30
0.0
 10
6246.139936564397
 20
4911.8391644986
 30
0.0
 10
6246.339143300739
 20
4911.10226832354
 30
0.0
 10
6246.428764336306
 20
4910.619626207641
 30
0.0
 10
6246.434790966531
 20
4910.587170595573
 30
0.0
  0
ENDSEC
  0
SECTION
  2
OBJECTS
  0
DICTIONARY
  5
C
330
0
100
AcDbDictionary
281
     1
  3
ACAD_GROUP
350
D
  3
ACAD_LAYOUT
350
1A
  3
ACAD_MLINESTYLE
350
17
  3
ACAD_PLOTSETTINGS
350
19
  3
ACAD_PLOTSTYLENAME
350
E
  3
ACAD_SCALELIST
350
47
  0
DICTIONARY
  5
D
102
{ACAD_REACTORS
330
C
102
}
330
C
100
AcDbDictionary
281
     1
  0
DICTIONARY
  5
1A
102
{ACAD_REACTORS
330
C
102
}
330
C
100
AcDbDictionary
281
     1
  3
Layout1
350
1E
  3
Layout2
350
26
  3
Model
350
22
  0
DICTIONARY
  5
17
102
{ACAD_REACTORS
330
C
102
}
330
C
100
AcDbDictionary
281
     1
  3
Standard
350
18
  0
DICTIONARY
  5
19
102
{ACAD_REACTORS
330
C
102
}
330
C
100
AcDbDictionary
281
     1
  0
ACDBDICTIONARYWDFLT
  5
E
102
{ACAD_REACTORS
330
C
102
}
330
C
100
AcDbDictionary
281
     1
  3
Normal
350
F
100
AcDbDictionaryWithDefault
340
F
  0
DICTIONARY
  5
47
102
{ACAD_REACTORS
330
C
102
}
330
C
100
AcDbDictionary
281
     1
  3
A0
350
48
  3
A1
350
49
  3
A2
350
4A
  3
A3
350
4B
  3
A4
350
4C
  3
A5
350
4D
  3
A6
350
4E
  3
A7
350
4F
  3
A8
350
50
  3
A9
350
51
  3
B0
350
52
  3
B1
350
53
  3
B2
350
54
  3
B3
350
55
  3
B4
350
56
  3
B5
350
57
  3
B6
350
58
  3
B7
350
59
  3
B8
350
5A
  3
B9
350
5B
  3
C0
350
5C
  3
C1
350
5D
  3
C2
350
5E
  3
C3
350
5F
  3
C4
350
60
  3
C5
350
61
  3
C6
350
62
  3
C7
350
63
  3
C8
350
64
  3
C9
350
65
  3
D0
350
66
  3
D1
350
67
  3
D2
350
68
  0
LAYOUT
  5
1E
102
{ACAD_REACTORS
330
1A
102
}
330
1A
100
AcDbPlotSettings
  1

  2
none_device
  4

  6

 40
0.0
 41
0.0
 42
0.0
 43
0.0
 44
0.0
 45
0.0
 46
0.0
 47
0.0
 48
0.0
 49
0.0
140
0.0
141
0.0
142
1.0
143
1.0
 70
   688
 72
     1
 73
     0
 74
     5
  7

 75
    16
147
1.0
148
0.0
149
0.0
100
AcDbLayout
  1
Layout1
 70
     1
 71
     1
 10
0.0
 20
0.0
 11
420.0
 21
297.0
 12
0.0
 22
0.0
 32
0.0
 14
1.0000000000E+20
 24
1.0000000000E+20
 34
1.0000000000E+20
 15
-1.0000000000E+20
 25
-1.0000000000E+20
 35
-1.0000000000E+20
146
0.0
 13
0.0
 23
0.0
 33
0.0
 16
1.0
 26
0.0
 36
0.0
 17
0.0
 27
1.0
 37
0.0
 76
     0
330
1B
  0
LAYOUT
  5
26
102
{ACAD_REACTORS
330
1A
102
}
330
1A
100
AcDbPlotSettings
  1

  2
none_device
  4

  6

 40
0.0
 41
0.0
 42
0.0
 43
0.0
 44
0.0
 45
0.0
 46
0.0
 47
0.0
 48
0.0
 49
0.0
140
0.0
141
0.0
142
1.0
143
1.0
 70
   688
 72
     1
 73
     0
 74
     5
  7

 75
    16
147
1.0
148
0.0
149
0.0
100
AcDbLayout
  1
Layout2
 70
     1
 71
     2
 10
0.0
 20
0.0
 11
0.0
 21
0.0
 12
0.0
 22
0.0
 32
0.0
 14
0.0
 24
0.0
 34
0.0
 15
0.0
 25
0.0
 35
0.0
146
0.0
 13
0.0
 23
0.0
 33
0.0
 16
1.0
 26
0.0
 36
0.0
 17
0.0
 27
1.0
 37
0.0
 76
     0
330
23
  0
LAYOUT
  5
22
102
{ACAD_REACTORS
330
1A
102
}
330
1A
100
AcDbPlotSettings
  1

  2
none_device
  4
Letter_(8.50_x_11.00_Inches)
  6

 40
6.35
 41
6.35
 42
6.35000508
 43
6.35000508
 44
215.9
 45
279.4
 46
0.0
 47
0.0
 48
0.0
 49
0.0
140
0.0
141
0.0
142
1.0
143
1.0
 70
  1712
 72
     1
 73
     0
 74
     0
  7

 75
     0
147
1.0
148
0.0
149
0.0
100
AcDbLayout
  1
Model
 70
     1
 71
     0
 10
0.0
 20
0.0
 11
20000.0
 21
10000.0
 12
0.0
 22
0.0
 32
0.0
 14
0.0
 24
0.0
 34
0.0
 15
20000.0
 25
10000.0
 35
0.0
146
0.0
 13
0.0
 23
0.0
 33
0.0
 16
1.0
 26
0.0
 36
0.0
 17
0.0
 27
1.0
 37
0.0
 76
     0
330
1F
331
29
  0
MLINESTYLE
  5
18
102
{ACAD_REACTORS
330
17
102
}
330
17
100
AcDbMlineStyle
  2
Standard
 70
     0
  3

 62
   256
 51
90.0
 52
90.0
 71
     2
 49
0.5
 62
   256
  6
BYLAYER
 49
-0.5
 62
   256
  6
BYLAYER
  0
ACDBPLACEHOLDER
  5
F
102
{ACAD_REACTORS
330
E
102
}
330
E
  0
SCALE
  5
48
102
{ACAD_REACTORS
330
47
102
}
330
47
100
AcDbScale
 70
     0
300
1:1
140
1.0
141
1.0
290
     1
  0
SCALE
  5
49
102
{ACAD_REACTORS
330
47
102
}
330
47
100
AcDbScale
 70
     0
300
1:2
140
1.0
141
2.0
290
     0
  0
SCALE
  5
4A
102
{ACAD_REACTORS
330
47
102
}
330
47
100
AcDbScale
 70
     0
300
1:4
140
1.0
141
4.0
290
     0
  0
SCALE
  5
4B
102
{ACAD_REACTORS
330
47
102
}
330
47
100
AcDbScale
 70
     0
300
1:5
140
1.0
141
5.0
290
     0
  0
SCALE
  5
4C
102
{ACAD_REACTORS
330
47
102
}
330
47
100
AcDbScale
 70
     0
300
1:8
140
1.0
141
8.0
290
     0
  0
SCALE
  5
4D
102
{ACAD_REACTORS
330
47
102
}
330
47
100
AcDbScale
 70
     0
300
1:10
140
1.0
141
10.0
290
     0
  0
SCALE
  5
4E
102
{ACAD_REACTORS
330
47
102
}
330
47
100
AcDbScale
 70
     0
300
1:16
140
1.0
141
16.0
290
     0
  0
SCALE
  5
4F
102
{ACAD_REACTORS
330
47
102
}
330
47
100
AcDbScale
 70
     0
300
1:20
140
1.0
141
20.0
290
     0
  0
SCALE
  5
50
102
{ACAD_REACTORS
330
47
102
}
330
47
100
AcDbScale
 70
     0
300
1:30
140
1.0
141
30.0
290
     0
  0
SCALE
  5
51
102
{ACAD_REACTORS
330
47
102
}
330
47
100
AcDbScale
 70
     0
300
1:40
140
1.0
141
40.0
290
     0
  0
SCALE
  5
52
102
{ACAD_REACTORS
330
47
102
}
330
47
100
AcDbScale
 70
     0
300
1:50
140
1.0
141
50.0
290
     0
  0
SCALE
  5
53
102
{ACAD_REACTORS
330
47
102
}
330
47
100
AcDbScale
 70
     0
300
1:100
140
1.0
141
100.0
290
     0
  0
SCALE
  5
54
102
{ACAD_REACTORS
330
47
102
}
330
47
100
AcDbScale
 70
     0
300
2:1
140
2.0
141
1.0
290
     0
  0
SCALE
  5
55
102
{ACAD_REACTORS
330
47
102
}
330
47
100
AcDbScale
 70
     0
300
4:1
140
4.0
141
1.0
290
     0
  0
SCALE
  5
56
102
{ACAD_REACTORS
330
47
102
}
330
47
100
AcDbScale
 70
     0
300
8:1
140
8.0
141
1.0
290
     0
  0
SCALE
  5
57
102
{ACAD_REACTORS
330
47
102
}
330
47
100
AcDbScale
 70
     0
300
10:1
140
10.0
141
1.0
290
     0
  0
SCALE
  5
58
102
{ACAD_REACTORS
330
47
102
}
330
47
100
AcDbScale
 70
     0
300
100:1
140
100.0
141
1.0
290
     0
  0
SCALE
  5
59
102
{ACAD_REACTORS
330
47
102
}
330
47
100
AcDbScale
 70
     0
300
1/128" = 1'-0"
140
0.0078125
141
12.0
290
     0
  0
SCALE
  5
5A
102
{ACAD_REACTORS
330
47
102
}
330
47
100
AcDbScale
 70
     0
300
1/64" = 1'-0"
140
0.015625
141
12.0
290
     0
  0
SCALE
  5
5B
102
{ACAD_REACTORS
330
47
102
}
330
47
100
AcDbScale
 70
     0
300
1/32" = 1'-0"
140
0.03125
141
12.0
290
     0
  0
SCALE
  5
5C
102
{ACAD_REACTORS
330
47
102
}
330
47
100
AcDbScale
 70
     0
300
1/16" = 1'-0"
140
0.0625
141
12.0
290
     0
  0
SCALE
  5
5D
102
{ACAD_REACTORS
330
47
102
}
330
47
100
AcDbScale
 70
     0
300
3/32" = 1'-0"
140
0.09375
141
12.0
290
     0
  0
SCALE
  5
5E
102
{ACAD_REACTORS
330
47
102
}
330
47
100
AcDbScale
 70
     0
300
1/8" = 1'-0"
140
0.125
141
12.0
290
     0
  0
SCALE
  5
5F
102
{ACAD_REACTORS
330
47
102
}
330
47
100
AcDbScale
 70
     0
300
3/16" = 1'-0"
140
0.1875
141
12.0
290
     0
  0
SCALE
  5
60
102
{ACAD_REACTORS
330
47
102
}
330
47
100
AcDbScale
 70
     0
300
1/4" = 1'-0"
140
0.25
141
12.0
290
     0
  0
SCALE
  5
61
102
{ACAD_REACTORS
330
47
102
}
330
47
100
AcDbScale
 70
     0
300
3/8" = 1'-0"
140
0.375
141
12.0
290
     0
  0
SCALE
  5
62
102
{ACAD_REACTORS
330
47
102
}
330
47
100
AcDbScale
 70
     0
300
1/2" = 1'-0"
140
0.5
141
12.0
290
     0
  0
SCALE
  5
63
102
{ACAD_REACTORS
330
47
102
}
330
47
100
AcDbScale
 70
     0
300
3/4" = 1'-0"
140
0.75
141
12.0
290
     0
  0
SCALE
  5
64
102
{ACAD_REACTORS
330
47
102
}
330
47
100
AcDbScale
 70
     0
300
1" = 1'-0"
140
1.0
141
12.0
290
     0
  0
SCALE
  5
65
102
{ACAD_REACTORS
330
47
102
}
330
47
100
AcDbScale
 70
     0
300
1-1/2" = 1'-0"
140
1.5
141
12.0
290
     0
  0
SCALE
  5
66
102
{ACAD_REACTORS
330
47
102
}
330
47
100
AcDbScale
 70
     0
300
3" = 1'-0"
140
3.0
141
12.0
290
     0
  0
SCALE
  5
67
102
{ACAD_REACTORS
330
47
102
}
330
47
100
AcDbScale
 70
     0
300
6" = 1'-0"
140
6.0
141
12.0
290
     0
  0
SCALE
  5
68
102
{ACAD_REACTORS
330
47
102
}
330
47
100
AcDbScale
 70
     0
300
1'-0" = 1'-0"
140
12.0
141
12.0
290
     0
  0
ENDSEC
  0
EOF
