  0
SECTION
  2
HEADER
  9
$ACADVER
  1
AC1015
  9
$ACADMAINTVER
 70
     6
  9
$DWGCODEPAGE
  3
ANSI_1250
  9
$INSBASE
 10
0.0
 20
0.0
 30
0.0
  9
$EXTMIN
 10
0.0
 20
0.0
 30
0.0
  9
$EXTMAX
 10
20000.0
 20
10000.0
 30
0.0
  9
$LIMMIN
 10
0.0
 20
0.0
  9
$LIMMAX
 10
20000.0
 20
10000.0
  9
$ORTHOMODE
 70
     0
  9
$REGENMODE
 70
     1
  9
$FILLMODE
 70
     1
  9
$QTEXTMODE
 70
     0
  9
$MIRRTEXT
 70
     1
  9
$LTSCALE
 40
1.0
  9
$ATTMODE
 70
     1
  9
$TEXTSIZE
 40
2.0
  9
$TRACEWID
 40
1.0
  9
$TEXTSTYLE
  7
Standard
  9
$CLAYER
  8
0
  9
$CELTYPE
  6
ByLayer
  9
$CECOLOR
 62
   256
  9
$CELTSCALE
 40
1.0
  9
$DISPSILH
 70
     0
  9
$DIMSCALE
 40
1.0
  9
$DIMASZ
 40
2.0
  9
$DIMEXO
 40
1.0
  9
$DIMDLI
 40
3.75
  9
$DIMRND
 40
0.0
  9
$DIMDLE
 40
0.0
  9
$DIMEXE
 40
1.0
  9
$DIMTP
 40
0.0
  9
$DIMTM
 40
0.0
  9
$DIMTXT
 40
2.0
  9
$DIMCEN
 40
2.5
  9
$DIMTSZ
 40
0.0
  9
$DIMTOL
 70
     0
  9
$DIMLIM
 70
     0
  9
$DIMTIH
 70
     1
  9
$DIMTOH
 70
     1
  9
$DIMSE1
 70
     0
  9
$DIMSE2
 70
     0
  9
$DIMTAD
 70
     1
  9
$DIMZIN
 70
     0
  9
$DIMBLK
  1

  9
$DIMASO
 70
     1
  9
$DIMSHO
 70
     1
  9
$DIMPOST
  1

  9
$DIMAPOST
  1

  9
$DIMALT
 70
     0
  9
$DIMALTD
 70
     3
  9
$DIMALTF
 40
0.0393700787
  9
$DIMLFAC
 40
1.0
  9
$DIMTOFL
 70
     1
  9
$DIMTVP
 40
0.0
  9
$DIMTIX
 70
     0
  9
$DIMSOXD
 70
     0
  9
$DIMSAH
 70
     0
  9
$DIMBLK1
  1

  9
$DIMBLK2
  1

  9
$DIMSTYLE
  2
ISO-25
  9
$DIMCLRD
 70
     0
  9
$DIMCLRE
 70
     0
  9
$DIMCLRT
 70
     0
  9
$DIMTFAC
 40
1.0
  9
$DIMGAP
 40
1.524
  9
$DIMJUST
 70
     0
  9
$DIMSD1
 70
     0
  9
$DIMSD2
 70
     0
  9
$DIMTOLJ
 70
     0
  9
$DIMTZIN
 70
     0
  9
$DIMALTZ
 70
     0
  9
$DIMALTTZ
 70
     0
  9
$DIMUPT
 70
     0
  9
$DIMDEC
 70
     2
  9
$DIMTDEC
 70
     0
  9
$DIMALTU
 70
     2
  9
$DIMALTTD
 70
     3
  9
$DIMTXSTY
  7
Standard
  9
$DIMAUNIT
 70
     0
  9
$DIMADEC
 70
     2
  9
$DIMALTRND
 40
0.0
  9
$DIMAZIN
 70
     0
  9
$DIMDSEP
 70
    44
  9
$DIMATFIT
 70
     3
  9
$DIMFRAC
 70
     0
  9
$DIMLDRBLK
  1

  9
$DIMLUNIT
 70
     2
  9
$DIMLWD
 70
    -2
  9
$DIMLWE
 70
    -2
  9
$DIMTMOVE
 70
     0
  9
$LUNITS
 70
     2
  9
$LUPREC
 70
     3
  9
$SKETCHINC
 40
1.0
  9
$FILLETRAD
 40
10.0
  9
$AUNITS
 70
     0
  9
$AUPREC
 70
     2
  9
$MENU
  1
.
  9
$ELEVATION
 40
0.0
  9
$PELEVATION
 40
0.0
  9
$THICKNESS
 40
0.0
  9
$LIMCHECK
 70
     0
  9
$CHAMFERA
 40
0.0
  9
$CHAMFERB
 40
0.0
  9
$CHAMFERC
 40
0.0
  9
$CHAMFERD
 40
0.0
  9
$SKPOLY
 70
     0
  9
$TDCREATE
 40
2460318.415795127
  9
$TDUCREATE
 40
2460318.37412846
  9
$TDUPDATE
 40
2460318.415795555
  9
$TDUUPDATE
 40
2460318.374128889
  9
$TDINDWG
 40
0.0000000116
  9
$TDUSRTIMER
 40
0.0000000116
  9
$USRTIMER
 70
     1
  9
$ANGBASE
 50
0.0
  9
$ANGDIR
 70
     0
  9
$PDMODE
 70
     0
  9
$PDSIZE
 40
-1.0
  9
$PLINEWID
 40
0.0
  9
$SPLFRAME
 70
     0
  9
$SPLINETYPE
 70
     6
  9
$SPLINESEGS
 70
     8
  9
$HANDSEED
  5
F9
  9
$SURFTAB1
 70
     6
  9
$SURFTAB2
 70
     6
  9
$SURFTYPE
 70
     6
  9
$SURFU
 70
     6
  9
$SURFV
 70
     6
  9
$UCSBASE
  2

  9
$UCSNAME
  2

  9
$UCSORG
 10
0.0
 20
0.0
 30
0.0
  9
$UCSXDIR
 10
1.0
 20
0.0
 30
0.0
  9
$UCSYDIR
 10
0.0
 20
1.0
 30
0.0
  9
$UCSORTHOREF
  2

  9
$UCSORTHOVIEW
 70
     0
  9
$UCSORGTOP
 10
0.0
 20
0.0
 30
0.0
  9
$UCSORGBOTTOM
 10
0.0
 20
0.0
 30
0.0
  9
$UCSORGLEFT
 10
0.0
 20
0.0
 30
0.0
  9
$UCSORGRIGHT
 10
0.0
 20
0.0
 30
0.0
  9
$UCSORGFRONT
 10
0.0
 20
0.0
 30
0.0
  9
$UCSORGBACK
 10
0.0
 20
0.0
 30
0.0
  9
$PUCSBASE
  2

  9
$PUCSNAME
  2

  9
$PUCSORG
 10
0.0
 20
0.0
 30
0.0
  9
$PUCSXDIR
 10
1.0
 20
0.0
 30
0.0
  9
$PUCSYDIR
 10
0.0
 20
1.0
 30
0.0
  9
$PUCSORTHOREF
  2

  9
$PUCSORTHOVIEW
 70
     0
  9
$PUCSORGTOP
 10
0.0
 20
0.0
 30
0.0
  9
$PUCSORGBOTTOM
 10
0.0
 20
0.0
 30
0.0
  9
$PUCSORGLEFT
 10
0.0
 20
0.0
 30
0.0
  9
$PUCSORGRIGHT
 10
0.0
 20
0.0
 30
0.0
  9
$PUCSORGFRONT
 10
0.0
 20
0.0
 30
0.0
  9
$PUCSORGBACK
 10
0.0
 20
0.0
 30
0.0
  9
$USERI1
 70
     0
  9
$USERI2
 70
     0
  9
$USERI3
 70
     0
  9
$USERI4
 70
     0
  9
$USERI5
 70
     0
  9
$USERR1
 40
0.0
  9
$USERR2
 40
0.0
  9
$USERR3
 40
0.0
  9
$USERR4
 40
0.0
  9
$USERR5
 40
0.0
  9
$WORLDVIEW
 70
     1
  9
$SHADEDGE
 70
     3
  9
$SHADEDIF
 70
    70
  9
$TILEMODE
 70
     1
  9
$MAXACTVP
 70
    64
  9
$PINSBASE
 10
0.0
 20
0.0
 30
0.0
  9
$PLIMCHECK
 70
     0
  9
$PEXTMIN
 10
1.0000000000E+20
 20
1.0000000000E+20
 30
1.0000000000E+20
  9
$PEXTMAX
 10
-1.0000000000E+20
 20
-1.0000000000E+20
 30
-1.0000000000E+20
  9
$PLIMMIN
 10
0.0
 20
0.0
  9
$PLIMMAX
 10
420.0
 20
297.0
  9
$UNITMODE
 70
     0
  9
$VISRETAIN
 70
     1
  9
$PLINEGEN
 70
     0
  9
$PSLTSCALE
 70
     1
  9
$TREEDEPTH
 70
  3020
  9
$CMLSTYLE
  2
Standard
  9
$CMLJUST
 70
     0
  9
$CMLSCALE
 40
20.0
  9
$PROXYGRAPHICS
 70
     1
  9
$MEASUREMENT
 70
     1
  9
$CELWEIGHT
370
    -1
  9
$ENDCAPS
280
     0
  9
$JOINSTYLE
280
     0
  9
$LWDISPLAY
290
     1
  9
$INSUNITS
 70
     4
  9
$HYPERLINKBASE
  1

  9
$STYLESHEET
  1

  9
$XEDIT
290
     1
  9
$CEPSNTYPE
380
     0
  9
$PSTYLEMODE
290
     1
  9
$FINGERPRINTGUID
  2
{d9b8cabd-872f-4bca-80e2-342e59280bd7}
  9
$VERSIONGUID
  2
{FAEB1C32-E019-11D5-929B-00C0DF256EC4}
  9
$EXTNAMES
290
     1
  9
$PSVPSCALE
 40
0.0
  9
$OLESTARTUP
290
     0
  0
ENDSEC
  0
SECTION
  2
CLASSES
  0
CLASS
  1
ACDBDICTIONARYWDFLT
  2
AcDbDictionaryWithDefault
  3
ObjectDBX Classes
 90
        0
280
     0
281
     0
  0
CLASS
  1
VISUALSTYLE
  2
AcDbVisualStyle
  3
ObjectDBX Classes
 90
     4095
280
     0
281
     0
  0
CLASS
  1
MATERIAL
  2
AcDbMaterial
  3
ObjectDBX Classes
 90
     1153
280
     0
281
     0
  0
CLASS
  1
SCALE
  2
AcDbScale
  3
ObjectDBX Classes
 90
     1153
280
     0
281
     0
  0
CLASS
  1
TABLESTYLE
  2
AcDbTableStyle
  3
ObjectDBX Classes
 90
     4095
280
     0
281
     0
  0
CLASS
  1
MLEADERSTYLE
  2
AcDbMLeaderStyle
  3
ACDB_MLEADERSTYLE_CLASS
 90
     4095
280
     0
281
     0
  0
CLASS
  1
SUN
  2
AcDbSun
  3
SCENEOE
 90
     1153
280
     0
281
     0
  0
CLASS
  1
ACDBPLACEHOLDER
  2
AcDbPlaceHolder
  3
ObjectDBX Classes
 90
        0
280
     0
281
     0
  0
CLASS
  1
LAYOUT
  2
AcDbLayout
  3
ObjectDBX Classes
 90
        0
280
     0
281
     0
  0
ENDSEC
  0
SECTION
  2
TABLES
  0
TABLE
  2
VPORT
  5
8
330
0
100
AcDbSymbolTable
 70
     1
  0
VPORT
  5
29
330
8
100
AcDbSymbolTableRecord
100
AcDbViewportTableRecord
  2
*Active
 70
     0
 10
0.0
 20
0.0
 11
1.0
 21
1.0
 12
10000.0
 22
5000.0
 13
0.0
 23
0.0
 14
10.0
 24
10.0
 15
10.0
 25
10.0
 16
0.0
 26
0.0
 36
1.0
 17
0.0
 27
0.0
 37
0.0
 40
10000.0
 41
2.0
 42
50.0
 43
0.0
 44
0.0
 50
0.0
 51
0.0
 71
     0
 72
  2000
 73
     1
 74
     3
 75
     0
 76
     0
 77
     0
 78
     0
281
     0
 65
     1
110
0.0
120
0.0
130
0.0
111
1.0
121
0.0
131
0.0
112
0.0
122
1.0
132
0.0
 79
     0
146
0.0
  0
ENDTAB
  0
TABLE
  2
LTYPE
  5
5
330
0
100
AcDbSymbolTable
 70
     6
  0
LTYPE
  5
14
330
5
100
AcDbSymbolTableRecord
100
AcDbLinetypeTableRecord
  2
ByBlock
 70
     0
  3

 72
    65
 73
     0
 40
0.0
  0
LTYPE
  5
15
330
5
100
AcDbSymbolTableRecord
100
AcDbLinetypeTableRecord
  2
ByLayer
 70
     0
  3

 72
    65
 73
     0
 40
0.0
  0
LTYPE
  5
16
330
5
100
AcDbSymbolTableRecord
100
AcDbLinetypeTableRecord
  2
Continuous
 70
     0
  3
Solid line
 72
    65
 73
     0
 40
0.0
  0
LTYPE
  5
6E
330
5
100
AcDbSymbolTableRecord
100
AcDbLinetypeTableRecord
  2
HIDDEN
 70
     0
  3
Hidden __ __ __ __ __ __ __ __ __ __ __ __ __ __
 72
    65
 73
     2
 40
1.905
 49
1.27
 74
     0
 49
-0.635
 74
     0
  0
LTYPE
  5
6F
330
5
100
AcDbSymbolTableRecord
100
AcDbLinetypeTableRecord
  2
PHANTOM
 70
     0
  3
Phantom ______  __  __  ______  __  __  ______
 72
    65
 73
     6
 40
12.7
 49
6.35
 74
     0
 49
-1.27
 74
     0
 49
1.27
 74
     0
 49
-1.27
 74
     0
 49
1.27
 74
     0
 49
-1.27
 74
     0
  0
LTYPE
  5
70
330
5
100
AcDbSymbolTableRecord
100
AcDbLinetypeTableRecord
  2
CENTER
 70
     0
  3
Center ____ _ ____ _ ____ _ ____ _ ____ _ ____
 72
    65
 73
     4
 40
10.16
 49
6.35
 74
     0
 49
-1.27
 74
     0
 49
1.27
 74
     0
 49
-1.27
 74
     0
  0
LTYPE
  5
71
330
5
100
AcDbSymbolTableRecord
100
AcDbLinetypeTableRecord
  2
CENTERX2
 70
     0
  3
Center (2x) ________  __  ________  __  _____
 72
    65
 73
     4
 40
20.32
 49
12.7
 74
     0
 49
-2.54
 74
     0
 49
2.54
 74
     0
 49
-2.54
 74
     0
  0
LTYPE
  5
72
330
5
100
AcDbSymbolTableRecord
100
AcDbLinetypeTableRecord
  2
DOT2
 70
     0
  3
Dot (.5x) ........................................
 72
    65
 73
     2
 40
0.635
 49
0.0
 74
     0
 49
-0.635
 74
     0
  0
ENDTAB
  0
TABLE
  2
LAYER
  5
2
330
0
100
AcDbSymbolTable
 70
    13
  0
LAYER
  5
10
330
2
100
AcDbSymbolTableRecord
100
AcDbLayerTableRecord
  2
0
 70
     0
 62
     7
  6
Continuous
370
    -3
390
F
  0
LAYER
  5
73
330
2
100
AcDbSymbolTableRecord
100
AcDbLayerTableRecord
  2
FORMAT
 70
     0
 62
     7
  6
Continuous
370
    -3
390
F
  0
LAYER
  5
74
330
2
100
AcDbSymbolTableRecord
100
AcDbLayerTableRecord
  2
OSA
 70
     0
 62
     7
  6
CENTER
370
    -3
390
F
  0
LAYER
  5
75
330
2
100
AcDbSymbolTableRecord
100
AcDbLayerTableRecord
  2
0_35
 70
     0
 62
     7
  6
Continuous
370
    35
390
F
  0
LAYER
  5
76
330
2
100
AcDbSymbolTableRecord
100
AcDbLayerTableRecord
  2
0_5
 70
     0
 62
     7
  6
Continuous
370
    50
390
F
  0
LAYER
  5
77
330
2
100
AcDbSymbolTableRecord
100
AcDbLayerTableRecord
  2
0_25
 70
     0
 62
     7
  6
Continuous
370
    25
390
F
  0
LAYER
  5
78
330
2
100
AcDbSymbolTableRecord
100
AcDbLayerTableRecord
  2
0_18
 70
     0
 62
     7
  6
Continuous
370
    -3
390
F
  0
LAYER
  5
79
330
2
100
AcDbSymbolTableRecord
100
AcDbLayerTableRecord
  2
SLD-0
 70
     0
 62
   179
  6
Continuous
370
    -3
390
F
  0
LAYER
  5
7A
330
2
100
AcDbSymbolTableRecord
100
AcDbLayerTableRecord
  2
KOTY
 70
     0
 62
     7
  6
Continuous
370
    -3
390
F
  0
LAYER
  5
7B
330
2
100
AcDbSymbolTableRecord
100
AcDbLayerTableRecord
  2
SILNA
 70
     0
 62
   179
  6
Continuous
370
    -3
390
F
  0
LAYER
  5
7C
330
2
100
AcDbSymbolTableRecord
100
AcDbLayerTableRecord
  2
0_18_1
 70
     0
 62
   179
  6
Continuous
370
    -3
390
F
  0
LAYER
  5
7D
330
2
100
AcDbSymbolTableRecord
100
AcDbLayerTableRecord
  2
0_35_1
 70
     0
 62
   179
  6
Continuous
370
    35
390
F
  0
LAYER
  5
7E
330
2
100
AcDbSymbolTableRecord
100
AcDbLayerTableRecord
  2
0_5_1
 70
     0
 62
   179
  6
Continuous
370
    50
390
F
  0
ENDTAB
  0
TABLE
  2
STYLE
  5
3
330
0
100
AcDbSymbolTable
 70
     1
  0
STYLE
  5
11
330
3
100
AcDbSymbolTableRecord
100
AcDbTextStyleTableRecord
  2
Standard
 70
     0
 40
0.0
 41
1.0
 50
0.0
 71
     0
 42
2.0
  3
txt
  4

  0
ENDTAB
  0
TABLE
  2
VIEW
  5
6
330
0
100
AcDbSymbolTable
 70
     0
  0
ENDTAB
  0
TABLE
  2
UCS
  5
7
330
0
100
AcDbSymbolTable
 70
     0
  0
ENDTAB
  0
TABLE
  2
APPID
  5
9
330
0
100
AcDbSymbolTable
 70
     1
  0
APPID
  5
12
330
9
100
AcDbSymbolTableRecord
100
AcDbRegAppTableRecord
  2
ACAD
 70
     0
  0
ENDTAB
  0
TABLE
  2
DIMSTYLE
  5
A
330
0
100
AcDbSymbolTable
 70
     1
100
AcDbDimStyleTable
  0
DIMSTYLE
105
27
330
A
100
AcDbSymbolTableRecord
100
AcDbDimStyleTableRecord
  2
ISO-25
 70
     0
 41
2.5
 42
0.625
 43
3.75
 44
1.25
 73
     0
 74
     0
 77
     1
 78
     8
140
2.5
141
2.5
143
0.0393700787
147
0.625
171
     3
172
     1
178
     0
271
     2
272
     2
274
     3
278
    44
283
     0
284
     8
340
11
  0
ENDTAB
  0
TABLE
  2
BLOCK_RECORD
  5
1
330
0
100
AcDbSymbolTable
 70
     1
  0
BLOCK_RECORD
  5
1F
330
1
100
AcDbSymbolTableRecord
100
AcDbBlockTableRecord
  2
*Model_Space
340
22
  0
BLOCK_RECORD
  5
1B
330
1
100
AcDbSymbolTableRecord
100
AcDbBlockTableRecord
  2
*Paper_Space
340
1E
  0
BLOCK_RECORD
  5
23
330
1
100
AcDbSymbolTableRecord
100
AcDbBlockTableRecord
  2
*Paper_Space0
340
26
  0
ENDTAB
  0
ENDSEC
  0
SECTION
  2
BLOCKS
  0
BLOCK
  5
20
330
1F
100
AcDbEntity
  8
0
100
AcDbBlockBegin
  2
*Model_Space
 70
     0
 10
0.0
 20
0.0
 30
0.0
  3
*Model_Space
  1

  0
ENDBLK
  5
21
330
1F
100
AcDbEntity
  8
0
100
AcDbBlockEnd
  0
BLOCK
  5
1C
330
1B
100
AcDbEntity
 67
     1
  8
0
100
AcDbBlockBegin
  2
*Paper_Space
 70
     0
 10
0.0
 20
0.0
 30
0.0
  3
*Paper_Space
  1

  0
ENDBLK
  5
1D
330
1B
100
AcDbEntity
 67
     1
  8
0
100
AcDbBlockEnd
  0
BLOCK
  5
24
330
23
100
AcDbEntity
  8
0
100
AcDbBlockBegin
  2
*Paper_Space0
 70
     0
 10
0.0
 20
0.0
 30
0.0
  3
*Paper_Space0
  1

  0
ENDBLK
  5
25
330
23
100
AcDbEntity
  8
0
100
AcDbBlockEnd
  0
ENDSEC
  0
SECTION
  2
ENTITIES
  0
LINE
  5
7F
330
1F
100
AcDbEntity
  8
0
  6
Continuous
 62
     7
370
    25
100
AcDbLine
 10
6459.0187553361
 20
5102.6994545927
 30
0.0
 11
6509.0187553361
 21
5102.6994545927
 31
0.0
  0
LINE
  5
80
330
1F
100
AcDbEntity
  8
0
  6
Continuous
 62
     7
370
    25
100
AcDbLine
 10
6509.0187553361
 20
5134.6994545927
 30
0.0
 11
6459.0187553361
 21
5134.6994545927
 31
0.0
  0
LINE
  5
81
330
1F
100
AcDbEntity
  8
0
  6
Continuous
 62
     7
370
    25
100
AcDbLine
 10
6223.9304435815
 20
5146.4151833453
 30
0.0
 11
6085.6878028944
 21
5284.6578240324
 31
0.0
  0
LINE
  5
82
330
1F
100
AcDbEntity
  8
0
  6
Continuous
 62
     7
370
    25
100
AcDbLine
 10
6063.0603858964
 20
5262.0304070344
 30
0.0
 11
6201.3030265836
 21
5123.7877663473
 31
0.0
  0
ARC
  5
83
330
1F
100
AcDbEntity
  8
0
  6
Continuous
 62
     7
370
    25
100
AcDbCircle
 10
6252.214714829
 20
5174.6994545927
 30
0.0
 40
40.00000000000033
100
AcDbArc
 50
225.0
 51
270.0
  0
ARC
  5
84
330
1F
100
AcDbEntity
  8
0
  6
Continuous
 62
     7
370
    25
100
AcDbCircle
 10
6252.214714829
 20
5174.6994545927
 30
0.0
 40
72.0
100
AcDbArc
 50
225.0
 51
270.0
  0
LINE
  5
85
330
1F
100
AcDbEntity
  8
0
  6
Continuous
 62
     7
370
    25
100
AcDbLine
 10
6459.0187553361
 20
5134.6994545927
 30
0.0
 11
6252.214714829
 21
5134.6994545927
 31
0.0
  0
LINE
  5
86
330
1F
100
AcDbEntity
  8
0
  6
Continuous
 62
     7
370
    25
100
AcDbLine
 10
6252.214714829
 20
5102.6994545927
 30
0.0
 11
6459.0187553361
 21
5102.6994545927
 31
0.0
  0
LINE
  5
87
330
1F
100
AcDbEntity
  8
0
  6
Continuous
 62
     7
370
    25
100
AcDbLine
 10
6027.7050468371
 20
5297.3857460937
 30
0.0
 11
6063.0603858964
 21
5262.0304070344
 31
0.0
  0
LINE
  5
88
330
1F
100
AcDbEntity
  8
0
  6
Continuous
 62
     7
370
    25
100
AcDbLine
 10
6085.6878028944
 20
5284.6578240324
 30
0.0
 11
6050.3324638351
 21
5320.0131630917
 31
0.0
  0
ARC
  5
89
330
1F
100
AcDbEntity
  8
0
  6
Continuous
 62
     7
370
    25
100
AcDbCircle
 10
6509.0187553361
 20
5118.6994545927
 30
0.0
 40
16.52442426687685
100
AcDbArc
 50
255.5265798702
 51
90.0
  0
LWPOLYLINE
  5
8A
330
1F
100
AcDbEntity
  8
0
  6
Continuous
 62
     7
370
    25
100
AcDbPolyline
 90
        3
 70
   128
 43
0.0
 10
6504.8887919765
 20
5134.6994545927
 10
6506.6127798667
 20
5135.0477841524
 10
6509.0187553361
 20
5135.2238788596
  0
ARC
  5
8B
330
1F
100
AcDbEntity
  8
0
  6
Continuous
 62
     7
370
    25
100
AcDbCircle
 10
6509.0187553361
 20
5118.6994545927
 30
0.0
 40
41.25000000000091
100
AcDbArc
 50
202.8225756208
 51
90.0
  0
ARC
  5
8C
330
1F
100
AcDbEntity
  8
0
  6
Continuous
 62
     7
370
    25
100
AcDbCircle
 10
6509.0187553361
 20
5118.6994545927
 30
0.0
 40
41.25000000000091
100
AcDbArc
 50
90.0
 51
157.1774243792
  0
ARC
  5
8D
330
1F
100
AcDbEntity
  8
0
  6
Continuous
 62
     7
370
    25
100
AcDbCircle
 10
6039.0187553361
 20
5308.6994545927
 30
0.0
 40
16.52442426687594
100
AcDbArc
 50
30.5265798702
 51
90.0
  0
ARC
  5
8E
330
1F
100
AcDbEntity
  8
0
  6
Continuous
 62
     7
370
    25
100
AcDbCircle
 10
6039.0187553361
 20
5308.6994545927
 30
0.0
 40
16.52442426687689
100
AcDbArc
 50
90.0
 51
239.4734201298
  0
ARC
  5
8F
330
1F
100
AcDbEntity
  8
0
  6
Continuous
 62
     7
370
    25
100
AcDbCircle
 10
6039.0187553361
 20
5308.6994545927
 30
0.0
 40
41.24999999999913
100
AcDbArc
 50
337.8225756208
 51
90.0
  0
ARC
  5
90
330
1F
100
AcDbEntity
  8
0
  6
Continuous
 62
     7
370
    25
100
AcDbCircle
 10
6039.0187553361
 20
5308.6994545927
 30
0.0
 40
41.25000000000081
100
AcDbArc
 50
90.0
 51
292.1774243792
  0
ARC
  5
91
330
1F
100
AcDbEntity
  8
0
  6
Continuous
 62
     7
370
    25
100
AcDbCircle
 10
6509.0187553361
 20
5118.6994545927
 30
0.0
 40
16.0
100
AcDbArc
 50
0.0
 51
90.0
  0
ARC
  5
92
330
1F
100
AcDbEntity
  8
0
  6
Continuous
 62
     7
370
    25
100
AcDbCircle
 10
6509.0187553361
 20
5118.6994545927
 30
0.0
 40
16.0
100
AcDbArc
 50
270.0
 51
0.0
  0
ARC
  5
93
330
1F
100
AcDbEntity
  8
0
  6
Continuous
 62
     7
370
    25
100
AcDbCircle
 10
6039.0187553361
 20
5308.6994545927
 30
0.0
 40
15.99999999999949
100
AcDbArc
 50
45.0
 51
135.0
  0
ARC
  5
94
330
1F
100
AcDbEntity
  8
0
  6
Continuous
 62
     7
370
    25
100
AcDbCircle
 10
6039.0187553361
 20
5308.6994545927
 30
0.0
 40
16.00000000000077
100
AcDbArc
 50
135.0
 51
225.0
  0
ARC
  5
95
330
1F
100
AcDbEntity
  8
0
  6
Continuous
 62
     8
370
    25
100
AcDbCircle
 10
6509.0187553361
 20
5118.6994545927
 30
0.0
 40
39.38503093878535
100
AcDbArc
 50
203.9692135489
 51
90.0
  0
ARC
  5
96
330
1F
100
AcDbEntity
  8
0
  6
Continuous
 62
     8
370
    25
100
AcDbCircle
 10
6509.0187553361
 20
5118.6994545927
 30
0.0
 40
39.38503093878535
100
AcDbArc
 50
90.0
 51
156.0307864511
  0
ARC
  5
97
330
1F
100
AcDbEntity
  8
0
  6
Continuous
 62
     8
370
    25
100
AcDbCircle
 10
6039.0187553361
 20
5308.6994545927
 30
0.0
 40
39.38503093878438
100
AcDbArc
 50
338.9692135489
 51
90.0
  0
ARC
  5
98
330
1F
100
AcDbEntity
  8
0
  6
Continuous
 62
     8
370
    25
100
AcDbCircle
 10
6039.0187553361
 20
5308.6994545927
 30
0.0
 40
39.3850309387849
100
AcDbArc
 50
90.0
 51
291.0307864511
  0
LINE
  5
99
330
1F
100
AcDbEntity
  8
0
  6
Continuous
 62
     8
370
    25
100
AcDbLine
 10
6459.0187553361
 20
5118.6994545927
 30
0.0
 11
6459.0187553361
 21
5134.6994545927
 31
0.0
  0
LINE
  5
9A
330
1F
100
AcDbEntity
  8
0
  6
Continuous
 62
     8
370
    25
100
AcDbLine
 10
6459.0187553361
 20
5102.6994545927
 30
0.0
 11
6459.0187553361
 21
5118.6994545927
 31
0.0
  0
LINE
  5
9B
330
1F
100
AcDbEntity
  8
0
  6
Continuous
 62
     8
370
    25
100
AcDbLine
 10
6074.3740943954
 20
5273.3441155334
 30
0.0
 11
6085.6878028944
 21
5284.6578240324
 31
0.0
  0
LINE
  5
9C
330
1F
100
AcDbEntity
  8
0
  6
Continuous
 62
     8
370
    25
100
AcDbLine
 10
6063.0603858964
 20
5262.0304070344
 30
0.0
 11
6074.3740943954
 21
5273.3441155334
 31
0.0
  0
LINE
  5
9D
330
1F
100
AcDbEntity
  8
0
  6
Continuous
 62
     8
370
    25
100
AcDbLine
 10
6212.6167350825
 20
5135.1014748463
 30
0.0
 11
6223.9304435815
 21
5146.4151833453
 31
0.0
  0
LINE
  5
9E
330
1F
100
AcDbEntity
  8
0
  6
Continuous
 62
     8
370
    25
100
AcDbLine
 10
6201.3030265836
 20
5123.7877663473
 30
0.0
 11
6212.6167350825
 21
5135.1014748463
 31
0.0
  0
LINE
  5
9F
330
1F
100
AcDbEntity
  8
0
  6
Continuous
 62
     8
370
    25
100
AcDbLine
 10
6252.214714829
 20
5118.6994545927
 30
0.0
 11
6252.214714829
 21
5134.6994545927
 31
0.0
  0
LINE
  5
A0
330
1F
100
AcDbEntity
  8
0
  6
Continuous
 62
     8
370
    25
100
AcDbLine
 10
6252.214714829
 20
5102.6994545927
 30
0.0
 11
6252.214714829
 21
5118.6994545927
 31
0.0
  0
LINE
  5
A1
330
1F
100
AcDbEntity
  8
0
  6
Continuous
 62
     7
370
    25
100
AcDbLine
 10
6744.6435613047
 20
5077.4494545927
 30
0.0
 11
6756.7153487384
 21
5077.4494545927
 31
0.0
  0
LINE
  5
A2
330
1F
100
AcDbEntity
  8
0
  6
Continuous
 62
     7
370
    25
100
AcDbLine
 10
6756.7153487384
 20
5159.9494545927
 30
0.0
 11
6744.6435613047
 21
5159.9494545927
 31
0.0
  0
ARC
  5
A3
330
1F
100
AcDbEntity
  8
0
  6
Continuous
 62
     7
370
    25
100
AcDbCircle
 10
6756.7153487384
 20
5079.9494545927
 30
0.0
 40
2.500000000001054
100
AcDbArc
 50
270.0
 51
345.2849283494
  0
ARC
  5
A4
330
1F
100
AcDbEntity
  8
0
  6
Continuous
 62
     7
370
    25
100
AcDbCircle
 10
6756.7153487384
 20
5157.4494545927
 30
0.0
 40
2.500000000001054
100
AcDbArc
 50
14.7150716506
 51
90.0
  0
LINE
  5
A5
330
1F
100
AcDbEntity
  8
0
  6
Continuous
 62
     7
370
    25
100
AcDbLine
 10
6759.1333511592
 20
5079.3144236539
 30
0.0
 11
6765.1371468508
 21
5102.1750303258
 31
0.0
  0
LINE
  5
A6
330
1F
100
AcDbEntity
  8
0
  6
Continuous
 62
     7
370
    25
100
AcDbLine
 10
6765.1371468508
 20
5135.2238788596
 30
0.0
 11
6759.1333511592
 21
5158.0844855315
 31
0.0
  0
ARC
  5
A7
330
1F
100
AcDbEntity
  8
0
  6
Continuous
 62
     7
370
    25
100
AcDbCircle
 10
6756.7153487384
 20
5269.9494545927
 30
0.0
 40
2.500000000000175
100
AcDbArc
 50
270.0
 51
345.2849283494
  0
ARC
  5
A8
330
1F
100
AcDbEntity
  8
0
  6
Continuous
 62
     7
370
    25
100
AcDbCircle
 10
6756.7153487384
 20
5347.4494545927
 30
0.0
 40
2.500000000000175
100
AcDbArc
 50
14.7150716506
 51
90.0
  0
LINE
  5
A9
330
1F
100
AcDbEntity
  8
0
  6
Continuous
 62
     7
370
    25
100
AcDbLine
 10
6744.6435613047
 20
5267.4494545927
 30
0.0
 11
6756.7153487384
 21
5267.4494545927
 31
0.0
  0
LINE
  5
AA
330
1F
100
AcDbEntity
  8
0
  6
Continuous
 62
     7
370
    25
100
AcDbLine
 10
6756.7153487384
 20
5349.9494545927
 30
0.0
 11
6744.6435613047
 21
5349.9494545927
 31
0.0
  0
LINE
  5
AB
330
1F
100
AcDbEntity
  8
0
  6
Continuous
 62
     7
370
    25
100
AcDbLine
 10
6759.1333511592
 20
5269.3144236539
 30
0.0
 11
6765.1371468508
 21
5292.1750303258
 31
0.0
  0
LINE
  5
AC
330
1F
100
AcDbEntity
  8
0
  6
Continuous
 62
     7
370
    25
100
AcDbLine
 10
6765.1371468508
 20
5325.2238788596
 30
0.0
 11
6759.1333511592
 21
5348.0844855315
 31
0.0
  0
LINE
  5
AD
330
1F
100
AcDbEntity
  8
0
  6
Continuous
 62
     7
370
    25
100
AcDbLine
 10
6777.6435613047
 20
5324.6994545927
 30
0.0
 11
6765.1371468508
 21
5324.6994545927
 31
0.0
  0
LINE
  5
AE
330
1F
100
AcDbEntity
  8
0
  6
Continuous
 62
     7
370
    25
100
AcDbLine
 10
6765.1371468508
 20
5292.6994545927
 30
0.0
 11
6777.6435613047
 21
5292.6994545927
 31
0.0
  0
SPLINE
  5
AF
330
1F
100
AcDbEntity
  8
0
  6
Continuous
 62
     7
370
    25
100
AcDbSpline
210
0.0
220
0.0
230
1.0
 70
     8
 71
     3
 72
    26
 73
    22
 74
     0
 42
0.00000001
 43
0.00000001
 40
0.0
 40
0.0
 40
0.0
 40
0.0
 40
0.0271708859989873
 40
0.0817845603741685
 40
0.1363433848627366
 40
0.1907842141172904
 40
0.2450669629115955
 40
0.2991612897200698
 40
0.3530515904859835
 40
0.4067436846973442
 40
0.4602738370175324
 40
0.5137210033353061
 40
0.567192418095487
 40
0.620861709747708
 40
0.6750227094118657
 40
0.7301140824568121
 40
0.7867852647496939
 40
0.8460051538176674
 40
0.9092424444880521
 40
0.9786874540751647
 40
1.0
 40
1.0
 40
1.0
 40
1.0
 10
6777.643561304734
 20
5292.699454592719
 30
0.0
 10
6778.182498414784
 20
5292.694631419431
 30
0.0
 10
6779.804702954468
 20
5292.680113633483
 30
0.0
 10
6782.500907256676
 20
5292.513682894368
 30
0.0
 10
6785.69003430781
 20
5292.133270822969
 30
0.0
 10
6788.796942801446
 20
5291.566929347555
 30
0.0
 10
6791.78961588467
 20
5290.827675833785
 30
0.0
 10
6794.63837661456
 20
5289.92759994789
 30
0.0
 10
6797.315833803125
 20
5288.882889504517
 30
0.0
 10
6799.797588484475
 20
5287.712231720031
 30
0.0
 10
6802.062866616695
 20
5286.436822811238
 30
0.0
 10
6804.094797953195
 20
5285.08000263278
 30
0.0
 10
6805.881137512623
 20
5283.666709350699
 30
0.0
 10
6807.415319944444
 20
5282.222278214829
 30
0.0
 10
6808.697212917511
 20
5280.770542881134
 30
0.0
 10
6809.733218455596
 20
5279.331375093941
 30
0.0
 10
6810.535243683157
 20
5277.917350516952
 30
0.0
 10
6811.119573251248
 20
5276.528368721301
 30
0.0
 10
6811.49822195202
 20
5275.143451860128
 30
0.0
 10
6811.632326909714
 20
5274.096999788447
 30
0.0
 10
6811.641424842318
 20
5273.487292706039
 30
0.0
 10
6811.643561304734
 20
5273.344115533391
 30
0.0
  0
SPLINE
  5
B0
330
1F
100
AcDbEntity
  8
0
  6
Continuous
 62
     7
370
    25
100
AcDbSpline
210
0.0
220
0.0
230
1.0
 70
     8
 71
     3
 72
    30
 73
    26
 74
     0
 42
0.00000001
 43
0.00000001
 40
0.0
 40
0.0
 40
0.0
 40
0.0
 40
0.0282145227653409
 40
0.0700784168318284
 40
0.1119369336211227
 40
0.153891669693197
 40
0.1960414966269378
 40
0.2384744121098382
 40
0.2812627417562462
 40
0.3244585686788374
 40
0.3680900402717969
 40
0.4121594307652394
 40
0.4566438048449232
 40
0.5014986991065875
 40
0.5466644713688896
 40
0.5920741649851866
 40
0.6376613023950932
 40
0.6833661851947515
 40
0.7291399115854216
 40
0.7749410738692732
 40
0.8207451395468623
 40
0.86654229184368
 40
0.9123310795758305
 40
0.9581164173947402
 40
1.0
 40
1.0
 40
1.0
 40
1.0
 10
6843.643561304734
 20
5273.344115533391
 30
0.0
 10
6843.62938808175
 20
5274.151823814458
 30
0.0
 10
6843.594185039811
 20
5276.157986317008
 30
0.0
 10
6843.251619555925
 20
5279.350769369721
 30
0.0
 10
6842.574551541985
 20
5282.894648573161
 30
0.0
 10
6841.586315588792
 20
5286.383256796566
 30
0.0
 10
6840.297907016731
 20
5289.802973800513
 30
0.0
 10
6838.712373614866
 20
5293.140674459658
 30
0.0
 10
6836.835196672863
 20
5296.383165888559
 30
0.0
 10
6834.67195891354
 20
5299.516933088295
 30
0.0
 10
6832.229608952912
 20
5302.52795099513
 30
0.0
 10
6829.516827002023
 20
5305.401684094682
 30
0.0
 10
6826.544563992908
 20
5308.123290831812
 30
0.0
 10
6823.326307659298
 20
5310.678017390859
 30
0.0
 10
6819.878083417047
 20
5313.051702547451
 30
0.0
 10
6816.218163245582
 20
5315.231283009874
 30
0.0
 10
6812.36656622841
 20
5317.205185833654
 30
0.0
 10
6808.344473386298
 20
5318.963562292724
 30
0.0
 10
6804.17383118544
 20
5320.498223479698
 30
0.0
 10
6799.876803412257
 20
5321.802801361743
 30
0.0
 10
6795.475361612612
 20
5322.87193476346
 30
0.0
 10
6790.990959528594
 20
5323.703501535847
 30
0.0
 10
6786.444674032595
 20
5324.289129307633
 30
0.0
 10
6781.987730700274
 20
5324.638116439224
 30
0.0
 10
6779.048006402087
 20
5324.679624318825
 30
0.0
 10
6777.643561304734
 20
5324.699454592719
 30
0.0
  0
LINE
  5
B1
330
1F
100
AcDbEntity
  8
0
  6
Continuous
 62
     7
370
    25
100
AcDbLine
 10
6843.6435613047
 20
5135.1014748463
 30
0.0
 11
6843.6435613047
 21
5273.3441155334
 31
0.0
  0
LINE
  5
B2
330
1F
100
AcDbEntity
  8
0
  6
Continuous
 62
     7
370
    25
100
AcDbLine
 10
6811.6435613047
 20
5273.3441155334
 30
0.0
 11
6811.6435613047
 21
5135.1014748463
 31
0.0
  0
LINE
  5
B3
330
1F
100
AcDbEntity
  8
0
  6
Continuous
 62
     7
370
    25
100
AcDbLine
 10
6811.6435613047
 20
5135.1014748463
 30
0.0
 11
6811.6435613047
 21
5118.6994545927
 31
0.0
  0
LINE
  5
B4
330
1F
100
AcDbEntity
  8
0
  6
Continuous
 62
     7
370
    25
100
AcDbLine
 10
6843.6435613047
 20
5118.6994545927
 30
0.0
 11
6843.6435613047
 21
5135.1014748463
 31
0.0
  0
LINE
  5
B5
330
1F
100
AcDbEntity
  8
0
  6
Continuous
 62
     7
370
    25
100
AcDbLine
 10
6777.6435613047
 20
5102.6994545927
 30
0.0
 11
6827.6435613047
 21
5102.6994545927
 31
0.0
  0
LINE
  5
B6
330
1F
100
AcDbEntity
  8
0
  6
Continuous
 62
     7
370
    25
100
AcDbLine
 10
6811.6435613047
 20
5134.6994545927
 30
0.0
 11
6777.6435613047
 21
5134.6994545927
 31
0.0
  0
LINE
  5
B7
330
1F
100
AcDbEntity
  8
0
  6
Continuous
 62
     7
370
    25
100
AcDbLine
 10
6765.1371468508
 20
5102.6994545927
 30
0.0
 11
6777.6435613047
 21
5102.6994545927
 31
0.0
  0
LINE
  5
B8
330
1F
100
AcDbEntity
  8
0
  6
Continuous
 62
     7
370
    25
100
AcDbLine
 10
6777.6435613047
 20
5134.6994545927
 30
0.0
 11
6765.1371468508
 21
5134.6994545927
 31
0.0
  0
LINE
  5
B9
330
1F
100
AcDbEntity
  8
0
  6
Continuous
 62
     7
370
    25
100
AcDbLine
 10
6744.6435613047
 20
5077.4494545927
 30
0.0
 11
6744.6435613047
 21
5159.9494545927
 31
0.0
  0
LINE
  5
BA
330
1F
100
AcDbEntity
  8
0
  6
Continuous
 62
     7
370
    25
100
AcDbLine
 10
6765.1371468508
 20
5102.1750303258
 30
0.0
 11
6765.1371468508
 21
5135.2238788596
 31
0.0
  0
LINE
  5
BB
330
1F
100
AcDbEntity
  8
0
  6
Continuous
 62
     7
370
    25
100
AcDbLine
 10
6744.6435613047
 20
5267.4494545927
 30
0.0
 11
6744.6435613047
 21
5349.9494545927
 31
0.0
  0
LINE
  5
BC
330
1F
100
AcDbEntity
  8
0
  6
Continuous
 62
     7
370
    25
100
AcDbLine
 10
6765.1371468508
 20
5292.1750303258
 30
0.0
 11
6765.1371468508
 21
5325.2238788596
 31
0.0
  0
ARC
  5
BD
330
1F
100
AcDbEntity
  8
0
  6
Continuous
 62
     7
370
    25
100
AcDbCircle
 10
6827.6435613047
 20
5118.6994545927
 30
0.0
 40
16.0
100
AcDbArc
 50
180.0
 51
0.0
  0
LINE
  5
BE
330
1F
100
AcDbEntity
  8
0
  6
Continuous
 62
     8
370
    25
100
AcDbLine
 10
6756.7153487384
 20
5077.4494545927
 30
0.0
 11
6756.7153487384
 21
5159.9494545927
 31
0.0
  0
LINE
  5
BF
330
1F
100
AcDbEntity
  8
0
  6
Continuous
 62
     8
370
    25
100
AcDbLine
 10
6759.1333511592
 20
5079.3144236539
 30
0.0
 11
6759.1333511592
 21
5158.0844855315
 31
0.0
  0
LINE
  5
C0
330
1F
100
AcDbEntity
  8
0
  6
Continuous
 62
     8
370
    25
100
AcDbLine
 10
6759.1333511592
 20
5269.3144236539
 30
0.0
 11
6759.1333511592
 21
5348.0844855315
 31
0.0
  0
LINE
  5
C1
330
1F
100
AcDbEntity
  8
0
  6
Continuous
 62
     8
370
    25
100
AcDbLine
 10
6756.7153487384
 20
5267.4494545927
 30
0.0
 11
6756.7153487384
 21
5349.9494545927
 31
0.0
  0
LINE
  5
C2
330
1F
100
AcDbEntity
  8
0
  6
Continuous
 62
     8
370
    25
100
AcDbLine
 10
6777.6435613047
 20
5320.0131630917
 30
0.0
 11
6777.6435613047
 21
5324.6994545927
 31
0.0
  0
LINE
  5
C3
330
1F
100
AcDbEntity
  8
0
  6
Continuous
 62
     8
370
    25
100
AcDbLine
 10
6777.6435613047
 20
5292.6994545927
 30
0.0
 11
6777.6435613047
 21
5320.0131630917
 31
0.0
  0
LWPOLYLINE
  5
C4
330
1F
100
AcDbEntity
  8
0
  6
Continuous
 62
     8
370
    25
100
AcDbPolyline
 90
       22
 70
   128
 43
0.0
 10
6811.6435614754
 20
5273.342462919
 10
6811.8222680851
 20
5271.6578947798
 10
6812.3543964122
 20
5270.0093414115
 10
6813.2280594183
 20
5268.4352813866
 10
6814.4237409157
 20
5266.9708766048
 10
6815.9147313555
 20
5265.6488394493
 10
6817.667724475
 20
5264.4987020454
 10
6819.6435613047
 20
5263.5461565623
 10
6821.7981049149
 20
5262.8124812919
 10
6824.0832263614
 20
5262.3140653274
 10
6826.4478798074
 20
5262.062042458
 10
6828.8392428021
 20
5262.062042458
 10
6831.203896248
 20
5262.3140653274
 10
6833.4890176946
 20
5262.8124812919
 10
6835.6435613047
 20
5263.5461565623
 10
6837.6193981345
 20
5264.4987020454
 10
6839.372391254
 20
5265.6488394493
 10
6840.8633816938
 20
5266.9708766048
 10
6842.0590631912
 20
5268.4352813866
 10
6842.9327261973
 20
5270.0093414115
 10
6843.4648545243
 20
5271.6578947798
 10
6843.6435613047
 20
5273.3441155334
  0
LWPOLYLINE
  5
C5
330
1F
100
AcDbEntity
  8
0
  6
Continuous
 62
     8
370
    25
100
AcDbPolyline
 90
       22
 70
   128
 43
0.0
 10
6811.6435613047
 20
5135.1014748463
 10
6811.8222680851
 20
5133.4152540927
 10
6812.3543964122
 20
5131.7667007244
 10
6813.2280594183
 20
5130.1926406994
 10
6814.4237409157
 20
5128.7282359177
 10
6815.9147313555
 20
5127.4061987622
 10
6817.667724475
 20
5126.2560613583
 10
6819.6435613047
 20
5125.3035158751
 10
6821.7981049149
 20
5124.5698406048
 10
6824.0832263614
 20
5124.0714246403
 10
6826.4478798074
 20
5123.8194017709
 10
6828.8392428021
 20
5123.8194017709
 10
6831.203896248
 20
5124.0714246403
 10
6833.4890176946
 20
5124.5698406048
 10
6835.6435613047
 20
5125.3035158751
 10
6837.6193981345
 20
5126.2560613583
 10
6839.372391254
 20
5127.4061987622
 10
6840.8633816938
 20
5128.7282359177
 10
6842.0590631912
 20
5130.1926406994
 10
6842.9327261973
 20
5131.7667007244
 10
6843.4648545243
 20
5133.4152540927
 10
6843.6435613047
 20
5135.1014748463
  0
LINE
  5
C6
330
1F
100
AcDbEntity
  8
0
  6
Continuous
 62
     8
370
    25
100
AcDbLine
 10
6777.6435613047
 20
5134.6994545927
 30
0.0
 11
6777.6435613047
 21
5102.6994545927
 31
0.0
  0
LINE
  5
C7
330
1F
100
AcDbEntity
  8
0
  6
Continuous
 62
     7
370
    25
100
AcDbLine
 10
6467.7687553361
 20
4881.3282594154
 30
0.0
 11
6467.7687553361
 21
4869.2564719817
 31
0.0
  0
LINE
  5
C8
330
1F
100
AcDbEntity
  8
0
  6
Continuous
 62
     7
370
    25
100
AcDbLine
 10
6550.2687553361
 20
4869.2564719817
 30
0.0
 11
6550.2687553361
 21
4881.3282594154
 31
0.0
  0
ARC
  5
C9
330
1F
100
AcDbEntity
  8
0
  6
Continuous
 62
     7
370
    25
100
AcDbCircle
 10
6470.2687553361
 20
4869.2564719817
 30
0.0
 40
2.499999999999091
100
AcDbArc
 50
180.0
 51
255.2849283494
  0
ARC
  5
CA
330
1F
100
AcDbEntity
  8
0
  6
Continuous
 62
     7
370
    25
100
AcDbCircle
 10
6547.7687553361
 20
4869.2564719817
 30
0.0
 40
2.499999999999295
100
AcDbArc
 50
284.7150716506
 51
0.0
  0
LINE
  5
CB
330
1F
100
AcDbEntity
  8
0
  6
Continuous
 62
     7
370
    25
100
AcDbLine
 10
6469.6337243973
 20
4866.838469561
 30
0.0
 11
6492.4943310692
 21
4860.8346738694
 31
0.0
  0
LINE
  5
CC
330
1F
100
AcDbEntity
  8
0
  6
Continuous
 62
     7
370
    25
100
AcDbLine
 10
6525.543179603
 20
4860.8346738694
 30
0.0
 11
6548.4037862749
 21
4866.838469561
 31
0.0
  0
LINE
  5
CD
330
1F
100
AcDbEntity
  8
0
  6
Continuous
 62
     7
370
    25
100
AcDbLine
 10
5997.7687553361
 20
4881.3282594154
 30
0.0
 11
5997.7687553361
 21
4869.2564719817
 31
0.0
  0
LINE
  5
CE
330
1F
100
AcDbEntity
  8
0
  6
Continuous
 62
     7
370
    25
100
AcDbLine
 10
6080.2687553361
 20
4869.2564719817
 30
0.0
 11
6080.2687553361
 21
4881.3282594154
 31
0.0
  0
ARC
  5
CF
330
1F
100
AcDbEntity
  8
0
  6
Continuous
 62
     7
370
    25
100
AcDbCircle
 10
6000.2687553361
 20
4869.2564719817
 30
0.0
 40
2.499999999999295
100
AcDbArc
 50
180.0
 51
255.2849283494
  0
ARC
  5
D0
330
1F
100
AcDbEntity
  8
0
  6
Continuous
 62
     7
370
    25
100
AcDbCircle
 10
6077.7687553361
 20
4869.2564719817
 30
0.0
 40
2.499999999999091
100
AcDbArc
 50
284.7150716506
 51
0.0
  0
LINE
  5
D1
330
1F
100
AcDbEntity
  8
0
  6
Continuous
 62
     7
370
    25
100
AcDbLine
 10
5999.6337243973
 20
4866.838469561
 30
0.0
 11
6022.4943310692
 21
4860.8346738694
 31
0.0
  0
LINE
  5
D2
330
1F
100
AcDbEntity
  8
0
  6
Continuous
 62
     7
370
    25
100
AcDbLine
 10
6055.543179603
 20
4860.8346738694
 30
0.0
 11
6078.4037862749
 21
4866.838469561
 31
0.0
  0
LINE
  5
D3
330
1F
100
AcDbEntity
  8
0
  6
Continuous
 62
     7
370
    25
100
AcDbLine
 10
6055.0187553361
 20
4848.3282594154
 30
0.0
 11
6055.0187553361
 21
4860.8346738694
 31
0.0
  0
LINE
  5
D4
330
1F
100
AcDbEntity
  8
0
  6
Continuous
 62
     7
370
    25
100
AcDbLine
 10
6023.0187553361
 20
4860.8346738694
 30
0.0
 11
6023.0187553361
 21
4848.3282594154
 31
0.0
  0
SPLINE
  5
D5
330
1F
100
AcDbEntity
  8
0
  6
Continuous
 62
     7
370
    25
100
AcDbSpline
210
0.0
220
0.0
230
1.0
 70
     8
 71
     3
 72
    30
 73
    26
 74
     0
 42
0.00000001
 43
0.00000001
 40
0.0
 40
0.0
 40
0.0
 40
0.0
 40
0.0254783465383166
 40
0.0712945486379361
 40
0.1171510060048317
 40
0.1630544628698829
 40
0.2090162531817813
 40
0.2550440381602526
 40
0.3011398015462635
 40
0.3472975511365089
 40
0.3935000014459241
 40
0.4397057390137045
 40
0.4858655541997333
 40
0.5319152077179534
 40
0.5777780325727381
 40
0.6233706139173983
 40
0.6686112437872436
 40
0.7134297975935373
 40
0.757776912643152
 40
0.8016304095381164
 40
0.8449978236613623
 40
0.8879151765929871
 40
0.9304430475850106
 40
0.972661279401708
 40
0.9999999999999999
 40
0.9999999999999999
 40
0.9999999999999999
 40
0.9999999999999999
 10
6023.018755336101
 20
4848.328259415427
 30
0.0
 10
6023.026347432587
 20
4847.474024329985
 30
0.0
 10
6023.047591946684
 20
4845.083668866545
 30
0.0
 10
6023.276685831232
 20
4841.162967696651
 30
0.0
 10
6023.777267048418
 20
4836.592759594205
 30
0.0
 10
6024.52500267803
 20
4832.072859260757
 30
0.0
 10
6025.514030580428
 20
4827.623896772894
 30
0.0
 10
6026.743452464848
 20
4823.266234801202
 30
0.0
 10
6028.210186203743
 20
4819.020476352905
 30
0.0
 10
6029.910681659466
 20
4814.907536195963
 30
0.0
 10
6031.840015698614
 20
4810.949046854951
 30
0.0
 10
6033.991717623618
 20
4807.167096653702
 30
0.0
 10
6036.357344296869
 20
4803.584047094658
 30
0.0
 10
6038.926335468391
 20
4800.221937553383
 30
0.0
 10
6041.685658845227
 20
4797.102162729559
 30
0.0
 10
6044.619755728818
 20
4794.24476756584
 30
0.0
 10
6047.710750245556
 20
4791.667677353057
 30
0.0
 10
6050.938926434773
 20
4789.385993116749
 30
0.0
 10
6054.28339371588
 20
4787.411596777483
 30
0.0
 10
6057.722811535119
 20
4785.752821452481
 30
0.0
 10
6061.236019666781
 20
4784.415409798889
 30
0.0
 10
6064.802551999759
 20
4783.400155917747
 30
0.0
 10
6068.402776490911
 20
4782.713706885654
 30
0.0
 10
6071.600259019524
 20
4782.375551057754
 30
0.0
 10
6073.591468010068
 20
4782.341602560235
 30
0.0
 10
6074.374094395428
 20
4782.328259415427
 30
0.0
  0
SPLINE
  5
D6
330
1F
100
AcDbEntity
  8
0
  6
Continuous
 62
     7
370
    25
100
AcDbSpline
210
0.0
220
0.0
230
1.0
 70
     8
 71
     3
 72
    26
 73
    22
 74
     0
 42
0.00000001
 43
0.00000001
 40
0.0
 40
0.0
 40
0.0
 40
0.0
 40
0.0263934303358278
 40
0.0984357017858334
 40
0.1622804805871218
 40
0.2210039211411452
 40
0.2764636840675893
 40
0.3352270539417231
 40
0.3916721687911719
 40
0.4467404192927935
 40
0.5010735651579781
 40
0.555064814726419
 40
0.6089549907009283
 40
0.6628587170918455
 40
0.7168575414371552
 40
0.7709974047311475
 40
0.8252894668677413
 40
0.8797211386440073
 40
0.9342638272364773
 40
0.9860325421196774
 40
0.9999999999999999
 40
0.9999999999999999
 40
0.9999999999999999
 40
0.9999999999999999
 10
6074.374094395428
 20
4814.328259415428
 30
0.0
 10
6074.196787653654
 20
4814.331501014695
 30
0.0
 10
6073.535512732745
 20
4814.343590731525
 30
0.0
 10
6072.428593260183
 20
4814.501840570621
 30
0.0
 10
6071.011608654318
 20
4814.91515256499
 30
0.0
 10
6069.618003945235
 20
4815.529081385398
 30
0.0
 10
6068.177709273394
 20
4816.373422114599
 30
0.0
 10
6066.688605472345
 20
4817.480616222744
 30
0.0
 10
6065.166525396591
 20
4818.879294429082
 30
0.0
 10
6063.684417715936
 20
4820.523497244927
 30
0.0
 10
6062.258462657412
 20
4822.410126594548
 30
0.0
 10
6060.907621979424
 20
4824.532004524746
 30
0.0
 10
6059.652428930671
 20
4826.87653254638
 30
0.0
 10
6058.513045915117
 20
4829.426428527473
 30
0.0
 10
6057.508166082581
 20
4832.160490132832
 30
0.0
 10
6056.654233126589
 20
4835.054743409314
 30
0.0
 10
6055.965527980015
 20
4838.082459634329
 30
0.0
 10
6055.453038219215
 20
4841.214545239616
 30
0.0
 10
6055.133107834699
 20
4844.364038087693
 30
0.0
 10
6055.026281509481
 20
4846.747431533635
 30
0.0
 10
6055.02007424101
 20
4848.051231296675
 30
0.0
 10
6055.018755336101
 20
4848.328259415427
 30
0.0
  0
LINE
  5
D7
330
1F
100
AcDbEntity
  8
0
  6
Continuous
 62
     7
370
    25
100
AcDbLine
 10
6212.6167350825
 20
4814.3282594154
 30
0.0
 11
6074.3740943954
 21
4814.3282594154
 31
0.0
  0
LINE
  5
D8
330
1F
100
AcDbEntity
  8
0
  6
Continuous
 62
     7
370
    25
100
AcDbLine
 10
6074.3740943954
 20
4782.3282594154
 30
0.0
 11
6212.6167350825
 21
4782.3282594154
 31
0.0
  0
LINE
  5
D9
330
1F
100
AcDbEntity
  8
0
  6
Continuous
 62
     7
370
    25
100
AcDbLine
 10
6252.214714829
 20
4814.3282594154
 30
0.0
 11
6212.6167350825
 21
4814.3282594154
 31
0.0
  0
LINE
  5
DA
330
1F
100
AcDbEntity
  8
0
  6
Continuous
 62
     7
370
    25
100
AcDbLine
 10
6212.6167350825
 20
4782.3282594154
 30
0.0
 11
6252.214714829
 21
4782.3282594154
 31
0.0
  0
LINE
  5
DB
330
1F
100
AcDbEntity
  8
0
  6
Continuous
 62
     7
370
    25
100
AcDbLine
 10
6493.0187553361
 20
4860.8346738694
 30
0.0
 11
6493.0187553361
 21
4848.3282594154
 31
0.0
  0
LINE
  5
DC
330
1F
100
AcDbEntity
  8
0
  6
Continuous
 62
     7
370
    25
100
AcDbLine
 10
6525.0187553361
 20
4848.3282594154
 30
0.0
 11
6525.0187553361
 21
4860.8346738694
 31
0.0
  0
ARC
  5
DD
330
1F
100
AcDbEntity
  8
0
  6
Continuous
 62
     7
370
    25
100
AcDbCircle
 10
6459.0187553361
 20
4848.3282594154
 30
0.0
 40
33.99999999999909
100
AcDbArc
 50
270.0
 51
0.0
  0
ARC
  5
DE
330
1F
100
AcDbEntity
  8
0
  6
Continuous
 62
     7
370
    25
100
AcDbCircle
 10
6459.0187553361
 20
4848.3282594154
 30
0.0
 40
66.0
100
AcDbArc
 50
270.0
 51
0.0
  0
LINE
  5
DF
330
1F
100
AcDbEntity
  8
0
  6
Continuous
 62
     7
370
    25
100
AcDbLine
 10
6459.0187553361
 20
4814.3282594154
 30
0.0
 11
6252.214714829
 21
4814.3282594154
 31
0.0
  0
LINE
  5
E0
330
1F
100
AcDbEntity
  8
0
  6
Continuous
 62
     7
370
    25
100
AcDbLine
 10
6252.214714829
 20
4782.3282594154
 30
0.0
 11
6459.0187553361
 21
4782.3282594154
 31
0.0
  0
LINE
  5
E1
330
1F
100
AcDbEntity
  8
0
  6
Continuous
 62
     7
370
    25
100
AcDbLine
 10
6509.0187553361
 20
4881.3282594154
 30
0.0
 11
6550.2687553361
 21
4881.3282594154
 31
0.0
  0
LINE
  5
E2
330
1F
100
AcDbEntity
  8
0
  6
Continuous
 62
     7
370
    25
100
AcDbLine
 10
6467.7687553361
 20
4881.3282594154
 30
0.0
 11
6509.0187553361
 21
4881.3282594154
 31
0.0
  0
LINE
  5
E3
330
1F
100
AcDbEntity
  8
0
  6
Continuous
 62
     7
370
    25
100
AcDbLine
 10
6509.0187553361
 20
4860.8346738694
 30
0.0
 11
6525.543179603
 21
4860.8346738694
 31
0.0
  0
LINE
  5
E4
330
1F
100
AcDbEntity
  8
0
  6
Continuous
 62
     7
370
    25
100
AcDbLine
 10
6492.4943310692
 20
4860.8346738694
 30
0.0
 11
6509.0187553361
 21
4860.8346738694
 31
0.0
  0
LINE
  5
E5
330
1F
100
AcDbEntity
  8
0
  6
Continuous
 62
     7
370
    25
100
AcDbLine
 10
6039.0187553361
 20
4881.3282594154
 30
0.0
 11
6080.2687553361
 21
4881.3282594154
 31
0.0
  0
LINE
  5
E6
330
1F
100
AcDbEntity
  8
0
  6
Continuous
 62
     7
370
    25
100
AcDbLine
 10
5997.7687553361
 20
4881.3282594154
 30
0.0
 11
6039.0187553361
 21
4881.3282594154
 31
0.0
  0
LINE
  5
E7
330
1F
100
AcDbEntity
  8
0
  6
Continuous
 62
     7
370
    25
100
AcDbLine
 10
6039.0187553361
 20
4860.8346738694
 30
0.0
 11
6055.543179603
 21
4860.8346738694
 31
0.0
  0
LINE
  5
E8
330
1F
100
AcDbEntity
  8
0
  6
Continuous
 62
     7
370
    25
100
AcDbLine
 10
6022.4943310692
 20
4860.8346738694
 30
0.0
 11
6039.0187553361
 21
4860.8346738694
 31
0.0
  0
LINE
  5
E9
330
1F
100
AcDbEntity
  8
0
  6
Continuous
 62
     8
370
    25
100
AcDbLine
 10
6509.0187553361
 20
4869.2564719817
 30
0.0
 11
6550.2687553361
 21
4869.2564719817
 31
0.0
  0
LINE
  5
EA
330
1F
100
AcDbEntity
  8
0
  6
Continuous
 62
     8
370
    25
100
AcDbLine
 10
6467.7687553361
 20
4869.2564719817
 30
0.0
 11
6509.0187553361
 21
4869.2564719817
 31
0.0
  0
LINE
  5
EB
330
1F
100
AcDbEntity
  8
0
  6
Continuous
 62
     8
370
    25
100
AcDbLine
 10
6509.0187553361
 20
4866.838469561
 30
0.0
 11
6548.4037862749
 21
4866.838469561
 31
0.0
  0
LINE
  5
EC
330
1F
100
AcDbEntity
  8
0
  6
Continuous
 62
     8
370
    25
100
AcDbLine
 10
6469.6337243973
 20
4866.838469561
 30
0.0
 11
6509.0187553361
 21
4866.838469561
 31
0.0
  0
LINE
  5
ED
330
1F
100
AcDbEntity
  8
0
  6
Continuous
 62
     8
370
    25
100
AcDbLine
 10
6039.0187553361
 20
4869.2564719817
 30
0.0
 11
6080.2687553361
 21
4869.2564719817
 31
0.0
  0
LINE
  5
EE
330
1F
100
AcDbEntity
  8
0
  6
Continuous
 62
     8
370
    25
100
AcDbLine
 10
5997.7687553361
 20
4869.2564719817
 30
0.0
 11
6039.0187553361
 21
4869.2564719817
 31
0.0
  0
LINE
  5
EF
330
1F
100
AcDbEntity
  8
0
  6
Continuous
 62
     8
370
    25
100
AcDbLine
 10
6039.0187553361
 20
4866.838469561
 30
0.0
 11
6078.4037862749
 21
4866.838469561
 31
0.0
  0
LINE
  5
F0
330
1F
100
AcDbEntity
  8
0
  6
Continuous
 62
     8
370
    25
100
AcDbLine
 10
5999.6337243973
 20
4866.838469561
 30
0.0
 11
6039.0187553361
 21
4866.838469561
 31
0.0
  0
LINE
  5
F1
330
1F
100
AcDbEntity
  8
0
  6
Continuous
 62
     8
370
    25
100
AcDbLine
 10
6027.7050468371
 20
4848.3282594154
 30
0.0
 11
6055.0187553361
 21
4848.3282594154
 31
0.0
  0
LINE
  5
F2
330
1F
100
AcDbEntity
  8
0
  6
Continuous
 62
     8
370
    25
100
AcDbLine
 10
6023.0187553361
 20
4848.3282594154
 30
0.0
 11
6027.7050468371
 21
4848.3282594154
 31
0.0
  0
LWPOLYLINE
  5
F3
330
1F
100
AcDbEntity
  8
0
  6
Continuous
 62
     8
370
    25
100
AcDbPolyline
 90
       22
 70
   128
 43
0.0
 10
6074.3740943954
 20
4782.3282594154
 10
6076.060315149
 20
4782.5069661958
 10
6077.7088685173
 20
4783.0390945228
 10
6079.2829285423
 20
4783.912757529
 10
6080.747333324
 20
4785.1084390264
 10
6082.0693704795
 20
4786.5994294661
 10
6083.2195078834
 20
4788.3524225857
 10
6084.1720533666
 20
4790.3282594154
 10
6084.9057286369
 20
4792.4828030256
 10
6085.4041446014
 20
4794.7679244721
 10
6085.6561674708
 20
4797.132577918
 10
6085.6561674708
 20
4799.5239409128
 10
6085.4041446014
 20
4801.8885943587
 10
6084.9057286369
 20
4804.1737158053
 10
6084.1720533666
 20
4806.3282594154
 10
6083.2195078834
 20
4808.3040962452
 10
6082.0693704795
 20
4810.0570893647
 10
6080.747333324
 20
4811.5480798045
 10
6079.2829285423
 20
4812.7437613019
 10
6077.7088685173
 20
4813.617424308
 10
6076.060315149
 20
4814.149552635
 10
6074.4233406926
 20
4814.3281078398
  0
LWPOLYLINE
  5
F4
330
1F
100
AcDbEntity
  8
0
  6
Continuous
 62
     8
370
    25
100
AcDbPolyline
 90
       22
 70
   128
 43
0.0
 10
6212.6167350825
 20
4782.3282594154
 10
6214.3029558361
 20
4782.5069661958
 10
6215.9515092044
 20
4783.0390945228
 10
6217.5255692294
 20
4783.912757529
 10
6218.9899740111
 20
4785.1084390264
 10
6220.3120111666
 20
4786.5994294661
 10
6221.4621485705
 20
4788.3524225857
 10
6222.4146940537
 20
4790.3282594154
 10
6223.1483693241
 20
4792.4828030256
 10
6223.6467852885
 20
4794.7679244721
 10
6223.8988081579
 20
4797.132577918
 10
6223.8988081579
 20
4799.5239409128
 10
6223.6467852885
 20
4801.8885943587
 10
6223.1483693241
 20
4804.1737158053
 10
6222.4146940537
 20
4806.3282594154
 10
6221.4621485705
 20
4808.3040962452
 10
6220.3120111666
 20
4810.0570893647
 10
6218.9899740111
 20
4811.5480798045
 10
6217.5255692294
 20
4812.7437613019
 10
6215.9515092044
 20
4813.617424308
 10
6214.3029558361
 20
4814.149552635
 10
6212.6167350825
 20
4814.3282594154
  0
LINE
  5
F5
330
1F
100
AcDbEntity
  8
0
  6
Continuous
 62
     8
370
    25
100
AcDbLine
 10
6252.214714829
 20
4782.3282594154
 30
0.0
 11
6252.214714829
 21
4814.3282594154
 31
0.0
  0
LINE
  5
F6
330
1F
100
AcDbEntity
  8
0
  6
Continuous
 62
     8
370
    25
100
AcDbLine
 10
6525.0187553361
 20
4848.3282594154
 30
0.0
 11
6493.0187553361
 21
4848.3282594154
 31
0.0
  0
LINE
  5
F7
330
1F
100
AcDbEntity
  8
0
  6
Continuous
 62
     8
370
    25
100
AcDbLine
 10
6459.0187553361
 20
4782.3282594154
 30
0.0
 11
6459.0187553361
 21
4814.3282594154
 31
0.0
  0
ENDSEC
  0
SECTION
  2
OBJECTS
  0
DICTIONARY
  5
C
330
0
100
AcDbDictionary
281
     1
  3
ACAD_GROUP
350
D
  3
ACAD_LAYOUT
350
1A
  3
ACAD_MLINESTYLE
350
17
  3
ACAD_PLOTSETTINGS
350
19
  3
ACAD_PLOTSTYLENAME
350
E
  3
ACAD_SCALELIST
350
47
  3
DWGPROPS
350
F8
  0
DICTIONARY
  5
D
102
{ACAD_REACTORS
330
C
102
}
330
C
100
AcDbDictionary
281
     1
  0
DICTIONARY
  5
1A
102
{ACAD_REACTORS
330
C
102
}
330
C
100
AcDbDictionary
281
     1
  3
Layout1
350
1E
  3
Layout2
350
26
  3
Model
350
22
  0
DICTIONARY
  5
17
102
{ACAD_REACTORS
330
C
102
}
330
C
100
AcDbDictionary
281
     1
  3
Standard
350
18
  0
DICTIONARY
  5
19
102
{ACAD_REACTORS
330
C
102
}
330
C
100
AcDbDictionary
281
     1
  0
ACDBDICTIONARYWDFLT
  5
E
102
{ACAD_REACTORS
330
C
102
}
330
C
100
AcDbDictionary
281
     1
  3
Normal
350
F
100
AcDbDictionaryWithDefault
340
F
  0
DICTIONARY
  5
47
102
{ACAD_REACTORS
330
C
102
}
330
C
100
AcDbDictionary
281
     1
  3
A0
350
48
  3
A1
350
49
  3
A2
350
4A
  3
A3
350
4B
  3
A4
350
4C
  3
A5
350
4D
  3
A6
350
4E
  3
A7
350
4F
  3
A8
350
50
  3
A9
350
51
  3
B0
350
52
  3
B1
350
53
  3
B2
350
54
  3
B3
350
55
  3
B4
350
56
  3
B5
350
57
  3
B6
350
58
  3
B7
350
59
  3
B8
350
5A
  3
B9
350
5B
  3
C0
350
5C
  3
C1
350
5D
  3
C2
350
5E
  3
C3
350
5F
  3
C4
350
60
  3
C5
350
61
  3
C6
350
62
  3
C7
350
63
  3
C8
350
64
  3
C9
350
65
  3
D0
350
66
  3
D1
350
67
  3
D2
350
68
  0
XRECORD
  5
F8
102
{ACAD_REACTORS
330
C
102
}
330
C
100
AcDbXrecord
280
     1
  1
DWGPROPS COOKIE
  2

  3

  4

  6

  7

  8
radek.stransky
  9

300
=
301
=
302
=
303
=
304
=
305
=
306
=
307
=
308
=
309
=
 40
0.0
 41
2460318.37412846
 42
2460318.374128889
  1

 90
        0
  0
LAYOUT
  5
1E
102
{ACAD_REACTORS
330
1A
102
}
330
1A
100
AcDbPlotSettings
  1

  2
none_device
  4

  6

 40
0.0
 41
0.0
 42
0.0
 43
0.0
 44
0.0
 45
0.0
 46
0.0
 47
0.0
 48
0.0
 49
0.0
140
0.0
141
0.0
142
1.0
143
1.0
 70
   688
 72
     1
 73
     0
 74
     5
  7

 75
    16
147
1.0
148
0.0
149
0.0
100
AcDbLayout
  1
Layout1
 70
     1
 71
     1
 10
0.0
 20
0.0
 11
420.0
 21
297.0
 12
0.0
 22
0.0
 32
0.0
 14
1.0000000000E+20
 24
1.0000000000E+20
 34
1.0000000000E+20
 15
-1.0000000000E+20
 25
-1.0000000000E+20
 35
-1.0000000000E+20
146
0.0
 13
0.0
 23
0.0
 33
0.0
 16
1.0
 26
0.0
 36
0.0
 17
0.0
 27
1.0
 37
0.0
 76
     0
330
1B
  0
LAYOUT
  5
26
102
{ACAD_REACTORS
330
1A
102
}
330
1A
100
AcDbPlotSettings
  1

  2
none_device
  4

  6

 40
0.0
 41
0.0
 42
0.0
 43
0.0
 44
0.0
 45
0.0
 46
0.0
 47
0.0
 48
0.0
 49
0.0
140
0.0
141
0.0
142
1.0
143
1.0
 70
   688
 72
     1
 73
     0
 74
     5
  7

 75
    16
147
1.0
148
0.0
149
0.0
100
AcDbLayout
  1
Layout2
 70
     1
 71
     2
 10
0.0
 20
0.0
 11
0.0
 21
0.0
 12
0.0
 22
0.0
 32
0.0
 14
0.0
 24
0.0
 34
0.0
 15
0.0
 25
0.0
 35
0.0
146
0.0
 13
0.0
 23
0.0
 33
0.0
 16
1.0
 26
0.0
 36
0.0
 17
0.0
 27
1.0
 37
0.0
 76
     0
330
23
  0
LAYOUT
  5
22
102
{ACAD_REACTORS
330
1A
102
}
330
1A
100
AcDbPlotSettings
  1

  2
none_device
  4
Letter_(8.50_x_11.00_Inches)
  6

 40
6.35
 41
6.35
 42
6.35000508
 43
6.35000508
 44
215.9
 45
279.4
 46
0.0
 47
0.0
 48
0.0
 49
0.0
140
0.0
141
0.0
142
1.0
143
1.0
 70
  1712
 72
     1
 73
     0
 74
     0
  7

 75
     0
147
1.0
148
0.0
149
0.0
100
AcDbLayout
  1
Model
 70
     1
 71
     0
 10
0.0
 20
0.0
 11
20000.0
 21
10000.0
 12
0.0
 22
0.0
 32
0.0
 14
0.0
 24
0.0
 34
0.0
 15
20000.0
 25
10000.0
 35
0.0
146
0.0
 13
0.0
 23
0.0
 33
0.0
 16
1.0
 26
0.0
 36
0.0
 17
0.0
 27
1.0
 37
0.0
 76
     0
330
1F
331
29
  0
MLINESTYLE
  5
18
102
{ACAD_REACTORS
330
17
102
}
330
17
100
AcDbMlineStyle
  2
Standard
 70
     0
  3

 62
   256
 51
90.0
 52
90.0
 71
     2
 49
0.5
 62
   256
  6
BYLAYER
 49
-0.5
 62
   256
  6
BYLAYER
  0
ACDBPLACEHOLDER
  5
F
102
{ACAD_REACTORS
330
E
102
}
330
E
  0
SCALE
  5
48
102
{ACAD_REACTORS
330
47
102
}
330
47
100
AcDbScale
 70
     0
300
1:1
140
1.0
141
1.0
290
     1
  0
SCALE
  5
49
102
{ACAD_REACTORS
330
47
102
}
330
47
100
AcDbScale
 70
     0
300
1:2
140
1.0
141
2.0
290
     0
  0
SCALE
  5
4A
102
{ACAD_REACTORS
330
47
102
}
330
47
100
AcDbScale
 70
     0
300
1:4
140
1.0
141
4.0
290
     0
  0
SCALE
  5
4B
102
{ACAD_REACTORS
330
47
102
}
330
47
100
AcDbScale
 70
     0
300
1:5
140
1.0
141
5.0
290
     0
  0
SCALE
  5
4C
102
{ACAD_REACTORS
330
47
102
}
330
47
100
AcDbScale
 70
     0
300
1:8
140
1.0
141
8.0
290
     0
  0
SCALE
  5
4D
102
{ACAD_REACTORS
330
47
102
}
330
47
100
AcDbScale
 70
     0
300
1:10
140
1.0
141
10.0
290
     0
  0
SCALE
  5
4E
102
{ACAD_REACTORS
330
47
102
}
330
47
100
AcDbScale
 70
     0
300
1:16
140
1.0
141
16.0
290
     0
  0
SCALE
  5
4F
102
{ACAD_REACTORS
330
47
102
}
330
47
100
AcDbScale
 70
     0
300
1:20
140
1.0
141
20.0
290
     0
  0
SCALE
  5
50
102
{ACAD_REACTORS
330
47
102
}
330
47
100
AcDbScale
 70
     0
300
1:30
140
1.0
141
30.0
290
     0
  0
SCALE
  5
51
102
{ACAD_REACTORS
330
47
102
}
330
47
100
AcDbScale
 70
     0
300
1:40
140
1.0
141
40.0
290
     0
  0
SCALE
  5
52
102
{ACAD_REACTORS
330
47
102
}
330
47
100
AcDbScale
 70
     0
300
1:50
140
1.0
141
50.0
290
     0
  0
SCALE
  5
53
102
{ACAD_REACTORS
330
47
102
}
330
47
100
AcDbScale
 70
     0
300
1:100
140
1.0
141
100.0
290
     0
  0
SCALE
  5
54
102
{ACAD_REACTORS
330
47
102
}
330
47
100
AcDbScale
 70
     0
300
2:1
140
2.0
141
1.0
290
     0
  0
SCALE
  5
55
102
{ACAD_REACTORS
330
47
102
}
330
47
100
AcDbScale
 70
     0
300
4:1
140
4.0
141
1.0
290
     0
  0
SCALE
  5
56
102
{ACAD_REACTORS
330
47
102
}
330
47
100
AcDbScale
 70
     0
300
8:1
140
8.0
141
1.0
290
     0
  0
SCALE
  5
57
102
{ACAD_REACTORS
330
47
102
}
330
47
100
AcDbScale
 70
     0
300
10:1
140
10.0
141
1.0
290
     0
  0
SCALE
  5
58
102
{ACAD_REACTORS
330
47
102
}
330
47
100
AcDbScale
 70
     0
300
100:1
140
100.0
141
1.0
290
     0
  0
SCALE
  5
59
102
{ACAD_REACTORS
330
47
102
}
330
47
100
AcDbScale
 70
     0
300
1/128" = 1'-0"
140
0.0078125
141
12.0
290
     0
  0
SCALE
  5
5A
102
{ACAD_REACTORS
330
47
102
}
330
47
100
AcDbScale
 70
     0
300
1/64" = 1'-0"
140
0.015625
141
12.0
290
     0
  0
SCALE
  5
5B
102
{ACAD_REACTORS
330
47
102
}
330
47
100
AcDbScale
 70
     0
300
1/32" = 1'-0"
140
0.03125
141
12.0
290
     0
  0
SCALE
  5
5C
102
{ACAD_REACTORS
330
47
102
}
330
47
100
AcDbScale
 70
     0
300
1/16" = 1'-0"
140
0.0625
141
12.0
290
     0
  0
SCALE
  5
5D
102
{ACAD_REACTORS
330
47
102
}
330
47
100
AcDbScale
 70
     0
300
3/32" = 1'-0"
140
0.09375
141
12.0
290
     0
  0
SCALE
  5
5E
102
{ACAD_REACTORS
330
47
102
}
330
47
100
AcDbScale
 70
     0
300
1/8" = 1'-0"
140
0.125
141
12.0
290
     0
  0
SCALE
  5
5F
102
{ACAD_REACTORS
330
47
102
}
330
47
100
AcDbScale
 70
     0
300
3/16" = 1'-0"
140
0.1875
141
12.0
290
     0
  0
SCALE
  5
60
102
{ACAD_REACTORS
330
47
102
}
330
47
100
AcDbScale
 70
     0
300
1/4" = 1'-0"
140
0.25
141
12.0
290
     0
  0
SCALE
  5
61
102
{ACAD_REACTORS
330
47
102
}
330
47
100
AcDbScale
 70
     0
300
3/8" = 1'-0"
140
0.375
141
12.0
290
     0
  0
SCALE
  5
62
102
{ACAD_REACTORS
330
47
102
}
330
47
100
AcDbScale
 70
     0
300
1/2" = 1'-0"
140
0.5
141
12.0
290
     0
  0
SCALE
  5
63
102
{ACAD_REACTORS
330
47
102
}
330
47
100
AcDbScale
 70
     0
300
3/4" = 1'-0"
140
0.75
141
12.0
290
     0
  0
SCALE
  5
64
102
{ACAD_REACTORS
330
47
102
}
330
47
100
AcDbScale
 70
     0
300
1" = 1'-0"
140
1.0
141
12.0
290
     0
  0
SCALE
  5
65
102
{ACAD_REACTORS
330
47
102
}
330
47
100
AcDbScale
 70
     0
300
1-1/2" = 1'-0"
140
1.5
141
12.0
290
     0
  0
SCALE
  5
66
102
{ACAD_REACTORS
330
47
102
}
330
47
100
AcDbScale
 70
     0
300
3" = 1'-0"
140
3.0
141
12.0
290
     0
  0
SCALE
  5
67
102
{ACAD_REACTORS
330
47
102
}
330
47
100
AcDbScale
 70
     0
300
6" = 1'-0"
140
6.0
141
12.0
290
     0
  0
SCALE
  5
68
102
{ACAD_REACTORS
330
47
102
}
330
47
100
AcDbScale
 70
     0
300
1'-0" = 1'-0"
140
12.0
141
12.0
290
     0
  0
ENDSEC
  0
EOF
