  0
SECTION
  2
HEADER
  9
$ACADVER
  1
AC1032
  9
$ACADMAINTVER
 90
       55
  9
$DWGCODEPAGE
  3
ANSI_1250
  9
$LASTSAVEDBY
  1
radek.stransky
  9
$REQUIREDVERSIONS
160
                 0
  9
$INSBASE
 10
0.0
 20
0.0
 30
0.0
  9
$EXTMIN
 10
0.0
 20
0.0
 30
0.0
  9
$EXTMAX
 10
20000.0
 20
10000.0
 30
0.0
  9
$LIMMIN
 10
0.0
 20
0.0
  9
$LIMMAX
 10
20000.0
 20
10000.0
  9
$ORTHOMODE
 70
     0
  9
$REGENMODE
 70
     1
  9
$FILLMODE
 70
     1
  9
$QTEXTMODE
 70
     0
  9
$MIRRTEXT
 70
     1
  9
$LTSCALE
 40
1.0
  9
$ATTMODE
 70
     1
  9
$TEXTSIZE
 40
2.0
  9
$TRACEWID
 40
1.0
  9
$TEXTSTYLE
  7
Standard
  9
$CLAYER
  8
0
  9
$CELTYPE
  6
ByLayer
  9
$CECOLOR
 62
   256
  9
$CELTSCALE
 40
1.0
  9
$DISPSILH
 70
     0
  9
$DIMSCALE
 40
1.0
  9
$DIMASZ
 40
2.0
  9
$DIMEXO
 40
1.0
  9
$DIMDLI
 40
3.75
  9
$DIMRND
 40
0.0
  9
$DIMDLE
 40
0.0
  9
$DIMEXE
 40
1.0
  9
$DIMTP
 40
0.0
  9
$DIMTM
 40
0.0
  9
$DIMTXT
 40
2.0
  9
$DIMCEN
 40
2.5
  9
$DIMTSZ
 40
0.0
  9
$DIMTOL
 70
     0
  9
$DIMLIM
 70
     0
  9
$DIMTIH
 70
     1
  9
$DIMTOH
 70
     1
  9
$DIMSE1
 70
     0
  9
$DIMSE2
 70
     0
  9
$DIMTAD
 70
     1
  9
$DIMZIN
 70
     0
  9
$DIMBLK
  1

  9
$DIMASO
 70
     1
  9
$DIMSHO
 70
     1
  9
$DIMPOST
  1

  9
$DIMAPOST
  1

  9
$DIMALT
 70
     0
  9
$DIMALTD
 70
     3
  9
$DIMALTF
 40
0.0393700787
  9
$DIMLFAC
 40
1.0
  9
$DIMTOFL
 70
     1
  9
$DIMTVP
 40
0.0
  9
$DIMTIX
 70
     0
  9
$DIMSOXD
 70
     0
  9
$DIMSAH
 70
     0
  9
$DIMBLK1
  1

  9
$DIMBLK2
  1

  9
$DIMSTYLE
  2
ISO-25
  9
$DIMCLRD
 70
     0
  9
$DIMCLRE
 70
     0
  9
$DIMCLRT
 70
     0
  9
$DIMTFAC
 40
1.0
  9
$DIMGAP
 40
1.524
  9
$DIMJUST
 70
     0
  9
$DIMSD1
 70
     0
  9
$DIMSD2
 70
     0
  9
$DIMTOLJ
 70
     0
  9
$DIMTZIN
 70
     0
  9
$DIMALTZ
 70
     0
  9
$DIMALTTZ
 70
     0
  9
$DIMUPT
 70
     0
  9
$DIMDEC
 70
     2
  9
$DIMTDEC
 70
     0
  9
$DIMALTU
 70
     2
  9
$DIMALTTD
 70
     3
  9
$DIMTXSTY
  7
Standard
  9
$DIMAUNIT
 70
     0
  9
$DIMADEC
 70
     2
  9
$DIMALTRND
 40
0.0
  9
$DIMAZIN
 70
     0
  9
$DIMDSEP
 70
    44
  9
$DIMATFIT
 70
     3
  9
$DIMFRAC
 70
     0
  9
$DIMLDRBLK
  1

  9
$DIMLUNIT
 70
     2
  9
$DIMLWD
 70
    -2
  9
$DIMLWE
 70
    -2
  9
$DIMTMOVE
 70
     0
  9
$DIMFXL
 40
1.0
  9
$DIMFXLON
 70
     0
  9
$DIMJOGANG
 40
0.7853981634
  9
$DIMTFILL
 70
     0
  9
$DIMTFILLCLR
 70
     0
  9
$DIMARCSYM
 70
     0
  9
$DIMLTYPE
  6

  9
$DIMLTEX1
  6

  9
$DIMLTEX2
  6

  9
$DIMTXTDIRECTION
 70
     0
  9
$LUNITS
 70
     2
  9
$LUPREC
 70
     3
  9
$SKETCHINC
 40
1.0
  9
$FILLETRAD
 40
10.0
  9
$AUNITS
 70
     0
  9
$AUPREC
 70
     2
  9
$MENU
  1
.
  9
$ELEVATION
 40
0.0
  9
$PELEVATION
 40
0.0
  9
$THICKNESS
 40
0.0
  9
$LIMCHECK
 70
     0
  9
$CHAMFERA
 40
0.0
  9
$CHAMFERB
 40
0.0
  9
$CHAMFERC
 40
0.0
  9
$CHAMFERD
 40
0.0
  9
$SKPOLY
 70
     0
  9
$TDCREATE
 40
2460175.498054005
  9
$TDUCREATE
 40
2460175.414720671
  9
$TDUPDATE
 40
2460175.498059641
  9
$TDUUPDATE
 40
2460175.414726308
  9
$TDINDWG
 40
0.0000000116
  9
$TDUSRTIMER
 40
0.0000000116
  9
$USRTIMER
 70
     1
  9
$ANGBASE
 50
0.0
  9
$ANGDIR
 70
     0
  9
$PDMODE
 70
     0
  9
$PDSIZE
 40
-1.0
  9
$PLINEWID
 40
0.0
  9
$SPLFRAME
 70
     0
  9
$SPLINETYPE
 70
     6
  9
$SPLINESEGS
 70
     8
  9
$HANDSEED
  5
5BE
  9
$SURFTAB1
 70
     6
  9
$SURFTAB2
 70
     6
  9
$SURFTYPE
 70
     6
  9
$SURFU
 70
     6
  9
$SURFV
 70
     6
  9
$UCSBASE
  2

  9
$UCSNAME
  2

  9
$UCSORG
 10
0.0
 20
0.0
 30
0.0
  9
$UCSXDIR
 10
1.0
 20
0.0
 30
0.0
  9
$UCSYDIR
 10
0.0
 20
1.0
 30
0.0
  9
$UCSORTHOREF
  2

  9
$UCSORTHOVIEW
 70
     0
  9
$UCSORGTOP
 10
0.0
 20
0.0
 30
0.0
  9
$UCSORGBOTTOM
 10
0.0
 20
0.0
 30
0.0
  9
$UCSORGLEFT
 10
0.0
 20
0.0
 30
0.0
  9
$UCSORGRIGHT
 10
0.0
 20
0.0
 30
0.0
  9
$UCSORGFRONT
 10
0.0
 20
0.0
 30
0.0
  9
$UCSORGBACK
 10
0.0
 20
0.0
 30
0.0
  9
$PUCSBASE
  2

  9
$PUCSNAME
  2

  9
$PUCSORG
 10
0.0
 20
0.0
 30
0.0
  9
$PUCSXDIR
 10
1.0
 20
0.0
 30
0.0
  9
$PUCSYDIR
 10
0.0
 20
1.0
 30
0.0
  9
$PUCSORTHOREF
  2

  9
$PUCSORTHOVIEW
 70
     0
  9
$PUCSORGTOP
 10
0.0
 20
0.0
 30
0.0
  9
$PUCSORGBOTTOM
 10
0.0
 20
0.0
 30
0.0
  9
$PUCSORGLEFT
 10
0.0
 20
0.0
 30
0.0
  9
$PUCSORGRIGHT
 10
0.0
 20
0.0
 30
0.0
  9
$PUCSORGFRONT
 10
0.0
 20
0.0
 30
0.0
  9
$PUCSORGBACK
 10
0.0
 20
0.0
 30
0.0
  9
$USERI1
 70
     0
  9
$USERI2
 70
     0
  9
$USERI3
 70
     0
  9
$USERI4
 70
     0
  9
$USERI5
 70
     0
  9
$USERR1
 40
0.0
  9
$USERR2
 40
0.0
  9
$USERR3
 40
0.0
  9
$USERR4
 40
0.0
  9
$USERR5
 40
0.0
  9
$WORLDVIEW
 70
     1
  9
$SHADEDGE
 70
     3
  9
$SHADEDIF
 70
    70
  9
$TILEMODE
 70
     1
  9
$MAXACTVP
 70
    64
  9
$PINSBASE
 10
0.0
 20
0.0
 30
0.0
  9
$PLIMCHECK
 70
     0
  9
$PEXTMIN
 10
1.0000000000E+20
 20
1.0000000000E+20
 30
1.0000000000E+20
  9
$PEXTMAX
 10
-1.0000000000E+20
 20
-1.0000000000E+20
 30
-1.0000000000E+20
  9
$PLIMMIN
 10
0.0
 20
0.0
  9
$PLIMMAX
 10
420.0
 20
297.0
  9
$UNITMODE
 70
     0
  9
$VISRETAIN
 70
     1
  9
$PLINEGEN
 70
     0
  9
$PSLTSCALE
 70
     1
  9
$TREEDEPTH
 70
  3020
  9
$CMLSTYLE
  2
Standard
  9
$CMLJUST
 70
     0
  9
$CMLSCALE
 40
20.0
  9
$PROXYGRAPHICS
 70
     1
  9
$MEASUREMENT
 70
     1
  9
$CELWEIGHT
370
    -1
  9
$ENDCAPS
280
     0
  9
$JOINSTYLE
280
     0
  9
$LWDISPLAY
290
     1
  9
$INSUNITS
 70
     4
  9
$HYPERLINKBASE
  1

  9
$STYLESHEET
  1

  9
$XEDIT
290
     1
  9
$CEPSNTYPE
380
     0
  9
$PSTYLEMODE
290
     1
  9
$FINGERPRINTGUID
  2
{5019b15c-72f9-4e15-b0c3-a6196365f6c5}
  9
$VERSIONGUID
  2
{FAEB1C32-E019-11D5-929B-00C0DF256EC4}
  9
$EXTNAMES
290
     1
  9
$PSVPSCALE
 40
0.0
  9
$OLESTARTUP
290
     0
  9
$SORTENTS
280
   127
  9
$INDEXCTL
280
     0
  9
$HIDETEXT
280
     1
  9
$XCLIPFRAME
280
     2
  9
$HALOGAP
280
     0
  9
$OBSCOLOR
 70
   257
  9
$OBSLTYPE
280
     0
  9
$INTERSECTIONDISPLAY
280
     0
  9
$INTERSECTIONCOLOR
 70
   257
  9
$DIMASSOC
280
     2
  9
$PROJECTNAME
  1

  9
$CAMERADISPLAY
290
     0
  9
$LENSLENGTH
 40
50.0
  9
$CAMERAHEIGHT
 40
0.0
  9
$STEPSPERSEC
 40
2.0
  9
$STEPSIZE
 40
6.0
  9
$3DDWFPREC
 40
2.0
  9
$PSOLWIDTH
 40
5.0
  9
$PSOLHEIGHT
 40
80.0
  9
$LOFTANG1
 40
1.5707963268
  9
$LOFTANG2
 40
1.5707963268
  9
$LOFTMAG1
 40
0.0
  9
$LOFTMAG2
 40
0.0
  9
$LOFTPARAM
 70
     7
  9
$LOFTNORMALS
280
     1
  9
$LATITUDE
 40
37.795
  9
$LONGITUDE
 40
-122.394
  9
$NORTHDIRECTION
 40
0.0
  9
$TIMEZONE
 70
 -8000
  9
$LIGHTGLYPHDISPLAY
280
     1
  9
$TILEMODELIGHTSYNCH
280
     1
  9
$CMATERIAL
347
44
  9
$SOLIDHIST
280
     0
  9
$SHOWHIST
280
     1
  9
$DWFFRAME
280
     2
  9
$DGNFRAME
280
     2
  9
$REALWORLDSCALE
290
     1
  9
$INTERFERECOLOR
 62
   256
  9
$CSHADOW
280
     0
  9
$SHADOWPLANELOCATION
 40
0.0
  0
ENDSEC
  0
SECTION
  2
CLASSES
  0
CLASS
  1
ACDBDICTIONARYWDFLT
  2
AcDbDictionaryWithDefault
  3
ObjectDBX Classes
 90
        0
 91
        3
280
     0
281
     0
  0
CLASS
  1
VISUALSTYLE
  2
AcDbVisualStyle
  3
ObjectDBX Classes
 90
     4095
 91
        3
280
     0
281
     0
  0
CLASS
  1
MATERIAL
  2
AcDbMaterial
  3
ObjectDBX Classes
 90
     1153
 91
        3
280
     0
281
     0
  0
CLASS
  1
SCALE
  2
AcDbScale
  3
ObjectDBX Classes
 90
     1153
 91
        3
280
     0
281
     0
  0
CLASS
  1
TABLESTYLE
  2
AcDbTableStyle
  3
ObjectDBX Classes
 90
     4095
 91
        3
280
     0
281
     0
  0
CLASS
  1
MLEADERSTYLE
  2
AcDbMLeaderStyle
  3
ACDB_MLEADERSTYLE_CLASS
 90
     4095
 91
        3
280
     0
281
     0
  0
CLASS
  1
SUN
  2
AcDbSun
  3
SCENEOE
 90
     1153
 91
        3
280
     0
281
     0
  0
CLASS
  1
DICTIONARYVAR
  2
AcDbDictionaryVar
  3
ObjectDBX Classes
 90
        0
 91
        3
280
     0
281
     0
  0
CLASS
  1
CELLSTYLEMAP
  2
AcDbCellStyleMap
  3
ObjectDBX Classes
 90
     1152
 91
        3
280
     0
281
     0
  0
ENDSEC
  0
SECTION
  2
TABLES
  0
TABLE
  2
VPORT
  5
8
330
0
100
AcDbSymbolTable
 70
     1
  0
VPORT
  5
29
330
8
100
AcDbSymbolTableRecord
100
AcDbViewportTableRecord
  2
*Active
 70
     0
 10
0.0
 20
0.0
 11
1.0
 21
1.0
 12
10000.0
 22
5000.0
 13
0.0
 23
0.0
 14
10.0
 24
10.0
 15
10.0
 25
10.0
 16
0.0
 26
0.0
 36
1.0
 17
0.0
 27
0.0
 37
0.0
 40
10000.0
 41
2.0
 42
50.0
 43
0.0
 44
0.0
 50
0.0
 51
0.0
 71
     0
 72
  2000
 73
     1
 74
     3
 75
     0
 76
     0
 77
     0
 78
     0
281
     0
 65
     1
110
0.0
120
0.0
130
0.0
111
1.0
121
0.0
131
0.0
112
0.0
122
1.0
132
0.0
 79
     0
146
0.0
348
2F
 60
     3
 61
     5
292
     1
282
     1
141
0.0
142
0.0
 63
   250
361
6D
  0
ENDTAB
  0
TABLE
  2
LTYPE
  5
5
330
0
100
AcDbSymbolTable
 70
     6
  0
LTYPE
  5
14
330
5
100
AcDbSymbolTableRecord
100
AcDbLinetypeTableRecord
  2
ByBlock
 70
     0
  3

 72
    65
 73
     0
 40
0.0
  0
LTYPE
  5
15
330
5
100
AcDbSymbolTableRecord
100
AcDbLinetypeTableRecord
  2
ByLayer
 70
     0
  3

 72
    65
 73
     0
 40
0.0
  0
LTYPE
  5
16
330
5
100
AcDbSymbolTableRecord
100
AcDbLinetypeTableRecord
  2
Continuous
 70
     0
  3
Solid line
 72
    65
 73
     0
 40
0.0
  0
LTYPE
  5
6E
330
5
100
AcDbSymbolTableRecord
100
AcDbLinetypeTableRecord
  2
HIDDEN
 70
     0
  3
Hidden __ __ __ __ __ __ __ __ __ __ __ __ __ __
 72
    65
 73
     2
 40
1.905
 49
1.27
 74
     0
 49
-0.635
 74
     0
  0
LTYPE
  5
6F
330
5
100
AcDbSymbolTableRecord
100
AcDbLinetypeTableRecord
  2
PHANTOM
 70
     0
  3
Phantom ______  __  __  ______  __  __  ______
 72
    65
 73
     6
 40
12.7
 49
6.35
 74
     0
 49
-1.27
 74
     0
 49
1.27
 74
     0
 49
-1.27
 74
     0
 49
1.27
 74
     0
 49
-1.27
 74
     0
  0
LTYPE
  5
70
330
5
100
AcDbSymbolTableRecord
100
AcDbLinetypeTableRecord
  2
CENTER
 70
     0
  3
Center ____ _ ____ _ ____ _ ____ _ ____ _ ____
 72
    65
 73
     4
 40
10.16
 49
6.35
 74
     0
 49
-1.27
 74
     0
 49
1.27
 74
     0
 49
-1.27
 74
     0
  0
LTYPE
  5
71
330
5
100
AcDbSymbolTableRecord
100
AcDbLinetypeTableRecord
  2
CENTERX2
 70
     0
  3
Center (2x) ________  __  ________  __  _____
 72
    65
 73
     4
 40
20.32
 49
12.7
 74
     0
 49
-2.54
 74
     0
 49
2.54
 74
     0
 49
-2.54
 74
     0
  0
LTYPE
  5
72
330
5
100
AcDbSymbolTableRecord
100
AcDbLinetypeTableRecord
  2
DOT2
 70
     0
  3
Dot (.5x) ........................................
 72
    65
 73
     2
 40
0.635
 49
0.0
 74
     0
 49
-0.635
 74
     0
  0
ENDTAB
  0
TABLE
  2
LAYER
  5
2
330
0
100
AcDbSymbolTable
 70
    13
  0
LAYER
  5
10
330
2
100
AcDbSymbolTableRecord
100
AcDbLayerTableRecord
  2
0
 70
     0
 62
     7
  6
Continuous
370
    -3
390
F
347
46
348
0
  0
LAYER
  5
73
330
2
100
AcDbSymbolTableRecord
100
AcDbLayerTableRecord
  2
FORMAT
 70
     0
 62
     7
  6
Continuous
370
    -3
390
F
347
46
348
0
  0
LAYER
  5
74
330
2
100
AcDbSymbolTableRecord
100
AcDbLayerTableRecord
  2
OSA
 70
     0
 62
     7
  6
CENTER
370
    -3
390
F
347
46
348
0
  0
LAYER
  5
75
330
2
100
AcDbSymbolTableRecord
100
AcDbLayerTableRecord
  2
0_35
 70
     0
 62
     7
  6
Continuous
370
    35
390
F
347
46
348
0
  0
LAYER
  5
76
330
2
100
AcDbSymbolTableRecord
100
AcDbLayerTableRecord
  2
0_5
 70
     0
 62
     7
  6
Continuous
370
    50
390
F
347
46
348
0
  0
LAYER
  5
77
330
2
100
AcDbSymbolTableRecord
100
AcDbLayerTableRecord
  2
0_25
 70
     0
 62
     7
  6
Continuous
370
    25
390
F
347
46
348
0
  0
LAYER
  5
78
330
2
100
AcDbSymbolTableRecord
100
AcDbLayerTableRecord
  2
0_18
 70
     0
 62
     7
  6
Continuous
370
    -3
390
F
347
46
348
0
  0
LAYER
  5
79
330
2
100
AcDbSymbolTableRecord
100
AcDbLayerTableRecord
  2
SLD-0
 70
     0
 62
   179
  6
Continuous
370
    -3
390
F
347
46
348
0
  0
LAYER
  5
7A
330
2
100
AcDbSymbolTableRecord
100
AcDbLayerTableRecord
  2
KOTY
 70
     0
 62
     7
  6
Continuous
370
    -3
390
F
347
46
348
0
  0
LAYER
  5
7B
330
2
100
AcDbSymbolTableRecord
100
AcDbLayerTableRecord
  2
SILNA
 70
     0
 62
   179
  6
Continuous
370
    -3
390
F
347
46
348
0
  0
LAYER
  5
7C
330
2
100
AcDbSymbolTableRecord
100
AcDbLayerTableRecord
  2
0_18_1
 70
     0
 62
   179
  6
Continuous
370
    -3
390
F
347
46
348
0
  0
LAYER
  5
7D
330
2
100
AcDbSymbolTableRecord
100
AcDbLayerTableRecord
  2
0_35_1
 70
     0
 62
   179
  6
Continuous
370
    35
390
F
347
46
348
0
  0
LAYER
  5
7E
330
2
100
AcDbSymbolTableRecord
100
AcDbLayerTableRecord
  2
0_5_1
 70
     0
 62
   179
  6
Continuous
370
    50
390
F
347
46
348
0
  0
ENDTAB
  0
TABLE
  2
STYLE
  5
3
330
0
100
AcDbSymbolTable
 70
     1
  0
STYLE
  5
11
330
3
100
AcDbSymbolTableRecord
100
AcDbTextStyleTableRecord
  2
Standard
 70
     0
 40
0.0
 41
1.0
 50
0.0
 71
     0
 42
2.0
  3
txt
  4

  0
ENDTAB
  0
TABLE
  2
VIEW
  5
6
330
0
100
AcDbSymbolTable
 70
     0
  0
ENDTAB
  0
TABLE
  2
UCS
  5
7
330
0
100
AcDbSymbolTable
 70
     0
  0
ENDTAB
  0
TABLE
  2
APPID
  5
9
330
0
100
AcDbSymbolTable
 70
     1
  0
APPID
  5
12
330
9
100
AcDbSymbolTableRecord
100
AcDbRegAppTableRecord
  2
ACAD
 70
     0
  0
ENDTAB
  0
TABLE
  2
DIMSTYLE
  5
A
330
0
100
AcDbSymbolTable
 70
     1
100
AcDbDimStyleTable
  0
DIMSTYLE
105
27
330
A
100
AcDbSymbolTableRecord
100
AcDbDimStyleTableRecord
  2
ISO-25
 70
     0
 41
2.5
 42
0.625
 43
3.75
 44
1.25
 73
     0
 74
     0
 77
     1
 78
     8
140
2.5
141
2.5
143
0.0393700787
147
0.625
171
     3
172
     1
178
     0
271
     2
272
     2
274
     3
278
    44
283
     0
284
     8
340
11
  0
ENDTAB
  0
TABLE
  2
BLOCK_RECORD
  5
1
330
0
100
AcDbSymbolTable
 70
     1
  0
BLOCK_RECORD
  5
1F
330
1
100
AcDbSymbolTableRecord
100
AcDbBlockTableRecord
  2
*Model_Space
340
22
 70
     0
280
     1
281
     0
  0
BLOCK_RECORD
  5
1B
330
1
100
AcDbSymbolTableRecord
100
AcDbBlockTableRecord
  2
*Paper_Space
340
1E
 70
     0
280
     1
281
     0
  0
BLOCK_RECORD
  5
23
330
1
100
AcDbSymbolTableRecord
100
AcDbBlockTableRecord
  2
*Paper_Space0
340
26
 70
     0
280
     1
281
     0
  0
ENDTAB
  0
ENDSEC
  0
SECTION
  2
BLOCKS
  0
BLOCK
  5
20
330
1F
100
AcDbEntity
  8
0
100
AcDbBlockBegin
  2
*Model_Space
 70
     0
 10
0.0
 20
0.0
 30
0.0
  3
*Model_Space
  1

  0
ENDBLK
  5
21
330
1F
100
AcDbEntity
  8
0
100
AcDbBlockEnd
  0
BLOCK
  5
1C
330
1B
100
AcDbEntity
 67
     1
  8
0
100
AcDbBlockBegin
  2
*Paper_Space
 70
     0
 10
0.0
 20
0.0
 30
0.0
  3
*Paper_Space
  1

  0
ENDBLK
  5
1D
330
1B
100
AcDbEntity
 67
     1
  8
0
100
AcDbBlockEnd
  0
BLOCK
  5
24
330
23
100
AcDbEntity
  8
0
100
AcDbBlockBegin
  2
*Paper_Space0
 70
     0
 10
0.0
 20
0.0
 30
0.0
  3
*Paper_Space0
  1

  0
ENDBLK
  5
25
330
23
100
AcDbEntity
  8
0
100
AcDbBlockEnd
  0
ENDSEC
  0
SECTION
  2
ENTITIES
  0
LINE
  5
7F
330
1F
100
AcDbEntity
  8
0
  6
Continuous
 62
     7
370
    25
100
AcDbLine
 10
6595.2200827779
 20
4712.8001385853
 30
0.0
 11
6595.2200827779
 21
4714.8001385853
 31
0.0
  0
LINE
  5
80
330
1F
100
AcDbEntity
  8
0
  6
Continuous
 62
     7
370
    25
100
AcDbLine
 10
6568.2200827779
 20
4714.8001385853
 30
0.0
 11
6568.2200827779
 21
4712.8001385853
 31
0.0
  0
LINE
  5
81
330
1F
100
AcDbEntity
  8
0
  6
Continuous
 62
     7
370
    25
100
AcDbLine
 10
6568.2200827779
 20
4808.8001385853
 30
0.0
 11
6568.2200827779
 21
4806.8001385853
 31
0.0
  0
LINE
  5
82
330
1F
100
AcDbEntity
  8
0
  6
Continuous
 62
     7
370
    25
100
AcDbLine
 10
6595.2200827779
 20
4806.8001385853
 30
0.0
 11
6595.2200827779
 21
4808.8001385853
 31
0.0
  0
LINE
  5
83
330
1F
100
AcDbEntity
  8
0
  6
Continuous
 62
     7
370
    25
100
AcDbLine
 10
7095.7200827779
 20
4712.8001385853
 30
0.0
 11
7095.7200827779
 21
4714.8001385853
 31
0.0
  0
LINE
  5
84
330
1F
100
AcDbEntity
  8
0
  6
Continuous
 62
     7
370
    25
100
AcDbLine
 10
7068.7200827779
 20
4714.8001385853
 30
0.0
 11
7068.7200827779
 21
4712.8001385853
 31
0.0
  0
LINE
  5
85
330
1F
100
AcDbEntity
  8
0
  6
Continuous
 62
     7
370
    25
100
AcDbLine
 10
7135.7200827779
 20
4712.8001385853
 30
0.0
 11
7135.7200827779
 21
4714.8001385853
 31
0.0
  0
LINE
  5
86
330
1F
100
AcDbEntity
  8
0
  6
Continuous
 62
     7
370
    25
100
AcDbLine
 10
7108.7200827779
 20
4714.8001385853
 30
0.0
 11
7108.7200827779
 21
4712.8001385853
 31
0.0
  0
LINE
  5
87
330
1F
100
AcDbEntity
  8
0
  6
Continuous
 62
     7
370
    25
100
AcDbLine
 10
7108.7200827779
 20
4808.8001385853
 30
0.0
 11
7108.7200827779
 21
4806.8001385853
 31
0.0
  0
LINE
  5
88
330
1F
100
AcDbEntity
  8
0
  6
Continuous
 62
     7
370
    25
100
AcDbLine
 10
7135.7200827779
 20
4806.8001385853
 30
0.0
 11
7135.7200827779
 21
4808.8001385853
 31
0.0
  0
LINE
  5
89
330
1F
100
AcDbEntity
  8
0
  6
Continuous
 62
     7
370
    25
100
AcDbLine
 10
7068.7200827779
 20
4808.8001385853
 30
0.0
 11
7068.7200827779
 21
4806.8001385853
 31
0.0
  0
LINE
  5
8A
330
1F
100
AcDbEntity
  8
0
  6
Continuous
 62
     7
370
    25
100
AcDbLine
 10
7095.7200827779
 20
4806.8001385853
 30
0.0
 11
7095.7200827779
 21
4808.8001385853
 31
0.0
  0
LINE
  5
8B
330
1F
100
AcDbEntity
  8
0
  6
Continuous
 62
     7
370
    25
100
AcDbLine
 10
6635.2200827779
 20
4712.8001385853
 30
0.0
 11
6635.2200827779
 21
4714.8001385853
 31
0.0
  0
LINE
  5
8C
330
1F
100
AcDbEntity
  8
0
  6
Continuous
 62
     7
370
    25
100
AcDbLine
 10
6608.2200827779
 20
4714.8001385853
 30
0.0
 11
6608.2200827779
 21
4712.8001385853
 31
0.0
  0
LINE
  5
8D
330
1F
100
AcDbEntity
  8
0
  6
Continuous
 62
     7
370
    25
100
AcDbLine
 10
6608.2200827779
 20
4808.8001385853
 30
0.0
 11
6608.2200827779
 21
4806.8001385853
 31
0.0
  0
LINE
  5
8E
330
1F
100
AcDbEntity
  8
0
  6
Continuous
 62
     7
370
    25
100
AcDbLine
 10
6635.2200827779
 20
4806.8001385853
 30
0.0
 11
6635.2200827779
 21
4808.8001385853
 31
0.0
  0
ARC
  5
8F
330
1F
100
AcDbEntity
  8
0
  6
Continuous
 62
     7
370
    25
100
AcDbCircle
 10
6646.8675785607
 20
4339.2012588991
 30
0.0
 40
10.625
100
AcDbArc
 50
244.9423845817
 51
295.0576154183
  0
LINE
  5
90
330
1F
100
AcDbEntity
  8
0
  6
Continuous
 62
     7
370
    25
100
AcDbLine
 10
6642.3675785607
 20
4331.0762588991
 30
0.0
 11
6642.3675785607
 21
4329.5762588991
 31
0.0
  0
LINE
  5
91
330
1F
100
AcDbEntity
  8
0
  6
Continuous
 62
     7
370
    25
100
AcDbLine
 10
6651.3675785607
 20
4329.5762588991
 30
0.0
 11
6651.3675785607
 21
4331.0762588991
 31
0.0
  0
LINE
  5
92
330
1F
100
AcDbEntity
  8
0
  6
Continuous
 62
     7
370
    25
100
AcDbLine
 10
6642.8675785607
 20
4340.0762588991
 30
0.0
 11
6642.8675785607
 21
4338.5762588991
 31
0.0
  0
LINE
  5
93
330
1F
100
AcDbEntity
  8
0
  6
Continuous
 62
     7
370
    25
100
AcDbLine
 10
6650.8675785607
 20
4338.5762588991
 30
0.0
 11
6650.8675785607
 21
4340.0762588991
 31
0.0
  0
LINE
  5
94
330
1F
100
AcDbEntity
  8
0
  6
Continuous
 62
     7
370
    25
100
AcDbLine
 10
6643.8675785607
 20
4342.0762588991
 30
0.0
 11
6643.8675785607
 21
4340.0762588991
 31
0.0
  0
LINE
  5
95
330
1F
100
AcDbEntity
  8
0
  6
Continuous
 62
     7
370
    25
100
AcDbLine
 10
6649.8675785607
 20
4340.0762588991
 30
0.0
 11
6649.8675785607
 21
4342.0762588991
 31
0.0
  0
LINE
  5
96
330
1F
100
AcDbEntity
  8
0
  6
Continuous
 62
     7
370
    25
100
AcDbLine
 10
6644.3675785607
 20
4352.0762588991
 30
0.0
 11
6644.3675785607
 21
4342.0762588991
 31
0.0
  0
LINE
  5
97
330
1F
100
AcDbEntity
  8
0
  6
Continuous
 62
     7
370
    25
100
AcDbLine
 10
6649.3675785607
 20
4342.0762588991
 30
0.0
 11
6649.3675785607
 21
4352.0762588991
 31
0.0
  0
LINE
  5
98
330
1F
100
AcDbEntity
  8
0
  6
Continuous
 62
     7
370
    25
100
AcDbLine
 10
6644.3675785607
 20
4337.3262588991
 30
0.0
 11
6644.3675785607
 21
4332.3262588991
 31
0.0
  0
LINE
  5
99
330
1F
100
AcDbEntity
  8
0
  6
Continuous
 62
     7
370
    25
100
AcDbLine
 10
6649.3675785607
 20
4332.3262588991
 30
0.0
 11
6649.3675785607
 21
4337.3262588991
 31
0.0
  0
LINE
  5
9A
330
1F
100
AcDbEntity
  8
0
  6
Continuous
 62
     7
370
    25
100
AcDbLine
 10
6649.3675785607
 20
4352.0762588991
 30
0.0
 11
6648.8675785607
 21
4352.5762588991
 31
0.0
  0
LINE
  5
9B
330
1F
100
AcDbEntity
  8
0
  6
Continuous
 62
     7
370
    25
100
AcDbLine
 10
6644.8675785607
 20
4352.5762588991
 30
0.0
 11
6644.3675785607
 21
4352.0762588991
 31
0.0
  0
LINE
  5
9C
330
1F
100
AcDbEntity
  8
0
  6
Continuous
 62
     7
370
    25
100
AcDbLine
 10
6681.8988133168
 20
4667.0762588991
 30
0.0
 11
6681.8988133168
 21
4518.0762588991
 31
0.0
  0
LINE
  5
9D
330
1F
100
AcDbEntity
  8
0
  6
Continuous
 62
     7
370
    25
100
AcDbLine
 10
6681.8988133168
 20
4491.0762588991
 30
0.0
 11
6681.8988133168
 21
4373.5762588991
 31
0.0
  0
LINE
  5
9E
330
1F
100
AcDbEntity
  8
0
  6
Continuous
 62
     7
370
    25
100
AcDbLine
 10
6689.8988133168
 20
4373.5762588991
 30
0.0
 11
6689.8988133168
 21
4491.0762588991
 31
0.0
  0
LINE
  5
9F
330
1F
100
AcDbEntity
  8
0
  6
Continuous
 62
     7
370
    25
100
AcDbLine
 10
6689.8988133168
 20
4518.0762588991
 30
0.0
 11
6689.8988133168
 21
4667.0762588991
 31
0.0
  0
ARC
  5
A0
330
1F
100
AcDbEntity
  8
0
  6
Continuous
 62
     7
370
    25
100
AcDbCircle
 10
7051.3386368586
 20
4802.5415491435
 30
0.0
 40
5.765333285471286
100
AcDbArc
 50
61.1852041926
 51
87.2284577108
  0
LINE
  5
A1
330
1F
100
AcDbEntity
  8
0
  6
Continuous
 62
     7
370
    25
100
AcDbLine
 10
7054.1174119164
 20
4714.0072453665
 30
0.0
 11
7054.1174119164
 21
4807.5930318041
 31
0.0
  0
ARC
  5
A2
330
1F
100
AcDbEntity
  8
0
  6
Continuous
 62
     7
370
    25
100
AcDbCircle
 10
7051.4622981585
 20
4718.6215193086
 30
0.0
 40
5.323640960885795
100
AcDbArc
 50
271.6696508477
 51
299.9166872488
  0
LINE
  5
A3
330
1F
100
AcDbEntity
  8
0
  6
Continuous
 62
     7
370
    25
100
AcDbLine
 10
7051.6174119164
 20
4713.3001385853
 30
0.0
 11
7051.6174119164
 21
4808.3001385853
 31
0.0
  0
LINE
  5
A4
330
1F
100
AcDbEntity
  8
0
  6
Continuous
 62
     7
370
    25
100
AcDbLine
 10
6906.6174119164
 20
4713.3001385853
 30
0.0
 11
7051.6174119164
 21
4713.3001385853
 31
0.0
  0
LINE
  5
A5
330
1F
100
AcDbEntity
  8
0
  6
Continuous
 62
     7
370
    25
100
AcDbLine
 10
6906.6174119164
 20
4713.3001385853
 30
0.0
 11
6906.6174119164
 21
4808.3001385853
 31
0.0
  0
LINE
  5
A6
330
1F
100
AcDbEntity
  8
0
  6
Continuous
 62
     7
370
    25
100
AcDbLine
 10
6906.6174119164
 20
4808.3001385853
 30
0.0
 11
7051.6174119164
 21
4808.3001385853
 31
0.0
  0
CIRCLE
  5
A7
330
1F
100
AcDbEntity
  8
0
  6
Continuous
 62
     7
370
    25
100
AcDbCircle
 10
7016.8674119164
 20
4789.5501385853
 30
0.0
 40
3.0
  0
CIRCLE
  5
A8
330
1F
100
AcDbEntity
  8
0
  6
Continuous
 62
     7
370
    25
100
AcDbCircle
 10
6941.3674119164
 20
4789.5501385853
 30
0.0
 40
3.0
  0
CIRCLE
  5
A9
330
1F
100
AcDbEntity
  8
0
  6
Continuous
 62
     7
370
    25
100
AcDbCircle
 10
6941.3674119164
 20
4732.0501385853
 30
0.0
 40
3.0
  0
CIRCLE
  5
AA
330
1F
100
AcDbEntity
  8
0
  6
Continuous
 62
     7
370
    25
100
AcDbCircle
 10
7016.8674119164
 20
4732.0501385853
 30
0.0
 40
3.0
  0
LINE
  5
AB
330
1F
100
AcDbEntity
  8
0
  6
Continuous
 62
     7
370
    25
100
AcDbLine
 10
6947.1174119164
 20
4719.3001385853
 30
0.0
 11
6947.1174119164
 21
4802.3001385853
 31
0.0
  0
LINE
  5
AC
330
1F
100
AcDbEntity
  8
0
  6
Continuous
 62
     7
370
    25
100
AcDbLine
 10
7011.1174119164
 20
4719.3001385853
 30
0.0
 11
6947.1174119164
 21
4719.3001385853
 31
0.0
  0
LINE
  5
AD
330
1F
100
AcDbEntity
  8
0
  6
Continuous
 62
     7
370
    25
100
AcDbLine
 10
7011.1174119164
 20
4802.3001385853
 30
0.0
 11
7011.1174119164
 21
4719.3001385853
 31
0.0
  0
LINE
  5
AE
330
1F
100
AcDbEntity
  8
0
  6
Continuous
 62
     7
370
    25
100
AcDbLine
 10
6947.1174119164
 20
4802.3001385853
 30
0.0
 11
7011.1174119164
 21
4802.3001385853
 31
0.0
  0
LINE
  5
AF
330
1F
100
AcDbEntity
  8
0
  6
Continuous
 62
     7
370
    25
100
AcDbLine
 10
6906.6174119164
 20
4808.3001385853
 30
0.0
 11
6906.6174119164
 21
4810.8001385853
 31
0.0
  0
LINE
  5
B0
330
1F
100
AcDbEntity
  8
0
  6
Continuous
 62
     7
370
    25
100
AcDbLine
 10
6906.6174119164
 20
4810.8001385853
 30
0.0
 11
7051.6174119164
 21
4810.8001385853
 31
0.0
  0
LINE
  5
B1
330
1F
100
AcDbEntity
  8
0
  6
Continuous
 62
     7
370
    25
100
AcDbLine
 10
7051.6174119164
 20
4808.3001385853
 30
0.0
 11
7051.6174119164
 21
4810.8001385853
 31
0.0
  0
ARC
  5
B2
330
1F
100
AcDbEntity
  8
0
  6
Continuous
 62
     7
370
    25
100
AcDbCircle
 10
6906.8961869741
 20
4719.0587280271
 30
0.0
 40
5.765333285444413
100
AcDbArc
 50
241.1852041926
 51
267.2284577109
  0
LINE
  5
B3
330
1F
100
AcDbEntity
  8
0
  6
Continuous
 62
     7
370
    25
100
AcDbLine
 10
6904.1174119164
 20
4807.5930318041
 30
0.0
 11
6904.1174119164
 21
4714.0072453665
 31
0.0
  0
ARC
  5
B4
330
1F
100
AcDbEntity
  8
0
  6
Continuous
 62
     7
370
    25
100
AcDbCircle
 10
6906.7725256743
 20
4802.978757862
 30
0.0
 40
5.323640960904643
100
AcDbArc
 50
91.6696508478
 51
119.9166872488
  0
LINE
  5
B5
330
1F
100
AcDbEntity
  8
0
  6
Continuous
 62
     7
370
    25
100
AcDbLine
 10
6906.6174119164
 20
4710.8001385853
 30
0.0
 11
7051.6174119164
 21
4710.8001385853
 31
0.0
  0
LINE
  5
B6
330
1F
100
AcDbEntity
  8
0
  6
Continuous
 62
     7
370
    25
100
AcDbLine
 10
6906.6174119164
 20
4710.8001385853
 30
0.0
 11
6906.6174119164
 21
4713.3001385853
 31
0.0
  0
LINE
  5
B7
330
1F
100
AcDbEntity
  8
0
  6
Continuous
 62
     7
370
    25
100
AcDbLine
 10
7051.6174119164
 20
4710.8001385853
 30
0.0
 11
7051.6174119164
 21
4713.3001385853
 31
0.0
  0
ARC
  5
B8
330
1F
100
AcDbEntity
  8
0
  6
Continuous
 62
     7
370
    25
100
AcDbCircle
 10
7051.6169231428
 20
4808.2996498117
 30
0.0
 40
2.500488821350983
100
AcDbArc
 50
0.0111996756
 51
89.9888003244
  0
LINE
  5
B9
330
1F
100
AcDbEntity
  8
0
  6
Continuous
 62
     7
370
    25
100
AcDbLine
 10
7054.1174119164
 20
4808.3001385853
 30
0.0
 11
7052.6174119164
 21
4808.3001385853
 31
0.0
  0
ARC
  5
BA
330
1F
100
AcDbEntity
  8
0
  6
Continuous
 62
     7
370
    25
100
AcDbCircle
 10
7051.6174119164
 20
4808.3001385853
 30
0.0
 40
0.9999999999972715
100
AcDbArc
 50
359.9999999999
 51
90.0000000001
  0
ARC
  5
BB
330
1F
100
AcDbEntity
  8
0
  6
Continuous
 62
     7
370
    25
100
AcDbCircle
 10
6906.6174119164
 20
4808.3001385853
 30
0.0
 40
0.9999999999972715
100
AcDbArc
 50
89.9999999999
 51
180.0000000001
  0
LINE
  5
BC
330
1F
100
AcDbEntity
  8
0
  6
Continuous
 62
     7
370
    25
100
AcDbLine
 10
6904.1174119164
 20
4808.3001385853
 30
0.0
 11
6905.6174119164
 21
4808.3001385853
 31
0.0
  0
ARC
  5
BD
330
1F
100
AcDbEntity
  8
0
  6
Continuous
 62
     7
370
    25
100
AcDbCircle
 10
6906.61790069
 20
4808.2996498117
 30
0.0
 40
2.500488821351893
100
AcDbArc
 50
90.0111996756
 51
179.9888003244
  0
LINE
  5
BE
330
1F
100
AcDbEntity
  8
0
  6
Continuous
 62
     7
370
    25
100
AcDbLine
 10
6904.1174119164
 20
4713.3001385853
 30
0.0
 11
6905.6174119164
 21
4713.3001385853
 31
0.0
  0
ARC
  5
BF
330
1F
100
AcDbEntity
  8
0
  6
Continuous
 62
     7
370
    25
100
AcDbCircle
 10
6906.6174119164
 20
4713.3001385853
 30
0.0
 40
1.000000000002728
100
AcDbArc
 50
180.0000000002
 51
269.9999999999
  0
ARC
  5
C0
330
1F
100
AcDbEntity
  8
0
  6
Continuous
 62
     7
370
    25
100
AcDbCircle
 10
6906.61790069
 20
4713.3006273589
 30
0.0
 40
2.500488821350074
100
AcDbArc
 50
180.0111996755
 51
269.9888003245
  0
ARC
  5
C1
330
1F
100
AcDbEntity
  8
0
  6
Continuous
 62
     7
370
    25
100
AcDbCircle
 10
7051.6169231428
 20
4713.3006273589
 30
0.0
 40
2.500488821353712
100
AcDbArc
 50
270.0111996756
 51
359.9888003245
  0
ARC
  5
C2
330
1F
100
AcDbEntity
  8
0
  6
Continuous
 62
     7
370
    25
100
AcDbCircle
 10
7051.6174119164
 20
4713.3001385853
 30
0.0
 40
0.999999999998181
100
AcDbArc
 50
269.9999999999
 51
0.0000000001
  0
LINE
  5
C3
330
1F
100
AcDbEntity
  8
0
  6
Continuous
 62
     7
370
    25
100
AcDbLine
 10
7054.1174119164
 20
4713.3001385853
 30
0.0
 11
7052.6174119164
 21
4713.3001385853
 31
0.0
  0
LINE
  5
C4
330
1F
100
AcDbEntity
  8
0
  6
Continuous
 62
     7
370
    25
100
AcDbLine
 10
7054.1174119164
 20
4807.5930318041
 30
0.0
 11
7054.1174119164
 21
4808.3001385853
 31
0.0
  0
LINE
  5
C5
330
1F
100
AcDbEntity
  8
0
  6
Continuous
 62
     7
370
    25
100
AcDbLine
 10
7052.6174119164
 20
4808.1142805936
 30
0.0
 11
7052.6174119164
 21
4808.3001385853
 31
0.0
  0
LINE
  5
C6
330
1F
100
AcDbEntity
  8
0
  6
Continuous
 62
     7
370
    25
100
AcDbLine
 10
6905.6174119164
 20
4808.3001385853
 30
0.0
 11
6905.6174119164
 21
4808.1148558731
 31
0.0
  0
LINE
  5
C7
330
1F
100
AcDbEntity
  8
0
  6
Continuous
 62
     7
370
    25
100
AcDbLine
 10
6904.1174119164
 20
4808.3001385853
 30
0.0
 11
6904.1174119164
 21
4807.5930318041
 31
0.0
  0
LINE
  5
C8
330
1F
100
AcDbEntity
  8
0
  6
Continuous
 62
     7
370
    25
100
AcDbLine
 10
7054.1174119164
 20
4713.3001385853
 30
0.0
 11
7054.1174119164
 21
4714.0072453665
 31
0.0
  0
LINE
  5
C9
330
1F
100
AcDbEntity
  8
0
  6
Continuous
 62
     7
370
    25
100
AcDbLine
 10
7052.6174119164
 20
4713.3001385853
 30
0.0
 11
7052.6174119164
 21
4713.4854212976
 31
0.0
  0
LINE
  5
CA
330
1F
100
AcDbEntity
  8
0
  6
Continuous
 62
     7
370
    25
100
AcDbLine
 10
6905.6174119164
 20
4713.485996577
 30
0.0
 11
6905.6174119164
 21
4713.3001385853
 31
0.0
  0
LINE
  5
CB
330
1F
100
AcDbEntity
  8
0
  6
Continuous
 62
     7
370
    25
100
AcDbLine
 10
6904.1174119164
 20
4714.0072453665
 30
0.0
 11
6904.1174119164
 21
4713.3001385853
 31
0.0
  0
LINE
  5
CC
330
1F
100
AcDbEntity
  8
0
  6
Continuous
 62
     7
370
    25
100
AcDbLine
 10
6568.2200827779
 20
4714.8001385853
 30
0.0
 11
6595.2200827779
 21
4714.8001385853
 31
0.0
  0
LINE
  5
CD
330
1F
100
AcDbEntity
  8
0
  6
Continuous
 62
     7
370
    25
100
AcDbLine
 10
6571.7550769946
 20
4806.8001385853
 30
0.0
 11
6568.2200827779
 21
4806.8001385853
 31
0.0
  0
LINE
  5
CE
330
1F
100
AcDbEntity
  8
0
  6
Continuous
 62
     7
370
    25
100
AcDbLine
 10
6595.2200827779
 20
4806.8001385853
 30
0.0
 11
6571.7550769946
 21
4806.8001385853
 31
0.0
  0
LINE
  5
CF
330
1F
100
AcDbEntity
  8
0
  6
Continuous
 62
     7
370
    25
100
AcDbLine
 10
7094.7714009808
 20
4714.8001385853
 30
0.0
 11
7095.7200827779
 21
4714.8001385853
 31
0.0
  0
LINE
  5
D0
330
1F
100
AcDbEntity
  8
0
  6
Continuous
 62
     7
370
    25
100
AcDbLine
 10
7068.7200827779
 20
4714.8001385853
 30
0.0
 11
7094.7714009808
 21
4714.8001385853
 31
0.0
  0
LINE
  5
D1
330
1F
100
AcDbEntity
  8
0
  6
Continuous
 62
     7
370
    25
100
AcDbLine
 10
7132.1850885613
 20
4714.8001385853
 30
0.0
 11
7135.7200827779
 21
4714.8001385853
 31
0.0
  0
LINE
  5
D2
330
1F
100
AcDbEntity
  8
0
  6
Continuous
 62
     7
370
    25
100
AcDbLine
 10
7108.7200827779
 20
4714.8001385853
 30
0.0
 11
7132.1850885613
 21
4714.8001385853
 31
0.0
  0
LINE
  5
D3
330
1F
100
AcDbEntity
  8
0
  6
Continuous
 62
     7
370
    25
100
AcDbLine
 10
7135.7200827779
 20
4806.8001385853
 30
0.0
 11
7108.7200827779
 21
4806.8001385853
 31
0.0
  0
LINE
  5
D4
330
1F
100
AcDbEntity
  8
0
  6
Continuous
 62
     7
370
    25
100
AcDbLine
 10
7095.7200827779
 20
4806.8001385853
 30
0.0
 11
7068.7200827779
 21
4806.8001385853
 31
0.0
  0
LINE
  5
D5
330
1F
100
AcDbEntity
  8
0
  6
Continuous
 62
     7
370
    25
100
AcDbLine
 10
6608.2200827779
 20
4714.8001385853
 30
0.0
 11
6635.2200827779
 21
4714.8001385853
 31
0.0
  0
LINE
  5
D6
330
1F
100
AcDbEntity
  8
0
  6
Continuous
 62
     7
370
    25
100
AcDbLine
 10
6609.168764575
 20
4806.8001385853
 30
0.0
 11
6608.2200827779
 21
4806.8001385853
 31
0.0
  0
LINE
  5
D7
330
1F
100
AcDbEntity
  8
0
  6
Continuous
 62
     7
370
    25
100
AcDbLine
 10
6635.2200827779
 20
4806.8001385853
 30
0.0
 11
6609.168764575
 21
4806.8001385853
 31
0.0
  0
LINE
  5
D8
330
1F
100
AcDbEntity
  8
0
  6
Continuous
 62
     7
370
    25
100
AcDbLine
 10
6585.063423707
 20
4720.8001385853
 30
0.0
 11
6585.063423707
 21
4714.8001385853
 31
0.0
  0
LINE
  5
D9
330
1F
100
AcDbEntity
  8
0
  6
Continuous
 62
     7
370
    25
100
AcDbLine
 10
6589.2112509505
 20
4720.8001385853
 30
0.0
 11
6589.2112509505
 21
4714.8001385853
 31
0.0
  0
LINE
  5
DA
330
1F
100
AcDbEntity
  8
0
  6
Continuous
 62
     7
370
    25
100
AcDbLine
 10
6585.063423707
 20
4720.8001385853
 30
0.0
 11
6589.2112509505
 21
4720.8001385853
 31
0.0
  0
LINE
  5
DB
330
1F
100
AcDbEntity
  8
0
  6
Continuous
 62
     7
370
    25
100
AcDbLine
 10
6577.5722555344
 20
4720.8001385853
 30
0.0
 11
6577.5722555344
 21
4714.8001385853
 31
0.0
  0
LINE
  5
DC
330
1F
100
AcDbEntity
  8
0
  6
Continuous
 62
     7
370
    25
100
AcDbLine
 10
6577.5722555344
 20
4720.8001385853
 30
0.0
 11
6585.063423707
 21
4720.8001385853
 31
0.0
  0
LINE
  5
DD
330
1F
100
AcDbEntity
  8
0
  6
Continuous
 62
     7
370
    25
100
AcDbLine
 10
6574.2289146054
 20
4720.8001385853
 30
0.0
 11
6574.2289146054
 21
4714.8001385853
 31
0.0
  0
LINE
  5
DE
330
1F
100
AcDbEntity
  8
0
  6
Continuous
 62
     7
370
    25
100
AcDbLine
 10
6574.2289146054
 20
4720.8001385853
 30
0.0
 11
6577.5722555344
 21
4720.8001385853
 31
0.0
  0
LINE
  5
DF
330
1F
100
AcDbEntity
  8
0
  6
Continuous
 62
     7
370
    25
100
AcDbLine
 10
7082.3199852423
 20
4800.8001385853
 30
0.0
 11
7082.3199852423
 21
4806.8001385853
 31
0.0
  0
LINE
  5
E0
330
1F
100
AcDbEntity
  8
0
  6
Continuous
 62
     7
370
    25
100
AcDbLine
 10
7075.7706098338
 20
4800.8001385853
 30
0.0
 11
7075.7706098338
 21
4806.8001385853
 31
0.0
  0
LINE
  5
E1
330
1F
100
AcDbEntity
  8
0
  6
Continuous
 62
     7
370
    25
100
AcDbLine
 10
7082.3199852423
 20
4800.8001385853
 30
0.0
 11
7075.7706098338
 21
4800.8001385853
 31
0.0
  0
LINE
  5
E2
330
1F
100
AcDbEntity
  8
0
  6
Continuous
 62
     7
370
    25
100
AcDbLine
 10
7088.7694581864
 20
4800.8001385853
 30
0.0
 11
7088.7694581864
 21
4806.8001385853
 31
0.0
  0
LINE
  5
E3
330
1F
100
AcDbEntity
  8
0
  6
Continuous
 62
     7
370
    25
100
AcDbLine
 10
7088.7694581864
 20
4800.8001385853
 30
0.0
 11
7082.3199852423
 21
4800.8001385853
 31
0.0
  0
LINE
  5
E4
330
1F
100
AcDbEntity
  8
0
  6
Continuous
 62
     7
370
    25
100
AcDbLine
 10
7075.6707073695
 20
4800.8001385853
 30
0.0
 11
7075.6707073695
 21
4806.8001385853
 31
0.0
  0
LINE
  5
E5
330
1F
100
AcDbEntity
  8
0
  6
Continuous
 62
     7
370
    25
100
AcDbLine
 10
7075.7706098338
 20
4800.8001385853
 30
0.0
 11
7075.6707073695
 21
4800.8001385853
 31
0.0
  0
LINE
  5
E6
330
1F
100
AcDbEntity
  8
0
  6
Continuous
 62
     7
370
    25
100
AcDbLine
 10
7118.8767418489
 20
4800.8001385853
 30
0.0
 11
7118.8767418489
 21
4806.8001385853
 31
0.0
  0
LINE
  5
E7
330
1F
100
AcDbEntity
  8
0
  6
Continuous
 62
     7
370
    25
100
AcDbLine
 10
7114.7289146054
 20
4800.8001385853
 30
0.0
 11
7114.7289146054
 21
4806.8001385853
 31
0.0
  0
LINE
  5
E8
330
1F
100
AcDbEntity
  8
0
  6
Continuous
 62
     7
370
    25
100
AcDbLine
 10
7118.8767418489
 20
4800.8001385853
 30
0.0
 11
7114.7289146054
 21
4800.8001385853
 31
0.0
  0
LINE
  5
E9
330
1F
100
AcDbEntity
  8
0
  6
Continuous
 62
     7
370
    25
100
AcDbLine
 10
7126.3679100215
 20
4800.8001385853
 30
0.0
 11
7126.3679100215
 21
4806.8001385853
 31
0.0
  0
LINE
  5
EA
330
1F
100
AcDbEntity
  8
0
  6
Continuous
 62
     7
370
    25
100
AcDbLine
 10
7126.3679100215
 20
4800.8001385853
 30
0.0
 11
7118.8767418489
 21
4800.8001385853
 31
0.0
  0
LINE
  5
EB
330
1F
100
AcDbEntity
  8
0
  6
Continuous
 62
     7
370
    25
100
AcDbLine
 10
7129.7112509505
 20
4800.8001385853
 30
0.0
 11
7129.7112509505
 21
4806.8001385853
 31
0.0
  0
LINE
  5
EC
330
1F
100
AcDbEntity
  8
0
  6
Continuous
 62
     7
370
    25
100
AcDbLine
 10
7129.7112509505
 20
4800.8001385853
 30
0.0
 11
7126.3679100215
 21
4800.8001385853
 31
0.0
  0
LINE
  5
ED
330
1F
100
AcDbEntity
  8
0
  6
Continuous
 62
     7
370
    25
100
AcDbLine
 10
6621.8199852423
 20
4800.8001385853
 30
0.0
 11
6621.8199852423
 21
4806.8001385853
 31
0.0
  0
LINE
  5
EE
330
1F
100
AcDbEntity
  8
0
  6
Continuous
 62
     7
370
    25
100
AcDbLine
 10
6615.2706098338
 20
4800.8001385853
 30
0.0
 11
6615.2706098338
 21
4806.8001385853
 31
0.0
  0
LINE
  5
EF
330
1F
100
AcDbEntity
  8
0
  6
Continuous
 62
     7
370
    25
100
AcDbLine
 10
6621.8199852423
 20
4800.8001385853
 30
0.0
 11
6615.2706098338
 21
4800.8001385853
 31
0.0
  0
LINE
  5
F0
330
1F
100
AcDbEntity
  8
0
  6
Continuous
 62
     7
370
    25
100
AcDbLine
 10
6628.2694581864
 20
4800.8001385853
 30
0.0
 11
6628.2694581864
 21
4806.8001385853
 31
0.0
  0
LINE
  5
F1
330
1F
100
AcDbEntity
  8
0
  6
Continuous
 62
     7
370
    25
100
AcDbLine
 10
6628.2694581864
 20
4800.8001385853
 30
0.0
 11
6621.8199852423
 21
4800.8001385853
 31
0.0
  0
LINE
  5
F2
330
1F
100
AcDbEntity
  8
0
  6
Continuous
 62
     7
370
    25
100
AcDbLine
 10
6615.1707073695
 20
4800.8001385853
 30
0.0
 11
6615.1707073695
 21
4806.8001385853
 31
0.0
  0
LINE
  5
F3
330
1F
100
AcDbEntity
  8
0
  6
Continuous
 62
     7
370
    25
100
AcDbLine
 10
6615.2706098338
 20
4800.8001385853
 30
0.0
 11
6615.1707073695
 21
4800.8001385853
 31
0.0
  0
ARC
  5
F4
330
1F
100
AcDbEntity
  8
0
  6
Continuous
 62
     7
370
    25
100
AcDbCircle
 10
7082.2200827779
 20
4504.5762588991
 30
0.0
 40
3.000000000000692
100
AcDbArc
 50
268.4038231241
 51
91.5961768748
  0
ARC
  5
F5
330
1F
100
AcDbEntity
  8
0
  6
Continuous
 62
     7
370
    25
100
AcDbCircle
 10
7082.2200827779
 20
4504.5762588991
 30
0.0
 40
4.000000000000282
100
AcDbArc
 50
278.1141561325
 51
81.8858438701
  0
ARC
  5
F6
330
1F
100
AcDbEntity
  8
0
  6
Continuous
 62
     7
370
    25
100
AcDbCircle
 10
7122.2200827779
 20
4504.5762588991
 30
0.0
 40
3.000000000000204
100
AcDbArc
 50
183.5479339368
 51
251.091213501
  0
ARC
  5
F7
330
1F
100
AcDbEntity
  8
0
  6
Continuous
 62
     7
370
    25
100
AcDbCircle
 10
7122.2200827779
 20
4504.5762588991
 30
0.0
 40
3.00000000000031
100
AcDbArc
 50
108.9087864999
 51
183.5479339368
  0
ARC
  5
F8
330
1F
100
AcDbEntity
  8
0
  6
Continuous
 62
     7
370
    25
100
AcDbCircle
 10
7122.2200827779
 20
4504.5762588991
 30
0.0
 40
3.999999999999969
100
AcDbArc
 50
117.5031175434
 51
183.5479339368
  0
ARC
  5
F9
330
1F
100
AcDbEntity
  8
0
  6
Continuous
 62
     7
370
    25
100
AcDbCircle
 10
7122.2200827779
 20
4504.5762588991
 30
0.0
 40
4.00000000000041
100
AcDbArc
 50
183.5479339368
 51
242.4968824513
  0
LINE
  5
FA
330
1F
100
AcDbEntity
  8
0
  6
Continuous
 62
     7
370
    25
100
AcDbLine
 10
6621.6201803136
 20
4720.8001385853
 30
0.0
 11
6621.6201803136
 21
4714.8001385853
 31
0.0
  0
LINE
  5
FB
330
1F
100
AcDbEntity
  8
0
  6
Continuous
 62
     7
370
    25
100
AcDbLine
 10
6628.1695557221
 20
4720.8001385853
 30
0.0
 11
6628.1695557221
 21
4714.8001385853
 31
0.0
  0
LINE
  5
FC
330
1F
100
AcDbEntity
  8
0
  6
Continuous
 62
     7
370
    25
100
AcDbLine
 10
6621.6201803136
 20
4720.8001385853
 30
0.0
 11
6628.1695557221
 21
4720.8001385853
 31
0.0
  0
LINE
  5
FD
330
1F
100
AcDbEntity
  8
0
  6
Continuous
 62
     7
370
    25
100
AcDbLine
 10
6615.1707073695
 20
4720.8001385853
 30
0.0
 11
6615.1707073695
 21
4714.8001385853
 31
0.0
  0
LINE
  5
FE
330
1F
100
AcDbEntity
  8
0
  6
Continuous
 62
     7
370
    25
100
AcDbLine
 10
6615.1707073695
 20
4720.8001385853
 30
0.0
 11
6621.6201803136
 21
4720.8001385853
 31
0.0
  0
LINE
  5
FF
330
1F
100
AcDbEntity
  8
0
  6
Continuous
 62
     7
370
    25
100
AcDbLine
 10
6628.2694581864
 20
4720.8001385853
 30
0.0
 11
6628.2694581864
 21
4714.8001385853
 31
0.0
  0
LINE
  5
100
330
1F
100
AcDbEntity
  8
0
  6
Continuous
 62
     7
370
    25
100
AcDbLine
 10
6628.1695557221
 20
4720.8001385853
 30
0.0
 11
6628.2694581864
 21
4720.8001385853
 31
0.0
  0
LINE
  5
101
330
1F
100
AcDbEntity
  8
0
  6
Continuous
 62
     7
370
    25
100
AcDbLine
 10
6578.3767418489
 20
4800.8001385853
 30
0.0
 11
6578.3767418489
 21
4806.8001385853
 31
0.0
  0
LINE
  5
102
330
1F
100
AcDbEntity
  8
0
  6
Continuous
 62
     7
370
    25
100
AcDbLine
 10
6574.2289146054
 20
4800.8001385853
 30
0.0
 11
6574.2289146054
 21
4806.8001385853
 31
0.0
  0
LINE
  5
103
330
1F
100
AcDbEntity
  8
0
  6
Continuous
 62
     7
370
    25
100
AcDbLine
 10
6578.3767418489
 20
4800.8001385853
 30
0.0
 11
6574.2289146054
 21
4800.8001385853
 31
0.0
  0
LINE
  5
104
330
1F
100
AcDbEntity
  8
0
  6
Continuous
 62
     7
370
    25
100
AcDbLine
 10
6585.8679100215
 20
4800.8001385853
 30
0.0
 11
6585.8679100215
 21
4806.8001385853
 31
0.0
  0
LINE
  5
105
330
1F
100
AcDbEntity
  8
0
  6
Continuous
 62
     7
370
    25
100
AcDbLine
 10
6585.8679100215
 20
4800.8001385853
 30
0.0
 11
6578.3767418489
 21
4800.8001385853
 31
0.0
  0
LINE
  5
106
330
1F
100
AcDbEntity
  8
0
  6
Continuous
 62
     7
370
    25
100
AcDbLine
 10
6589.2112509505
 20
4800.8001385853
 30
0.0
 11
6589.2112509505
 21
4806.8001385853
 31
0.0
  0
LINE
  5
107
330
1F
100
AcDbEntity
  8
0
  6
Continuous
 62
     7
370
    25
100
AcDbLine
 10
6589.2112509505
 20
4800.8001385853
 30
0.0
 11
6585.8679100215
 21
4800.8001385853
 31
0.0
  0
ARC
  5
108
330
1F
100
AcDbEntity
  8
0
  6
Continuous
 62
     7
370
    25
100
AcDbCircle
 10
6581.7200827779
 20
4504.5762588991
 30
0.0
 40
3.000000000000377
100
AcDbArc
 50
3.5479339368
 51
82.2928315457
  0
ARC
  5
109
330
1F
100
AcDbEntity
  8
0
  6
Continuous
 62
     7
370
    25
100
AcDbCircle
 10
6581.7200827779
 20
4504.5762588991
 30
0.0
 40
3.00000000000026
100
AcDbArc
 50
277.7071684539
 51
3.5479339368
  0
ARC
  5
10A
330
1F
100
AcDbEntity
  8
0
  6
Continuous
 62
     7
370
    25
100
AcDbCircle
 10
6581.7200827779
 20
4504.5762588991
 30
0.0
 40
4.000000000000026
100
AcDbArc
 50
284.4117024794
 51
3.5479339368
  0
ARC
  5
10B
330
1F
100
AcDbEntity
  8
0
  6
Continuous
 62
     7
370
    25
100
AcDbCircle
 10
6581.7200827779
 20
4504.5762588991
 30
0.0
 40
4.000000000000026
100
AcDbArc
 50
3.5479339368
 51
75.5882975212
  0
LINE
  5
10C
330
1F
100
AcDbEntity
  8
0
  6
Continuous
 62
     7
370
    25
100
AcDbLine
 10
7082.1201803136
 20
4720.8001385853
 30
0.0
 11
7082.1201803136
 21
4714.8001385853
 31
0.0
  0
LINE
  5
10D
330
1F
100
AcDbEntity
  8
0
  6
Continuous
 62
     7
370
    25
100
AcDbLine
 10
7088.6695557221
 20
4720.8001385853
 30
0.0
 11
7088.6695557221
 21
4714.8001385853
 31
0.0
  0
LINE
  5
10E
330
1F
100
AcDbEntity
  8
0
  6
Continuous
 62
     7
370
    25
100
AcDbLine
 10
7082.1201803136
 20
4720.8001385853
 30
0.0
 11
7088.6695557221
 21
4720.8001385853
 31
0.0
  0
LINE
  5
10F
330
1F
100
AcDbEntity
  8
0
  6
Continuous
 62
     7
370
    25
100
AcDbLine
 10
7075.6707073695
 20
4720.8001385853
 30
0.0
 11
7075.6707073695
 21
4714.8001385853
 31
0.0
  0
LINE
  5
110
330
1F
100
AcDbEntity
  8
0
  6
Continuous
 62
     7
370
    25
100
AcDbLine
 10
7075.6707073695
 20
4720.8001385853
 30
0.0
 11
7082.1201803136
 21
4720.8001385853
 31
0.0
  0
LINE
  5
111
330
1F
100
AcDbEntity
  8
0
  6
Continuous
 62
     7
370
    25
100
AcDbLine
 10
7088.7694581864
 20
4720.8001385853
 30
0.0
 11
7088.7694581864
 21
4714.8001385853
 31
0.0
  0
LINE
  5
112
330
1F
100
AcDbEntity
  8
0
  6
Continuous
 62
     7
370
    25
100
AcDbLine
 10
7088.6695557221
 20
4720.8001385853
 30
0.0
 11
7088.7694581864
 21
4720.8001385853
 31
0.0
  0
LINE
  5
113
330
1F
100
AcDbEntity
  8
0
  6
Continuous
 62
     7
370
    25
100
AcDbLine
 10
7125.563423707
 20
4720.8001385853
 30
0.0
 11
7125.563423707
 21
4714.8001385853
 31
0.0
  0
LINE
  5
114
330
1F
100
AcDbEntity
  8
0
  6
Continuous
 62
     7
370
    25
100
AcDbLine
 10
7129.7112509505
 20
4720.8001385853
 30
0.0
 11
7129.7112509505
 21
4714.8001385853
 31
0.0
  0
LINE
  5
115
330
1F
100
AcDbEntity
  8
0
  6
Continuous
 62
     7
370
    25
100
AcDbLine
 10
7125.563423707
 20
4720.8001385853
 30
0.0
 11
7129.7112509505
 21
4720.8001385853
 31
0.0
  0
LINE
  5
116
330
1F
100
AcDbEntity
  8
0
  6
Continuous
 62
     7
370
    25
100
AcDbLine
 10
7118.0722555344
 20
4720.8001385853
 30
0.0
 11
7118.0722555344
 21
4714.8001385853
 31
0.0
  0
LINE
  5
117
330
1F
100
AcDbEntity
  8
0
  6
Continuous
 62
     7
370
    25
100
AcDbLine
 10
7118.0722555344
 20
4720.8001385853
 30
0.0
 11
7125.563423707
 21
4720.8001385853
 31
0.0
  0
LINE
  5
118
330
1F
100
AcDbEntity
  8
0
  6
Continuous
 62
     7
370
    25
100
AcDbLine
 10
7114.7289146054
 20
4720.8001385853
 30
0.0
 11
7114.7289146054
 21
4714.8001385853
 31
0.0
  0
LINE
  5
119
330
1F
100
AcDbEntity
  8
0
  6
Continuous
 62
     7
370
    25
100
AcDbLine
 10
7114.7289146054
 20
4720.8001385853
 30
0.0
 11
7118.0722555344
 21
4720.8001385853
 31
0.0
  0
LINE
  5
11A
330
1F
100
AcDbEntity
  8
0
  6
Continuous
 62
     7
370
    25
100
AcDbLine
 10
7137.2200827779
 20
4498.3390720332
 30
0.0
 11
7137.2200827779
 21
4510.813445765
 31
0.0
  0
LINE
  5
11B
330
1F
100
AcDbEntity
  8
0
  6
Continuous
 62
     7
370
    25
100
AcDbLine
 10
6636.7200827779
 20
4498.3913983509
 30
0.0
 11
6636.7200827779
 21
4510.7611194472
 31
0.0
  0
LINE
  5
11C
330
1F
100
AcDbEntity
  8
0
  6
Continuous
 62
     7
370
    25
100
AcDbLine
 10
6566.7200827779
 20
4506.868520528
 30
0.0
 11
6566.7200827779
 21
4502.2839972702
 31
0.0
  0
LINE
  5
11D
330
1F
100
AcDbEntity
  8
0
  6
Continuous
 62
     7
370
    25
100
AcDbLine
 10
6551.9700827779
 20
4556.5762588991
 30
0.0
 11
6547.9700827779
 21
4556.5762588991
 31
0.0
  0
LINE
  5
11E
330
1F
100
AcDbEntity
  8
0
  6
Continuous
 62
     7
370
    25
100
AcDbLine
 10
6551.9700827779
 20
4522.2762588991
 30
0.0
 11
6551.9700827779
 21
4556.5762588991
 31
0.0
  0
LINE
  5
11F
330
1F
100
AcDbEntity
  8
0
  6
Continuous
 62
     7
370
    25
100
AcDbLine
 10
6647.9700827779
 20
4522.2762588991
 30
0.0
 11
6551.9700827779
 21
4522.2762588991
 31
0.0
  0
LINE
  5
120
330
1F
100
AcDbEntity
  8
0
  6
Continuous
 62
     7
370
    25
100
AcDbLine
 10
6647.9700827779
 20
4520.2762588991
 30
0.0
 11
6647.9700827779
 21
4522.2762588991
 31
0.0
  0
LINE
  5
121
330
1F
100
AcDbEntity
  8
0
  6
Continuous
 62
     7
370
    25
100
AcDbLine
 10
6647.9700827779
 20
4520.2762588991
 30
0.0
 11
6551.9700827779
 21
4520.2762588991
 31
0.0
  0
LINE
  5
122
330
1F
100
AcDbEntity
  8
0
  6
Continuous
 62
     7
370
    25
100
AcDbLine
 10
6551.9700827779
 20
4488.8762588991
 30
0.0
 11
6551.9700827779
 21
4520.2762588991
 31
0.0
  0
LINE
  5
123
330
1F
100
AcDbEntity
  8
0
  6
Continuous
 62
     7
370
    25
100
AcDbLine
 10
6647.9700827779
 20
4488.8762588991
 30
0.0
 11
6551.9700827779
 21
4488.8762588991
 31
0.0
  0
LINE
  5
124
330
1F
100
AcDbEntity
  8
0
  6
Continuous
 62
     7
370
    25
100
AcDbLine
 10
6647.9700827779
 20
4486.8762588991
 30
0.0
 11
6647.9700827779
 21
4488.8762588991
 31
0.0
  0
LINE
  5
125
330
1F
100
AcDbEntity
  8
0
  6
Continuous
 62
     7
370
    25
100
AcDbLine
 10
6647.9700827779
 20
4486.8762588991
 30
0.0
 11
6551.9700827779
 21
4486.8762588991
 31
0.0
  0
LINE
  5
126
330
1F
100
AcDbEntity
  8
0
  6
Continuous
 62
     7
370
    25
100
AcDbLine
 10
6551.9700827779
 20
4452.5762588991
 30
0.0
 11
6551.9700827779
 21
4486.8762588991
 31
0.0
  0
LINE
  5
127
330
1F
100
AcDbEntity
  8
0
  6
Continuous
 62
     7
370
    25
100
AcDbLine
 10
6547.9700827779
 20
4452.5762588991
 30
0.0
 11
6551.9700827779
 21
4452.5762588991
 31
0.0
  0
LINE
  5
128
330
1F
100
AcDbEntity
  8
0
  6
Continuous
 62
     7
370
    25
100
AcDbLine
 10
6547.9700827779
 20
4452.5762588991
 30
0.0
 11
6547.9700827779
 21
4556.5762588991
 31
0.0
  0
LINE
  5
129
330
1F
100
AcDbEntity
  8
0
  6
Continuous
 62
     7
370
    25
100
AcDbLine
 10
6547.9700827779
 20
4564.5762588991
 30
0.0
 11
6551.9700827779
 21
4564.5762588991
 31
0.0
  0
LINE
  5
12A
330
1F
100
AcDbEntity
  8
0
  6
Continuous
 62
     7
370
    25
100
AcDbLine
 10
6547.9700827779
 20
4556.5762588991
 30
0.0
 11
6547.9700827779
 21
4564.5762588991
 31
0.0
  0
LINE
  5
12B
330
1F
100
AcDbEntity
  8
0
  6
Continuous
 62
     7
370
    25
100
AcDbLine
 10
6551.9700827779
 20
4564.5762588991
 30
0.0
 11
6551.9700827779
 21
4556.5762588991
 31
0.0
  0
LINE
  5
12C
330
1F
100
AcDbEntity
  8
0
  6
Continuous
 62
     7
370
    25
100
AcDbLine
 10
6551.9700827779
 20
4444.5762588991
 30
0.0
 11
6547.9700827779
 21
4444.5762588991
 31
0.0
  0
LINE
  5
12D
330
1F
100
AcDbEntity
  8
0
  6
Continuous
 62
     7
370
    25
100
AcDbLine
 10
6547.9700827779
 20
4444.5762588991
 30
0.0
 11
6547.9700827779
 21
4452.5762588991
 31
0.0
  0
LINE
  5
12E
330
1F
100
AcDbEntity
  8
0
  6
Continuous
 62
     7
370
    25
100
AcDbLine
 10
6551.9700827779
 20
4452.5762588991
 30
0.0
 11
6551.9700827779
 21
4444.5762588991
 31
0.0
  0
LINE
  5
12F
330
1F
100
AcDbEntity
  8
0
  6
Continuous
 62
     7
370
    25
100
AcDbLine
 10
6647.9700827779
 20
4520.2762588991
 30
0.0
 11
6647.9700827779
 21
4518.0762588991
 31
0.0
  0
LINE
  5
130
330
1F
100
AcDbEntity
  8
0
  6
Continuous
 62
     7
370
    25
100
AcDbLine
 10
6647.9700827779
 20
4491.0762588991
 30
0.0
 11
6647.9700827779
 21
4488.8762588991
 31
0.0
  0
LINE
  5
131
330
1F
100
AcDbEntity
  8
0
  6
Continuous
 62
     7
370
    25
100
AcDbLine
 10
6551.9700827779
 20
4747.1001385853
 30
0.0
 11
6547.9700827779
 21
4747.1001385853
 31
0.0
  0
LINE
  5
132
330
1F
100
AcDbEntity
  8
0
  6
Continuous
 62
     7
370
    25
100
AcDbLine
 10
6551.9700827779
 20
4712.8001385853
 30
0.0
 11
6551.9700827779
 21
4747.1001385853
 31
0.0
  0
LINE
  5
133
330
1F
100
AcDbEntity
  8
0
  6
Continuous
 62
     7
370
    25
100
AcDbLine
 10
6647.9700827779
 20
4712.8001385853
 30
0.0
 11
6551.9700827779
 21
4712.8001385853
 31
0.0
  0
LINE
  5
134
330
1F
100
AcDbEntity
  8
0
  6
Continuous
 62
     7
370
    25
100
AcDbLine
 10
6647.9700827779
 20
4710.8001385853
 30
0.0
 11
6647.9700827779
 21
4712.8001385853
 31
0.0
  0
LINE
  5
135
330
1F
100
AcDbEntity
  8
0
  6
Continuous
 62
     7
370
    25
100
AcDbLine
 10
6647.9700827779
 20
4710.8001385853
 30
0.0
 11
6551.9700827779
 21
4710.8001385853
 31
0.0
  0
LINE
  5
136
330
1F
100
AcDbEntity
  8
0
  6
Continuous
 62
     7
370
    25
100
AcDbLine
 10
6551.9700827779
 20
4679.4001385853
 30
0.0
 11
6551.9700827779
 21
4710.8001385853
 31
0.0
  0
LINE
  5
137
330
1F
100
AcDbEntity
  8
0
  6
Continuous
 62
     7
370
    25
100
AcDbLine
 10
6647.9700827779
 20
4679.4001385853
 30
0.0
 11
6551.9700827779
 21
4679.4001385853
 31
0.0
  0
LINE
  5
138
330
1F
100
AcDbEntity
  8
0
  6
Continuous
 62
     7
370
    25
100
AcDbLine
 10
6647.9700827779
 20
4677.4001385853
 30
0.0
 11
6647.9700827779
 21
4679.4001385853
 31
0.0
  0
LINE
  5
139
330
1F
100
AcDbEntity
  8
0
  6
Continuous
 62
     7
370
    25
100
AcDbLine
 10
6647.9700827779
 20
4677.4001385853
 30
0.0
 11
6551.9700827779
 21
4677.4001385853
 31
0.0
  0
LINE
  5
13A
330
1F
100
AcDbEntity
  8
0
  6
Continuous
 62
     7
370
    25
100
AcDbLine
 10
6551.9700827779
 20
4643.1001385853
 30
0.0
 11
6551.9700827779
 21
4677.4001385853
 31
0.0
  0
LINE
  5
13B
330
1F
100
AcDbEntity
  8
0
  6
Continuous
 62
     7
370
    25
100
AcDbLine
 10
6547.9700827779
 20
4643.1001385853
 30
0.0
 11
6551.9700827779
 21
4643.1001385853
 31
0.0
  0
LINE
  5
13C
330
1F
100
AcDbEntity
  8
0
  6
Continuous
 62
     7
370
    25
100
AcDbLine
 10
6547.9700827779
 20
4643.1001385853
 30
0.0
 11
6547.9700827779
 21
4747.1001385853
 31
0.0
  0
LINE
  5
13D
330
1F
100
AcDbEntity
  8
0
  6
Continuous
 62
     7
370
    25
100
AcDbLine
 10
6547.9700827779
 20
4755.1001385853
 30
0.0
 11
6551.9700827779
 21
4755.1001385853
 31
0.0
  0
LINE
  5
13E
330
1F
100
AcDbEntity
  8
0
  6
Continuous
 62
     7
370
    25
100
AcDbLine
 10
6547.9700827779
 20
4747.1001385853
 30
0.0
 11
6547.9700827779
 21
4755.1001385853
 31
0.0
  0
LINE
  5
13F
330
1F
100
AcDbEntity
  8
0
  6
Continuous
 62
     7
370
    25
100
AcDbLine
 10
6551.9700827779
 20
4755.1001385853
 30
0.0
 11
6551.9700827779
 21
4747.1001385853
 31
0.0
  0
LINE
  5
140
330
1F
100
AcDbEntity
  8
0
  6
Continuous
 62
     7
370
    25
100
AcDbLine
 10
6551.9700827779
 20
4635.1001385853
 30
0.0
 11
6547.9700827779
 21
4635.1001385853
 31
0.0
  0
LINE
  5
141
330
1F
100
AcDbEntity
  8
0
  6
Continuous
 62
     7
370
    25
100
AcDbLine
 10
6547.9700827779
 20
4635.1001385853
 30
0.0
 11
6547.9700827779
 21
4643.1001385853
 31
0.0
  0
LINE
  5
142
330
1F
100
AcDbEntity
  8
0
  6
Continuous
 62
     7
370
    25
100
AcDbLine
 10
6551.9700827779
 20
4643.1001385853
 30
0.0
 11
6551.9700827779
 21
4635.1001385853
 31
0.0
  0
LINE
  5
143
330
1F
100
AcDbEntity
  8
0
  6
Continuous
 62
     7
370
    25
100
AcDbLine
 10
6647.9700827779
 20
4682.4001385853
 30
0.0
 11
6551.9700827779
 21
4682.4001385853
 31
0.0
  0
LINE
  5
144
330
1F
100
AcDbEntity
  8
0
  6
Continuous
 62
     7
370
    25
100
AcDbLine
 10
6647.9700827779
 20
4682.4001385853
 30
0.0
 11
6647.9700827779
 21
4679.4001385853
 31
0.0
  0
ARC
  5
145
330
1F
100
AcDbEntity
  8
0
  6
Continuous
 62
     7
370
    25
100
AcDbCircle
 10
6572.2200827779
 20
4695.1001385853
 30
0.0
 40
5.25
100
AcDbArc
 50
205.9824128556
 51
270.0
  0
LINE
  5
146
330
1F
100
AcDbEntity
  8
0
  6
Continuous
 62
     7
370
    25
100
AcDbLine
 10
6584.2200827779
 20
4689.8501385853
 30
0.0
 11
6572.2200827779
 21
4689.8501385853
 31
0.0
  0
ARC
  5
147
330
1F
100
AcDbEntity
  8
0
  6
Continuous
 62
     7
370
    25
100
AcDbCircle
 10
6584.2200827779
 20
4695.1001385853
 30
0.0
 40
5.25
100
AcDbArc
 50
270.0
 51
334.0175871444
  0
ARC
  5
148
330
1F
100
AcDbEntity
  8
0
  6
Continuous
 62
     7
370
    25
100
AcDbCircle
 10
6619.2200827779
 20
4695.1001385853
 30
0.0
 40
5.25
100
AcDbArc
 50
205.9824128556
 51
270.0
  0
LINE
  5
149
330
1F
100
AcDbEntity
  8
0
  6
Continuous
 62
     7
370
    25
100
AcDbLine
 10
6631.2200827779
 20
4689.8501385853
 30
0.0
 11
6619.2200827779
 21
4689.8501385853
 31
0.0
  0
ARC
  5
14A
330
1F
100
AcDbEntity
  8
0
  6
Continuous
 62
     7
370
    25
100
AcDbCircle
 10
6631.2200827779
 20
4695.1001385853
 30
0.0
 40
5.25
100
AcDbArc
 50
270.0
 51
334.0175871444
  0
LINE
  5
14B
330
1F
100
AcDbEntity
  8
0
  6
Continuous
 62
     7
370
    25
100
AcDbLine
 10
6647.9700827779
 20
4692.8001385853
 30
0.0
 11
6647.9700827779
 21
4682.4001385853
 31
0.0
  0
LINE
  5
14C
330
1F
100
AcDbEntity
  8
0
  6
Continuous
 62
     7
370
    25
100
AcDbLine
 10
6551.9700827779
 20
4878.5001385853
 30
0.0
 11
6547.9700827779
 21
4878.5001385853
 31
0.0
  0
LINE
  5
14D
330
1F
100
AcDbEntity
  8
0
  6
Continuous
 62
     7
370
    25
100
AcDbLine
 10
6551.9700827779
 20
4844.2001385853
 30
0.0
 11
6551.9700827779
 21
4878.5001385853
 31
0.0
  0
LINE
  5
14E
330
1F
100
AcDbEntity
  8
0
  6
Continuous
 62
     7
370
    25
100
AcDbLine
 10
6647.9700827779
 20
4844.2001385853
 30
0.0
 11
6551.9700827779
 21
4844.2001385853
 31
0.0
  0
LINE
  5
14F
330
1F
100
AcDbEntity
  8
0
  6
Continuous
 62
     7
370
    25
100
AcDbLine
 10
6647.9700827779
 20
4842.2001385853
 30
0.0
 11
6647.9700827779
 21
4844.2001385853
 31
0.0
  0
LINE
  5
150
330
1F
100
AcDbEntity
  8
0
  6
Continuous
 62
     7
370
    25
100
AcDbLine
 10
6647.9700827779
 20
4842.2001385853
 30
0.0
 11
6551.9700827779
 21
4842.2001385853
 31
0.0
  0
LINE
  5
151
330
1F
100
AcDbEntity
  8
0
  6
Continuous
 62
     7
370
    25
100
AcDbLine
 10
6551.9700827779
 20
4810.8001385853
 30
0.0
 11
6551.9700827779
 21
4842.2001385853
 31
0.0
  0
LINE
  5
152
330
1F
100
AcDbEntity
  8
0
  6
Continuous
 62
     7
370
    25
100
AcDbLine
 10
6647.9700827779
 20
4810.8001385853
 30
0.0
 11
6551.9700827779
 21
4810.8001385853
 31
0.0
  0
LINE
  5
153
330
1F
100
AcDbEntity
  8
0
  6
Continuous
 62
     7
370
    25
100
AcDbLine
 10
6647.9700827779
 20
4808.8001385853
 30
0.0
 11
6647.9700827779
 21
4810.8001385853
 31
0.0
  0
LINE
  5
154
330
1F
100
AcDbEntity
  8
0
  6
Continuous
 62
     7
370
    25
100
AcDbLine
 10
6647.9700827779
 20
4808.8001385853
 30
0.0
 11
6551.9700827779
 21
4808.8001385853
 31
0.0
  0
LINE
  5
155
330
1F
100
AcDbEntity
  8
0
  6
Continuous
 62
     7
370
    25
100
AcDbLine
 10
6551.9700827779
 20
4774.5001385853
 30
0.0
 11
6551.9700827779
 21
4808.8001385853
 31
0.0
  0
LINE
  5
156
330
1F
100
AcDbEntity
  8
0
  6
Continuous
 62
     7
370
    25
100
AcDbLine
 10
6547.9700827779
 20
4774.5001385853
 30
0.0
 11
6551.9700827779
 21
4774.5001385853
 31
0.0
  0
LINE
  5
157
330
1F
100
AcDbEntity
  8
0
  6
Continuous
 62
     7
370
    25
100
AcDbLine
 10
6547.9700827779
 20
4774.5001385853
 30
0.0
 11
6547.9700827779
 21
4878.5001385853
 31
0.0
  0
LINE
  5
158
330
1F
100
AcDbEntity
  8
0
  6
Continuous
 62
     7
370
    25
100
AcDbLine
 10
6547.9700827779
 20
4886.5001385853
 30
0.0
 11
6551.9700827779
 21
4886.5001385853
 31
0.0
  0
LINE
  5
159
330
1F
100
AcDbEntity
  8
0
  6
Continuous
 62
     7
370
    25
100
AcDbLine
 10
6547.9700827779
 20
4878.5001385853
 30
0.0
 11
6547.9700827779
 21
4886.5001385853
 31
0.0
  0
LINE
  5
15A
330
1F
100
AcDbEntity
  8
0
  6
Continuous
 62
     7
370
    25
100
AcDbLine
 10
6551.9700827779
 20
4886.5001385853
 30
0.0
 11
6551.9700827779
 21
4878.5001385853
 31
0.0
  0
LINE
  5
15B
330
1F
100
AcDbEntity
  8
0
  6
Continuous
 62
     7
370
    25
100
AcDbLine
 10
6551.9700827779
 20
4766.5001385853
 30
0.0
 11
6547.9700827779
 21
4766.5001385853
 31
0.0
  0
LINE
  5
15C
330
1F
100
AcDbEntity
  8
0
  6
Continuous
 62
     7
370
    25
100
AcDbLine
 10
6547.9700827779
 20
4766.5001385853
 30
0.0
 11
6547.9700827779
 21
4774.5001385853
 31
0.0
  0
LINE
  5
15D
330
1F
100
AcDbEntity
  8
0
  6
Continuous
 62
     7
370
    25
100
AcDbLine
 10
6551.9700827779
 20
4774.5001385853
 30
0.0
 11
6551.9700827779
 21
4766.5001385853
 31
0.0
  0
LINE
  5
15E
330
1F
100
AcDbEntity
  8
0
  6
Continuous
 62
     7
370
    25
100
AcDbLine
 10
6647.9700827779
 20
4839.2001385853
 30
0.0
 11
6551.9700827779
 21
4839.2001385853
 31
0.0
  0
LINE
  5
15F
330
1F
100
AcDbEntity
  8
0
  6
Continuous
 62
     7
370
    25
100
AcDbLine
 10
6647.9700827779
 20
4842.2001385853
 30
0.0
 11
6647.9700827779
 21
4839.2001385853
 31
0.0
  0
ARC
  5
160
330
1F
100
AcDbEntity
  8
0
  6
Continuous
 62
     7
370
    25
100
AcDbCircle
 10
6572.2200827779
 20
4826.5001385853
 30
0.0
 40
5.250000000000243
100
AcDbArc
 50
90.0
 51
154.0175871444
  0
ARC
  5
161
330
1F
100
AcDbEntity
  8
0
  6
Continuous
 62
     7
370
    25
100
AcDbCircle
 10
6584.2200827779
 20
4826.5001385853
 30
0.0
 40
5.25
100
AcDbArc
 50
25.9824128556
 51
90.0
  0
LINE
  5
162
330
1F
100
AcDbEntity
  8
0
  6
Continuous
 62
     7
370
    25
100
AcDbLine
 10
6572.2200827779
 20
4831.7501385853
 30
0.0
 11
6584.2200827779
 21
4831.7501385853
 31
0.0
  0
ARC
  5
163
330
1F
100
AcDbEntity
  8
0
  6
Continuous
 62
     7
370
    25
100
AcDbCircle
 10
6619.2200827779
 20
4826.5001385853
 30
0.0
 40
5.250000000000243
100
AcDbArc
 50
90.0
 51
154.0175871444
  0
ARC
  5
164
330
1F
100
AcDbEntity
  8
0
  6
Continuous
 62
     7
370
    25
100
AcDbCircle
 10
6631.2200827779
 20
4826.5001385853
 30
0.0
 40
5.250000000000243
100
AcDbArc
 50
25.9824128556
 51
90.0
  0
LINE
  5
165
330
1F
100
AcDbEntity
  8
0
  6
Continuous
 62
     7
370
    25
100
AcDbLine
 10
6619.2200827779
 20
4831.7501385853
 30
0.0
 11
6631.2200827779
 21
4831.7501385853
 31
0.0
  0
LINE
  5
166
330
1F
100
AcDbEntity
  8
0
  6
Continuous
 62
     7
370
    25
100
AcDbLine
 10
6647.9700827779
 20
4839.2001385853
 30
0.0
 11
6647.9700827779
 21
4828.8001385853
 31
0.0
  0
LINE
  5
167
330
1F
100
AcDbEntity
  8
0
  6
Continuous
 62
     7
370
    25
100
AcDbLine
 10
7151.9700827779
 20
4643.1001385853
 30
0.0
 11
7155.9700827779
 21
4643.1001385853
 31
0.0
  0
LINE
  5
168
330
1F
100
AcDbEntity
  8
0
  6
Continuous
 62
     7
370
    25
100
AcDbLine
 10
7151.9700827779
 20
4677.4001385853
 30
0.0
 11
7151.9700827779
 21
4643.1001385853
 31
0.0
  0
LINE
  5
169
330
1F
100
AcDbEntity
  8
0
  6
Continuous
 62
     7
370
    25
100
AcDbLine
 10
7055.9700827779
 20
4677.4001385853
 30
0.0
 11
7151.9700827779
 21
4677.4001385853
 31
0.0
  0
LINE
  5
16A
330
1F
100
AcDbEntity
  8
0
  6
Continuous
 62
     7
370
    25
100
AcDbLine
 10
7055.9700827779
 20
4679.4001385853
 30
0.0
 11
7055.9700827779
 21
4677.4001385853
 31
0.0
  0
LINE
  5
16B
330
1F
100
AcDbEntity
  8
0
  6
Continuous
 62
     7
370
    25
100
AcDbLine
 10
7055.9700827779
 20
4679.4001385853
 30
0.0
 11
7151.9700827779
 21
4679.4001385853
 31
0.0
  0
LINE
  5
16C
330
1F
100
AcDbEntity
  8
0
  6
Continuous
 62
     7
370
    25
100
AcDbLine
 10
7151.9700827779
 20
4710.8001385853
 30
0.0
 11
7151.9700827779
 21
4679.4001385853
 31
0.0
  0
LINE
  5
16D
330
1F
100
AcDbEntity
  8
0
  6
Continuous
 62
     7
370
    25
100
AcDbLine
 10
7055.9700827779
 20
4710.8001385853
 30
0.0
 11
7151.9700827779
 21
4710.8001385853
 31
0.0
  0
LINE
  5
16E
330
1F
100
AcDbEntity
  8
0
  6
Continuous
 62
     7
370
    25
100
AcDbLine
 10
7055.9700827779
 20
4712.8001385853
 30
0.0
 11
7055.9700827779
 21
4710.8001385853
 31
0.0
  0
LINE
  5
16F
330
1F
100
AcDbEntity
  8
0
  6
Continuous
 62
     7
370
    25
100
AcDbLine
 10
7055.9700827779
 20
4712.8001385853
 30
0.0
 11
7151.9700827779
 21
4712.8001385853
 31
0.0
  0
LINE
  5
170
330
1F
100
AcDbEntity
  8
0
  6
Continuous
 62
     7
370
    25
100
AcDbLine
 10
7151.9700827779
 20
4747.1001385853
 30
0.0
 11
7151.9700827779
 21
4712.8001385853
 31
0.0
  0
LINE
  5
171
330
1F
100
AcDbEntity
  8
0
  6
Continuous
 62
     7
370
    25
100
AcDbLine
 10
7155.9700827779
 20
4747.1001385853
 30
0.0
 11
7151.9700827779
 21
4747.1001385853
 31
0.0
  0
LINE
  5
172
330
1F
100
AcDbEntity
  8
0
  6
Continuous
 62
     7
370
    25
100
AcDbLine
 10
7155.9700827779
 20
4747.1001385853
 30
0.0
 11
7155.9700827779
 21
4643.1001385853
 31
0.0
  0
LINE
  5
173
330
1F
100
AcDbEntity
  8
0
  6
Continuous
 62
     7
370
    25
100
AcDbLine
 10
7151.9700827779
 20
4755.1001385853
 30
0.0
 11
7155.9700827779
 21
4755.1001385853
 31
0.0
  0
LINE
  5
174
330
1F
100
AcDbEntity
  8
0
  6
Continuous
 62
     7
370
    25
100
AcDbLine
 10
7151.9700827779
 20
4747.1001385853
 30
0.0
 11
7151.9700827779
 21
4755.1001385853
 31
0.0
  0
LINE
  5
175
330
1F
100
AcDbEntity
  8
0
  6
Continuous
 62
     7
370
    25
100
AcDbLine
 10
7155.9700827779
 20
4755.1001385853
 30
0.0
 11
7155.9700827779
 21
4747.1001385853
 31
0.0
  0
LINE
  5
176
330
1F
100
AcDbEntity
  8
0
  6
Continuous
 62
     7
370
    25
100
AcDbLine
 10
7155.9700827779
 20
4635.1001385853
 30
0.0
 11
7151.9700827779
 21
4635.1001385853
 31
0.0
  0
LINE
  5
177
330
1F
100
AcDbEntity
  8
0
  6
Continuous
 62
     7
370
    25
100
AcDbLine
 10
7151.9700827779
 20
4635.1001385853
 30
0.0
 11
7151.9700827779
 21
4643.1001385853
 31
0.0
  0
LINE
  5
178
330
1F
100
AcDbEntity
  8
0
  6
Continuous
 62
     7
370
    25
100
AcDbLine
 10
7155.9700827779
 20
4643.1001385853
 30
0.0
 11
7155.9700827779
 21
4635.1001385853
 31
0.0
  0
LINE
  5
179
330
1F
100
AcDbEntity
  8
0
  6
Continuous
 62
     7
370
    25
100
AcDbLine
 10
7055.9700827779
 20
4682.4001385853
 30
0.0
 11
7151.9700827779
 21
4682.4001385853
 31
0.0
  0
LINE
  5
17A
330
1F
100
AcDbEntity
  8
0
  6
Continuous
 62
     7
370
    25
100
AcDbLine
 10
7055.9700827779
 20
4679.4001385853
 30
0.0
 11
7055.9700827779
 21
4682.4001385853
 31
0.0
  0
ARC
  5
17B
330
1F
100
AcDbEntity
  8
0
  6
Continuous
 62
     7
370
    25
100
AcDbCircle
 10
7131.7200827779
 20
4695.1001385853
 30
0.0
 40
5.25
100
AcDbArc
 50
270.0
 51
334.0175871444
  0
ARC
  5
17C
330
1F
100
AcDbEntity
  8
0
  6
Continuous
 62
     7
370
    25
100
AcDbCircle
 10
7119.7200827779
 20
4695.1001385853
 30
0.0
 40
5.25
100
AcDbArc
 50
205.9824128556
 51
270.0
  0
LINE
  5
17D
330
1F
100
AcDbEntity
  8
0
  6
Continuous
 62
     7
370
    25
100
AcDbLine
 10
7131.7200827779
 20
4689.8501385853
 30
0.0
 11
7119.7200827779
 21
4689.8501385853
 31
0.0
  0
ARC
  5
17E
330
1F
100
AcDbEntity
  8
0
  6
Continuous
 62
     7
370
    25
100
AcDbCircle
 10
7084.7200827779
 20
4695.1001385853
 30
0.0
 40
5.25
100
AcDbArc
 50
270.0
 51
334.0175871444
  0
ARC
  5
17F
330
1F
100
AcDbEntity
  8
0
  6
Continuous
 62
     7
370
    25
100
AcDbCircle
 10
7072.7200827779
 20
4695.1001385853
 30
0.0
 40
5.250000000000663
100
AcDbArc
 50
205.9824128556
 51
270.0
  0
LINE
  5
180
330
1F
100
AcDbEntity
  8
0
  6
Continuous
 62
     7
370
    25
100
AcDbLine
 10
7084.7200827779
 20
4689.8501385853
 30
0.0
 11
7072.7200827779
 21
4689.8501385853
 31
0.0
  0
LINE
  5
181
330
1F
100
AcDbEntity
  8
0
  6
Continuous
 62
     7
370
    25
100
AcDbLine
 10
7055.9700827779
 20
4682.4001385853
 30
0.0
 11
7055.9700827779
 21
4692.8001385853
 31
0.0
  0
LINE
  5
182
330
1F
100
AcDbEntity
  8
0
  6
Continuous
 62
     7
370
    25
100
AcDbLine
 10
7151.9700827779
 20
4452.5762588991
 30
0.0
 11
7155.9700827779
 21
4452.5762588991
 31
0.0
  0
LINE
  5
183
330
1F
100
AcDbEntity
  8
0
  6
Continuous
 62
     7
370
    25
100
AcDbLine
 10
7151.9700827779
 20
4486.8762588991
 30
0.0
 11
7151.9700827779
 21
4452.5762588991
 31
0.0
  0
LINE
  5
184
330
1F
100
AcDbEntity
  8
0
  6
Continuous
 62
     7
370
    25
100
AcDbLine
 10
7055.9700827779
 20
4486.8762588991
 30
0.0
 11
7151.9700827779
 21
4486.8762588991
 31
0.0
  0
LINE
  5
185
330
1F
100
AcDbEntity
  8
0
  6
Continuous
 62
     7
370
    25
100
AcDbLine
 10
7055.9700827779
 20
4488.8762588991
 30
0.0
 11
7055.9700827779
 21
4486.8762588991
 31
0.0
  0
LINE
  5
186
330
1F
100
AcDbEntity
  8
0
  6
Continuous
 62
     7
370
    25
100
AcDbLine
 10
7055.9700827779
 20
4488.8762588991
 30
0.0
 11
7151.9700827779
 21
4488.8762588991
 31
0.0
  0
LINE
  5
187
330
1F
100
AcDbEntity
  8
0
  6
Continuous
 62
     7
370
    25
100
AcDbLine
 10
7151.9700827779
 20
4520.2762588991
 30
0.0
 11
7151.9700827779
 21
4488.8762588991
 31
0.0
  0
LINE
  5
188
330
1F
100
AcDbEntity
  8
0
  6
Continuous
 62
     7
370
    25
100
AcDbLine
 10
7055.9700827779
 20
4520.2762588991
 30
0.0
 11
7151.9700827779
 21
4520.2762588991
 31
0.0
  0
LINE
  5
189
330
1F
100
AcDbEntity
  8
0
  6
Continuous
 62
     7
370
    25
100
AcDbLine
 10
7055.9700827779
 20
4522.2762588991
 30
0.0
 11
7055.9700827779
 21
4520.2762588991
 31
0.0
  0
LINE
  5
18A
330
1F
100
AcDbEntity
  8
0
  6
Continuous
 62
     7
370
    25
100
AcDbLine
 10
7055.9700827779
 20
4522.2762588991
 30
0.0
 11
7151.9700827779
 21
4522.2762588991
 31
0.0
  0
LINE
  5
18B
330
1F
100
AcDbEntity
  8
0
  6
Continuous
 62
     7
370
    25
100
AcDbLine
 10
7151.9700827779
 20
4556.5762588991
 30
0.0
 11
7151.9700827779
 21
4522.2762588991
 31
0.0
  0
LINE
  5
18C
330
1F
100
AcDbEntity
  8
0
  6
Continuous
 62
     7
370
    25
100
AcDbLine
 10
7155.9700827779
 20
4556.5762588991
 30
0.0
 11
7151.9700827779
 21
4556.5762588991
 31
0.0
  0
LINE
  5
18D
330
1F
100
AcDbEntity
  8
0
  6
Continuous
 62
     7
370
    25
100
AcDbLine
 10
7155.9700827779
 20
4556.5762588991
 30
0.0
 11
7155.9700827779
 21
4452.5762588991
 31
0.0
  0
LINE
  5
18E
330
1F
100
AcDbEntity
  8
0
  6
Continuous
 62
     7
370
    25
100
AcDbLine
 10
7151.9700827779
 20
4564.5762588991
 30
0.0
 11
7155.9700827779
 21
4564.5762588991
 31
0.0
  0
LINE
  5
18F
330
1F
100
AcDbEntity
  8
0
  6
Continuous
 62
     7
370
    25
100
AcDbLine
 10
7151.9700827779
 20
4556.5762588991
 30
0.0
 11
7151.9700827779
 21
4564.5762588991
 31
0.0
  0
LINE
  5
190
330
1F
100
AcDbEntity
  8
0
  6
Continuous
 62
     7
370
    25
100
AcDbLine
 10
7155.9700827779
 20
4564.5762588991
 30
0.0
 11
7155.9700827779
 21
4556.5762588991
 31
0.0
  0
LINE
  5
191
330
1F
100
AcDbEntity
  8
0
  6
Continuous
 62
     7
370
    25
100
AcDbLine
 10
7155.9700827779
 20
4444.5762588991
 30
0.0
 11
7151.9700827779
 21
4444.5762588991
 31
0.0
  0
LINE
  5
192
330
1F
100
AcDbEntity
  8
0
  6
Continuous
 62
     7
370
    25
100
AcDbLine
 10
7151.9700827779
 20
4444.5762588991
 30
0.0
 11
7151.9700827779
 21
4452.5762588991
 31
0.0
  0
LINE
  5
193
330
1F
100
AcDbEntity
  8
0
  6
Continuous
 62
     7
370
    25
100
AcDbLine
 10
7155.9700827779
 20
4452.5762588991
 30
0.0
 11
7155.9700827779
 21
4444.5762588991
 31
0.0
  0
LINE
  5
194
330
1F
100
AcDbEntity
  8
0
  6
Continuous
 62
     7
370
    25
100
AcDbLine
 10
7055.9700827779
 20
4518.0762588991
 30
0.0
 11
7055.9700827779
 21
4520.2762588991
 31
0.0
  0
LINE
  5
195
330
1F
100
AcDbEntity
  8
0
  6
Continuous
 62
     7
370
    25
100
AcDbLine
 10
7055.9700827779
 20
4488.8762588991
 30
0.0
 11
7055.9700827779
 21
4491.0762588991
 31
0.0
  0
LINE
  5
196
330
1F
100
AcDbEntity
  8
0
  6
Continuous
 62
     7
370
    25
100
AcDbLine
 10
7151.9700827779
 20
4774.5001385853
 30
0.0
 11
7155.9700827779
 21
4774.5001385853
 31
0.0
  0
LINE
  5
197
330
1F
100
AcDbEntity
  8
0
  6
Continuous
 62
     7
370
    25
100
AcDbLine
 10
7151.9700827779
 20
4808.8001385853
 30
0.0
 11
7151.9700827779
 21
4774.5001385853
 31
0.0
  0
LINE
  5
198
330
1F
100
AcDbEntity
  8
0
  6
Continuous
 62
     7
370
    25
100
AcDbLine
 10
7055.9700827779
 20
4808.8001385853
 30
0.0
 11
7151.9700827779
 21
4808.8001385853
 31
0.0
  0
LINE
  5
199
330
1F
100
AcDbEntity
  8
0
  6
Continuous
 62
     7
370
    25
100
AcDbLine
 10
7055.9700827779
 20
4810.8001385853
 30
0.0
 11
7055.9700827779
 21
4808.8001385853
 31
0.0
  0
LINE
  5
19A
330
1F
100
AcDbEntity
  8
0
  6
Continuous
 62
     7
370
    25
100
AcDbLine
 10
7055.9700827779
 20
4810.8001385853
 30
0.0
 11
7151.9700827779
 21
4810.8001385853
 31
0.0
  0
LINE
  5
19B
330
1F
100
AcDbEntity
  8
0
  6
Continuous
 62
     7
370
    25
100
AcDbLine
 10
7151.9700827779
 20
4842.2001385853
 30
0.0
 11
7151.9700827779
 21
4810.8001385853
 31
0.0
  0
LINE
  5
19C
330
1F
100
AcDbEntity
  8
0
  6
Continuous
 62
     7
370
    25
100
AcDbLine
 10
7055.9700827779
 20
4842.2001385853
 30
0.0
 11
7151.9700827779
 21
4842.2001385853
 31
0.0
  0
LINE
  5
19D
330
1F
100
AcDbEntity
  8
0
  6
Continuous
 62
     7
370
    25
100
AcDbLine
 10
7055.9700827779
 20
4844.2001385853
 30
0.0
 11
7055.9700827779
 21
4842.2001385853
 31
0.0
  0
LINE
  5
19E
330
1F
100
AcDbEntity
  8
0
  6
Continuous
 62
     7
370
    25
100
AcDbLine
 10
7055.9700827779
 20
4844.2001385853
 30
0.0
 11
7151.9700827779
 21
4844.2001385853
 31
0.0
  0
LINE
  5
19F
330
1F
100
AcDbEntity
  8
0
  6
Continuous
 62
     7
370
    25
100
AcDbLine
 10
7151.9700827779
 20
4878.5001385853
 30
0.0
 11
7151.9700827779
 21
4844.2001385853
 31
0.0
  0
LINE
  5
1A0
330
1F
100
AcDbEntity
  8
0
  6
Continuous
 62
     7
370
    25
100
AcDbLine
 10
7155.9700827779
 20
4878.5001385853
 30
0.0
 11
7151.9700827779
 21
4878.5001385853
 31
0.0
  0
LINE
  5
1A1
330
1F
100
AcDbEntity
  8
0
  6
Continuous
 62
     7
370
    25
100
AcDbLine
 10
7155.9700827779
 20
4878.5001385853
 30
0.0
 11
7155.9700827779
 21
4774.5001385853
 31
0.0
  0
LINE
  5
1A2
330
1F
100
AcDbEntity
  8
0
  6
Continuous
 62
     7
370
    25
100
AcDbLine
 10
7151.9700827779
 20
4886.5001385853
 30
0.0
 11
7155.9700827779
 21
4886.5001385853
 31
0.0
  0
LINE
  5
1A3
330
1F
100
AcDbEntity
  8
0
  6
Continuous
 62
     7
370
    25
100
AcDbLine
 10
7151.9700827779
 20
4878.5001385853
 30
0.0
 11
7151.9700827779
 21
4886.5001385853
 31
0.0
  0
LINE
  5
1A4
330
1F
100
AcDbEntity
  8
0
  6
Continuous
 62
     7
370
    25
100
AcDbLine
 10
7155.9700827779
 20
4886.5001385853
 30
0.0
 11
7155.9700827779
 21
4878.5001385853
 31
0.0
  0
LINE
  5
1A5
330
1F
100
AcDbEntity
  8
0
  6
Continuous
 62
     7
370
    25
100
AcDbLine
 10
7155.9700827779
 20
4766.5001385853
 30
0.0
 11
7151.9700827779
 21
4766.5001385853
 31
0.0
  0
LINE
  5
1A6
330
1F
100
AcDbEntity
  8
0
  6
Continuous
 62
     7
370
    25
100
AcDbLine
 10
7151.9700827779
 20
4766.5001385853
 30
0.0
 11
7151.9700827779
 21
4774.5001385853
 31
0.0
  0
LINE
  5
1A7
330
1F
100
AcDbEntity
  8
0
  6
Continuous
 62
     7
370
    25
100
AcDbLine
 10
7155.9700827779
 20
4774.5001385853
 30
0.0
 11
7155.9700827779
 21
4766.5001385853
 31
0.0
  0
LINE
  5
1A8
330
1F
100
AcDbEntity
  8
0
  6
Continuous
 62
     7
370
    25
100
AcDbLine
 10
7055.9700827779
 20
4839.2001385853
 30
0.0
 11
7151.9700827779
 21
4839.2001385853
 31
0.0
  0
LINE
  5
1A9
330
1F
100
AcDbEntity
  8
0
  6
Continuous
 62
     7
370
    25
100
AcDbLine
 10
7055.9700827779
 20
4839.2001385853
 30
0.0
 11
7055.9700827779
 21
4842.2001385853
 31
0.0
  0
ARC
  5
1AA
330
1F
100
AcDbEntity
  8
0
  6
Continuous
 62
     7
370
    25
100
AcDbCircle
 10
7131.7200827779
 20
4826.5001385853
 30
0.0
 40
5.250000000000243
100
AcDbArc
 50
25.9824128556
 51
90.0
  0
LINE
  5
1AB
330
1F
100
AcDbEntity
  8
0
  6
Continuous
 62
     7
370
    25
100
AcDbLine
 10
7119.7200827779
 20
4831.7501385853
 30
0.0
 11
7131.7200827779
 21
4831.7501385853
 31
0.0
  0
ARC
  5
1AC
330
1F
100
AcDbEntity
  8
0
  6
Continuous
 62
     7
370
    25
100
AcDbCircle
 10
7119.7200827779
 20
4826.5001385853
 30
0.0
 40
5.25
100
AcDbArc
 50
90.0
 51
154.0175871444
  0
ARC
  5
1AD
330
1F
100
AcDbEntity
  8
0
  6
Continuous
 62
     7
370
    25
100
AcDbCircle
 10
7084.7200827779
 20
4826.5001385853
 30
0.0
 40
5.25
100
AcDbArc
 50
25.9824128556
 51
90.0
  0
LINE
  5
1AE
330
1F
100
AcDbEntity
  8
0
  6
Continuous
 62
     7
370
    25
100
AcDbLine
 10
7072.7200827779
 20
4831.7501385853
 30
0.0
 11
7084.7200827779
 21
4831.7501385853
 31
0.0
  0
ARC
  5
1AF
330
1F
100
AcDbEntity
  8
0
  6
Continuous
 62
     7
370
    25
100
AcDbCircle
 10
7072.7200827779
 20
4826.5001385853
 30
0.0
 40
5.250000000000243
100
AcDbArc
 50
90.0
 51
154.0175871444
  0
LINE
  5
1B0
330
1F
100
AcDbEntity
  8
0
  6
Continuous
 62
     7
370
    25
100
AcDbLine
 10
7055.9700827779
 20
4828.8001385853
 30
0.0
 11
7055.9700827779
 21
4839.2001385853
 31
0.0
  0
LINE
  5
1B1
330
1F
100
AcDbEntity
  8
0
  6
Continuous
 62
     7
370
    25
100
AcDbLine
 10
6551.9700827779
 20
4826.5501385853
 30
0.0
 11
7151.9700827779
 21
4826.5501385853
 31
0.0
  0
LINE
  5
1B2
330
1F
100
AcDbEntity
  8
0
  6
Continuous
 62
     7
370
    25
100
AcDbLine
 10
6551.9700827779
 20
4828.8001385853
 30
0.0
 11
7151.9700827779
 21
4828.8001385853
 31
0.0
  0
LINE
  5
1B3
330
1F
100
AcDbEntity
  8
0
  6
Continuous
 62
     7
370
    25
100
AcDbLine
 10
6551.9700827779
 20
4813.0501385853
 30
0.0
 11
7151.9700827779
 21
4813.0501385853
 31
0.0
  0
LINE
  5
1B4
330
1F
100
AcDbEntity
  8
0
  6
Continuous
 62
     7
370
    25
100
AcDbLine
 10
6647.9700827779
 20
4810.8001385853
 30
0.0
 11
6650.8988133168
 21
4810.8001385853
 31
0.0
  0
LINE
  5
1B5
330
1F
100
AcDbEntity
  8
0
  6
Continuous
 62
     7
370
    25
100
AcDbLine
 10
6720.8988133167
 20
4810.8001385853
 30
0.0
 11
6725.8876633514
 21
4810.8001385853
 31
0.0
  0
LINE
  5
1B6
330
1F
100
AcDbEntity
  8
0
  6
Continuous
 62
     7
370
    25
100
AcDbLine
 10
6810.8876633514
 20
4810.8001385853
 30
0.0
 11
6815.8887085209
 21
4810.8001385853
 31
0.0
  0
LINE
  5
1B7
330
1F
100
AcDbEntity
  8
0
  6
Continuous
 62
     7
370
    25
100
AcDbLine
 10
6900.8887085209
 20
4810.8001385853
 30
0.0
 11
6906.6174119164
 21
4810.8001385853
 31
0.0
  0
LINE
  5
1B8
330
1F
100
AcDbEntity
  8
0
  6
Continuous
 62
     7
370
    25
100
AcDbLine
 10
7051.6174119164
 20
4810.8001385853
 30
0.0
 11
7055.9700827779
 21
4810.8001385853
 31
0.0
  0
LINE
  5
1B9
330
1F
100
AcDbEntity
  8
0
  6
Continuous
 62
     7
370
    25
100
AcDbLine
 10
6551.9700827779
 20
4708.5501385853
 30
0.0
 11
7151.9700827779
 21
4708.5501385853
 31
0.0
  0
LINE
  5
1BA
330
1F
100
AcDbEntity
  8
0
  6
Continuous
 62
     7
370
    25
100
AcDbLine
 10
6647.9700827779
 20
4710.8001385853
 30
0.0
 11
6650.8988133168
 21
4710.8001385853
 31
0.0
  0
LINE
  5
1BB
330
1F
100
AcDbEntity
  8
0
  6
Continuous
 62
     7
370
    25
100
AcDbLine
 10
6720.8988133168
 20
4710.8001385853
 30
0.0
 11
6725.8876633514
 21
4710.8001385853
 31
0.0
  0
LINE
  5
1BC
330
1F
100
AcDbEntity
  8
0
  6
Continuous
 62
     7
370
    25
100
AcDbLine
 10
6810.8876633514
 20
4710.8001385853
 30
0.0
 11
6815.8887085209
 21
4710.8001385853
 31
0.0
  0
LINE
  5
1BD
330
1F
100
AcDbEntity
  8
0
  6
Continuous
 62
     7
370
    25
100
AcDbLine
 10
6900.8887085209
 20
4710.8001385853
 30
0.0
 11
6906.6174119164
 21
4710.8001385853
 31
0.0
  0
LINE
  5
1BE
330
1F
100
AcDbEntity
  8
0
  6
Continuous
 62
     7
370
    25
100
AcDbLine
 10
7051.6174119164
 20
4710.8001385853
 30
0.0
 11
7055.9700827779
 21
4710.8001385853
 31
0.0
  0
LINE
  5
1BF
330
1F
100
AcDbEntity
  8
0
  6
Continuous
 62
     7
370
    25
100
AcDbLine
 10
6551.9700827779
 20
4695.0501385853
 30
0.0
 11
7151.9700827779
 21
4695.0501385853
 31
0.0
  0
LINE
  5
1C0
330
1F
100
AcDbEntity
  8
0
  6
Continuous
 62
     7
370
    25
100
AcDbLine
 10
6551.9700827779
 20
4692.8001385853
 30
0.0
 11
7151.9700827779
 21
4692.8001385853
 31
0.0
  0
CIRCLE
  5
1C1
330
1F
100
AcDbEntity
  8
0
  6
Continuous
 62
     7
370
    25
100
AcDbCircle
 10
7137.6200827779
 20
4504.5762588991
 30
0.0
 40
6.249999999999091
  0
CIRCLE
  5
1C2
330
1F
100
AcDbEntity
  8
0
  6
Continuous
 62
     7
370
    25
100
AcDbCircle
 10
6987.6200827779
 20
4504.5762588991
 30
0.0
 40
6.249999999999091
  0
CIRCLE
  5
1C3
330
1F
100
AcDbEntity
  8
0
  6
Continuous
 62
     7
370
    25
100
AcDbCircle
 10
7087.6200827779
 20
4504.5762588991
 30
0.0
 40
6.249999999999091
  0
CIRCLE
  5
1C4
330
1F
100
AcDbEntity
  8
0
  6
Continuous
 62
     7
370
    25
100
AcDbCircle
 10
6937.6200827779
 20
4504.5762588991
 30
0.0
 40
6.249999999999091
  0
LINE
  5
1C5
330
1F
100
AcDbEntity
  8
0
  6
Continuous
 62
     7
370
    25
100
AcDbLine
 10
7059.3700827779
 20
4506.3262588991
 30
0.0
 11
7059.3700827779
 21
4502.8262588991
 31
0.0
  0
ARC
  5
1C6
330
1F
100
AcDbEntity
  8
0
  6
Continuous
 62
     7
370
    25
100
AcDbCircle
 10
7062.6200827779
 20
4502.8262588991
 30
0.0
 40
3.25
100
AcDbArc
 50
180.0
 51
0.0
  0
LINE
  5
1C7
330
1F
100
AcDbEntity
  8
0
  6
Continuous
 62
     7
370
    25
100
AcDbLine
 10
7065.8700827779
 20
4502.8262588991
 30
0.0
 11
7065.8700827779
 21
4506.3262588991
 31
0.0
  0
ARC
  5
1C8
330
1F
100
AcDbEntity
  8
0
  6
Continuous
 62
     7
370
    25
100
AcDbCircle
 10
7062.6200827779
 20
4506.3262588991
 30
0.0
 40
3.25
100
AcDbArc
 50
0.0
 51
180.0
  0
LINE
  5
1C9
330
1F
100
AcDbEntity
  8
0
  6
Continuous
 62
     7
370
    25
100
AcDbLine
 10
6909.3700827779
 20
4506.3262588991
 30
0.0
 11
6909.3700827779
 21
4502.8262588991
 31
0.0
  0
ARC
  5
1CA
330
1F
100
AcDbEntity
  8
0
  6
Continuous
 62
     7
370
    25
100
AcDbCircle
 10
6912.6200827779
 20
4502.8262588991
 30
0.0
 40
3.25
100
AcDbArc
 50
180.0
 51
0.0
  0
LINE
  5
1CB
330
1F
100
AcDbEntity
  8
0
  6
Continuous
 62
     7
370
    25
100
AcDbLine
 10
6915.8700827779
 20
4502.8262588991
 30
0.0
 11
6915.8700827779
 21
4506.3262588991
 31
0.0
  0
ARC
  5
1CC
330
1F
100
AcDbEntity
  8
0
  6
Continuous
 62
     7
370
    25
100
AcDbCircle
 10
6912.6200827779
 20
4506.3262588991
 30
0.0
 40
3.25
100
AcDbArc
 50
0.0
 51
180.0
  0
LINE
  5
1CD
330
1F
100
AcDbEntity
  8
0
  6
Continuous
 62
     7
370
    25
100
AcDbLine
 10
7107.0200827779
 20
4500.4262588991
 30
0.0
 11
7118.2200827779
 21
4500.4262588991
 31
0.0
  0
ARC
  5
1CE
330
1F
100
AcDbEntity
  8
0
  6
Continuous
 62
     7
370
    25
100
AcDbCircle
 10
7118.2200827779
 20
4504.5762588991
 30
0.0
 40
4.150000000000546
100
AcDbArc
 50
270.0
 51
90.0
  0
LINE
  5
1CF
330
1F
100
AcDbEntity
  8
0
  6
Continuous
 62
     7
370
    25
100
AcDbLine
 10
7118.2200827779
 20
4508.7262588991
 30
0.0
 11
7107.0200827779
 21
4508.7262588991
 31
0.0
  0
ARC
  5
1D0
330
1F
100
AcDbEntity
  8
0
  6
Continuous
 62
     7
370
    25
100
AcDbCircle
 10
7107.0200827779
 20
4504.5762588991
 30
0.0
 40
4.150000000000546
100
AcDbArc
 50
90.0
 51
270.0
  0
LINE
  5
1D1
330
1F
100
AcDbEntity
  8
0
  6
Continuous
 62
     7
370
    25
100
AcDbLine
 10
6957.0200827779
 20
4500.4262588991
 30
0.0
 11
6968.2200827779
 21
4500.4262588991
 31
0.0
  0
ARC
  5
1D2
330
1F
100
AcDbEntity
  8
0
  6
Continuous
 62
     7
370
    25
100
AcDbCircle
 10
6968.2200827779
 20
4504.5762588991
 30
0.0
 40
4.150000000000546
100
AcDbArc
 50
270.0
 51
90.0
  0
LINE
  5
1D3
330
1F
100
AcDbEntity
  8
0
  6
Continuous
 62
     7
370
    25
100
AcDbLine
 10
6968.2200827779
 20
4508.7262588991
 30
0.0
 11
6957.0200827779
 21
4508.7262588991
 31
0.0
  0
ARC
  5
1D4
330
1F
100
AcDbEntity
  8
0
  6
Continuous
 62
     7
370
    25
100
AcDbCircle
 10
6957.0200827779
 20
4504.5762588991
 30
0.0
 40
4.149999999999636
100
AcDbArc
 50
90.0
 51
270.0
  0
CIRCLE
  5
1D5
330
1F
100
AcDbEntity
  8
0
  6
Continuous
 62
     7
370
    25
100
AcDbCircle
 10
7037.6200827779
 20
4504.5762588991
 30
0.0
 40
6.249999999999091
  0
CIRCLE
  5
1D6
330
1F
100
AcDbEntity
  8
0
  6
Continuous
 62
     7
370
    25
100
AcDbCircle
 10
6887.6200827779
 20
4504.5762588991
 30
0.0
 40
6.249999999999091
  0
LINE
  5
1D7
330
1F
100
AcDbEntity
  8
0
  6
Continuous
 62
     7
370
    25
100
AcDbLine
 10
7008.4700827779
 20
4506.2262588991
 30
0.0
 11
7008.4700827779
 21
4502.9262588991
 31
0.0
  0
ARC
  5
1D8
330
1F
100
AcDbEntity
  8
0
  6
Continuous
 62
     7
370
    25
100
AcDbCircle
 10
7012.6200827779
 20
4502.9262588991
 30
0.0
 40
4.150000000000546
100
AcDbArc
 50
180.0
 51
0.0
  0
LINE
  5
1D9
330
1F
100
AcDbEntity
  8
0
  6
Continuous
 62
     7
370
    25
100
AcDbLine
 10
7016.7700827779
 20
4502.9262588991
 30
0.0
 11
7016.7700827779
 21
4506.2262588991
 31
0.0
  0
ARC
  5
1DA
330
1F
100
AcDbEntity
  8
0
  6
Continuous
 62
     7
370
    25
100
AcDbCircle
 10
7012.6200827779
 20
4506.2262588991
 30
0.0
 40
4.150000000000546
100
AcDbArc
 50
0.0
 51
180.0
  0
LINE
  5
1DB
330
1F
100
AcDbEntity
  8
0
  6
Continuous
 62
     7
370
    25
100
AcDbLine
 10
6858.4700827779
 20
4506.2262588991
 30
0.0
 11
6858.4700827779
 21
4502.9262588991
 31
0.0
  0
ARC
  5
1DC
330
1F
100
AcDbEntity
  8
0
  6
Continuous
 62
     7
370
    25
100
AcDbCircle
 10
6862.6200827779
 20
4502.9262588991
 30
0.0
 40
4.150000000000546
100
AcDbArc
 50
180.0
 51
0.0
  0
LINE
  5
1DD
330
1F
100
AcDbEntity
  8
0
  6
Continuous
 62
     7
370
    25
100
AcDbLine
 10
6866.7700827779
 20
4502.9262588991
 30
0.0
 11
6866.7700827779
 21
4506.2262588991
 31
0.0
  0
ARC
  5
1DE
330
1F
100
AcDbEntity
  8
0
  6
Continuous
 62
     7
370
    25
100
AcDbCircle
 10
6862.6200827779
 20
4506.2262588991
 30
0.0
 40
4.150000000000546
100
AcDbArc
 50
0.0
 51
180.0
  0
LINE
  5
1DF
330
1F
100
AcDbEntity
  8
0
  6
Continuous
 62
     7
370
    25
100
AcDbLine
 10
6551.9700827779
 20
4493.3262588991
 30
0.0
 11
7151.9700827779
 21
4493.3262588991
 31
0.0
  0
LINE
  5
1E0
330
1F
100
AcDbEntity
  8
0
  6
Continuous
 62
     7
370
    25
100
AcDbLine
 10
6551.9700827779
 20
4515.8262588991
 30
0.0
 11
7151.9700827779
 21
4515.8262588991
 31
0.0
  0
CIRCLE
  5
1E1
330
1F
100
AcDbEntity
  8
0
  6
Continuous
 62
     7
370
    25
100
AcDbCircle
 10
6587.6200827779
 20
4504.5762588991
 30
0.0
 40
6.25
  0
ARC
  5
1E2
330
1F
100
AcDbEntity
  8
0
  6
Continuous
 62
     7
370
    25
100
AcDbCircle
 10
6668.2200827779
 20
4504.5762588991
 30
0.0
 40
4.149999999999636
100
AcDbArc
 50
270.0
 51
90.0
  0
LINE
  5
1E3
330
1F
100
AcDbEntity
  8
0
  6
Continuous
 62
     7
370
    25
100
AcDbLine
 10
6668.2200827779
 20
4508.7262588991
 30
0.0
 11
6657.0200827779
 21
4508.7262588991
 31
0.0
  0
ARC
  5
1E4
330
1F
100
AcDbEntity
  8
0
  6
Continuous
 62
     7
370
    25
100
AcDbCircle
 10
6657.0200827779
 20
4504.5762588991
 30
0.0
 40
4.149999999999636
100
AcDbArc
 50
90.0
 51
270.0
  0
LINE
  5
1E5
330
1F
100
AcDbEntity
  8
0
  6
Continuous
 62
     7
370
    25
100
AcDbLine
 10
6657.0200827779
 20
4500.4262588991
 30
0.0
 11
6668.2200827779
 21
4500.4262588991
 31
0.0
  0
ARC
  5
1E6
330
1F
100
AcDbEntity
  8
0
  6
Continuous
 62
     7
370
    25
100
AcDbCircle
 10
6612.6200827779
 20
4502.8262588991
 30
0.0
 40
3.25
100
AcDbArc
 50
180.0
 51
0.0
  0
LINE
  5
1E7
330
1F
100
AcDbEntity
  8
0
  6
Continuous
 62
     7
370
    25
100
AcDbLine
 10
6615.8700827779
 20
4502.8262588991
 30
0.0
 11
6615.8700827779
 21
4506.3262588991
 31
0.0
  0
ARC
  5
1E8
330
1F
100
AcDbEntity
  8
0
  6
Continuous
 62
     7
370
    25
100
AcDbCircle
 10
6612.6200827779
 20
4506.3262588991
 30
0.0
 40
3.25
100
AcDbArc
 50
0.0
 51
180.0
  0
LINE
  5
1E9
330
1F
100
AcDbEntity
  8
0
  6
Continuous
 62
     7
370
    25
100
AcDbLine
 10
6609.3700827779
 20
4506.3262588991
 30
0.0
 11
6609.3700827779
 21
4502.8262588991
 31
0.0
  0
CIRCLE
  5
1EA
330
1F
100
AcDbEntity
  8
0
  6
Continuous
 62
     7
370
    25
100
AcDbCircle
 10
6637.6200827779
 20
4504.5762588991
 30
0.0
 40
6.25
  0
CIRCLE
  5
1EB
330
1F
100
AcDbEntity
  8
0
  6
Continuous
 62
     7
370
    25
100
AcDbCircle
 10
6687.6200827779
 20
4504.5762588991
 30
0.0
 40
6.25
  0
ARC
  5
1EC
330
1F
100
AcDbEntity
  8
0
  6
Continuous
 62
     7
370
    25
100
AcDbCircle
 10
6562.6200827779
 20
4502.9262588991
 30
0.0
 40
4.150000000000546
100
AcDbArc
 50
180.0
 51
0.0
  0
LINE
  5
1ED
330
1F
100
AcDbEntity
  8
0
  6
Continuous
 62
     7
370
    25
100
AcDbLine
 10
6566.7700827779
 20
4502.9262588991
 30
0.0
 11
6566.7700827779
 21
4506.2262588991
 31
0.0
  0
ARC
  5
1EE
330
1F
100
AcDbEntity
  8
0
  6
Continuous
 62
     7
370
    25
100
AcDbCircle
 10
6562.6200827779
 20
4506.2262588991
 30
0.0
 40
4.150000000000546
100
AcDbArc
 50
0.0
 51
180.0
  0
LINE
  5
1EF
330
1F
100
AcDbEntity
  8
0
  6
Continuous
 62
     7
370
    25
100
AcDbLine
 10
6558.4700827779
 20
4506.2262588991
 30
0.0
 11
6558.4700827779
 21
4502.9262588991
 31
0.0
  0
ARC
  5
1F0
330
1F
100
AcDbEntity
  8
0
  6
Continuous
 62
     7
370
    25
100
AcDbCircle
 10
6712.6200827779
 20
4502.9262588991
 30
0.0
 40
4.150000000000546
100
AcDbArc
 50
180.0
 51
0.0
  0
LINE
  5
1F1
330
1F
100
AcDbEntity
  8
0
  6
Continuous
 62
     7
370
    25
100
AcDbLine
 10
6716.7700827779
 20
4502.9262588991
 30
0.0
 11
6716.7700827779
 21
4506.2262588991
 31
0.0
  0
ARC
  5
1F2
330
1F
100
AcDbEntity
  8
0
  6
Continuous
 62
     7
370
    25
100
AcDbCircle
 10
6712.6200827779
 20
4506.2262588991
 30
0.0
 40
4.150000000000546
100
AcDbArc
 50
0.0
 51
180.0
  0
LINE
  5
1F3
330
1F
100
AcDbEntity
  8
0
  6
Continuous
 62
     7
370
    25
100
AcDbLine
 10
6708.4700827779
 20
4506.2262588991
 30
0.0
 11
6708.4700827779
 21
4502.9262588991
 31
0.0
  0
CIRCLE
  5
1F4
330
1F
100
AcDbEntity
  8
0
  6
Continuous
 62
     7
370
    25
100
AcDbCircle
 10
6737.6200827779
 20
4504.5762588991
 30
0.0
 40
6.25
  0
ARC
  5
1F5
330
1F
100
AcDbEntity
  8
0
  6
Continuous
 62
     7
370
    25
100
AcDbCircle
 10
6818.2200827779
 20
4504.5762588991
 30
0.0
 40
4.149999999999636
100
AcDbArc
 50
270.0
 51
90.0
  0
LINE
  5
1F6
330
1F
100
AcDbEntity
  8
0
  6
Continuous
 62
     7
370
    25
100
AcDbLine
 10
6818.2200827779
 20
4508.7262588991
 30
0.0
 11
6807.0200827779
 21
4508.7262588991
 31
0.0
  0
ARC
  5
1F7
330
1F
100
AcDbEntity
  8
0
  6
Continuous
 62
     7
370
    25
100
AcDbCircle
 10
6807.0200827779
 20
4504.5762588991
 30
0.0
 40
4.149999999999636
100
AcDbArc
 50
90.0
 51
270.0
  0
LINE
  5
1F8
330
1F
100
AcDbEntity
  8
0
  6
Continuous
 62
     7
370
    25
100
AcDbLine
 10
6807.0200827779
 20
4500.4262588991
 30
0.0
 11
6818.2200827779
 21
4500.4262588991
 31
0.0
  0
ARC
  5
1F9
330
1F
100
AcDbEntity
  8
0
  6
Continuous
 62
     7
370
    25
100
AcDbCircle
 10
6762.6200827779
 20
4502.8262588991
 30
0.0
 40
3.250000000000909
100
AcDbArc
 50
180.0
 51
0.0
  0
LINE
  5
1FA
330
1F
100
AcDbEntity
  8
0
  6
Continuous
 62
     7
370
    25
100
AcDbLine
 10
6765.8700827779
 20
4502.8262588991
 30
0.0
 11
6765.8700827779
 21
4506.3262588991
 31
0.0
  0
ARC
  5
1FB
330
1F
100
AcDbEntity
  8
0
  6
Continuous
 62
     7
370
    25
100
AcDbCircle
 10
6762.6200827779
 20
4506.3262588991
 30
0.0
 40
3.250000000000909
100
AcDbArc
 50
0.0
 51
180.0
  0
LINE
  5
1FC
330
1F
100
AcDbEntity
  8
0
  6
Continuous
 62
     7
370
    25
100
AcDbLine
 10
6759.3700827779
 20
4506.3262588991
 30
0.0
 11
6759.3700827779
 21
4502.8262588991
 31
0.0
  0
CIRCLE
  5
1FD
330
1F
100
AcDbEntity
  8
0
  6
Continuous
 62
     7
370
    25
100
AcDbCircle
 10
6787.6200827779
 20
4504.5762588991
 30
0.0
 40
6.249999999999091
  0
CIRCLE
  5
1FE
330
1F
100
AcDbEntity
  8
0
  6
Continuous
 62
     7
370
    25
100
AcDbCircle
 10
6837.6200827779
 20
4504.5762588991
 30
0.0
 40
6.249999999999091
  0
LINE
  5
1FF
330
1F
100
AcDbEntity
  8
0
  6
Continuous
 62
     7
370
    25
100
AcDbLine
 10
6551.9700827779
 20
4518.0762588991
 30
0.0
 11
7151.9700827779
 21
4518.0762588991
 31
0.0
  0
LINE
  5
200
330
1F
100
AcDbEntity
  8
0
  6
Continuous
 62
     7
370
    25
100
AcDbLine
 10
6551.9700827779
 20
4491.0762588991
 30
0.0
 11
7151.9700827779
 21
4491.0762588991
 31
0.0
  0
LINE
  5
201
330
1F
100
AcDbEntity
  8
0
  6
Continuous
 62
     7
370
    25
100
AcDbLine
 10
6877.8603963574
 20
4740.8001385853
 30
0.0
 11
6878.5820841939
 21
4742.0501385853
 31
0.0
  0
LINE
  5
202
330
1F
100
AcDbEntity
  8
0
  6
Continuous
 62
     7
370
    25
100
AcDbLine
 10
6878.5820841939
 20
4742.0501385853
 30
0.0
 11
6877.8603963574
 21
4743.3001385853
 31
0.0
  0
LINE
  5
203
330
1F
100
AcDbEntity
  8
0
  6
Continuous
 62
     7
370
    25
100
AcDbLine
 10
6877.8603963574
 20
4743.3001385853
 30
0.0
 11
6876.4170206844
 21
4743.3001385853
 31
0.0
  0
LINE
  5
204
330
1F
100
AcDbEntity
  8
0
  6
Continuous
 62
     7
370
    25
100
AcDbLine
 10
6876.4170206844
 20
4743.3001385853
 30
0.0
 11
6875.6953328479
 21
4742.0501385853
 31
0.0
  0
CIRCLE
  5
205
330
1F
100
AcDbEntity
  8
0
  6
Continuous
 62
     7
370
    25
100
AcDbCircle
 10
6877.1387085209
 20
4742.0501385853
 30
0.0
 40
2.25
  0
LINE
  5
206
330
1F
100
AcDbEntity
  8
0
  6
Continuous
 62
     7
370
    25
100
AcDbLine
 10
6875.6953328479
 20
4742.0501385853
 30
0.0
 11
6876.4170206844
 21
4740.8001385853
 31
0.0
  0
LINE
  5
207
330
1F
100
AcDbEntity
  8
0
  6
Continuous
 62
     7
370
    25
100
AcDbLine
 10
6876.4170206844
 20
4740.8001385853
 30
0.0
 11
6877.8603963574
 21
4740.8001385853
 31
0.0
  0
CIRCLE
  5
208
330
1F
100
AcDbEntity
  8
0
  6
Continuous
 62
     7
370
    25
100
AcDbCircle
 10
6877.1387085209
 20
4742.0501385853
 30
0.0
 40
2.75
  0
LINE
  5
209
330
1F
100
AcDbEntity
  8
0
  6
Continuous
 62
     7
370
    25
100
AcDbLine
 10
6787.8593511879
 20
4740.8001385853
 30
0.0
 11
6788.5810390244
 21
4742.0501385853
 31
0.0
  0
LINE
  5
20A
330
1F
100
AcDbEntity
  8
0
  6
Continuous
 62
     7
370
    25
100
AcDbLine
 10
6788.5810390244
 20
4742.0501385853
 30
0.0
 11
6787.8593511879
 21
4743.3001385853
 31
0.0
  0
LINE
  5
20B
330
1F
100
AcDbEntity
  8
0
  6
Continuous
 62
     7
370
    25
100
AcDbLine
 10
6787.8593511879
 20
4743.3001385853
 30
0.0
 11
6786.4159755149
 21
4743.3001385853
 31
0.0
  0
LINE
  5
20C
330
1F
100
AcDbEntity
  8
0
  6
Continuous
 62
     7
370
    25
100
AcDbLine
 10
6786.4159755149
 20
4743.3001385853
 30
0.0
 11
6785.6942876784
 21
4742.0501385853
 31
0.0
  0
CIRCLE
  5
20D
330
1F
100
AcDbEntity
  8
0
  6
Continuous
 62
     7
370
    25
100
AcDbCircle
 10
6787.1376633514
 20
4742.0501385853
 30
0.0
 40
2.25
  0
LINE
  5
20E
330
1F
100
AcDbEntity
  8
0
  6
Continuous
 62
     7
370
    25
100
AcDbLine
 10
6785.6942876784
 20
4742.0501385853
 30
0.0
 11
6786.4159755149
 21
4740.8001385853
 31
0.0
  0
LINE
  5
20F
330
1F
100
AcDbEntity
  8
0
  6
Continuous
 62
     7
370
    25
100
AcDbLine
 10
6786.4159755149
 20
4740.8001385853
 30
0.0
 11
6787.8593511879
 21
4740.8001385853
 31
0.0
  0
CIRCLE
  5
210
330
1F
100
AcDbEntity
  8
0
  6
Continuous
 62
     7
370
    25
100
AcDbCircle
 10
6787.1376633514
 20
4742.0501385853
 30
0.0
 40
2.749999999999091
  0
LINE
  5
211
330
1F
100
AcDbEntity
  8
0
  6
Continuous
 62
     7
370
    25
100
AcDbLine
 10
6838.1953328479
 20
4742.0501385853
 30
0.0
 11
6838.9170206844
 21
4740.8001385853
 31
0.0
  0
LINE
  5
212
330
1F
100
AcDbEntity
  8
0
  6
Continuous
 62
     7
370
    25
100
AcDbLine
 10
6840.3603963574
 20
4740.8001385853
 30
0.0
 11
6841.0820841939
 21
4742.0501385853
 31
0.0
  0
LINE
  5
213
330
1F
100
AcDbEntity
  8
0
  6
Continuous
 62
     7
370
    25
100
AcDbLine
 10
6841.0820841939
 20
4742.0501385853
 30
0.0
 11
6840.3603963574
 21
4743.3001385853
 31
0.0
  0
LINE
  5
214
330
1F
100
AcDbEntity
  8
0
  6
Continuous
 62
     7
370
    25
100
AcDbLine
 10
6840.3603963574
 20
4743.3001385853
 30
0.0
 11
6838.9170206844
 21
4743.3001385853
 31
0.0
  0
LINE
  5
215
330
1F
100
AcDbEntity
  8
0
  6
Continuous
 62
     7
370
    25
100
AcDbLine
 10
6838.9170206844
 20
4743.3001385853
 30
0.0
 11
6838.1953328479
 21
4742.0501385853
 31
0.0
  0
CIRCLE
  5
216
330
1F
100
AcDbEntity
  8
0
  6
Continuous
 62
     7
370
    25
100
AcDbCircle
 10
6839.6387085209
 20
4742.0501385853
 30
0.0
 40
2.249999999999091
  0
LINE
  5
217
330
1F
100
AcDbEntity
  8
0
  6
Continuous
 62
     7
370
    25
100
AcDbLine
 10
6838.9170206844
 20
4740.8001385853
 30
0.0
 11
6840.3603963574
 21
4740.8001385853
 31
0.0
  0
CIRCLE
  5
218
330
1F
100
AcDbEntity
  8
0
  6
Continuous
 62
     7
370
    25
100
AcDbCircle
 10
6839.6387085209
 20
4742.0501385853
 30
0.0
 40
2.750000000000909
  0
LINE
  5
219
330
1F
100
AcDbEntity
  8
0
  6
Continuous
 62
     7
370
    25
100
AcDbLine
 10
6838.1953328479
 20
4779.5501385853
 30
0.0
 11
6838.9170206844
 21
4778.3001385853
 31
0.0
  0
LINE
  5
21A
330
1F
100
AcDbEntity
  8
0
  6
Continuous
 62
     7
370
    25
100
AcDbLine
 10
6838.9170206844
 20
4778.3001385853
 30
0.0
 11
6840.3603963574
 21
4778.3001385853
 31
0.0
  0
LINE
  5
21B
330
1F
100
AcDbEntity
  8
0
  6
Continuous
 62
     7
370
    25
100
AcDbLine
 10
6840.3603963574
 20
4778.3001385853
 30
0.0
 11
6841.0820841939
 21
4779.5501385853
 31
0.0
  0
LINE
  5
21C
330
1F
100
AcDbEntity
  8
0
  6
Continuous
 62
     7
370
    25
100
AcDbLine
 10
6841.0820841939
 20
4779.5501385853
 30
0.0
 11
6840.3603963574
 21
4780.8001385853
 31
0.0
  0
LINE
  5
21D
330
1F
100
AcDbEntity
  8
0
  6
Continuous
 62
     7
370
    25
100
AcDbLine
 10
6840.3603963574
 20
4780.8001385853
 30
0.0
 11
6838.9170206844
 21
4780.8001385853
 31
0.0
  0
LINE
  5
21E
330
1F
100
AcDbEntity
  8
0
  6
Continuous
 62
     7
370
    25
100
AcDbLine
 10
6838.9170206844
 20
4780.8001385853
 30
0.0
 11
6838.1953328479
 21
4779.5501385853
 31
0.0
  0
CIRCLE
  5
21F
330
1F
100
AcDbEntity
  8
0
  6
Continuous
 62
     7
370
    25
100
AcDbCircle
 10
6839.6387085209
 20
4779.5501385853
 30
0.0
 40
2.249999999999091
  0
CIRCLE
  5
220
330
1F
100
AcDbEntity
  8
0
  6
Continuous
 62
     7
370
    25
100
AcDbCircle
 10
6839.6387085209
 20
4779.5501385853
 30
0.0
 40
2.750000000000909
  0
LINE
  5
221
330
1F
100
AcDbEntity
  8
0
  6
Continuous
 62
     7
370
    25
100
AcDbLine
 10
6876.4170206844
 20
4778.3001385853
 30
0.0
 11
6877.8603963574
 21
4778.3001385853
 31
0.0
  0
LINE
  5
222
330
1F
100
AcDbEntity
  8
0
  6
Continuous
 62
     7
370
    25
100
AcDbLine
 10
6877.8603963574
 20
4778.3001385853
 30
0.0
 11
6878.5820841939
 21
4779.5501385853
 31
0.0
  0
LINE
  5
223
330
1F
100
AcDbEntity
  8
0
  6
Continuous
 62
     7
370
    25
100
AcDbLine
 10
6878.5820841939
 20
4779.5501385853
 30
0.0
 11
6877.8603963574
 21
4780.8001385853
 31
0.0
  0
LINE
  5
224
330
1F
100
AcDbEntity
  8
0
  6
Continuous
 62
     7
370
    25
100
AcDbLine
 10
6877.8603963574
 20
4780.8001385853
 30
0.0
 11
6876.4170206844
 21
4780.8001385853
 31
0.0
  0
LINE
  5
225
330
1F
100
AcDbEntity
  8
0
  6
Continuous
 62
     7
370
    25
100
AcDbLine
 10
6876.4170206844
 20
4780.8001385853
 30
0.0
 11
6875.6953328479
 21
4779.5501385853
 31
0.0
  0
CIRCLE
  5
226
330
1F
100
AcDbEntity
  8
0
  6
Continuous
 62
     7
370
    25
100
AcDbCircle
 10
6877.1387085209
 20
4779.5501385853
 30
0.0
 40
2.25
  0
LINE
  5
227
330
1F
100
AcDbEntity
  8
0
  6
Continuous
 62
     7
370
    25
100
AcDbLine
 10
6875.6953328479
 20
4779.5501385853
 30
0.0
 11
6876.4170206844
 21
4778.3001385853
 31
0.0
  0
CIRCLE
  5
228
330
1F
100
AcDbEntity
  8
0
  6
Continuous
 62
     7
370
    25
100
AcDbCircle
 10
6877.1387085209
 20
4779.5501385853
 30
0.0
 40
2.75
  0
LINE
  5
229
330
1F
100
AcDbEntity
  8
0
  6
Continuous
 62
     7
370
    25
100
AcDbLine
 10
6748.3876633514
 20
4780.2718264218
 30
0.0
 11
6748.3876633514
 21
4778.8284507488
 31
0.0
  0
LINE
  5
22A
330
1F
100
AcDbEntity
  8
0
  6
Continuous
 62
     7
370
    25
100
AcDbLine
 10
6748.3876633514
 20
4778.8284507488
 30
0.0
 11
6749.6376633514
 21
4778.1067629124
 31
0.0
  0
LINE
  5
22B
330
1F
100
AcDbEntity
  8
0
  6
Continuous
 62
     7
370
    25
100
AcDbLine
 10
6749.6376633514
 20
4778.1067629124
 30
0.0
 11
6750.8876633514
 21
4778.8284507488
 31
0.0
  0
LINE
  5
22C
330
1F
100
AcDbEntity
  8
0
  6
Continuous
 62
     7
370
    25
100
AcDbLine
 10
6750.8876633514
 20
4778.8284507488
 30
0.0
 11
6750.8876633514
 21
4780.2718264218
 31
0.0
  0
LINE
  5
22D
330
1F
100
AcDbEntity
  8
0
  6
Continuous
 62
     7
370
    25
100
AcDbLine
 10
6750.8876633514
 20
4780.2718264218
 30
0.0
 11
6749.6376633514
 21
4780.9935142583
 31
0.0
  0
CIRCLE
  5
22E
330
1F
100
AcDbEntity
  8
0
  6
Continuous
 62
     7
370
    25
100
AcDbCircle
 10
6749.6376633514
 20
4779.5501385853
 30
0.0
 40
2.25
  0
LINE
  5
22F
330
1F
100
AcDbEntity
  8
0
  6
Continuous
 62
     7
370
    25
100
AcDbLine
 10
6749.6376633514
 20
4780.9935142583
 30
0.0
 11
6748.3876633514
 21
4780.2718264218
 31
0.0
  0
CIRCLE
  5
230
330
1F
100
AcDbEntity
  8
0
  6
Continuous
 62
     7
370
    25
100
AcDbCircle
 10
6749.6376633514
 20
4779.5501385853
 30
0.0
 40
2.75
  0
LINE
  5
231
330
1F
100
AcDbEntity
  8
0
  6
Continuous
 62
     7
370
    25
100
AcDbLine
 10
6785.6942876784
 20
4779.5501385853
 30
0.0
 11
6786.4159755149
 21
4778.3001385853
 31
0.0
  0
LINE
  5
232
330
1F
100
AcDbEntity
  8
0
  6
Continuous
 62
     7
370
    25
100
AcDbLine
 10
6787.8593511879
 20
4778.3001385853
 30
0.0
 11
6788.5810390244
 21
4779.5501385853
 31
0.0
  0
LINE
  5
233
330
1F
100
AcDbEntity
  8
0
  6
Continuous
 62
     7
370
    25
100
AcDbLine
 10
6788.5810390244
 20
4779.5501385853
 30
0.0
 11
6787.8593511879
 21
4780.8001385853
 31
0.0
  0
LINE
  5
234
330
1F
100
AcDbEntity
  8
0
  6
Continuous
 62
     7
370
    25
100
AcDbLine
 10
6787.8593511879
 20
4780.8001385853
 30
0.0
 11
6786.4159755149
 21
4780.8001385853
 31
0.0
  0
LINE
  5
235
330
1F
100
AcDbEntity
  8
0
  6
Continuous
 62
     7
370
    25
100
AcDbLine
 10
6786.4159755149
 20
4780.8001385853
 30
0.0
 11
6785.6942876784
 21
4779.5501385853
 31
0.0
  0
CIRCLE
  5
236
330
1F
100
AcDbEntity
  8
0
  6
Continuous
 62
     7
370
    25
100
AcDbCircle
 10
6787.1376633514
 20
4779.5501385853
 30
0.0
 40
2.25
  0
LINE
  5
237
330
1F
100
AcDbEntity
  8
0
  6
Continuous
 62
     7
370
    25
100
AcDbLine
 10
6786.4159755149
 20
4778.3001385853
 30
0.0
 11
6787.8593511879
 21
4778.3001385853
 31
0.0
  0
CIRCLE
  5
238
330
1F
100
AcDbEntity
  8
0
  6
Continuous
 62
     7
370
    25
100
AcDbCircle
 10
6787.1376633514
 20
4779.5501385853
 30
0.0
 40
2.749999999999091
  0
LINE
  5
239
330
1F
100
AcDbEntity
  8
0
  6
Continuous
 62
     7
370
    25
100
AcDbLine
 10
6748.1942876784
 20
4742.0501385853
 30
0.0
 11
6748.9159755149
 21
4740.8001385853
 31
0.0
  0
LINE
  5
23A
330
1F
100
AcDbEntity
  8
0
  6
Continuous
 62
     7
370
    25
100
AcDbLine
 10
6750.3593511879
 20
4740.8001385853
 30
0.0
 11
6751.0810390244
 21
4742.0501385853
 31
0.0
  0
LINE
  5
23B
330
1F
100
AcDbEntity
  8
0
  6
Continuous
 62
     7
370
    25
100
AcDbLine
 10
6751.0810390244
 20
4742.0501385853
 30
0.0
 11
6750.3593511879
 21
4743.3001385853
 31
0.0
  0
LINE
  5
23C
330
1F
100
AcDbEntity
  8
0
  6
Continuous
 62
     7
370
    25
100
AcDbLine
 10
6750.3593511879
 20
4743.3001385853
 30
0.0
 11
6748.9159755149
 21
4743.3001385853
 31
0.0
  0
LINE
  5
23D
330
1F
100
AcDbEntity
  8
0
  6
Continuous
 62
     7
370
    25
100
AcDbLine
 10
6748.9159755149
 20
4743.3001385853
 30
0.0
 11
6748.1942876784
 21
4742.0501385853
 31
0.0
  0
CIRCLE
  5
23E
330
1F
100
AcDbEntity
  8
0
  6
Continuous
 62
     7
370
    25
100
AcDbCircle
 10
6749.6376633514
 20
4742.0501385853
 30
0.0
 40
2.25
  0
LINE
  5
23F
330
1F
100
AcDbEntity
  8
0
  6
Continuous
 62
     7
370
    25
100
AcDbLine
 10
6748.9159755149
 20
4740.8001385853
 30
0.0
 11
6750.3593511879
 21
4740.8001385853
 31
0.0
  0
CIRCLE
  5
240
330
1F
100
AcDbEntity
  8
0
  6
Continuous
 62
     7
370
    25
100
AcDbCircle
 10
6749.6376633514
 20
4742.0501385853
 30
0.0
 40
2.75
  0
CIRCLE
  5
241
330
1F
100
AcDbEntity
  8
0
  6
Continuous
 62
     7
370
    25
100
AcDbCircle
 10
6768.3876633514
 20
4760.8001385853
 30
0.0
 40
9.350000000000364
  0
CIRCLE
  5
242
330
1F
100
AcDbEntity
  8
0
  6
Continuous
 62
     7
370
    25
100
AcDbCircle
 10
6768.3876633514
 20
4760.8001385853
 30
0.0
 40
10.84999999999945
  0
CIRCLE
  5
243
330
1F
100
AcDbEntity
  8
0
  6
Continuous
 62
     7
370
    25
100
AcDbCircle
 10
6768.3876633514
 20
4760.8001385853
 30
0.0
 40
12.85000000000036
  0
LINE
  5
244
330
1F
100
AcDbEntity
  8
0
  6
Continuous
 62
     7
370
    25
100
AcDbLine
 10
6792.3876633514
 20
4756.8001385853
 30
0.0
 11
6792.3876633514
 21
4764.8001385853
 31
0.0
  0
LINE
  5
245
330
1F
100
AcDbEntity
  8
0
  6
Continuous
 62
     7
370
    25
100
AcDbLine
 10
6744.3876633514
 20
4764.8001385853
 30
0.0
 11
6744.3876633514
 21
4756.8001385853
 31
0.0
  0
CIRCLE
  5
246
330
1F
100
AcDbEntity
  8
0
  6
Continuous
 62
     7
370
    25
100
AcDbCircle
 10
6858.3887085209
 20
4760.8001385853
 30
0.0
 40
9.349999999999454
  0
CIRCLE
  5
247
330
1F
100
AcDbEntity
  8
0
  6
Continuous
 62
     7
370
    25
100
AcDbCircle
 10
6858.3887085209
 20
4760.8001385853
 30
0.0
 40
10.84999999999945
  0
CIRCLE
  5
248
330
1F
100
AcDbEntity
  8
0
  6
Continuous
 62
     7
370
    25
100
AcDbCircle
 10
6858.3887085209
 20
4760.8001385853
 30
0.0
 40
12.84999999999945
  0
LINE
  5
249
330
1F
100
AcDbEntity
  8
0
  6
Continuous
 62
     7
370
    25
100
AcDbLine
 10
6882.3887085209
 20
4756.8001385853
 30
0.0
 11
6882.3887085209
 21
4764.8001385853
 31
0.0
  0
LINE
  5
24A
330
1F
100
AcDbEntity
  8
0
  6
Continuous
 62
     7
370
    25
100
AcDbLine
 10
6834.3887085209
 20
4764.8001385853
 30
0.0
 11
6834.3887085209
 21
4756.8001385853
 31
0.0
  0
LINE
  5
24B
330
1F
100
AcDbEntity
  8
0
  6
Continuous
 62
     7
370
    25
100
AcDbLine
 10
6721.1427565465
 20
4334.2012588991
 30
0.0
 11
6721.1427565465
 21
4335.4512588991
 31
0.0
  0
LINE
  5
24C
330
1F
100
AcDbEntity
  8
0
  6
Continuous
 62
     7
370
    25
100
AcDbLine
 10
6721.1427565465
 20
4335.4512588991
 30
0.0
 11
6723.1427565465
 21
4335.4512588991
 31
0.0
  0
LINE
  5
24D
330
1F
100
AcDbEntity
  8
0
  6
Continuous
 62
     7
370
    25
100
AcDbLine
 10
6723.1427565465
 20
4335.4512588991
 30
0.0
 11
6723.1427565465
 21
4334.2012588991
 31
0.0
  0
LINE
  5
24E
330
1F
100
AcDbEntity
  8
0
  6
Continuous
 62
     7
370
    25
100
AcDbLine
 10
6723.1427565465
 20
4334.2012588991
 30
0.0
 11
6721.1427565465
 21
4334.2012588991
 31
0.0
  0
LINE
  5
24F
330
1F
100
AcDbEntity
  8
0
  6
Continuous
 62
     7
370
    25
100
AcDbLine
 10
6654.9997842058
 20
4332.3262588991
 30
0.0
 11
6653.8675785607
 21
4332.3262588991
 31
0.0
  0
ARC
  5
250
330
1F
100
AcDbEntity
  8
0
  6
Continuous
 62
     7
370
    25
100
AcDbCircle
 10
6685.8988133168
 20
4334.8262588991
 30
0.0
 40
30.99999999999958
100
AcDbArc
 50
160.0
 51
175.3743494205
  0
ARC
  5
251
330
1F
100
AcDbEntity
  8
0
  6
Continuous
 62
     7
370
    25
100
AcDbCircle
 10
6685.8988133168
 20
4334.8262588991
 30
0.0
 40
30.9999999999995
100
AcDbArc
 50
184.6256505795
 51
200.0
  0
LINE
  5
252
330
1F
100
AcDbEntity
  8
0
  6
Continuous
 62
     7
370
    25
100
AcDbLine
 10
6653.8675785607
 20
4337.3262588991
 30
0.0
 11
6654.9997842058
 21
4337.3262588991
 31
0.0
  0
LINE
  5
253
330
1F
100
AcDbEntity
  8
0
  6
Continuous
 62
     7
370
    25
100
AcDbLine
 10
6653.8675785607
 20
4337.3262588991
 30
0.0
 11
6653.8675785607
 21
4338.5762588991
 31
0.0
  0
ARC
  5
254
330
1F
100
AcDbEntity
  8
0
  6
Continuous
 62
     7
370
    25
100
AcDbCircle
 10
6685.8988133168
 20
4334.8262588991
 30
0.0
 40
32.24999999999959
100
AcDbArc
 50
160.0
 51
173.3225946728
  0
ARC
  5
255
330
1F
100
AcDbEntity
  8
0
  6
Continuous
 62
     7
370
    25
100
AcDbCircle
 10
6685.8988133168
 20
4334.8262588991
 30
0.0
 40
32.24999999999929
100
AcDbArc
 50
186.6774053272
 51
200.0
  0
LINE
  5
256
330
1F
100
AcDbEntity
  8
0
  6
Continuous
 62
     7
370
    25
100
AcDbLine
 10
6653.8675785607
 20
4331.0762588991
 30
0.0
 11
6653.8675785607
 21
4332.3262588991
 31
0.0
  0
LINE
  5
257
330
1F
100
AcDbEntity
  8
0
  6
Continuous
 62
     7
370
    25
100
AcDbLine
 10
6724.1427565465
 20
4335.4512588991
 30
0.0
 11
6723.1427565465
 21
4335.4512588991
 31
0.0
  0
LINE
  5
258
330
1F
100
AcDbEntity
  8
0
  6
Continuous
 62
     7
370
    25
100
AcDbLine
 10
6724.1427565465
 20
4334.2012588991
 30
0.0
 11
6724.1427565465
 21
4335.4512588991
 31
0.0
  0
LINE
  5
259
330
1F
100
AcDbEntity
  8
0
  6
Continuous
 62
     7
370
    25
100
AcDbLine
 10
6723.1427565465
 20
4334.2012588991
 30
0.0
 11
6724.1427565465
 21
4334.2012588991
 31
0.0
  0
LINE
  5
25A
330
1F
100
AcDbEntity
  8
0
  6
Continuous
 62
     7
370
    25
100
AcDbLine
 10
6726.1427565465
 20
4335.4512588991
 30
0.0
 11
6726.1427565465
 21
4334.2012588991
 31
0.0
  0
LINE
  5
25B
330
1F
100
AcDbEntity
  8
0
  6
Continuous
 62
     7
370
    25
100
AcDbLine
 10
6726.1427565465
 20
4334.2012588991
 30
0.0
 11
6724.1427565465
 21
4334.2012588991
 31
0.0
  0
LINE
  5
25C
330
1F
100
AcDbEntity
  8
0
  6
Continuous
 62
     7
370
    25
100
AcDbLine
 10
6724.1427565465
 20
4335.4512588991
 30
0.0
 11
6726.1427565465
 21
4335.4512588991
 31
0.0
  0
LINE
  5
25D
330
1F
100
AcDbEntity
  8
0
  6
Continuous
 62
     7
370
    25
100
AcDbLine
 10
6693.4043668162
 20
4373.5762588991
 30
0.0
 11
6693.4043668162
 21
4368.2437568106
 31
0.0
  0
LINE
  5
25E
330
1F
100
AcDbEntity
  8
0
  6
Continuous
 62
     7
370
    25
100
AcDbLine
 10
6689.6515900665
 20
4373.5762588991
 30
0.0
 11
6689.6515900665
 21
4368.870041983
 31
0.0
  0
LINE
  5
25F
330
1F
100
AcDbEntity
  8
0
  6
Continuous
 62
     7
370
    25
100
AcDbLine
 10
6689.6515900665
 20
4373.5762588991
 30
0.0
 11
6693.4043668162
 21
4373.5762588991
 31
0.0
  0
LINE
  5
260
330
1F
100
AcDbEntity
  8
0
  6
Continuous
 62
     7
370
    25
100
AcDbLine
 10
6682.146036567
 20
4373.5762588991
 30
0.0
 11
6682.146036567
 21
4368.870041983
 31
0.0
  0
LINE
  5
261
330
1F
100
AcDbEntity
  8
0
  6
Continuous
 62
     7
370
    25
100
AcDbLine
 10
6682.146036567
 20
4373.5762588991
 30
0.0
 11
6689.6515900665
 21
4373.5762588991
 31
0.0
  0
LINE
  5
262
330
1F
100
AcDbEntity
  8
0
  6
Continuous
 62
     7
370
    25
100
AcDbLine
 10
6678.3932598173
 20
4373.5762588991
 30
0.0
 11
6678.3932598173
 21
4368.2437568106
 31
0.0
  0
LINE
  5
263
330
1F
100
AcDbEntity
  8
0
  6
Continuous
 62
     7
370
    25
100
AcDbLine
 10
6678.3932598173
 20
4373.5762588991
 30
0.0
 11
6682.146036567
 21
4373.5762588991
 31
0.0
  0
LINE
  5
264
330
1F
100
AcDbEntity
  8
0
  6
Continuous
 62
     7
370
    25
100
AcDbLine
 10
6653.8675785607
 20
4331.0762588991
 30
0.0
 11
6640.8675785607
 21
4331.0762588991
 31
0.0
  0
LINE
  5
265
330
1F
100
AcDbEntity
  8
0
  6
Continuous
 62
     7
370
    25
100
AcDbLine
 10
6640.8675785607
 20
4331.0762588991
 30
0.0
 11
6640.8675785607
 21
4332.3262588991
 31
0.0
  0
LINE
  5
266
330
1F
100
AcDbEntity
  8
0
  6
Continuous
 62
     7
370
    25
100
AcDbLine
 10
6640.8675785607
 20
4332.3262588991
 30
0.0
 11
6653.8675785607
 21
4332.3262588991
 31
0.0
  0
LINE
  5
267
330
1F
100
AcDbEntity
  8
0
  6
Continuous
 62
     7
370
    25
100
AcDbLine
 10
6721.1427565465
 20
4334.2012588991
 30
0.0
 11
6720.1431102872
 21
4334.2012588991
 31
0.0
  0
LINE
  5
268
330
1F
100
AcDbEntity
  8
0
  6
Continuous
 62
     7
370
    25
100
AcDbLine
 10
6720.1431102872
 20
4335.4512588991
 30
0.0
 11
6721.1427565465
 21
4335.4512588991
 31
0.0
  0
LINE
  5
269
330
1F
100
AcDbEntity
  8
0
  6
Continuous
 62
     7
370
    25
100
AcDbLine
 10
6640.8675785607
 20
4338.5762588991
 30
0.0
 11
6653.8675785607
 21
4338.5762588991
 31
0.0
  0
LINE
  5
26A
330
1F
100
AcDbEntity
  8
0
  6
Continuous
 62
     7
370
    25
100
AcDbLine
 10
6640.8675785607
 20
4337.3262588991
 30
0.0
 11
6640.8675785607
 21
4338.5762588991
 31
0.0
  0
LINE
  5
26B
330
1F
100
AcDbEntity
  8
0
  6
Continuous
 62
     7
370
    25
100
AcDbLine
 10
6653.8675785607
 20
4337.3262588991
 30
0.0
 11
6640.8675785607
 21
4337.3262588991
 31
0.0
  0
LINE
  5
26C
330
1F
100
AcDbEntity
  8
0
  6
Continuous
 62
     7
370
    25
100
AcDbLine
 10
6646.8675785607
 20
4329.5762588991
 30
0.0
 11
6651.3675785607
 21
4329.5762588991
 31
0.0
  0
LINE
  5
26D
330
1F
100
AcDbEntity
  8
0
  6
Continuous
 62
     7
370
    25
100
AcDbLine
 10
6642.3675785607
 20
4329.5762588991
 30
0.0
 11
6646.8675785607
 21
4329.5762588991
 31
0.0
  0
LINE
  5
26E
330
1F
100
AcDbEntity
  8
0
  6
Continuous
 62
     7
370
    25
100
AcDbLine
 10
6646.8675785607
 20
4340.0762588991
 30
0.0
 11
6650.8675785607
 21
4340.0762588991
 31
0.0
  0
LINE
  5
26F
330
1F
100
AcDbEntity
  8
0
  6
Continuous
 62
     7
370
    25
100
AcDbLine
 10
6642.8675785607
 20
4340.0762588991
 30
0.0
 11
6646.8675785607
 21
4340.0762588991
 31
0.0
  0
LINE
  5
270
330
1F
100
AcDbEntity
  8
0
  6
Continuous
 62
     7
370
    25
100
AcDbLine
 10
6646.8675785607
 20
4342.0762588991
 30
0.0
 11
6649.8675785607
 21
4342.0762588991
 31
0.0
  0
LINE
  5
271
330
1F
100
AcDbEntity
  8
0
  6
Continuous
 62
     7
370
    25
100
AcDbLine
 10
6643.8675785607
 20
4342.0762588991
 30
0.0
 11
6646.8675785607
 21
4342.0762588991
 31
0.0
  0
LINE
  5
272
330
1F
100
AcDbEntity
  8
0
  6
Continuous
 62
     7
370
    25
100
AcDbLine
 10
6646.8675785607
 20
4352.0762588991
 30
0.0
 11
6649.3675785607
 21
4352.0762588991
 31
0.0
  0
LINE
  5
273
330
1F
100
AcDbEntity
  8
0
  6
Continuous
 62
     7
370
    25
100
AcDbLine
 10
6644.3675785607
 20
4352.0762588991
 30
0.0
 11
6646.8675785607
 21
4352.0762588991
 31
0.0
  0
LINE
  5
274
330
1F
100
AcDbEntity
  8
0
  6
Continuous
 62
     7
370
    25
100
AcDbLine
 10
6646.8675785607
 20
4352.5762588991
 30
0.0
 11
6648.8675785607
 21
4352.5762588991
 31
0.0
  0
LINE
  5
275
330
1F
100
AcDbEntity
  8
0
  6
Continuous
 62
     7
370
    25
100
AcDbLine
 10
6644.8675785607
 20
4352.5762588991
 30
0.0
 11
6646.8675785607
 21
4352.5762588991
 31
0.0
  0
ARC
  5
276
330
1F
100
AcDbEntity
  8
0
  6
Continuous
 62
     7
370
    25
100
AcDbCircle
 10
6685.8988133168
 20
4334.8262588991
 30
0.0
 40
25.99999999999949
100
AcDbArc
 50
200.0
 51
160.0
  0
ARC
  5
277
330
1F
100
AcDbEntity
  8
0
  6
Continuous
 62
     7
370
    25
100
AcDbCircle
 10
6685.8988133168
 20
4334.8262588991
 30
0.0
 40
24.9999999999999
100
AcDbArc
 50
200.0
 51
160.0
  0
LINE
  5
278
330
1F
100
AcDbEntity
  8
0
  6
Continuous
 62
     7
370
    25
100
AcDbLine
 10
6662.4064977971
 20
4326.275755316
 30
0.0
 11
6661.4668051763
 21
4325.9337351726
 31
0.0
  0
LINE
  5
279
330
1F
100
AcDbEntity
  8
0
  6
Continuous
 62
     7
370
    25
100
AcDbLine
 10
6662.4064977971
 20
4343.3767624822
 30
0.0
 11
6661.4668051763
 21
4343.7187826256
 31
0.0
  0
ARC
  5
27A
330
1F
100
AcDbEntity
  8
0
  6
Continuous
 62
     7
370
    25
100
AcDbCircle
 10
6685.8988133168
 20
4334.8262588991
 30
0.0
 40
34.24999999999964
100
AcDbArc
 50
200.0
 51
160.0
  0
ARC
  5
27B
330
1F
100
AcDbEntity
  8
0
  6
Continuous
 62
     7
370
    25
100
AcDbCircle
 10
6685.8988133168
 20
4334.8262588991
 30
0.0
 40
33.2499999999995
100
AcDbArc
 50
200.0
 51
160.0
  0
LINE
  5
27C
330
1F
100
AcDbEntity
  8
0
  6
Continuous
 62
     7
370
    25
100
AcDbLine
 10
6654.6540336756
 20
4323.4540891335
 30
0.0
 11
6653.7143410548
 21
4323.1120689902
 31
0.0
  0
LINE
  5
27D
330
1F
100
AcDbEntity
  8
0
  6
Continuous
 62
     7
370
    25
100
AcDbLine
 10
6654.6540336756
 20
4346.1984286647
 30
0.0
 11
6653.7143410548
 21
4346.540448808
 31
0.0
  0
LINE
  5
27E
330
1F
100
AcDbEntity
  8
0
  6
Continuous
 62
     7
370
    25
100
AcDbLine
 10
6661.4668051763
 20
4325.9337351726
 30
0.0
 11
6654.6540336756
 21
4323.4540891335
 31
0.0
  0
LINE
  5
27F
330
1F
100
AcDbEntity
  8
0
  6
Continuous
 62
     7
370
    25
100
AcDbLine
 10
6661.4668051763
 20
4343.7187826256
 30
0.0
 11
6654.6540336756
 21
4346.1984286647
 31
0.0
  0
ARC
  5
280
330
1F
100
AcDbEntity
  8
0
  6
Continuous
 62
     7
370
    25
100
AcDbCircle
 10
6685.8988133168
 20
4334.8262588991
 30
0.0
 40
25.1339745962148
100
AcDbArc
 50
200.0
 51
160.0
  0
LINE
  5
281
330
1F
100
AcDbEntity
  8
0
  6
Continuous
 62
     7
370
    25
100
AcDbLine
 10
6662.2806028577
 20
4326.2299333054
 30
0.0
 11
6662.4064977971
 21
4326.275755316
 31
0.0
  0
LINE
  5
282
330
1F
100
AcDbEntity
  8
0
  6
Continuous
 62
     7
370
    25
100
AcDbLine
 10
6662.2806028577
 20
4343.4225844928
 30
0.0
 11
6662.4064977971
 21
4343.3767624822
 31
0.0
  0
ARC
  5
283
330
1F
100
AcDbEntity
  8
0
  6
Continuous
 62
     7
370
    25
100
AcDbCircle
 10
6674.8988133168
 20
4504.5762588991
 30
0.0
 40
13.50000000000063
100
AcDbArc
 50
332.6277246098
 51
27.3722753902
  0
ARC
  5
284
330
1F
100
AcDbEntity
  8
0
  6
Continuous
 62
     7
370
    25
100
AcDbCircle
 10
6674.8988133168
 20
4504.5762588991
 30
0.0
 40
13.50000000000038
100
AcDbArc
 50
162.0969419164
 51
197.9030580836
  0
LINE
  5
285
330
1F
100
AcDbEntity
  8
0
  6
Continuous
 62
     7
370
    25
100
AcDbLine
 10
6669.325680124
 20
4508.5762782126
 30
0.0
 11
6665.8210693859
 21
4500.4262588991
 31
0.0
  0
LINE
  5
286
330
1F
100
AcDbEntity
  8
0
  6
Continuous
 62
     7
370
    25
100
AcDbLine
 10
6667.7573695763
 20
4508.7262588991
 30
0.0
 11
6664.188265258
 21
4500.4262588991
 31
0.0
  0
LINE
  5
287
330
1F
100
AcDbEntity
  8
0
  6
Continuous
 62
     7
370
    25
100
AcDbLine
 10
6686.4661865216
 20
4510.7188172773
 30
0.0
 11
6682.3679718773
 21
4501.1883641121
 31
0.0
  0
LINE
  5
288
330
1F
100
AcDbEntity
  8
0
  6
Continuous
 62
     7
370
    25
100
AcDbLine
 10
6684.5275120207
 20
4510.0075116193
 30
0.0
 11
6681.550651386
 21
4503.0847822554
 31
0.0
  0
LINE
  5
289
330
1F
100
AcDbEntity
  8
0
  6
Continuous
 62
     7
370
    25
100
AcDbLine
 10
6681.550651386
 20
4503.0847822554
 30
0.0
 11
6682.5819713271
 21
4505.4831306217
 31
0.0
  0
LINE
  5
28A
330
1F
100
AcDbEntity
  8
0
  6
Continuous
 62
     7
370
    25
100
AcDbLine
 10
6667.2156553064
 20
4503.6693871765
 30
0.0
 11
6669.4877757841
 21
4500.6246194365
 31
0.0
  0
LINE
  5
28B
330
1F
100
AcDbEntity
  8
0
  6
Continuous
 62
     7
370
    25
100
AcDbLine
 10
6669.325680124
 20
4508.5762782126
 30
0.0
 11
6667.2156553064
 21
4503.6693871765
 31
0.0
  0
LINE
  5
28C
330
1F
100
AcDbEntity
  8
0
  6
Continuous
 62
     7
370
    25
100
AcDbLine
 10
6682.5819713271
 20
4505.4831306217
 30
0.0
 11
6681.7200092829
 21
4506.6382076746
 31
0.0
  0
LINE
  5
28D
330
1F
100
AcDbEntity
  8
0
  6
Continuous
 62
     7
370
    25
100
AcDbLine
 10
6689.8988133168
 20
4667.0762588991
 30
0.0
 11
6681.8988133168
 21
4667.0762588991
 31
0.0
  0
LINE
  5
28E
330
1F
100
AcDbEntity
  8
0
  6
Continuous
 62
     7
370
    25
100
AcDbLine
 10
6692.3988133168
 20
4500.5480788587
 30
0.0
 11
6692.3988133168
 21
4508.6044389394
 31
0.0
  0
LINE
  5
28F
330
1F
100
AcDbEntity
  8
0
  6
Continuous
 62
     7
370
    25
100
AcDbLine
 10
6689.8988133168
 20
4498.7564747853
 30
0.0
 11
6689.8988133168
 21
4510.3960430129
 31
0.0
  0
LINE
  5
290
330
1F
100
AcDbEntity
  8
0
  6
Continuous
 62
     7
370
    25
100
AcDbLine
 10
6659.8988133168
 20
4500.4262588991
 30
0.0
 11
6659.8988133168
 21
4508.7262588991
 31
0.0
  0
LINE
  5
291
330
1F
100
AcDbEntity
  8
0
  6
Continuous
 62
     7
370
    25
100
AcDbLine
 10
6657.3988133168
 20
4500.4262588991
 30
0.0
 11
6657.3988133168
 21
4508.7262588991
 31
0.0
  0
ARC
  5
292
330
1F
100
AcDbEntity
  8
0
  6
Continuous
 62
     7
370
    25
100
AcDbCircle
 10
6816.1674835787
 20
4719.0587280272
 30
0.0
 40
5.765333285479014
100
AcDbArc
 50
241.1852041926
 51
267.2284577108
  0
LINE
  5
293
330
1F
100
AcDbEntity
  8
0
  6
Continuous
 62
     7
370
    25
100
AcDbLine
 10
6813.3887085209
 20
4807.5930318041
 30
0.0
 11
6813.3887085209
 21
4714.0072453665
 31
0.0
  0
ARC
  5
294
330
1F
100
AcDbEntity
  8
0
  6
Continuous
 62
     7
370
    25
100
AcDbCircle
 10
6816.0438222788
 20
4802.978757862
 30
0.0
 40
5.323640960892639
100
AcDbArc
 50
91.6696508477
 51
119.9166872488
  0
LINE
  5
295
330
1F
100
AcDbEntity
  8
0
  6
Continuous
 62
     7
370
    25
100
AcDbLine
 10
6815.8887085209
 20
4808.3001385853
 30
0.0
 11
6815.8887085209
 21
4713.3001385853
 31
0.0
  0
LINE
  5
296
330
1F
100
AcDbEntity
  8
0
  6
Continuous
 62
     7
370
    25
100
AcDbLine
 10
6815.8887085209
 20
4713.3001385853
 30
0.0
 11
6900.8887085209
 21
4713.3001385853
 31
0.0
  0
LINE
  5
297
330
1F
100
AcDbEntity
  8
0
  6
Continuous
 62
     7
370
    25
100
AcDbLine
 10
6815.8887085209
 20
4808.3001385853
 30
0.0
 11
6900.8887085209
 21
4808.3001385853
 31
0.0
  0
LINE
  5
298
330
1F
100
AcDbEntity
  8
0
  6
Continuous
 62
     7
370
    25
100
AcDbLine
 10
6900.8887085209
 20
4808.3001385853
 30
0.0
 11
6900.8887085209
 21
4713.3001385853
 31
0.0
  0
CIRCLE
  5
299
330
1F
100
AcDbEntity
  8
0
  6
Continuous
 62
     7
370
    25
100
AcDbCircle
 10
6858.3887085209
 20
4760.8001385853
 30
0.0
 40
13.0
  0
CIRCLE
  5
29A
330
1F
100
AcDbEntity
  8
0
  6
Continuous
 62
     7
370
    25
100
AcDbCircle
 10
6831.3887085209
 20
4760.8001385853
 30
0.0
 40
5.0
  0
CIRCLE
  5
29B
330
1F
100
AcDbEntity
  8
0
  6
Continuous
 62
     7
370
    25
100
AcDbCircle
 10
6885.3887085209
 20
4760.8001385853
 30
0.0
 40
5.000000000000909
  0
LINE
  5
29C
330
1F
100
AcDbEntity
  8
0
  6
Continuous
 62
     7
370
    25
100
AcDbLine
 10
6815.8887085209
 20
4710.8001385853
 30
0.0
 11
6900.8887085209
 21
4710.8001385853
 31
0.0
  0
LINE
  5
29D
330
1F
100
AcDbEntity
  8
0
  6
Continuous
 62
     7
370
    25
100
AcDbLine
 10
6900.8887085209
 20
4713.3001385853
 30
0.0
 11
6900.8887085209
 21
4710.8001385853
 31
0.0
  0
LINE
  5
29E
330
1F
100
AcDbEntity
  8
0
  6
Continuous
 62
     7
370
    25
100
AcDbLine
 10
6815.8887085209
 20
4713.3001385853
 30
0.0
 11
6815.8887085209
 21
4710.8001385853
 31
0.0
  0
LINE
  5
29F
330
1F
100
AcDbEntity
  8
0
  6
Continuous
 62
     7
370
    25
100
AcDbLine
 10
6815.8887085209
 20
4810.8001385853
 30
0.0
 11
6815.8887085209
 21
4808.3001385853
 31
0.0
  0
LINE
  5
2A0
330
1F
100
AcDbEntity
  8
0
  6
Continuous
 62
     7
370
    25
100
AcDbLine
 10
6815.8887085209
 20
4810.8001385853
 30
0.0
 11
6900.8887085209
 21
4810.8001385853
 31
0.0
  0
LINE
  5
2A1
330
1F
100
AcDbEntity
  8
0
  6
Continuous
 62
     7
370
    25
100
AcDbLine
 10
6900.8887085209
 20
4810.8001385853
 30
0.0
 11
6900.8887085209
 21
4808.3001385853
 31
0.0
  0
ARC
  5
2A2
330
1F
100
AcDbEntity
  8
0
  6
Continuous
 62
     7
370
    25
100
AcDbCircle
 10
6900.6099334632
 20
4802.5415491435
 30
0.0
 40
5.76533328546834
100
AcDbArc
 50
61.1852041926
 51
87.2284577109
  0
LINE
  5
2A3
330
1F
100
AcDbEntity
  8
0
  6
Continuous
 62
     7
370
    25
100
AcDbLine
 10
6903.3887085209
 20
4714.0072453665
 30
0.0
 11
6903.3887085209
 21
4807.5930318041
 31
0.0
  0
ARC
  5
2A4
330
1F
100
AcDbEntity
  8
0
  6
Continuous
 62
     7
370
    25
100
AcDbCircle
 10
6900.733594763
 20
4718.6215193086
 30
0.0
 40
5.323640960885341
100
AcDbArc
 50
271.6696508477
 51
299.9166872488
  0
LINE
  5
2A5
330
1F
100
AcDbEntity
  8
0
  6
Continuous
 62
     7
370
    25
100
AcDbLine
 10
6813.3887085209
 20
4713.3001385853
 30
0.0
 11
6814.8887085209
 21
4713.3001385853
 31
0.0
  0
ARC
  5
2A6
330
1F
100
AcDbEntity
  8
0
  6
Continuous
 62
     7
370
    25
100
AcDbCircle
 10
6815.8887085209
 20
4713.3001385853
 30
0.0
 40
1.000000000001819
100
AcDbArc
 50
180.0000000001
 51
269.9999999999
  0
ARC
  5
2A7
330
1F
100
AcDbEntity
  8
0
  6
Continuous
 62
     7
370
    25
100
AcDbCircle
 10
6815.8891972945
 20
4713.3006273589
 30
0.0
 40
2.500488821353712
100
AcDbArc
 50
180.0111996756
 51
269.9888003244
  0
ARC
  5
2A8
330
1F
100
AcDbEntity
  8
0
  6
Continuous
 62
     7
370
    25
100
AcDbCircle
 10
6900.8882197473
 20
4713.3006273589
 30
0.0
 40
2.500488821353712
100
AcDbArc
 50
270.0111996756
 51
359.9888003244
  0
ARC
  5
2A9
330
1F
100
AcDbEntity
  8
0
  6
Continuous
 62
     7
370
    25
100
AcDbCircle
 10
6900.8887085209
 20
4713.3001385853
 30
0.0
 40
1.000000000001819
100
AcDbArc
 50
270.0
 51
359.9999999999
  0
LINE
  5
2AA
330
1F
100
AcDbEntity
  8
0
  6
Continuous
 62
     7
370
    25
100
AcDbLine
 10
6903.3887085209
 20
4713.3001385853
 30
0.0
 11
6901.8887085209
 21
4713.3001385853
 31
0.0
  0
ARC
  5
2AB
330
1F
100
AcDbEntity
  8
0
  6
Continuous
 62
     7
370
    25
100
AcDbCircle
 10
6815.8887085209
 20
4808.3001385853
 30
0.0
 40
0.9999999999972715
100
AcDbArc
 50
89.9999999998
 51
180.0000000001
  0
LINE
  5
2AC
330
1F
100
AcDbEntity
  8
0
  6
Continuous
 62
     7
370
    25
100
AcDbLine
 10
6813.3887085209
 20
4808.3001385853
 30
0.0
 11
6814.8887085209
 21
4808.3001385853
 31
0.0
  0
ARC
  5
2AD
330
1F
100
AcDbEntity
  8
0
  6
Continuous
 62
     7
370
    25
100
AcDbCircle
 10
6815.8891972945
 20
4808.2996498117
 30
0.0
 40
2.500488821350983
100
AcDbArc
 50
90.0111996755
 51
179.9888003244
  0
ARC
  5
2AE
330
1F
100
AcDbEntity
  8
0
  6
Continuous
 62
     7
370
    25
100
AcDbCircle
 10
6900.8882197473
 20
4808.2996498117
 30
0.0
 40
2.500488821350983
100
AcDbArc
 50
0.0111996756
 51
89.9888003245
  0
LINE
  5
2AF
330
1F
100
AcDbEntity
  8
0
  6
Continuous
 62
     7
370
    25
100
AcDbLine
 10
6903.3887085209
 20
4808.3001385853
 30
0.0
 11
6901.8887085209
 21
4808.3001385853
 31
0.0
  0
ARC
  5
2B0
330
1F
100
AcDbEntity
  8
0
  6
Continuous
 62
     7
370
    25
100
AcDbCircle
 10
6900.8887085209
 20
4808.3001385853
 30
0.0
 40
0.9999999999990905
100
AcDbArc
 50
359.9999999999
 51
90.0000000001
  0
LINE
  5
2B1
330
1F
100
AcDbEntity
  8
0
  6
Continuous
 62
     7
370
    25
100
AcDbLine
 10
6813.3887085209
 20
4714.0072453665
 30
0.0
 11
6813.3887085209
 21
4713.3001385853
 31
0.0
  0
LINE
  5
2B2
330
1F
100
AcDbEntity
  8
0
  6
Continuous
 62
     7
370
    25
100
AcDbLine
 10
6814.8887085209
 20
4713.485996577
 30
0.0
 11
6814.8887085209
 21
4713.3001385853
 31
0.0
  0
LINE
  5
2B3
330
1F
100
AcDbEntity
  8
0
  6
Continuous
 62
     7
370
    25
100
AcDbLine
 10
6814.8887085209
 20
4808.3001385853
 30
0.0
 11
6814.8887085209
 21
4808.1148558731
 31
0.0
  0
LINE
  5
2B4
330
1F
100
AcDbEntity
  8
0
  6
Continuous
 62
     7
370
    25
100
AcDbLine
 10
6813.3887085209
 20
4808.3001385853
 30
0.0
 11
6813.3887085209
 21
4807.5930318041
 31
0.0
  0
LINE
  5
2B5
330
1F
100
AcDbEntity
  8
0
  6
Continuous
 62
     7
370
    25
100
AcDbLine
 10
6903.3887085209
 20
4713.3001385853
 30
0.0
 11
6903.3887085209
 21
4714.0072453665
 31
0.0
  0
LINE
  5
2B6
330
1F
100
AcDbEntity
  8
0
  6
Continuous
 62
     7
370
    25
100
AcDbLine
 10
6901.8887085209
 20
4713.3001385853
 30
0.0
 11
6901.8887085209
 21
4713.4854212976
 31
0.0
  0
LINE
  5
2B7
330
1F
100
AcDbEntity
  8
0
  6
Continuous
 62
     7
370
    25
100
AcDbLine
 10
6903.3887085209
 20
4807.5930318041
 30
0.0
 11
6903.3887085209
 21
4808.3001385853
 31
0.0
  0
LINE
  5
2B8
330
1F
100
AcDbEntity
  8
0
  6
Continuous
 62
     7
370
    25
100
AcDbLine
 10
6901.8887085209
 20
4808.3001385853
 30
0.0
 11
6901.8887085209
 21
4808.1142805936
 31
0.0
  0
ARC
  5
2B9
330
1F
100
AcDbEntity
  8
0
  6
Continuous
 62
     7
370
    25
100
AcDbCircle
 10
6726.2624320165
 20
4719.5535353747
 30
0.0
 40
6.264616744725347
100
AcDbArc
 50
242.8893907324
 51
266.5703422762
  0
ARC
  5
2BA
330
1F
100
AcDbEntity
  8
0
  6
Continuous
 62
     7
370
    25
100
AcDbCircle
 10
6726.1414090718
 20
4802.4781129757
 30
0.0
 40
5.827552581506416
100
AcDbArc
 50
92.4955856874
 51
118.0749168678
  0
LINE
  5
2BB
330
1F
100
AcDbEntity
  8
0
  6
Continuous
 62
     7
370
    25
100
AcDbLine
 10
6725.8876633514
 20
4808.3001385853
 30
0.0
 11
6725.8876633514
 21
4713.3001385853
 31
0.0
  0
LINE
  5
2BC
330
1F
100
AcDbEntity
  8
0
  6
Continuous
 62
     7
370
    25
100
AcDbLine
 10
6725.8876633514
 20
4713.3001385853
 30
0.0
 11
6810.8876633514
 21
4713.3001385853
 31
0.0
  0
LINE
  5
2BD
330
1F
100
AcDbEntity
  8
0
  6
Continuous
 62
     7
370
    25
100
AcDbLine
 10
6725.8876633514
 20
4808.3001385853
 30
0.0
 11
6810.8876633514
 21
4808.3001385853
 31
0.0
  0
LINE
  5
2BE
330
1F
100
AcDbEntity
  8
0
  6
Continuous
 62
     7
370
    25
100
AcDbLine
 10
6810.8876633514
 20
4808.3001385853
 30
0.0
 11
6810.8876633514
 21
4713.3001385853
 31
0.0
  0
CIRCLE
  5
2BF
330
1F
100
AcDbEntity
  8
0
  6
Continuous
 62
     7
370
    25
100
AcDbCircle
 10
6768.3876633514
 20
4760.8001385853
 30
0.0
 40
13.0
  0
CIRCLE
  5
2C0
330
1F
100
AcDbEntity
  8
0
  6
Continuous
 62
     7
370
    25
100
AcDbCircle
 10
6741.3876633514
 20
4760.8001385853
 30
0.0
 40
5.0
  0
CIRCLE
  5
2C1
330
1F
100
AcDbEntity
  8
0
  6
Continuous
 62
     7
370
    25
100
AcDbCircle
 10
6795.3876633514
 20
4760.8001385853
 30
0.0
 40
5.0
  0
LINE
  5
2C2
330
1F
100
AcDbEntity
  8
0
  6
Continuous
 62
     7
370
    25
100
AcDbLine
 10
6725.8876633514
 20
4710.8001385853
 30
0.0
 11
6810.8876633514
 21
4710.8001385853
 31
0.0
  0
LINE
  5
2C3
330
1F
100
AcDbEntity
  8
0
  6
Continuous
 62
     7
370
    25
100
AcDbLine
 10
6810.8876633514
 20
4713.3001385853
 30
0.0
 11
6810.8876633514
 21
4710.8001385853
 31
0.0
  0
LINE
  5
2C4
330
1F
100
AcDbEntity
  8
0
  6
Continuous
 62
     7
370
    25
100
AcDbLine
 10
6725.8876633514
 20
4713.3001385853
 30
0.0
 11
6725.8876633514
 21
4710.8001385853
 31
0.0
  0
LINE
  5
2C5
330
1F
100
AcDbEntity
  8
0
  6
Continuous
 62
     7
370
    25
100
AcDbLine
 10
6725.8876633514
 20
4810.8001385853
 30
0.0
 11
6810.8876633514
 21
4810.8001385853
 31
0.0
  0
LINE
  5
2C6
330
1F
100
AcDbEntity
  8
0
  6
Continuous
 62
     7
370
    25
100
AcDbLine
 10
6810.8876633514
 20
4810.8001385853
 30
0.0
 11
6810.8876633514
 21
4808.3001385853
 31
0.0
  0
LINE
  5
2C7
330
1F
100
AcDbEntity
  8
0
  6
Continuous
 62
     7
370
    25
100
AcDbLine
 10
6725.8876633514
 20
4810.8001385853
 30
0.0
 11
6725.8876633514
 21
4808.3001385853
 31
0.0
  0
LINE
  5
2C8
330
1F
100
AcDbEntity
  8
0
  6
Continuous
 62
     7
370
    25
100
AcDbLine
 10
6813.3876633514
 20
4714.0072453665
 30
0.0
 11
6813.3876633514
 21
4807.5930318041
 31
0.0
  0
ARC
  5
2C9
330
1F
100
AcDbEntity
  8
0
  6
Continuous
 62
     7
370
    25
100
AcDbCircle
 10
6810.7325495935
 20
4718.6215193087
 30
0.0
 40
5.323640960892534
100
AcDbArc
 50
271.6696508477
 51
299.9166872488
  0
ARC
  5
2CA
330
1F
100
AcDbEntity
  8
0
  6
Continuous
 62
     7
370
    25
100
AcDbCircle
 10
6810.6088882936
 20
4802.5415491435
 30
0.0
 40
5.765333285466567
100
AcDbArc
 50
61.1852041926
 51
87.2284577108
  0
ARC
  5
2CB
330
1F
100
AcDbEntity
  8
0
  6
Continuous
 62
     7
370
    25
100
AcDbCircle
 10
6725.888152125
 20
4713.3006273589
 30
0.0
 40
2.500488821353712
100
AcDbArc
 50
180.0111996756
 51
269.9888003244
  0
LINE
  5
2CC
330
1F
100
AcDbEntity
  8
0
  6
Continuous
 62
     7
370
    25
100
AcDbLine
 10
6723.3876633514
 20
4713.3001385853
 30
0.0
 11
6724.8876633514
 21
4713.3001385853
 31
0.0
  0
ARC
  5
2CD
330
1F
100
AcDbEntity
  8
0
  6
Continuous
 62
     7
370
    25
100
AcDbCircle
 10
6725.8876633514
 20
4713.3001385853
 30
0.0
 40
1.000000000003638
100
AcDbArc
 50
180.0000000002
 51
269.9999999997
  0
ARC
  5
2CE
330
1F
100
AcDbEntity
  8
0
  6
Continuous
 62
     7
370
    25
100
AcDbCircle
 10
6810.8871745778
 20
4713.3006273589
 30
0.0
 40
2.500488821353712
100
AcDbArc
 50
270.0111996756
 51
359.9888003244
  0
ARC
  5
2CF
330
1F
100
AcDbEntity
  8
0
  6
Continuous
 62
     7
370
    25
100
AcDbCircle
 10
6810.8876633514
 20
4713.3001385853
 30
0.0
 40
1.000000000005457
100
AcDbArc
 50
270.0000000003
 51
359.9999999998
  0
LINE
  5
2D0
330
1F
100
AcDbEntity
  8
0
  6
Continuous
 62
     7
370
    25
100
AcDbLine
 10
6813.3876633514
 20
4713.3001385853
 30
0.0
 11
6811.8876633514
 21
4713.3001385853
 31
0.0
  0
ARC
  5
2D1
330
1F
100
AcDbEntity
  8
0
  6
Continuous
 62
     7
370
    25
100
AcDbCircle
 10
6725.8876633514
 20
4808.3001385853
 30
0.0
 40
0.9999999999972715
100
AcDbArc
 50
89.9999999999
 51
180.0000000001
  0
LINE
  5
2D2
330
1F
100
AcDbEntity
  8
0
  6
Continuous
 62
     7
370
    25
100
AcDbLine
 10
6723.3876633514
 20
4808.3001385853
 30
0.0
 11
6724.8876633514
 21
4808.3001385853
 31
0.0
  0
ARC
  5
2D3
330
1F
100
AcDbEntity
  8
0
  6
Continuous
 62
     7
370
    25
100
AcDbCircle
 10
6725.888152125
 20
4808.2996498117
 30
0.0
 40
2.500488821352802
100
AcDbArc
 50
90.0111996756
 51
179.9888003244
  0
ARC
  5
2D4
330
1F
100
AcDbEntity
  8
0
  6
Continuous
 62
     7
370
    25
100
AcDbCircle
 10
6810.8871745778
 20
4808.2996498117
 30
0.0
 40
2.500488821352802
100
AcDbArc
 50
0.0111996756
 51
89.9888003244
  0
LINE
  5
2D5
330
1F
100
AcDbEntity
  8
0
  6
Continuous
 62
     7
370
    25
100
AcDbLine
 10
6813.3876633514
 20
4808.3001385853
 30
0.0
 11
6811.8876633514
 21
4808.3001385853
 31
0.0
  0
ARC
  5
2D6
330
1F
100
AcDbEntity
  8
0
  6
Continuous
 62
     7
370
    25
100
AcDbCircle
 10
6810.8876633514
 20
4808.3001385853
 30
0.0
 40
1.000000000000909
100
AcDbArc
 50
0.0000000001
 51
90.0
  0
LINE
  5
2D7
330
1F
100
AcDbEntity
  8
0
  6
Continuous
 62
     7
370
    25
100
AcDbLine
 10
6723.3876633514
 20
4713.9803223446
 30
0.0
 11
6723.3876633514
 21
4713.3001385853
 31
0.0
  0
LINE
  5
2D8
330
1F
100
AcDbEntity
  8
0
  6
Continuous
 62
     7
370
    25
100
AcDbLine
 10
6724.8876633514
 20
4713.485996577
 30
0.0
 11
6724.8876633514
 21
4713.3001385853
 31
0.0
  0
LINE
  5
2D9
330
1F
100
AcDbEntity
  8
0
  6
Continuous
 62
     7
370
    25
100
AcDbLine
 10
6724.8876633514
 20
4808.3001385853
 30
0.0
 11
6724.8876633514
 21
4808.1148558731
 31
0.0
  0
LINE
  5
2DA
330
1F
100
AcDbEntity
  8
0
  6
Continuous
 62
     7
370
    25
100
AcDbLine
 10
6723.3876633514
 20
4808.3001385853
 30
0.0
 11
6723.3876633514
 21
4807.6098355474
 31
0.0
  0
LINE
  5
2DB
330
1F
100
AcDbEntity
  8
0
  6
Continuous
 62
     7
370
    25
100
AcDbLine
 10
6813.3876633514
 20
4713.3001385853
 30
0.0
 11
6813.3876633514
 21
4714.0072453665
 31
0.0
  0
LINE
  5
2DC
330
1F
100
AcDbEntity
  8
0
  6
Continuous
 62
     7
370
    25
100
AcDbLine
 10
6811.8876633514
 20
4713.3001385853
 30
0.0
 11
6811.8876633514
 21
4713.4854212976
 31
0.0
  0
LINE
  5
2DD
330
1F
100
AcDbEntity
  8
0
  6
Continuous
 62
     7
370
    25
100
AcDbLine
 10
6813.3876633514
 20
4807.5930318041
 30
0.0
 11
6813.3876633514
 21
4808.3001385853
 31
0.0
  0
LINE
  5
2DE
330
1F
100
AcDbEntity
  8
0
  6
Continuous
 62
     7
370
    25
100
AcDbLine
 10
6811.8876633514
 20
4808.3001385853
 30
0.0
 11
6811.8876633514
 21
4808.1142805936
 31
0.0
  0
LINE
  5
2DF
330
1F
100
AcDbEntity
  8
0
  6
Continuous
 62
     7
370
    25
100
AcDbLine
 10
6650.8988133168
 20
4713.3001385853
 30
0.0
 11
6720.8988133168
 21
4713.3001385853
 31
0.0
  0
LINE
  5
2E0
330
1F
100
AcDbEntity
  8
0
  6
Continuous
 62
     7
370
    25
100
AcDbLine
 10
6650.8988133168
 20
4808.3001385853
 30
0.0
 11
6650.8988133168
 21
4713.3001385853
 31
0.0
  0
LINE
  5
2E1
330
1F
100
AcDbEntity
  8
0
  6
Continuous
 62
     7
370
    25
100
AcDbLine
 10
6650.8988133168
 20
4808.3001385853
 30
0.0
 11
6720.8988133168
 21
4808.3001385853
 31
0.0
  0
LINE
  5
2E2
330
1F
100
AcDbEntity
  8
0
  6
Continuous
 62
     7
370
    25
100
AcDbLine
 10
6720.8988133168
 20
4808.3001385853
 30
0.0
 11
6720.8988133168
 21
4713.3001385853
 31
0.0
  0
LINE
  5
2E3
330
1F
100
AcDbEntity
  8
0
  6
Continuous
 62
     7
370
    25
100
AcDbLine
 10
6672.3988133168
 20
4767.5501385853
 30
0.0
 11
6664.4351812849
 21
4767.5501385853
 31
0.0
  0
LINE
  5
2E4
330
1F
100
AcDbEntity
  8
0
  6
Continuous
 62
     7
370
    25
100
AcDbLine
 10
6672.3988133168
 20
4754.0501385853
 30
0.0
 11
6672.3988133168
 21
4767.5501385853
 31
0.0
  0
LINE
  5
2E5
330
1F
100
AcDbEntity
  8
0
  6
Continuous
 62
     7
370
    25
100
AcDbLine
 10
6664.4351812849
 20
4754.0501385853
 30
0.0
 11
6672.3988133168
 21
4754.0501385853
 31
0.0
  0
ARC
  5
2E6
330
1F
100
AcDbEntity
  8
0
  6
Continuous
 62
     7
370
    25
100
AcDbCircle
 10
6685.8988133168
 20
4760.8001385853
 30
0.0
 40
22.49999999999983
100
AcDbArc
 50
197.4576031237
 51
342.5423968763
  0
LINE
  5
2E7
330
1F
100
AcDbEntity
  8
0
  6
Continuous
 62
     7
370
    25
100
AcDbLine
 10
6699.3988133168
 20
4754.0501385853
 30
0.0
 11
6707.3624453486
 21
4754.0501385853
 31
0.0
  0
LINE
  5
2E8
330
1F
100
AcDbEntity
  8
0
  6
Continuous
 62
     7
370
    25
100
AcDbLine
 10
6699.3988133168
 20
4767.5501385853
 30
0.0
 11
6699.3988133168
 21
4754.0501385853
 31
0.0
  0
LINE
  5
2E9
330
1F
100
AcDbEntity
  8
0
  6
Continuous
 62
     7
370
    25
100
AcDbLine
 10
6707.3624453486
 20
4767.5501385853
 30
0.0
 11
6699.3988133168
 21
4767.5501385853
 31
0.0
  0
ARC
  5
2EA
330
1F
100
AcDbEntity
  8
0
  6
Continuous
 62
     7
370
    25
100
AcDbCircle
 10
6685.8988133168
 20
4760.8001385853
 30
0.0
 40
22.50000000000038
100
AcDbArc
 50
17.4576031237
 51
162.5423968763
  0
CIRCLE
  5
2EB
330
1F
100
AcDbEntity
  8
0
  6
Continuous
 62
     7
370
    25
100
AcDbCircle
 10
6667.3988133168
 20
4760.8001385853
 30
0.0
 40
3.199999999999818
  0
CIRCLE
  5
2EC
330
1F
100
AcDbEntity
  8
0
  6
Continuous
 62
     7
370
    25
100
AcDbCircle
 10
6704.3988133168
 20
4760.8001385853
 30
0.0
 40
3.199999999999818
  0
ARC
  5
2ED
330
1F
100
AcDbEntity
  8
0
  6
Continuous
 62
     7
370
    25
100
AcDbCircle
 10
6720.5899479612
 20
4802.3861393706
 30
0.0
 40
5.922059145232997
100
AcDbArc
 50
61.7612775544
 51
87.0103787121
  0
ARC
  5
2EE
330
1F
100
AcDbEntity
  8
0
  6
Continuous
 62
     7
370
    25
100
AcDbCircle
 10
6720.6450675964
 20
4719.122164195
 30
0.0
 40
5.827552581471527
100
AcDbArc
 50
272.4955856873
 51
298.0749168678
  0
ARC
  5
2EF
330
1F
100
AcDbEntity
  8
0
  6
Continuous
 62
     7
370
    25
100
AcDbCircle
 10
6651.1775883745
 20
4719.0587280271
 30
0.0
 40
5.765333285435153
100
AcDbArc
 50
241.1852041925
 51
267.2284577109
  0
LINE
  5
2F0
330
1F
100
AcDbEntity
  8
0
  6
Continuous
 62
     7
370
    25
100
AcDbLine
 10
6648.3988133168
 20
4807.5930318041
 30
0.0
 11
6648.3988133168
 21
4714.0072453665
 31
0.0
  0
ARC
  5
2F1
330
1F
100
AcDbEntity
  8
0
  6
Continuous
 62
     7
370
    25
100
AcDbCircle
 10
6651.0539270747
 20
4802.978757862
 30
0.0
 40
5.32364096088903
100
AcDbArc
 50
91.6696508477
 51
119.9166872488
  0
LINE
  5
2F2
330
1F
100
AcDbEntity
  8
0
  6
Continuous
 62
     7
370
    25
100
AcDbLine
 10
6650.8988133168
 20
4710.8001385853
 30
0.0
 11
6720.8988133168
 21
4710.8001385853
 31
0.0
  0
LINE
  5
2F3
330
1F
100
AcDbEntity
  8
0
  6
Continuous
 62
     7
370
    25
100
AcDbLine
 10
6650.8988133168
 20
4713.3001385853
 30
0.0
 11
6650.8988133168
 21
4710.8001385853
 31
0.0
  0
LINE
  5
2F4
330
1F
100
AcDbEntity
  8
0
  6
Continuous
 62
     7
370
    25
100
AcDbLine
 10
6720.8988133168
 20
4713.3001385853
 30
0.0
 11
6720.8988133168
 21
4710.8001385853
 31
0.0
  0
LINE
  5
2F5
330
1F
100
AcDbEntity
  8
0
  6
Continuous
 62
     7
370
    25
100
AcDbLine
 10
6650.8988133168
 20
4810.8001385853
 30
0.0
 11
6650.8988133168
 21
4808.3001385853
 31
0.0
  0
LINE
  5
2F6
330
1F
100
AcDbEntity
  8
0
  6
Continuous
 62
     7
370
    25
100
AcDbLine
 10
6650.8988133168
 20
4810.8001385853
 30
0.0
 11
6720.8988133168
 21
4810.8001385853
 31
0.0
  0
LINE
  5
2F7
330
1F
100
AcDbEntity
  8
0
  6
Continuous
 62
     7
370
    25
100
AcDbLine
 10
6720.8988133168
 20
4810.8001385853
 30
0.0
 11
6720.8988133168
 21
4808.3001385853
 31
0.0
  0
ARC
  5
2F8
330
1F
100
AcDbEntity
  8
0
  6
Continuous
 62
     7
370
    25
100
AcDbCircle
 10
6720.8983245432
 20
4713.3006273589
 30
0.0
 40
2.500488821352802
100
AcDbArc
 50
270.0111996756
 51
359.9888003244
  0
ARC
  5
2F9
330
1F
100
AcDbEntity
  8
0
  6
Continuous
 62
     7
370
    25
100
AcDbCircle
 10
6720.8988133168
 20
4713.3001385853
 30
0.0
 40
0.9999999999990905
100
AcDbArc
 50
269.9999999999
 51
0.0000000001
  0
LINE
  5
2FA
330
1F
100
AcDbEntity
  8
0
  6
Continuous
 62
     7
370
    25
100
AcDbLine
 10
6723.3988133168
 20
4713.3001385853
 30
0.0
 11
6721.8988133168
 21
4713.3001385853
 31
0.0
  0
LINE
  5
2FB
330
1F
100
AcDbEntity
  8
0
  6
Continuous
 62
     7
370
    25
100
AcDbLine
 10
6723.3988133168
 20
4808.3001385853
 30
0.0
 11
6721.8988133168
 21
4808.3001385853
 31
0.0
  0
ARC
  5
2FC
330
1F
100
AcDbEntity
  8
0
  6
Continuous
 62
     7
370
    25
100
AcDbCircle
 10
6720.8988133168
 20
4808.3001385853
 30
0.0
 40
1.0
100
AcDbArc
 50
0.0
 51
90.0000000001
  0
ARC
  5
2FD
330
1F
100
AcDbEntity
  8
0
  6
Continuous
 62
     7
370
    25
100
AcDbCircle
 10
6720.8983245432
 20
4808.2996498117
 30
0.0
 40
2.500488821352802
100
AcDbArc
 50
0.0111996756
 51
89.9888003245
  0
LINE
  5
2FE
330
1F
100
AcDbEntity
  8
0
  6
Continuous
 62
     7
370
    25
100
AcDbLine
 10
6648.3988133168
 20
4713.3001385853
 30
0.0
 11
6649.8988133168
 21
4713.3001385853
 31
0.0
  0
ARC
  5
2FF
330
1F
100
AcDbEntity
  8
0
  6
Continuous
 62
     7
370
    25
100
AcDbCircle
 10
6650.8988133168
 20
4713.3001385853
 30
0.0
 40
1.0
100
AcDbArc
 50
180.0
 51
270.0000000001
  0
ARC
  5
300
330
1F
100
AcDbEntity
  8
0
  6
Continuous
 62
     7
370
    25
100
AcDbCircle
 10
6650.8993020903
 20
4713.3006273589
 30
0.0
 40
2.500488821352802
100
AcDbArc
 50
180.0111996756
 51
269.9888003244
  0
ARC
  5
301
330
1F
100
AcDbEntity
  8
0
  6
Continuous
 62
     7
370
    25
100
AcDbCircle
 10
6650.8993020903
 20
4808.2996498117
 30
0.0
 40
2.500488821352802
100
AcDbArc
 50
90.0111996756
 51
179.9888003244
  0
ARC
  5
302
330
1F
100
AcDbEntity
  8
0
  6
Continuous
 62
     7
370
    25
100
AcDbCircle
 10
6650.8988133168
 20
4808.3001385853
 30
0.0
 40
0.9999999999990905
100
AcDbArc
 50
89.9999999999
 51
180.0000000001
  0
LINE
  5
303
330
1F
100
AcDbEntity
  8
0
  6
Continuous
 62
     7
370
    25
100
AcDbLine
 10
6648.3988133168
 20
4808.3001385853
 30
0.0
 11
6649.8988133168
 21
4808.3001385853
 31
0.0
  0
LINE
  5
304
330
1F
100
AcDbEntity
  8
0
  6
Continuous
 62
     7
370
    25
100
AcDbLine
 10
6723.3988133168
 20
4713.3001385853
 30
0.0
 11
6723.3988133168
 21
4713.9904416233
 31
0.0
  0
LINE
  5
305
330
1F
100
AcDbEntity
  8
0
  6
Continuous
 62
     7
370
    25
100
AcDbLine
 10
6721.8988133168
 20
4713.3001385853
 30
0.0
 11
6721.8988133168
 21
4713.4854212976
 31
0.0
  0
LINE
  5
306
330
1F
100
AcDbEntity
  8
0
  6
Continuous
 62
     7
370
    25
100
AcDbLine
 10
6648.3988133168
 20
4714.0072453665
 30
0.0
 11
6648.3988133168
 21
4713.3001385853
 31
0.0
  0
LINE
  5
307
330
1F
100
AcDbEntity
  8
0
  6
Continuous
 62
     7
370
    25
100
AcDbLine
 10
6649.8988133168
 20
4713.485996577
 30
0.0
 11
6649.8988133168
 21
4713.3001385853
 31
0.0
  0
LINE
  5
308
330
1F
100
AcDbEntity
  8
0
  6
Continuous
 62
     7
370
    25
100
AcDbLine
 10
6723.3988133168
 20
4807.6199548261
 30
0.0
 11
6723.3988133168
 21
4808.3001385853
 31
0.0
  0
LINE
  5
309
330
1F
100
AcDbEntity
  8
0
  6
Continuous
 62
     7
370
    25
100
AcDbLine
 10
6721.8988133168
 20
4808.3001385853
 30
0.0
 11
6721.8988133168
 21
4808.1142805936
 31
0.0
  0
LINE
  5
30A
330
1F
100
AcDbEntity
  8
0
  6
Continuous
 62
     7
370
    25
100
AcDbLine
 10
6648.3988133168
 20
4808.3001385853
 30
0.0
 11
6648.3988133168
 21
4807.5930318041
 31
0.0
  0
LINE
  5
30B
330
1F
100
AcDbEntity
  8
0
  6
Continuous
 62
     7
370
    25
100
AcDbLine
 10
6649.8988133168
 20
4808.3001385853
 30
0.0
 11
6649.8988133168
 21
4808.1148558731
 31
0.0
  0
LINE
  5
30C
330
1F
100
AcDbEntity
  8
0
  6
Continuous
 62
     8
370
    25
100
AcDbLine
 10
6683.7622176049
 20
4509.4935118219
 30
0.0
 11
6682.2366763305
 21
4505.945845111
 31
0.0
  0
LINE
  5
30D
330
1F
100
AcDbEntity
  8
0
  6
Continuous
 62
     8
370
    25
100
AcDbLine
 10
6667.560950303
 20
4503.2066726872
 30
0.0
 11
6666.3653374286
 21
4500.4262588991
 31
0.0
  0
LINE
  5
30E
330
1F
100
AcDbEntity
  8
0
  6
Continuous
 62
     7
370
    25
100
AcDbLine
 10
7390.0627178412
 20
4699.6605661969
 30
0.0
 11
7390.0627178412
 21
4695.8001385853
 31
0.0
  0
LINE
  5
30F
330
1F
100
AcDbEntity
  8
0
  6
Continuous
 62
     7
370
    25
100
AcDbLine
 10
7390.0627178412
 20
4695.8001385853
 30
0.0
 11
7391.0627178412
 21
4694.8001385853
 31
0.0
  0
LINE
  5
310
330
1F
100
AcDbEntity
  8
0
  6
Continuous
 62
     7
370
    25
100
AcDbLine
 10
7390.0627178412
 20
4825.8001385853
 30
0.0
 11
7390.0627178412
 21
4821.9397109738
 31
0.0
  0
LINE
  5
311
330
1F
100
AcDbEntity
  8
0
  6
Continuous
 62
     7
370
    25
100
AcDbLine
 10
7391.0627178412
 20
4826.8001385853
 30
0.0
 11
7390.0627178412
 21
4825.8001385853
 31
0.0
  0
LINE
  5
312
330
1F
100
AcDbEntity
  8
0
  6
Continuous
 62
     7
370
    25
100
AcDbLine
 10
7385.0127178412
 20
4500.5762588991
 30
0.0
 11
7391.0127178412
 21
4500.5762588991
 31
0.0
  0
LINE
  5
313
330
1F
100
AcDbEntity
  8
0
  6
Continuous
 62
     7
370
    25
100
AcDbLine
 10
7391.0127178412
 20
4508.5762588991
 30
0.0
 11
7385.0127178412
 21
4508.5762588991
 31
0.0
  0
LINE
  5
314
330
1F
100
AcDbEntity
  8
0
  6
Continuous
 62
     7
370
    25
100
AcDbLine
 10
7412.0627178412
 20
4782.3001385853
 30
0.0
 11
7409.5627178412
 21
4782.3001385853
 31
0.0
  0
LINE
  5
315
330
1F
100
AcDbEntity
  8
0
  6
Continuous
 62
     7
370
    25
100
AcDbLine
 10
7409.5627178412
 20
4776.8001385853
 30
0.0
 11
7412.0627178412
 21
4776.8001385853
 31
0.0
  0
ARC
  5
316
330
1F
100
AcDbEntity
  8
0
  6
Continuous
 62
     7
370
    25
100
AcDbCircle
 10
7412.0627178412
 20
4777.3001385853
 30
0.0
 40
0.5000000000009095
100
AcDbArc
 50
270.0
 51
0.0
  0
ARC
  5
317
330
1F
100
AcDbEntity
  8
0
  6
Continuous
 62
     7
370
    25
100
AcDbCircle
 10
7412.0627178412
 20
4781.8001385853
 30
0.0
 40
0.5
100
AcDbArc
 50
359.9999999999
 51
90.0
  0
ARC
  5
318
330
1F
100
AcDbEntity
  8
0
  6
Continuous
 62
     7
370
    25
100
AcDbCircle
 10
7412.0627178412
 20
4739.8001385853
 30
0.0
 40
0.5
100
AcDbArc
 50
270.0
 51
0.0
  0
ARC
  5
319
330
1F
100
AcDbEntity
  8
0
  6
Continuous
 62
     7
370
    25
100
AcDbCircle
 10
7412.0627178412
 20
4744.3001385853
 30
0.0
 40
0.5
100
AcDbArc
 50
0.0
 51
90.0
  0
LINE
  5
31A
330
1F
100
AcDbEntity
  8
0
  6
Continuous
 62
     7
370
    25
100
AcDbLine
 10
7412.0627178412
 20
4744.8001385853
 30
0.0
 11
7409.5627178412
 21
4744.8001385853
 31
0.0
  0
LINE
  5
31B
330
1F
100
AcDbEntity
  8
0
  6
Continuous
 62
     7
370
    25
100
AcDbLine
 10
7409.5627178412
 20
4739.3001385853
 30
0.0
 11
7412.0627178412
 21
4739.3001385853
 31
0.0
  0
LINE
  5
31C
330
1F
100
AcDbEntity
  8
0
  6
Continuous
 62
     7
370
    25
100
AcDbLine
 10
7409.5627178412
 20
4747.9501385853
 30
0.0
 11
7421.0627178412
 21
4747.9501385853
 31
0.0
  0
LINE
  5
31D
330
1F
100
AcDbEntity
  8
0
  6
Continuous
 62
     7
370
    25
100
AcDbLine
 10
7421.0627178412
 20
4773.6501385853
 30
0.0
 11
7409.5627178412
 21
4773.6501385853
 31
0.0
  0
LINE
  5
31E
330
1F
100
AcDbEntity
  8
0
  6
Continuous
 62
     7
370
    25
100
AcDbLine
 10
7365.4981423123
 20
4302.5762588991
 30
0.0
 11
7377.4981423122
 21
4302.5762588991
 31
0.0
  0
LINE
  5
31F
330
1F
100
AcDbEntity
  8
0
  6
Continuous
 62
     7
370
    25
100
AcDbLine
 10
7366.9981423123
 20
4331.0762588991
 30
0.0
 11
7366.9981423123
 21
4329.5762588991
 31
0.0
  0
LINE
  5
320
330
1F
100
AcDbEntity
  8
0
  6
Continuous
 62
     7
370
    25
100
AcDbLine
 10
7375.9981423122
 20
4329.5762588991
 30
0.0
 11
7375.9981423122
 21
4331.0762588991
 31
0.0
  0
ARC
  5
321
330
1F
100
AcDbEntity
  8
0
  6
Continuous
 62
     7
370
    25
100
AcDbCircle
 10
7371.4981423123
 20
4339.2012588991
 30
0.0
 40
10.625
100
AcDbArc
 50
244.9423845817
 51
295.0576154183
  0
LINE
  5
322
330
1F
100
AcDbEntity
  8
0
  6
Continuous
 62
     7
370
    25
100
AcDbLine
 10
7367.4981423122
 20
4340.0762588991
 30
0.0
 11
7367.4981423122
 21
4338.5762588991
 31
0.0
  0
LINE
  5
323
330
1F
100
AcDbEntity
  8
0
  6
Continuous
 62
     7
370
    25
100
AcDbLine
 10
7375.4981423122
 20
4338.5762588991
 30
0.0
 11
7375.4981423122
 21
4340.0762588991
 31
0.0
  0
LINE
  5
324
330
1F
100
AcDbEntity
  8
0
  6
Continuous
 62
     7
370
    25
100
AcDbLine
 10
7368.4981423123
 20
4342.0762588991
 30
0.0
 11
7368.4981423123
 21
4340.0762588991
 31
0.0
  0
LINE
  5
325
330
1F
100
AcDbEntity
  8
0
  6
Continuous
 62
     7
370
    25
100
AcDbLine
 10
7374.4981423122
 20
4340.0762588991
 30
0.0
 11
7374.4981423122
 21
4342.0762588991
 31
0.0
  0
LINE
  5
326
330
1F
100
AcDbEntity
  8
0
  6
Continuous
 62
     7
370
    25
100
AcDbLine
 10
7368.9981423122
 20
4337.3262588991
 30
0.0
 11
7368.9981423122
 21
4332.3262588991
 31
0.0
  0
LINE
  5
327
330
1F
100
AcDbEntity
  8
0
  6
Continuous
 62
     7
370
    25
100
AcDbLine
 10
7373.9981423122
 20
4332.3262588991
 30
0.0
 11
7373.9981423122
 21
4337.3262588991
 31
0.0
  0
LINE
  5
328
330
1F
100
AcDbEntity
  8
0
  6
Continuous
 62
     7
370
    25
100
AcDbLine
 10
7368.9981423122
 20
4352.0762588991
 30
0.0
 11
7368.9981423122
 21
4342.0762588991
 31
0.0
  0
LINE
  5
329
330
1F
100
AcDbEntity
  8
0
  6
Continuous
 62
     7
370
    25
100
AcDbLine
 10
7373.9981423122
 20
4342.0762588991
 30
0.0
 11
7373.9981423122
 21
4352.0762588991
 31
0.0
  0
LINE
  5
32A
330
1F
100
AcDbEntity
  8
0
  6
Continuous
 62
     7
370
    25
100
AcDbLine
 10
7373.9981423122
 20
4352.0762588991
 30
0.0
 11
7373.4981423123
 21
4352.5762588991
 31
0.0
  0
LINE
  5
32B
330
1F
100
AcDbEntity
  8
0
  6
Continuous
 62
     7
370
    25
100
AcDbLine
 10
7369.4981423122
 20
4352.5762588991
 30
0.0
 11
7368.9981423122
 21
4352.0762588991
 31
0.0
  0
LINE
  5
32C
330
1F
100
AcDbEntity
  8
0
  6
Continuous
 62
     7
370
    25
100
AcDbLine
 10
7364.9981423122
 20
4369.0762588991
 30
0.0
 11
7360.4981423123
 21
4369.0762588991
 31
0.0
  0
LINE
  5
32D
330
1F
100
AcDbEntity
  8
0
  6
Continuous
 62
     7
370
    25
100
AcDbLine
 10
7360.4981423123
 20
4300.5762588991
 30
0.0
 11
7365.4981423123
 21
4300.5762588991
 31
0.0
  0
LINE
  5
32E
330
1F
100
AcDbEntity
  8
0
  6
Continuous
 62
     7
370
    25
100
AcDbLine
 10
7382.9981423123
 20
4369.0762588991
 30
0.0
 11
7377.9981423123
 21
4369.0762588991
 31
0.0
  0
LINE
  5
32F
330
1F
100
AcDbEntity
  8
0
  6
Continuous
 62
     7
370
    25
100
AcDbLine
 10
7377.4981423122
 20
4300.5762588991
 30
0.0
 11
7382.9981423123
 21
4300.5762588991
 31
0.0
  0
ARC
  5
330
330
1F
100
AcDbEntity
  8
0
  6
Continuous
 62
     7
370
    25
100
AcDbCircle
 10
7382.9981423123
 20
4368.0762588991
 30
0.0
 40
0.9999999999990905
100
AcDbArc
 50
0.0
 51
90.0
  0
ARC
  5
331
330
1F
100
AcDbEntity
  8
0
  6
Continuous
 62
     7
370
    25
100
AcDbCircle
 10
7382.9981423123
 20
4301.5762588991
 30
0.0
 40
0.9999999999990905
100
AcDbArc
 50
270.0
 51
0.0
  0
ARC
  5
332
330
1F
100
AcDbEntity
  8
0
  6
Continuous
 62
     7
370
    25
100
AcDbCircle
 10
7359.9981423122
 20
4301.5762588991
 30
0.0
 40
0.9999999999990905
100
AcDbArc
 50
180.0
 51
270.0
  0
ARC
  5
333
330
1F
100
AcDbEntity
  8
0
  6
Continuous
 62
     7
370
    25
100
AcDbCircle
 10
7359.9981423122
 20
4368.0762588991
 30
0.0
 40
0.9999999999990905
100
AcDbArc
 50
90.0
 51
180.0
  0
LINE
  5
334
330
1F
100
AcDbEntity
  8
0
  6
Continuous
 62
     7
370
    25
100
AcDbLine
 10
7359.9981423122
 20
4300.5762588991
 30
0.0
 11
7365.4981423123
 21
4300.5762588991
 31
0.0
  0
LINE
  5
335
330
1F
100
AcDbEntity
  8
0
  6
Continuous
 62
     7
370
    25
100
AcDbLine
 10
7364.9981423122
 20
4369.0762588991
 30
0.0
 11
7359.9981423122
 21
4369.0762588991
 31
0.0
  0
LINE
  5
336
330
1F
100
AcDbEntity
  8
0
  6
Continuous
 62
     7
370
    25
100
AcDbLine
 10
7377.4981423122
 20
4300.5762588991
 30
0.0
 11
7382.4981423122
 21
4300.5762588991
 31
0.0
  0
LINE
  5
337
330
1F
100
AcDbEntity
  8
0
  6
Continuous
 62
     7
370
    25
100
AcDbLine
 10
7382.4981423122
 20
4369.0762588991
 30
0.0
 11
7377.9981423123
 21
4369.0762588991
 31
0.0
  0
LINE
  5
338
330
1F
100
AcDbEntity
  8
0
  6
Continuous
 62
     7
370
    25
100
AcDbLine
 10
7366.4127178412
 20
4508.5762588991
 30
0.0
 11
7359.6627178412
 21
4508.5762588991
 31
0.0
  0
LINE
  5
339
330
1F
100
AcDbEntity
  8
0
  6
Continuous
 62
     7
370
    25
100
AcDbLine
 10
7359.6627178412
 20
4500.5762588991
 30
0.0
 11
7366.4127178412
 21
4500.5762588991
 31
0.0
  0
LINE
  5
33A
330
1F
100
AcDbEntity
  8
0
  6
Continuous
 62
     7
370
    25
100
AcDbLine
 10
7359.6627178412
 20
4508.5762588991
 30
0.0
 11
7358.6627178412
 21
4507.5762588991
 31
0.0
  0
LINE
  5
33B
330
1F
100
AcDbEntity
  8
0
  6
Continuous
 62
     7
370
    25
100
AcDbLine
 10
7358.6627178412
 20
4501.5762588991
 30
0.0
 11
7359.6627178412
 21
4500.5762588991
 31
0.0
  0
LINE
  5
33C
330
1F
100
AcDbEntity
  8
0
  6
Continuous
 62
     7
370
    25
100
AcDbLine
 10
7367.4981423122
 20
4667.0762588991
 30
0.0
 11
7367.4981423122
 21
4517.0762588991
 31
0.0
  0
LINE
  5
33D
330
1F
100
AcDbEntity
  8
0
  6
Continuous
 62
     7
370
    25
100
AcDbLine
 10
7367.4981423122
 20
4492.0762588991
 30
0.0
 11
7367.4981423122
 21
4373.5762588991
 31
0.0
  0
LINE
  5
33E
330
1F
100
AcDbEntity
  8
0
  6
Continuous
 62
     7
370
    25
100
AcDbLine
 10
7375.4981423122
 20
4373.5762588991
 30
0.0
 11
7375.4981423122
 21
4445.0908344281
 31
0.0
  0
LINE
  5
33F
330
1F
100
AcDbEntity
  8
0
  6
Continuous
 62
     7
370
    25
100
AcDbLine
 10
7375.4981423122
 20
4564.0616833701
 30
0.0
 11
7375.4981423122
 21
4635.6147141143
 31
0.0
  0
LINE
  5
340
330
1F
100
AcDbEntity
  8
0
  6
Continuous
 62
     7
370
    25
100
AcDbLine
 10
7390.0627178412
 20
4695.8001385853
 30
0.0
 11
7392.963475359
 21
4695.8001385853
 31
0.0
  0
LINE
  5
341
330
1F
100
AcDbEntity
  8
0
  6
Continuous
 62
     7
370
    25
100
AcDbLine
 10
7393.0037097266
 20
4694.8001385853
 30
0.0
 11
7391.0627178412
 21
4694.8001385853
 31
0.0
  0
LINE
  5
342
330
1F
100
AcDbEntity
  8
0
  6
Continuous
 62
     7
370
    25
100
AcDbLine
 10
7366.4127178412
 20
4512.0811474946
 30
0.0
 11
7368.0127178412
 21
4512.0811474946
 31
0.0
  0
LINE
  5
343
330
1F
100
AcDbEntity
  8
0
  6
Continuous
 62
     7
370
    25
100
AcDbLine
 10
7366.4127178412
 20
4511.2960360357
 30
0.0
 11
7366.4127178412
 21
4512.0811474946
 31
0.0
  0
LINE
  5
344
330
1F
100
AcDbEntity
  8
0
  6
Continuous
 62
     7
370
    25
100
AcDbLine
 10
7366.4127178412
 20
4497.0713703036
 30
0.0
 11
7368.0127178412
 21
4497.0713703036
 31
0.0
  0
LINE
  5
345
330
1F
100
AcDbEntity
  8
0
  6
Continuous
 62
     7
370
    25
100
AcDbLine
 10
7366.4127178412
 20
4497.0713703036
 30
0.0
 11
7366.4127178412
 21
4497.8564817625
 31
0.0
  0
LINE
  5
346
330
1F
100
AcDbEntity
  8
0
  6
Continuous
 62
     7
370
    25
100
AcDbLine
 10
7392.963475359
 20
4825.8001385853
 30
0.0
 11
7390.0627178412
 21
4825.8001385853
 31
0.0
  0
LINE
  5
347
330
1F
100
AcDbEntity
  8
0
  6
Continuous
 62
     7
370
    25
100
AcDbLine
 10
7391.0627178412
 20
4826.8001385853
 30
0.0
 11
7393.0037097266
 21
4826.8001385853
 31
0.0
  0
LINE
  5
348
330
1F
100
AcDbEntity
  8
0
  6
Continuous
 62
     7
370
    25
100
AcDbLine
 10
7366.4127178412
 20
4504.1117885088
 30
0.0
 11
7368.0127178412
 21
4504.1117885088
 31
0.0
  0
LINE
  5
349
330
1F
100
AcDbEntity
  8
0
  6
Continuous
 62
     7
370
    25
100
AcDbLine
 10
7366.4127178412
 20
4504.1117885088
 30
0.0
 11
7366.4127178412
 21
4510.8315656454
 31
0.0
  0
LINE
  5
34A
330
1F
100
AcDbEntity
  8
0
  6
Continuous
 62
     7
370
    25
100
AcDbLine
 10
7366.4127178412
 20
4510.8315656454
 30
0.0
 11
7368.0127178412
 21
4510.8315656454
 31
0.0
  0
LINE
  5
34B
330
1F
100
AcDbEntity
  8
0
  6
Continuous
 62
     7
370
    25
100
AcDbLine
 10
7366.4127178412
 20
4497.8564817625
 30
0.0
 11
7368.0127178412
 21
4497.8564817625
 31
0.0
  0
LINE
  5
34C
330
1F
100
AcDbEntity
  8
0
  6
Continuous
 62
     7
370
    25
100
AcDbLine
 10
7366.4127178412
 20
4497.8564817625
 30
0.0
 11
7366.4127178412
 21
4504.1117885088
 31
0.0
  0
LINE
  5
34D
330
1F
100
AcDbEntity
  8
0
  6
Continuous
 62
     7
370
    25
100
AcDbLine
 10
7391.4127178412
 20
4500.9101983431
 30
0.0
 11
7391.4127178412
 21
4508.2423194551
 31
0.0
  0
LINE
  5
34E
330
1F
100
AcDbEntity
  8
0
  6
Continuous
 62
     7
370
    25
100
AcDbLine
 10
7392.4127178412
 20
4506.9511273165
 30
0.0
 11
7392.4127178412
 21
4502.2013904817
 31
0.0
  0
LINE
  5
34F
330
1F
100
AcDbEntity
  8
0
  6
Continuous
 62
     7
370
    25
100
AcDbLine
 10
7366.4127178412
 20
4511.2960360357
 30
0.0
 11
7368.0127178412
 21
4511.2960360357
 31
0.0
  0
LINE
  5
350
330
1F
100
AcDbEntity
  8
0
  6
Continuous
 62
     7
370
    25
100
AcDbLine
 10
7366.4127178412
 20
4510.8315656454
 30
0.0
 11
7366.4127178412
 21
4511.2960360357
 31
0.0
  0
LINE
  5
351
330
1F
100
AcDbEntity
  8
0
  6
Continuous
 62
     7
370
    25
100
AcDbLine
 10
7383.9127178412
 20
4507.4380765033
 30
0.0
 11
7383.9127178412
 21
4501.7144412948
 31
0.0
  0
CIRCLE
  5
352
330
1F
100
AcDbEntity
  8
0
  6
Continuous
 62
     7
370
    25
100
AcDbCircle
 10
7388.0127178412
 20
4504.5762588991
 30
0.0
 40
5.0
  0
LINE
  5
353
330
1F
100
AcDbEntity
  8
0
  6
Continuous
 62
     7
370
    25
100
AcDbLine
 10
7391.1614345988
 20
4550.6775421415
 30
0.0
 11
7384.8640010837
 21
4550.6775421415
 31
0.0
  0
ARC
  5
354
330
1F
100
AcDbEntity
  8
0
  6
Continuous
 62
     7
370
    25
100
AcDbCircle
 10
7384.8640010837
 20
4544.5762588991
 30
0.0
 40
6.101283242434874
100
AcDbArc
 50
90.0
 51
270.0
  0
LINE
  5
355
330
1F
100
AcDbEntity
  8
0
  6
Continuous
 62
     7
370
    25
100
AcDbLine
 10
7384.8640010837
 20
4538.4749756567
 30
0.0
 11
7391.1614345988
 21
4538.4749756567
 31
0.0
  0
ARC
  5
356
330
1F
100
AcDbEntity
  8
0
  6
Continuous
 62
     7
370
    25
100
AcDbCircle
 10
7391.1614345988
 20
4544.5762588991
 30
0.0
 40
6.101283242434874
100
AcDbArc
 50
270.0
 51
90.0
  0
LINE
  5
357
330
1F
100
AcDbEntity
  8
0
  6
Continuous
 62
     7
370
    25
100
AcDbLine
 10
7376.0127178412
 20
4564.5762588991
 30
0.0
 11
7368.0127178412
 21
4556.5762588991
 31
0.0
  0
LINE
  5
358
330
1F
100
AcDbEntity
  8
0
  6
Continuous
 62
     7
370
    25
100
AcDbLine
 10
7400.0127178412
 20
4564.5762588991
 30
0.0
 11
7376.0127178412
 21
4564.5762588991
 31
0.0
  0
LINE
  5
359
330
1F
100
AcDbEntity
  8
0
  6
Continuous
 62
     7
370
    25
100
AcDbLine
 10
7408.0127178412
 20
4556.5762588991
 30
0.0
 11
7400.0127178412
 21
4564.5762588991
 31
0.0
  0
LINE
  5
35A
330
1F
100
AcDbEntity
  8
0
  6
Continuous
 62
     7
370
    25
100
AcDbLine
 10
7408.0127178412
 20
4452.5762588991
 30
0.0
 11
7408.0127178412
 21
4556.5762588991
 31
0.0
  0
LINE
  5
35B
330
1F
100
AcDbEntity
  8
0
  6
Continuous
 62
     7
370
    25
100
AcDbLine
 10
7400.0127178412
 20
4444.5762588991
 30
0.0
 11
7408.0127178412
 21
4452.5762588991
 31
0.0
  0
LINE
  5
35C
330
1F
100
AcDbEntity
  8
0
  6
Continuous
 62
     7
370
    25
100
AcDbLine
 10
7376.0127178412
 20
4444.5762588991
 30
0.0
 11
7400.0127178412
 21
4444.5762588991
 31
0.0
  0
LINE
  5
35D
330
1F
100
AcDbEntity
  8
0
  6
Continuous
 62
     7
370
    25
100
AcDbLine
 10
7368.0127178412
 20
4452.5762588991
 30
0.0
 11
7376.0127178412
 21
4444.5762588991
 31
0.0
  0
LINE
  5
35E
330
1F
100
AcDbEntity
  8
0
  6
Continuous
 62
     7
370
    25
100
AcDbLine
 10
7368.0127178412
 20
4556.5762588991
 30
0.0
 11
7368.0127178412
 21
4452.5762588991
 31
0.0
  0
LINE
  5
35F
330
1F
100
AcDbEntity
  8
0
  6
Continuous
 62
     7
370
    25
100
AcDbLine
 10
7381.9114345988
 20
4467.7249756567
 30
0.0
 11
7381.9114345988
 21
4461.4275421415
 31
0.0
  0
ARC
  5
360
330
1F
100
AcDbEntity
  8
0
  6
Continuous
 62
     7
370
    25
100
AcDbCircle
 10
7388.0127178412
 20
4461.4275421415
 30
0.0
 40
6.101283242434874
100
AcDbArc
 50
180.0
 51
0.0
  0
LINE
  5
361
330
1F
100
AcDbEntity
  8
0
  6
Continuous
 62
     7
370
    25
100
AcDbLine
 10
7394.1140010837
 20
4461.4275421415
 30
0.0
 11
7394.1140010837
 21
4467.7249756567
 31
0.0
  0
ARC
  5
362
330
1F
100
AcDbEntity
  8
0
  6
Continuous
 62
     7
370
    25
100
AcDbCircle
 10
7388.0127178412
 20
4467.7249756567
 30
0.0
 40
6.101283242434874
100
AcDbArc
 50
0.0
 51
180.0
  0
CIRCLE
  5
363
330
1F
100
AcDbEntity
  8
0
  6
Continuous
 62
     7
370
    25
100
AcDbCircle
 10
7388.0127178412
 20
4695.1001385853
 30
0.0
 40
5.0
  0
LINE
  5
364
330
1F
100
AcDbEntity
  8
0
  6
Continuous
 62
     7
370
    25
100
AcDbLine
 10
7391.1614345988
 20
4741.2014218278
 30
0.0
 11
7384.8640010837
 21
4741.2014218278
 31
0.0
  0
LINE
  5
365
330
1F
100
AcDbEntity
  8
0
  6
Continuous
 62
     7
370
    25
100
AcDbLine
 10
7384.8640010837
 20
4728.9988553429
 30
0.0
 11
7391.1614345988
 21
4728.9988553429
 31
0.0
  0
ARC
  5
366
330
1F
100
AcDbEntity
  8
0
  6
Continuous
 62
     7
370
    25
100
AcDbCircle
 10
7391.1614345988
 20
4735.1001385853
 30
0.0
 40
6.101283242434874
100
AcDbArc
 50
270.0
 51
90.0
  0
LINE
  5
367
330
1F
100
AcDbEntity
  8
0
  6
Continuous
 62
     7
370
    25
100
AcDbLine
 10
7376.0127178412
 20
4755.1001385853
 30
0.0
 11
7368.0127178412
 21
4747.1001385853
 31
0.0
  0
LINE
  5
368
330
1F
100
AcDbEntity
  8
0
  6
Continuous
 62
     7
370
    25
100
AcDbLine
 10
7400.0127178412
 20
4755.1001385853
 30
0.0
 11
7376.0127178412
 21
4755.1001385853
 31
0.0
  0
LINE
  5
369
330
1F
100
AcDbEntity
  8
0
  6
Continuous
 62
     7
370
    25
100
AcDbLine
 10
7408.0127178412
 20
4747.1001385853
 30
0.0
 11
7400.0127178412
 21
4755.1001385853
 31
0.0
  0
LINE
  5
36A
330
1F
100
AcDbEntity
  8
0
  6
Continuous
 62
     7
370
    25
100
AcDbLine
 10
7408.0127178412
 20
4643.1001385853
 30
0.0
 11
7408.0127178412
 21
4747.1001385853
 31
0.0
  0
LINE
  5
36B
330
1F
100
AcDbEntity
  8
0
  6
Continuous
 62
     7
370
    25
100
AcDbLine
 10
7400.0127178412
 20
4635.1001385853
 30
0.0
 11
7408.0127178412
 21
4643.1001385853
 31
0.0
  0
LINE
  5
36C
330
1F
100
AcDbEntity
  8
0
  6
Continuous
 62
     7
370
    25
100
AcDbLine
 10
7376.0127178412
 20
4635.1001385853
 30
0.0
 11
7400.0127178412
 21
4635.1001385853
 31
0.0
  0
LINE
  5
36D
330
1F
100
AcDbEntity
  8
0
  6
Continuous
 62
     7
370
    25
100
AcDbLine
 10
7368.0127178412
 20
4643.1001385853
 30
0.0
 11
7376.0127178412
 21
4635.1001385853
 31
0.0
  0
LINE
  5
36E
330
1F
100
AcDbEntity
  8
0
  6
Continuous
 62
     7
370
    25
100
AcDbLine
 10
7368.0127178412
 20
4747.1001385853
 30
0.0
 11
7368.0127178412
 21
4643.1001385853
 31
0.0
  0
LINE
  5
36F
330
1F
100
AcDbEntity
  8
0
  6
Continuous
 62
     7
370
    25
100
AcDbLine
 10
7381.9114345988
 20
4658.2488553429
 30
0.0
 11
7381.9114345988
 21
4651.9514218278
 31
0.0
  0
ARC
  5
370
330
1F
100
AcDbEntity
  8
0
  6
Continuous
 62
     7
370
    25
100
AcDbCircle
 10
7388.0127178412
 20
4651.9514218278
 30
0.0
 40
6.101283242434874
100
AcDbArc
 50
180.0
 51
0.0
  0
LINE
  5
371
330
1F
100
AcDbEntity
  8
0
  6
Continuous
 62
     7
370
    25
100
AcDbLine
 10
7394.1140010837
 20
4651.9514218278
 30
0.0
 11
7394.1140010837
 21
4658.2488553429
 31
0.0
  0
ARC
  5
372
330
1F
100
AcDbEntity
  8
0
  6
Continuous
 62
     7
370
    25
100
AcDbCircle
 10
7388.0127178412
 20
4658.2488553429
 30
0.0
 40
6.101283242434874
100
AcDbArc
 50
0.0
 51
180.0
  0
ARC
  5
373
330
1F
100
AcDbEntity
  8
0
  6
Continuous
 62
     7
370
    25
100
AcDbCircle
 10
7384.8640010837
 20
4735.1001385853
 30
0.0
 40
6.101283242434874
100
AcDbArc
 50
90.0
 51
270.0
  0
CIRCLE
  5
374
330
1F
100
AcDbEntity
  8
0
  6
Continuous
 62
     7
370
    25
100
AcDbCircle
 10
7388.0127178412
 20
4826.5001385853
 30
0.0
 40
5.0
  0
LINE
  5
375
330
1F
100
AcDbEntity
  8
0
  6
Continuous
 62
     7
370
    25
100
AcDbLine
 10
7391.1614345988
 20
4872.6014218278
 30
0.0
 11
7384.8640010837
 21
4872.6014218278
 31
0.0
  0
ARC
  5
376
330
1F
100
AcDbEntity
  8
0
  6
Continuous
 62
     7
370
    25
100
AcDbCircle
 10
7384.8640010837
 20
4866.5001385853
 30
0.0
 40
6.101283242433965
100
AcDbArc
 50
90.0
 51
270.0
  0
LINE
  5
377
330
1F
100
AcDbEntity
  8
0
  6
Continuous
 62
     7
370
    25
100
AcDbLine
 10
7384.8640010837
 20
4860.3988553429
 30
0.0
 11
7391.1614345988
 21
4860.3988553429
 31
0.0
  0
ARC
  5
378
330
1F
100
AcDbEntity
  8
0
  6
Continuous
 62
     7
370
    25
100
AcDbCircle
 10
7391.1614345988
 20
4866.5001385853
 30
0.0
 40
6.101283242433965
100
AcDbArc
 50
270.0
 51
90.0
  0
LINE
  5
379
330
1F
100
AcDbEntity
  8
0
  6
Continuous
 62
     7
370
    25
100
AcDbLine
 10
7376.0127178412
 20
4886.5001385853
 30
0.0
 11
7368.0127178412
 21
4878.5001385853
 31
0.0
  0
LINE
  5
37A
330
1F
100
AcDbEntity
  8
0
  6
Continuous
 62
     7
370
    25
100
AcDbLine
 10
7400.0127178412
 20
4886.5001385853
 30
0.0
 11
7376.0127178412
 21
4886.5001385853
 31
0.0
  0
LINE
  5
37B
330
1F
100
AcDbEntity
  8
0
  6
Continuous
 62
     7
370
    25
100
AcDbLine
 10
7408.0127178412
 20
4878.5001385853
 30
0.0
 11
7400.0127178412
 21
4886.5001385853
 31
0.0
  0
LINE
  5
37C
330
1F
100
AcDbEntity
  8
0
  6
Continuous
 62
     7
370
    25
100
AcDbLine
 10
7408.0127178412
 20
4774.5001385853
 30
0.0
 11
7408.0127178412
 21
4878.5001385853
 31
0.0
  0
LINE
  5
37D
330
1F
100
AcDbEntity
  8
0
  6
Continuous
 62
     7
370
    25
100
AcDbLine
 10
7400.0127178412
 20
4766.5001385853
 30
0.0
 11
7408.0127178412
 21
4774.5001385853
 31
0.0
  0
LINE
  5
37E
330
1F
100
AcDbEntity
  8
0
  6
Continuous
 62
     7
370
    25
100
AcDbLine
 10
7368.0127178412
 20
4878.5001385853
 30
0.0
 11
7368.0127178412
 21
4774.5001385853
 31
0.0
  0
LINE
  5
37F
330
1F
100
AcDbEntity
  8
0
  6
Continuous
 62
     7
370
    25
100
AcDbLine
 10
7394.1140010837
 20
4783.3514218278
 30
0.0
 11
7394.1140010837
 21
4789.6488553429
 31
0.0
  0
LINE
  5
380
330
1F
100
AcDbEntity
  8
0
  6
Continuous
 62
     7
370
    25
100
AcDbLine
 10
7368.0127178412
 20
4774.5001385853
 30
0.0
 11
7376.0127178412
 21
4766.5001385853
 31
0.0
  0
LINE
  5
381
330
1F
100
AcDbEntity
  8
0
  6
Continuous
 62
     7
370
    25
100
AcDbLine
 10
7376.0127178412
 20
4766.5001385853
 30
0.0
 11
7400.0127178412
 21
4766.5001385853
 31
0.0
  0
ARC
  5
382
330
1F
100
AcDbEntity
  8
0
  6
Continuous
 62
     7
370
    25
100
AcDbCircle
 10
7388.0127178412
 20
4783.3514218278
 30
0.0
 40
6.101283242434874
100
AcDbArc
 50
180.0
 51
0.0
  0
LINE
  5
383
330
1F
100
AcDbEntity
  8
0
  6
Continuous
 62
     7
370
    25
100
AcDbLine
 10
7381.9114345988
 20
4789.6488553429
 30
0.0
 11
7381.9114345988
 21
4783.3514218278
 31
0.0
  0
ARC
  5
384
330
1F
100
AcDbEntity
  8
0
  6
Continuous
 62
     7
370
    25
100
AcDbCircle
 10
7388.0127178412
 20
4789.6488553429
 30
0.0
 40
6.101283242434874
100
AcDbArc
 50
0.0
 51
180.0
  0
ARC
  5
385
330
1F
100
AcDbEntity
  8
0
  6
Continuous
 62
     7
370
    25
100
AcDbCircle
 10
7388.0127178412
 20
4738.2488553429
 30
0.0
 40
6.101283242433965
100
AcDbArc
 50
156.4026462431
 51
180.0
  0
ARC
  5
386
330
1F
100
AcDbEntity
  8
0
  6
Continuous
 62
     7
370
    25
100
AcDbCircle
 10
7388.0127178412
 20
4738.2488553429
 30
0.0
 40
6.101283242434874
100
AcDbArc
 50
0.0
 51
23.5973537569
  0
LINE
  5
387
330
1F
100
AcDbEntity
  8
0
  6
Continuous
 62
     7
370
    25
100
AcDbLine
 10
7381.9114345988
 20
4731.9514218278
 30
0.0
 11
7381.9114345988
 21
4738.2488553429
 31
0.0
  0
ARC
  5
388
330
1F
100
AcDbEntity
  8
0
  6
Continuous
 62
     7
370
    25
100
AcDbCircle
 10
7388.0127178412
 20
4731.9514218278
 30
0.0
 40
6.101283242434874
100
AcDbArc
 50
336.402646243
 51
0.0
  0
ARC
  5
389
330
1F
100
AcDbEntity
  8
0
  6
Continuous
 62
     7
370
    25
100
AcDbCircle
 10
7388.0127178412
 20
4731.9514218278
 30
0.0
 40
6.101283242433965
100
AcDbArc
 50
180.0
 51
203.597353757
  0
LINE
  5
38A
330
1F
100
AcDbEntity
  8
0
  6
Continuous
 62
     7
370
    25
100
AcDbLine
 10
7394.1140010837
 20
4738.2488553429
 30
0.0
 11
7394.1140010837
 21
4731.9514218278
 31
0.0
  0
ARC
  5
38B
330
1F
100
AcDbEntity
  8
0
  6
Continuous
 62
     7
370
    25
100
AcDbCircle
 10
7384.8640010837
 20
4655.1001385853
 30
0.0
 40
6.101283242434874
100
AcDbArc
 50
246.4026462431
 51
270.0
  0
ARC
  5
38C
330
1F
100
AcDbEntity
  8
0
  6
Continuous
 62
     7
370
    25
100
AcDbCircle
 10
7384.8640010837
 20
4655.1001385853
 30
0.0
 40
6.101283242434874
100
AcDbArc
 50
90.0
 51
113.5973537569
  0
LINE
  5
38D
330
1F
100
AcDbEntity
  8
0
  6
Continuous
 62
     7
370
    25
100
AcDbLine
 10
7391.1614345988
 20
4648.9988553429
 30
0.0
 11
7384.8640010837
 21
4648.9988553429
 31
0.0
  0
ARC
  5
38E
330
1F
100
AcDbEntity
  8
0
  6
Continuous
 62
     7
370
    25
100
AcDbCircle
 10
7391.1614345988
 20
4655.1001385853
 30
0.0
 40
6.101283242434874
100
AcDbArc
 50
66.402646243
 51
90.0
  0
ARC
  5
38F
330
1F
100
AcDbEntity
  8
0
  6
Continuous
 62
     7
370
    25
100
AcDbCircle
 10
7391.1614345988
 20
4655.1001385853
 30
0.0
 40
6.101283242434874
100
AcDbArc
 50
270.0
 51
293.597353757
  0
LINE
  5
390
330
1F
100
AcDbEntity
  8
0
  6
Continuous
 62
     7
370
    25
100
AcDbLine
 10
7384.8640010837
 20
4661.2014218278
 30
0.0
 11
7391.1614345988
 21
4661.2014218278
 31
0.0
  0
ARC
  5
391
330
1F
100
AcDbEntity
  8
0
  6
Continuous
 62
     7
370
    25
100
AcDbCircle
 10
7388.0127178412
 20
4547.7249756567
 30
0.0
 40
6.101283242434131
100
AcDbArc
 50
156.402646243
 51
180.0
  0
ARC
  5
392
330
1F
100
AcDbEntity
  8
0
  6
Continuous
 62
     7
370
    25
100
AcDbCircle
 10
7388.0127178412
 20
4547.7249756567
 30
0.0
 40
6.101283242435031
100
AcDbArc
 50
0.0
 51
23.5973537567
  0
LINE
  5
393
330
1F
100
AcDbEntity
  8
0
  6
Continuous
 62
     7
370
    25
100
AcDbLine
 10
7381.9114345988
 20
4541.4275421415
 30
0.0
 11
7381.9114345988
 21
4547.7249756567
 31
0.0
  0
ARC
  5
394
330
1F
100
AcDbEntity
  8
0
  6
Continuous
 62
     7
370
    25
100
AcDbCircle
 10
7388.0127178412
 20
4541.4275421415
 30
0.0
 40
6.101283242434874
100
AcDbArc
 50
336.4026462428
 51
0.0
  0
ARC
  5
395
330
1F
100
AcDbEntity
  8
0
  6
Continuous
 62
     7
370
    25
100
AcDbCircle
 10
7388.0127178412
 20
4541.4275421415
 30
0.0
 40
6.101283242433965
100
AcDbArc
 50
180.0
 51
203.597353757
  0
LINE
  5
396
330
1F
100
AcDbEntity
  8
0
  6
Continuous
 62
     7
370
    25
100
AcDbLine
 10
7394.1140010837
 20
4547.7249756567
 30
0.0
 11
7394.1140010837
 21
4541.4275421415
 31
0.0
  0
ARC
  5
397
330
1F
100
AcDbEntity
  8
0
  6
Continuous
 62
     7
370
    25
100
AcDbCircle
 10
7384.8640010837
 20
4464.5762588991
 30
0.0
 40
6.10128324243504
100
AcDbArc
 50
246.4026462434
 51
270.0
  0
ARC
  5
398
330
1F
100
AcDbEntity
  8
0
  6
Continuous
 62
     7
370
    25
100
AcDbCircle
 10
7384.8640010837
 20
4464.5762588991
 30
0.0
 40
6.101283242433965
100
AcDbArc
 50
90.0
 51
113.597353758
  0
LINE
  5
399
330
1F
100
AcDbEntity
  8
0
  6
Continuous
 62
     7
370
    25
100
AcDbLine
 10
7391.1614345988
 20
4458.4749756567
 30
0.0
 11
7384.8640010837
 21
4458.4749756567
 31
0.0
  0
ARC
  5
39A
330
1F
100
AcDbEntity
  8
0
  6
Continuous
 62
     7
370
    25
100
AcDbCircle
 10
7391.1614345988
 20
4464.5762588991
 30
0.0
 40
6.101283242433965
100
AcDbArc
 50
66.4026462417
 51
90.0
  0
ARC
  5
39B
330
1F
100
AcDbEntity
  8
0
  6
Continuous
 62
     7
370
    25
100
AcDbCircle
 10
7391.1614345988
 20
4464.5762588991
 30
0.0
 40
6.101283242434874
100
AcDbArc
 50
270.0
 51
293.597353757
  0
LINE
  5
39C
330
1F
100
AcDbEntity
  8
0
  6
Continuous
 62
     7
370
    25
100
AcDbLine
 10
7384.8640010837
 20
4470.6775421415
 30
0.0
 11
7391.1614345988
 21
4470.6775421415
 31
0.0
  0
ARC
  5
39D
330
1F
100
AcDbEntity
  8
0
  6
Continuous
 62
     7
370
    25
100
AcDbCircle
 10
7388.0127178412
 20
4869.6488553429
 30
0.0
 40
6.101283242433965
100
AcDbArc
 50
156.402646243
 51
180.0
  0
ARC
  5
39E
330
1F
100
AcDbEntity
  8
0
  6
Continuous
 62
     7
370
    25
100
AcDbCircle
 10
7388.0127178412
 20
4869.6488553429
 30
0.0
 40
6.101283242435784
100
AcDbArc
 50
0.0
 51
23.5973537564
  0
LINE
  5
39F
330
1F
100
AcDbEntity
  8
0
  6
Continuous
 62
     7
370
    25
100
AcDbLine
 10
7381.9114345988
 20
4863.3514218278
 30
0.0
 11
7381.9114345988
 21
4869.6488553429
 31
0.0
  0
ARC
  5
3A0
330
1F
100
AcDbEntity
  8
0
  6
Continuous
 62
     7
370
    25
100
AcDbCircle
 10
7388.0127178412
 20
4863.3514218278
 30
0.0
 40
6.101283242435784
100
AcDbArc
 50
336.4026462433
 51
0.0
  0
ARC
  5
3A1
330
1F
100
AcDbEntity
  8
0
  6
Continuous
 62
     7
370
    25
100
AcDbCircle
 10
7388.0127178412
 20
4863.3514218278
 30
0.0
 40
6.101283242433965
100
AcDbArc
 50
180.0
 51
203.597353757
  0
LINE
  5
3A2
330
1F
100
AcDbEntity
  8
0
  6
Continuous
 62
     7
370
    25
100
AcDbLine
 10
7394.1140010837
 20
4869.6488553429
 30
0.0
 11
7394.1140010837
 21
4863.3514218278
 31
0.0
  0
ARC
  5
3A3
330
1F
100
AcDbEntity
  8
0
  6
Continuous
 62
     7
370
    25
100
AcDbCircle
 10
7384.8640010837
 20
4786.5001385853
 30
0.0
 40
6.101283242434706
100
AcDbArc
 50
246.4026462431
 51
270.0
  0
ARC
  5
3A4
330
1F
100
AcDbEntity
  8
0
  6
Continuous
 62
     7
370
    25
100
AcDbCircle
 10
7384.8640010837
 20
4786.5001385853
 30
0.0
 40
6.101283242433965
100
AcDbArc
 50
90.0
 51
113.597353757
  0
LINE
  5
3A5
330
1F
100
AcDbEntity
  8
0
  6
Continuous
 62
     7
370
    25
100
AcDbLine
 10
7391.1614345988
 20
4780.3988553429
 30
0.0
 11
7384.8640010837
 21
4780.3988553429
 31
0.0
  0
ARC
  5
3A6
330
1F
100
AcDbEntity
  8
0
  6
Continuous
 62
     7
370
    25
100
AcDbCircle
 10
7391.1614345988
 20
4786.5001385853
 30
0.0
 40
6.10128324243439
100
AcDbArc
 50
66.402646243
 51
90.0
  0
ARC
  5
3A7
330
1F
100
AcDbEntity
  8
0
  6
Continuous
 62
     7
370
    25
100
AcDbCircle
 10
7391.1614345988
 20
4786.5001385853
 30
0.0
 40
6.10128324243439
100
AcDbArc
 50
270.0
 51
293.597353757
  0
LINE
  5
3A8
330
1F
100
AcDbEntity
  8
0
  6
Continuous
 62
     7
370
    25
100
AcDbLine
 10
7384.8640010837
 20
4792.6014218278
 30
0.0
 11
7391.1614345988
 21
4792.6014218278
 31
0.0
  0
LINE
  5
3A9
330
1F
100
AcDbEntity
  8
0
  6
Continuous
 62
     7
370
    25
100
AcDbLine
 10
7392.9012247708
 20
4827.5501385853
 30
0.0
 11
7383.1242109117
 21
4827.5501385853
 31
0.0
  0
LINE
  5
3AA
330
1F
100
AcDbEntity
  8
0
  6
Continuous
 62
     7
370
    25
100
AcDbLine
 10
7392.4523124173
 20
4828.8001385853
 30
0.0
 11
7383.5731232651
 21
4828.8001385853
 31
0.0
  0
LINE
  5
3AB
330
1F
100
AcDbEntity
  8
0
  6
Continuous
 62
     7
370
    25
100
AcDbLine
 10
7383.5731232651
 20
4692.8001385853
 30
0.0
 11
7392.4523124173
 21
4692.8001385853
 31
0.0
  0
LINE
  5
3AC
330
1F
100
AcDbEntity
  8
0
  6
Continuous
 62
     7
370
    25
100
AcDbLine
 10
7383.1242109117
 20
4694.0501385853
 30
0.0
 11
7392.9012247707
 21
4694.0501385853
 31
0.0
  0
LINE
  5
3AD
330
1F
100
AcDbEntity
  8
0
  6
Continuous
 62
     7
370
    25
100
AcDbLine
 10
7412.5627178412
 20
4781.8001385853
 30
0.0
 11
7412.5627178412
 21
4777.3001385853
 31
0.0
  0
LINE
  5
3AE
330
1F
100
AcDbEntity
  8
0
  6
Continuous
 62
     7
370
    25
100
AcDbLine
 10
7412.5627178412
 20
4742.0501385853
 30
0.0
 11
7412.5627178412
 21
4739.8001385853
 31
0.0
  0
LINE
  5
3AF
330
1F
100
AcDbEntity
  8
0
  6
Continuous
 62
     7
370
    25
100
AcDbLine
 10
7412.5627178412
 20
4744.3001385853
 30
0.0
 11
7412.5627178412
 21
4742.0501385853
 31
0.0
  0
LINE
  5
3B0
330
1F
100
AcDbEntity
  8
0
  6
Continuous
 62
     7
370
    25
100
AcDbLine
 10
7396.2627178412
 20
4760.8001385853
 30
0.0
 11
7400.5627178412
 21
4760.8001385853
 31
0.0
  0
LINE
  5
3B1
330
1F
100
AcDbEntity
  8
0
  6
Continuous
 62
     7
370
    25
100
AcDbLine
 10
7396.2627178412
 20
4766.5001385853
 30
0.0
 11
7396.2627178412
 21
4760.8001385853
 31
0.0
  0
LINE
  5
3B2
330
1F
100
AcDbEntity
  8
0
  6
Continuous
 62
     7
370
    25
100
AcDbLine
 10
7396.2627178412
 20
4760.8001385853
 30
0.0
 11
7396.2627178412
 21
4755.1001385853
 31
0.0
  0
LINE
  5
3B3
330
1F
100
AcDbEntity
  8
0
  6
Continuous
 62
     7
370
    25
100
AcDbLine
 10
7396.2627178412
 20
4760.8001385853
 30
0.0
 11
7395.2627178412
 21
4760.8001385853
 31
0.0
  0
LINE
  5
3B4
330
1F
100
AcDbEntity
  8
0
  6
Continuous
 62
     7
370
    25
100
AcDbLine
 10
7395.2627178412
 20
4760.8001385853
 30
0.0
 11
7395.2627178412
 21
4766.5001385853
 31
0.0
  0
LINE
  5
3B5
330
1F
100
AcDbEntity
  8
0
  6
Continuous
 62
     7
370
    25
100
AcDbLine
 10
7395.2627178412
 20
4755.1001385853
 30
0.0
 11
7395.2627178412
 21
4760.8001385853
 31
0.0
  0
LINE
  5
3B6
330
1F
100
AcDbEntity
  8
0
  6
Continuous
 62
     7
370
    25
100
AcDbLine
 10
7421.0627178412
 20
4773.6501385853
 30
0.0
 11
7421.0627178412
 21
4747.9501385853
 31
0.0
  0
LINE
  5
3B7
330
1F
100
AcDbEntity
  8
0
  6
Continuous
 62
     7
370
    25
100
AcDbLine
 10
7376.4981423123
 20
4338.5762588991
 30
0.0
 11
7366.4981423122
 21
4338.5762588991
 31
0.0
  0
LINE
  5
3B8
330
1F
100
AcDbEntity
  8
0
  6
Continuous
 62
     7
370
    25
100
AcDbLine
 10
7376.4981423123
 20
4337.3262588991
 30
0.0
 11
7376.4981423123
 21
4338.5762588991
 31
0.0
  0
LINE
  5
3B9
330
1F
100
AcDbEntity
  8
0
  6
Continuous
 62
     7
370
    25
100
AcDbLine
 10
7366.4981423122
 20
4337.3262588991
 30
0.0
 11
7366.4981423122
 21
4338.5762588991
 31
0.0
  0
LINE
  5
3BA
330
1F
100
AcDbEntity
  8
0
  6
Continuous
 62
     7
370
    25
100
AcDbLine
 10
7376.4981423123
 20
4337.3262588991
 30
0.0
 11
7366.4981423122
 21
4337.3262588991
 31
0.0
  0
LINE
  5
3BB
330
1F
100
AcDbEntity
  8
0
  6
Continuous
 62
     7
370
    25
100
AcDbLine
 10
7366.4981423122
 20
4331.0762588991
 30
0.0
 11
7366.4981423122
 21
4332.3262588991
 31
0.0
  0
LINE
  5
3BC
330
1F
100
AcDbEntity
  8
0
  6
Continuous
 62
     7
370
    25
100
AcDbLine
 10
7376.4981423123
 20
4331.0762588991
 30
0.0
 11
7376.4981423123
 21
4332.3262588991
 31
0.0
  0
LINE
  5
3BD
330
1F
100
AcDbEntity
  8
0
  6
Continuous
 62
     7
370
    25
100
AcDbLine
 10
7376.4981423123
 20
4331.0762588991
 30
0.0
 11
7366.4981423122
 21
4331.0762588991
 31
0.0
  0
LINE
  5
3BE
330
1F
100
AcDbEntity
  8
0
  6
Continuous
 62
     7
370
    25
100
AcDbLine
 10
7376.4981423123
 20
4332.3262588991
 30
0.0
 11
7366.4981423122
 21
4332.3262588991
 31
0.0
  0
LINE
  5
3BF
330
1F
100
AcDbEntity
  8
0
  6
Continuous
 62
     7
370
    25
100
AcDbLine
 10
7366.4981423122
 20
4331.0762588991
 30
0.0
 11
7361.4981423122
 21
4331.0762588991
 31
0.0
  0
LINE
  5
3C0
330
1F
100
AcDbEntity
  8
0
  6
Continuous
 62
     7
370
    25
100
AcDbLine
 10
7361.4981423122
 20
4331.0762588991
 30
0.0
 11
7361.4981423122
 21
4332.3262588991
 31
0.0
  0
LINE
  5
3C1
330
1F
100
AcDbEntity
  8
0
  6
Continuous
 62
     7
370
    25
100
AcDbLine
 10
7361.4981423122
 20
4332.3262588991
 30
0.0
 11
7366.4981423122
 21
4332.3262588991
 31
0.0
  0
LINE
  5
3C2
330
1F
100
AcDbEntity
  8
0
  6
Continuous
 62
     7
370
    25
100
AcDbLine
 10
7381.4981423123
 20
4331.0762588991
 30
0.0
 11
7376.4981423123
 21
4331.0762588991
 31
0.0
  0
LINE
  5
3C3
330
1F
100
AcDbEntity
  8
0
  6
Continuous
 62
     7
370
    25
100
AcDbLine
 10
7381.4981423123
 20
4331.0762588991
 30
0.0
 11
7381.4981423123
 21
4323.7961092768
 31
0.0
  0
LINE
  5
3C4
330
1F
100
AcDbEntity
  8
0
  6
Continuous
 62
     7
370
    25
100
AcDbLine
 10
7361.4981423122
 20
4331.0762588991
 30
0.0
 11
7361.4981423122
 21
4323.7961092768
 31
0.0
  0
LINE
  5
3C5
330
1F
100
AcDbEntity
  8
0
  6
Continuous
 62
     7
370
    25
100
AcDbLine
 10
7361.4981423122
 20
4338.5762588991
 30
0.0
 11
7366.4981423122
 21
4338.5762588991
 31
0.0
  0
LINE
  5
3C6
330
1F
100
AcDbEntity
  8
0
  6
Continuous
 62
     7
370
    25
100
AcDbLine
 10
7361.4981423122
 20
4337.3262588991
 30
0.0
 11
7361.4981423122
 21
4338.5762588991
 31
0.0
  0
LINE
  5
3C7
330
1F
100
AcDbEntity
  8
0
  6
Continuous
 62
     7
370
    25
100
AcDbLine
 10
7366.4981423122
 20
4337.3262588991
 30
0.0
 11
7361.4981423122
 21
4337.3262588991
 31
0.0
  0
ELLIPSE
  5
3C8
330
1F
100
AcDbEntity
  8
0
  6
Continuous
 62
     7
370
    25
100
AcDbEllipse
 10
7358.4981423122
 20
4334.8262588991
 30
0.0
 11
55.85863854409672
 21
0.0
 31
0.0
210
0.0
220
0.0
230
1.0
 40
0.5773502692
 41
1.335912153243215
 42
1.445149650988193
  0
ELLIPSE
  5
3C9
330
1F
100
AcDbEntity
  8
0
  6
Continuous
 62
     7
370
    25
100
AcDbEllipse
 10
7384.4981423123
 20
4334.8262588991
 30
0.0
 11
55.85863854409672
 21
0.0
 31
0.0
210
0.0
220
0.0
230
1.0
 40
0.5773502692
 41
1.6964430026016
 42
1.805680500346563
  0
LINE
  5
3CA
330
1F
100
AcDbEntity
  8
0
  6
Continuous
 62
     7
370
    25
100
AcDbLine
 10
7381.4981423123
 20
4345.8564085213
 30
0.0
 11
7381.4981423123
 21
4338.5762588991
 31
0.0
  0
LINE
  5
3CB
330
1F
100
AcDbEntity
  8
0
  6
Continuous
 62
     7
370
    25
100
AcDbLine
 10
7381.4981423123
 20
4338.5762588991
 30
0.0
 11
7376.4981423123
 21
4338.5762588991
 31
0.0
  0
LINE
  5
3CC
330
1F
100
AcDbEntity
  8
0
  6
Continuous
 62
     7
370
    25
100
AcDbLine
 10
7361.4981423122
 20
4345.8564085213
 30
0.0
 11
7361.4981423122
 21
4338.5762588991
 31
0.0
  0
LINE
  5
3CD
330
1F
100
AcDbEntity
  8
0
  6
Continuous
 62
     7
370
    25
100
AcDbLine
 10
7381.4981423123
 20
4337.3262588991
 30
0.0
 11
7381.4981423123
 21
4338.5762588991
 31
0.0
  0
LINE
  5
3CE
330
1F
100
AcDbEntity
  8
0
  6
Continuous
 62
     7
370
    25
100
AcDbLine
 10
7381.4981423123
 20
4337.3262588991
 30
0.0
 11
7376.4981423123
 21
4337.3262588991
 31
0.0
  0
LINE
  5
3CF
330
1F
100
AcDbEntity
  8
0
  6
Continuous
 62
     7
370
    25
100
AcDbLine
 10
7381.4981423123
 20
4331.0762588991
 30
0.0
 11
7381.4981423123
 21
4332.3262588991
 31
0.0
  0
LINE
  5
3D0
330
1F
100
AcDbEntity
  8
0
  6
Continuous
 62
     7
370
    25
100
AcDbLine
 10
7376.4981423123
 20
4332.3262588991
 30
0.0
 11
7381.4981423123
 21
4332.3262588991
 31
0.0
  0
LINE
  5
3D1
330
1F
100
AcDbEntity
  8
0
  6
Continuous
 62
     7
370
    25
100
AcDbLine
 10
7371.4981423123
 20
4373.5762588991
 30
0.0
 11
7377.9981423123
 21
4373.5762588991
 31
0.0
  0
LINE
  5
3D2
330
1F
100
AcDbEntity
  8
0
  6
Continuous
 62
     7
370
    25
100
AcDbLine
 10
7377.9981423123
 20
4373.5762588991
 30
0.0
 11
7377.9981423123
 21
4368.870041983
 31
0.0
  0
LINE
  5
3D3
330
1F
100
AcDbEntity
  8
0
  6
Continuous
 62
     7
370
    25
100
AcDbLine
 10
7371.4981423123
 20
4373.5762588991
 30
0.0
 11
7371.4981423123
 21
4366.1907159591
 31
0.0
  0
LINE
  5
3D4
330
1F
100
AcDbEntity
  8
0
  6
Continuous
 62
     7
370
    25
100
AcDbLine
 10
7364.9981423122
 20
4373.5762588991
 30
0.0
 11
7364.9981423122
 21
4368.870041983
 31
0.0
  0
LINE
  5
3D5
330
1F
100
AcDbEntity
  8
0
  6
Continuous
 62
     7
370
    25
100
AcDbLine
 10
7364.9981423122
 20
4373.5762588991
 30
0.0
 11
7371.4981423123
 21
4373.5762588991
 31
0.0
  0
LINE
  5
3D6
330
1F
100
AcDbEntity
  8
0
  6
Continuous
 62
     7
370
    25
100
AcDbLine
 10
7366.9981423123
 20
4329.5762588991
 30
0.0
 11
7375.9981423122
 21
4329.5762588991
 31
0.0
  0
LINE
  5
3D7
330
1F
100
AcDbEntity
  8
0
  6
Continuous
 62
     7
370
    25
100
AcDbLine
 10
7367.4981423122
 20
4340.0762588991
 30
0.0
 11
7375.4981423122
 21
4340.0762588991
 31
0.0
  0
LINE
  5
3D8
330
1F
100
AcDbEntity
  8
0
  6
Continuous
 62
     7
370
    25
100
AcDbLine
 10
7368.4981423123
 20
4342.0762588991
 30
0.0
 11
7374.4981423122
 21
4342.0762588991
 31
0.0
  0
LINE
  5
3D9
330
1F
100
AcDbEntity
  8
0
  6
Continuous
 62
     7
370
    25
100
AcDbLine
 10
7368.9981423122
 20
4352.0762588991
 30
0.0
 11
7373.9981423122
 21
4352.0762588991
 31
0.0
  0
LINE
  5
3DA
330
1F
100
AcDbEntity
  8
0
  6
Continuous
 62
     7
370
    25
100
AcDbLine
 10
7369.4981423122
 20
4352.5762588991
 30
0.0
 11
7373.4981423123
 21
4352.5762588991
 31
0.0
  0
LWPOLYLINE
  5
3DB
330
1F
100
AcDbEntity
  8
0
  6
Continuous
 62
     7
370
    25
100
AcDbPolyline
 90
        9
 70
   128
 43
0.0
 10
7360.4981423123
 20
4346.540448808
 10
7360.3030519902
 20
4346.5338769868
 10
7360.1154588799
 20
4346.5144140748
 10
7359.9425720792
 20
4346.4828080206
 10
7359.7910355311
 20
4346.4402734273
 10
7359.6666726999
 20
4346.3884448754
 10
7359.5742627797
 20
4346.3293141071
 10
7359.5173570318
 20
4346.2651534846
 10
7359.4981423122
 20
4346.1984286647
  0
LWPOLYLINE
  5
3DC
330
1F
100
AcDbEntity
  8
0
  6
Continuous
 62
     7
370
    25
100
AcDbPolyline
 90
        9
 70
   128
 43
0.0
 10
7360.4981423123
 20
4323.1120689902
 10
7360.3030519902
 20
4323.1186408113
 10
7360.1154588799
 20
4323.1381037234
 10
7359.9425720792
 20
4323.1697097775
 10
7359.7910355311
 20
4323.2122443709
 10
7359.6666726999
 20
4323.2640729228
 10
7359.5742627797
 20
4323.3232036911
 10
7359.5173570318
 20
4323.3873643136
 10
7359.4981423122
 20
4323.4540891335
  0
ARC
  5
3DD
330
1F
100
AcDbEntity
  8
0
  6
Continuous
 62
     7
370
    25
100
AcDbCircle
 10
7359.9861621203
 20
4345.9968948326
 30
0.0
 40
2.620159739088015
100
AcDbArc
 50
259.2656460434
 51
270.2619751844
  0
LINE
  5
3DE
330
1F
100
AcDbEntity
  8
0
  6
Continuous
 62
     7
370
    25
100
AcDbLine
 10
7359.4981423122
 20
4346.1984286647
 30
0.0
 11
7359.4981423122
 21
4343.4225844928
 31
0.0
  0
LINE
  5
3DF
330
1F
100
AcDbEntity
  8
0
  6
Continuous
 62
     7
370
    25
100
AcDbLine
 10
7365.4981423123
 20
4346.540448808
 30
0.0
 11
7360.4981423123
 21
4346.540448808
 31
0.0
  0
LINE
  5
3E0
330
1F
100
AcDbEntity
  8
0
  6
Continuous
 62
     7
370
    25
100
AcDbLine
 10
7365.4981423123
 20
4345.8564085213
 30
0.0
 11
7365.4981423123
 21
4346.540448808
 31
0.0
  0
LINE
  5
3E1
330
1F
100
AcDbEntity
  8
0
  6
Continuous
 62
     7
370
    25
100
AcDbLine
 10
7361.4981423122
 20
4345.8564085213
 30
0.0
 11
7365.4981423123
 21
4345.8564085213
 31
0.0
  0
LINE
  5
3E2
330
1F
100
AcDbEntity
  8
0
  6
Continuous
 62
     7
370
    25
100
AcDbLine
 10
7377.4981423122
 20
4345.8564085213
 30
0.0
 11
7381.4981423123
 21
4345.8564085213
 31
0.0
  0
LINE
  5
3E3
330
1F
100
AcDbEntity
  8
0
  6
Continuous
 62
     7
370
    25
100
AcDbLine
 10
7377.4981423122
 20
4346.540448808
 30
0.0
 11
7377.4981423122
 21
4345.8564085213
 31
0.0
  0
LINE
  5
3E4
330
1F
100
AcDbEntity
  8
0
  6
Continuous
 62
     7
370
    25
100
AcDbLine
 10
7382.9981423123
 20
4346.540448808
 30
0.0
 11
7377.4981423122
 21
4346.540448808
 31
0.0
  0
LWPOLYLINE
  5
3E5
330
1F
100
AcDbEntity
  8
0
  6
Continuous
 62
     7
370
    25
100
AcDbPolyline
 90
        9
 70
   128
 43
0.0
 10
7383.9981423122
 20
4346.1984286647
 10
7383.9789275927
 20
4346.2651534846
 10
7383.9220218448
 20
4346.3293141071
 10
7383.8296119246
 20
4346.3884448754
 10
7383.7052490934
 20
4346.4402734273
 10
7383.5537125453
 20
4346.4828080206
 10
7383.3808257446
 20
4346.5144140748
 10
7383.1932326343
 20
4346.5338769868
 10
7382.9981423123
 20
4346.540448808
  0
LINE
  5
3E6
330
1F
100
AcDbEntity
  8
0
  6
Continuous
 62
     7
370
    25
100
AcDbLine
 10
7383.9981423122
 20
4343.7187826256
 30
0.0
 11
7383.9981423122
 21
4346.1984286647
 31
0.0
  0
LWPOLYLINE
  5
3E7
330
1F
100
AcDbEntity
  8
0
  6
Continuous
 62
     7
370
    25
100
AcDbPolyline
 90
        9
 70
   128
 43
0.0
 10
7382.9981423123
 20
4343.3767624822
 10
7383.1932326343
 20
4343.3833343034
 10
7383.3808257446
 20
4343.4027972154
 10
7383.5537125453
 20
4343.4344032696
 10
7383.7052490934
 20
4343.4769378629
 10
7383.8296119246
 20
4343.5287664148
 10
7383.9220218448
 20
4343.5878971832
 10
7383.9789275927
 20
4343.6520578057
 10
7383.9981423122
 20
4343.7187826256
  0
LINE
  5
3E8
330
1F
100
AcDbEntity
  8
0
  6
Continuous
 62
     7
370
    25
100
AcDbLine
 10
7381.4981423123
 20
4343.3767624822
 30
0.0
 11
7382.9981423123
 21
4343.3767624822
 31
0.0
  0
LINE
  5
3E9
330
1F
100
AcDbEntity
  8
0
  6
Continuous
 62
     7
370
    25
100
AcDbLine
 10
7359.9981423122
 20
4343.3767624822
 30
0.0
 11
7361.4981423122
 21
4343.3767624822
 31
0.0
  0
LINE
  5
3EA
330
1F
100
AcDbEntity
  8
0
  6
Continuous
 62
     7
370
    25
100
AcDbLine
 10
7365.4981423123
 20
4323.1120689902
 30
0.0
 11
7360.4981423123
 21
4323.1120689902
 31
0.0
  0
LINE
  5
3EB
330
1F
100
AcDbEntity
  8
0
  6
Continuous
 62
     7
370
    25
100
AcDbLine
 10
7365.4981423123
 20
4323.1120689902
 30
0.0
 11
7365.4981423123
 21
4300.5762588991
 31
0.0
  0
LINE
  5
3EC
330
1F
100
AcDbEntity
  8
0
  6
Continuous
 62
     7
370
    25
100
AcDbLine
 10
7365.4981423123
 20
4368.8369802479
 30
0.0
 11
7365.4981423123
 21
4346.540448808
 31
0.0
  0
LINE
  5
3ED
330
1F
100
AcDbEntity
  8
0
  6
Continuous
 62
     7
370
    25
100
AcDbLine
 10
7382.9981423123
 20
4323.1120689902
 30
0.0
 11
7377.4981423122
 21
4323.1120689902
 31
0.0
  0
LINE
  5
3EE
330
1F
100
AcDbEntity
  8
0
  6
Continuous
 62
     7
370
    25
100
AcDbLine
 10
7377.4981423122
 20
4323.1120689902
 30
0.0
 11
7377.4981423122
 21
4300.5762588991
 31
0.0
  0
LINE
  5
3EF
330
1F
100
AcDbEntity
  8
0
  6
Continuous
 62
     7
370
    25
100
AcDbLine
 10
7377.4981423122
 20
4368.8369802479
 30
0.0
 11
7377.4981423122
 21
4346.540448808
 31
0.0
  0
LINE
  5
3F0
330
1F
100
AcDbEntity
  8
0
  6
Continuous
 62
     7
370
    25
100
AcDbLine
 10
7381.4981423123
 20
4326.275755316
 30
0.0
 11
7382.9981423123
 21
4326.275755316
 31
0.0
  0
LWPOLYLINE
  5
3F1
330
1F
100
AcDbEntity
  8
0
  6
Continuous
 62
     7
370
    25
100
AcDbPolyline
 90
        9
 70
   128
 43
0.0
 10
7382.9981423123
 20
4326.275755316
 10
7383.1932326343
 20
4326.2691834948
 10
7383.3808257446
 20
4326.2497205828
 10
7383.5537125453
 20
4326.2181145286
 10
7383.7052490934
 20
4326.1755799353
 10
7383.8296119246
 20
4326.1237513834
 10
7383.9220218448
 20
4326.064620615
 10
7383.9789275927
 20
4326.0004599925
 10
7383.9981423122
 20
4325.9337351726
  0
LINE
  5
3F2
330
1F
100
AcDbEntity
  8
0
  6
Continuous
 62
     7
370
    25
100
AcDbLine
 10
7383.9981423122
 20
4325.9337351726
 30
0.0
 11
7383.9981423122
 21
4323.4540891335
 31
0.0
  0
LWPOLYLINE
  5
3F3
330
1F
100
AcDbEntity
  8
0
  6
Continuous
 62
     7
370
    25
100
AcDbPolyline
 90
        9
 70
   128
 43
0.0
 10
7383.9981423122
 20
4323.4540891335
 10
7383.9789275927
 20
4323.3873643136
 10
7383.9220218448
 20
4323.3232036911
 10
7383.8296119246
 20
4323.2640729228
 10
7383.7052490934
 20
4323.2122443709
 10
7383.5537125453
 20
4323.1697097775
 10
7383.3808257446
 20
4323.1381037234
 10
7383.1932326343
 20
4323.1186408113
 10
7382.9981423123
 20
4323.1120689902
  0
LINE
  5
3F4
330
1F
100
AcDbEntity
  8
0
  6
Continuous
 62
     7
370
    25
100
AcDbLine
 10
7377.4981423122
 20
4323.7961092768
 30
0.0
 11
7381.4981423123
 21
4323.7961092768
 31
0.0
  0
LINE
  5
3F5
330
1F
100
AcDbEntity
  8
0
  6
Continuous
 62
     7
370
    25
100
AcDbLine
 10
7361.4981423122
 20
4323.7961092768
 30
0.0
 11
7365.4981423123
 21
4323.7961092768
 31
0.0
  0
LINE
  5
3F6
330
1F
100
AcDbEntity
  8
0
  6
Continuous
 62
     7
370
    25
100
AcDbLine
 10
7359.4981423122
 20
4323.4540891335
 30
0.0
 11
7359.4981423122
 21
4326.2299333054
 31
0.0
  0
ARC
  5
3F7
330
1F
100
AcDbEntity
  8
0
  6
Continuous
 62
     7
370
    25
100
AcDbCircle
 10
7359.9861621202
 20
4323.6556229657
 30
0.0
 40
2.620159738967983
100
AcDbArc
 50
89.7380248154
 51
100.734353957
  0
LINE
  5
3F8
330
1F
100
AcDbEntity
  8
0
  6
Continuous
 62
     7
370
    25
100
AcDbLine
 10
7359.9981423122
 20
4326.275755316
 30
0.0
 11
7361.4981423122
 21
4326.275755316
 31
0.0
  0
LINE
  5
3F9
330
1F
100
AcDbEntity
  8
0
  6
Continuous
 62
     7
370
    25
100
AcDbLine
 10
7377.4981423122
 20
4323.1120689902
 30
0.0
 11
7377.4981423122
 21
4323.7961092768
 31
0.0
  0
LINE
  5
3FA
330
1F
100
AcDbEntity
  8
0
  6
Continuous
 62
     7
370
    25
100
AcDbLine
 10
7365.4981423123
 20
4323.7961092768
 30
0.0
 11
7365.4981423123
 21
4323.1120689902
 31
0.0
  0
LINE
  5
3FB
330
1F
100
AcDbEntity
  8
0
  6
Continuous
 62
     7
370
    25
100
AcDbLine
 10
7383.9981423122
 20
4323.4540891335
 30
0.0
 11
7383.9981423122
 21
4301.5762588991
 31
0.0
  0
LINE
  5
3FC
330
1F
100
AcDbEntity
  8
0
  6
Continuous
 62
     7
370
    25
100
AcDbLine
 10
7383.9981423122
 20
4368.0762588991
 30
0.0
 11
7383.9981423122
 21
4346.1984286647
 31
0.0
  0
LINE
  5
3FD
330
1F
100
AcDbEntity
  8
0
  6
Continuous
 62
     7
370
    25
100
AcDbLine
 10
7383.9981423122
 20
4325.9337351726
 30
0.0
 11
7383.9981423122
 21
4343.7187826256
 31
0.0
  0
LINE
  5
3FE
330
1F
100
AcDbEntity
  8
0
  6
Continuous
 62
     7
370
    25
100
AcDbLine
 10
7359.4981423122
 20
4326.2299333054
 30
0.0
 11
7359.4981423122
 21
4343.4225844928
 31
0.0
  0
LINE
  5
3FF
330
1F
100
AcDbEntity
  8
0
  6
Continuous
 62
     7
370
    25
100
AcDbLine
 10
7363.1231423123
 20
4332.3262588991
 30
0.0
 11
7363.1231423123
 21
4337.3262588991
 31
0.0
  0
LINE
  5
400
330
1F
100
AcDbEntity
  8
0
  6
Continuous
 62
     7
370
    25
100
AcDbLine
 10
7366.6231423123
 20
4332.3262588991
 30
0.0
 11
7366.6231423123
 21
4337.3262588991
 31
0.0
  0
LINE
  5
401
330
1F
100
AcDbEntity
  8
0
  6
Continuous
 62
     7
370
    25
100
AcDbLine
 10
7376.3731423122
 20
4332.3262588991
 30
0.0
 11
7376.3731423122
 21
4337.3262588991
 31
0.0
  0
LINE
  5
402
330
1F
100
AcDbEntity
  8
0
  6
Continuous
 62
     7
370
    25
100
AcDbLine
 10
7379.8731423123
 20
4332.3262588991
 30
0.0
 11
7379.8731423123
 21
4337.3262588991
 31
0.0
  0
LWPOLYLINE
  5
403
330
1F
100
AcDbEntity
  8
0
  6
Continuous
 62
     7
370
    25
100
AcDbPolyline
 90
        9
 70
   128
 43
0.0
 10
7359.9981423122
 20
4343.3767624822
 10
7359.8030519902
 20
4343.3833343034
 10
7359.6154588799
 20
4343.4027972154
 10
7359.4425720792
 20
4343.4344032696
 10
7359.2910355311
 20
4343.4769378629
 10
7359.1666726999
 20
4343.5287664148
 10
7359.0742627797
 20
4343.5878971832
 10
7359.0173570318
 20
4343.6520578057
 10
7358.9981423123
 20
4343.7187826256
  0
LINE
  5
404
330
1F
100
AcDbEntity
  8
0
  6
Continuous
 62
     7
370
    25
100
AcDbLine
 10
7358.9981423123
 20
4343.7187826256
 30
0.0
 11
7358.9981423123
 21
4346.1984286647
 31
0.0
  0
LWPOLYLINE
  5
405
330
1F
100
AcDbEntity
  8
0
  6
Continuous
 62
     7
370
    25
100
AcDbPolyline
 90
        9
 70
   128
 43
0.0
 10
7358.9981423123
 20
4346.1984286647
 10
7359.0173570318
 20
4346.2651534846
 10
7359.0742627797
 20
4346.3293141071
 10
7359.1666726999
 20
4346.3884448754
 10
7359.2910355311
 20
4346.4402734273
 10
7359.4425720792
 20
4346.4828080206
 10
7359.6154588799
 20
4346.5144140748
 10
7359.8030519902
 20
4346.5338769868
 10
7359.9981423122
 20
4346.540448808
  0
LINE
  5
406
330
1F
100
AcDbEntity
  8
0
  6
Continuous
 62
     7
370
    25
100
AcDbLine
 10
7359.9981423122
 20
4346.540448808
 30
0.0
 11
7365.4981423123
 21
4346.540448808
 31
0.0
  0
LINE
  5
407
330
1F
100
AcDbEntity
  8
0
  6
Continuous
 62
     7
370
    25
100
AcDbLine
 10
7377.4981423122
 20
4346.540448808
 30
0.0
 11
7382.4981423122
 21
4346.540448808
 31
0.0
  0
LWPOLYLINE
  5
408
330
1F
100
AcDbEntity
  8
0
  6
Continuous
 62
     7
370
    25
100
AcDbPolyline
 90
        9
 70
   128
 43
0.0
 10
7382.4981423122
 20
4346.540448808
 10
7382.6932326343
 20
4346.5338769868
 10
7382.8808257446
 20
4346.5144140748
 10
7383.0537125453
 20
4346.4828080206
 10
7383.2052490934
 20
4346.4402734273
 10
7383.3296119246
 20
4346.3884448754
 10
7383.4220218448
 20
4346.3293141071
 10
7383.4789275927
 20
4346.2651534846
 10
7383.4981423122
 20
4346.1984286647
  0
LINE
  5
409
330
1F
100
AcDbEntity
  8
0
  6
Continuous
 62
     7
370
    25
100
AcDbLine
 10
7383.4981423122
 20
4346.1984286647
 30
0.0
 11
7383.4981423122
 21
4343.4225844928
 31
0.0
  0
ARC
  5
40A
330
1F
100
AcDbEntity
  8
0
  6
Continuous
 62
     7
370
    25
100
AcDbCircle
 10
7383.0101225042
 20
4345.9968948326
 30
0.0
 40
2.620159739066073
100
AcDbArc
 50
269.7380248155
 51
280.7343539567
  0
LWPOLYLINE
  5
40B
330
1F
100
AcDbEntity
  8
0
  6
Continuous
 62
     7
370
    25
100
AcDbPolyline
 90
        9
 70
   128
 43
0.0
 10
7358.9981423123
 20
4323.4540891335
 10
7359.0173570318
 20
4323.3873643136
 10
7359.0742627797
 20
4323.3232036911
 10
7359.1666726999
 20
4323.2640729228
 10
7359.2910355311
 20
4323.2122443709
 10
7359.4425720792
 20
4323.1697097775
 10
7359.6154588799
 20
4323.1381037234
 10
7359.8030519902
 20
4323.1186408113
 10
7359.9981423122
 20
4323.1120689902
  0
LINE
  5
40C
330
1F
100
AcDbEntity
  8
0
  6
Continuous
 62
     7
370
    25
100
AcDbLine
 10
7358.9981423123
 20
4323.4540891335
 30
0.0
 11
7358.9981423123
 21
4301.5762588991
 31
0.0
  0
LINE
  5
40D
330
1F
100
AcDbEntity
  8
0
  6
Continuous
 62
     7
370
    25
100
AcDbLine
 10
7358.9981423123
 20
4368.0762588991
 30
0.0
 11
7358.9981423123
 21
4346.1984286647
 31
0.0
  0
LINE
  5
40E
330
1F
100
AcDbEntity
  8
0
  6
Continuous
 62
     7
370
    25
100
AcDbLine
 10
7359.9981423122
 20
4323.1120689902
 30
0.0
 11
7365.4981423123
 21
4323.1120689902
 31
0.0
  0
LINE
  5
40F
330
1F
100
AcDbEntity
  8
0
  6
Continuous
 62
     7
370
    25
100
AcDbLine
 10
7377.4981423122
 20
4323.1120689902
 30
0.0
 11
7382.4981423122
 21
4323.1120689902
 31
0.0
  0
LWPOLYLINE
  5
410
330
1F
100
AcDbEntity
  8
0
  6
Continuous
 62
     7
370
    25
100
AcDbPolyline
 90
        9
 70
   128
 43
0.0
 10
7382.4981423122
 20
4323.1120689902
 10
7382.6932326343
 20
4323.1186408113
 10
7382.8808257446
 20
4323.1381037234
 10
7383.0537125453
 20
4323.1697097775
 10
7383.2052490934
 20
4323.2122443709
 10
7383.3296119246
 20
4323.2640729228
 10
7383.4220218448
 20
4323.3232036911
 10
7383.4789275927
 20
4323.3873643136
 10
7383.4981423122
 20
4323.4540891335
  0
ARC
  5
411
330
1F
100
AcDbEntity
  8
0
  6
Continuous
 62
     7
370
    25
100
AcDbCircle
 10
7383.0101225043
 20
4323.6556229657
 30
0.0
 40
2.620159738945141
100
AcDbArc
 50
79.265646043
 51
90.2619751846
  0
LINE
  5
412
330
1F
100
AcDbEntity
  8
0
  6
Continuous
 62
     7
370
    25
100
AcDbLine
 10
7383.4981423122
 20
4323.4540891335
 30
0.0
 11
7383.4981423122
 21
4326.2299333054
 31
0.0
  0
LINE
  5
413
330
1F
100
AcDbEntity
  8
0
  6
Continuous
 62
     7
370
    25
100
AcDbLine
 10
7358.9981423123
 20
4325.9337351726
 30
0.0
 11
7358.9981423123
 21
4323.4540891335
 31
0.0
  0
LWPOLYLINE
  5
414
330
1F
100
AcDbEntity
  8
0
  6
Continuous
 62
     7
370
    25
100
AcDbPolyline
 90
        9
 70
   128
 43
0.0
 10
7359.9981423122
 20
4326.275755316
 10
7359.8030519902
 20
4326.2691834948
 10
7359.6154588799
 20
4326.2497205828
 10
7359.4425720792
 20
4326.2181145286
 10
7359.2910355311
 20
4326.1755799353
 10
7359.1666726999
 20
4326.1237513834
 10
7359.0742627797
 20
4326.064620615
 10
7359.0173570318
 20
4326.0004599925
 10
7358.9981423123
 20
4325.9337351726
  0
LINE
  5
415
330
1F
100
AcDbEntity
  8
0
  6
Continuous
 62
     7
370
    25
100
AcDbLine
 10
7358.9981423123
 20
4325.9337351726
 30
0.0
 11
7358.9981423123
 21
4343.7187826256
 31
0.0
  0
LINE
  5
416
330
1F
100
AcDbEntity
  8
0
  6
Continuous
 62
     7
370
    25
100
AcDbLine
 10
7383.4981423122
 20
4326.2299333054
 30
0.0
 11
7383.4981423122
 21
4343.4225844928
 31
0.0
  0
LINE
  5
417
330
1F
100
AcDbEntity
  8
0
  6
Continuous
 62
     7
370
    25
100
AcDbLine
 10
7385.6627178412
 20
4508.9895909736
 30
0.0
 11
7385.6627178412
 21
4508.5762588991
 31
0.0
  0
LINE
  5
418
330
1F
100
AcDbEntity
  8
0
  6
Continuous
 62
     7
370
    25
100
AcDbLine
 10
7385.6627178412
 20
4500.5762588991
 30
0.0
 11
7385.6627178412
 21
4500.1629268246
 31
0.0
  0
LINE
  5
419
330
1F
100
AcDbEntity
  8
0
  6
Continuous
 62
     7
370
    25
100
AcDbLine
 10
7359.6627178412
 20
4506.1564088795
 30
0.0
 11
7359.6627178412
 21
4500.5762588991
 31
0.0
  0
LINE
  5
41A
330
1F
100
AcDbEntity
  8
0
  6
Continuous
 62
     7
370
    25
100
AcDbLine
 10
7359.6627178412
 20
4508.5762588991
 30
0.0
 11
7359.6627178412
 21
4506.1564088795
 31
0.0
  0
LINE
  5
41B
330
1F
100
AcDbEntity
  8
0
  6
Continuous
 62
     7
370
    25
100
AcDbLine
 10
7358.6627178412
 20
4505.7613713844
 30
0.0
 11
7358.6627178412
 21
4507.5762588991
 31
0.0
  0
LINE
  5
41C
330
1F
100
AcDbEntity
  8
0
  6
Continuous
 62
     7
370
    25
100
AcDbLine
 10
7358.6627178412
 20
4501.5762588991
 30
0.0
 11
7358.6627178412
 21
4505.7613713844
 31
0.0
  0
LINE
  5
41D
330
1F
100
AcDbEntity
  8
0
  6
Continuous
 62
     7
370
    25
100
AcDbLine
 10
7368.0127178412
 20
4667.0762588991
 30
0.0
 11
7367.4981423122
 21
4667.0762588991
 31
0.0
  0
LINE
  5
41E
330
1F
100
AcDbEntity
  8
0
  6
Continuous
 62
     7
370
    25
100
AcDbLine
 10
7366.4127178412
 20
4492.0762588991
 30
0.0
 11
7366.4127178412
 21
4497.0713703036
 31
0.0
  0
LINE
  5
41F
330
1F
100
AcDbEntity
  8
0
  6
Continuous
 62
     7
370
    25
100
AcDbLine
 10
7366.4127178412
 20
4512.0811474946
 30
0.0
 11
7366.4127178412
 21
4517.0762588991
 31
0.0
  0
LINE
  5
420
330
1F
100
AcDbEntity
  8
0
  6
Continuous
 62
     7
370
    25
100
AcDbLine
 10
7366.4127178412
 20
4517.0762588991
 30
0.0
 11
7368.0127178412
 21
4517.0762588991
 31
0.0
  0
LINE
  5
421
330
1F
100
AcDbEntity
  8
0
  6
Continuous
 62
     7
370
    25
100
AcDbLine
 10
7366.4127178412
 20
4492.0762588991
 30
0.0
 11
7368.0127178412
 21
4492.0762588991
 31
0.0
  0
LINE
  5
422
330
1F
100
AcDbEntity
  8
0
  6
Continuous
 62
     7
370
    25
100
AcDbLine
 10
7354.5627178412
 20
4713.3001385853
 30
0.0
 11
7354.5627178412
 21
4714.8001385853
 31
0.0
  0
ARC
  5
423
330
1F
100
AcDbEntity
  8
0
  6
Continuous
 62
     7
370
    25
100
AcDbCircle
 10
7359.5627178412
 20
4714.8001385853
 30
0.0
 40
5.0
100
AcDbArc
 50
90.0
 51
180.0
  0
LINE
  5
424
330
1F
100
AcDbEntity
  8
0
  6
Continuous
 62
     7
370
    25
100
AcDbLine
 10
7359.5627178412
 20
4719.8001385853
 30
0.0
 11
7368.0127178412
 21
4719.8001385853
 31
0.0
  0
LINE
  5
425
330
1F
100
AcDbEntity
  8
0
  6
Continuous
 62
     7
370
    25
100
AcDbLine
 10
7368.0127178412
 20
4801.8001385853
 30
0.0
 11
7359.5627178412
 21
4801.8001385853
 31
0.0
  0
ARC
  5
426
330
1F
100
AcDbEntity
  8
0
  6
Continuous
 62
     7
370
    25
100
AcDbCircle
 10
7359.5627178412
 20
4806.8001385853
 30
0.0
 40
5.0
100
AcDbArc
 50
180.0
 51
270.0
  0
LINE
  5
427
330
1F
100
AcDbEntity
  8
0
  6
Continuous
 62
     7
370
    25
100
AcDbLine
 10
7354.5627178412
 20
4806.8001385853
 30
0.0
 11
7354.5627178412
 21
4808.3001385853
 31
0.0
  0
LINE
  5
428
330
1F
100
AcDbEntity
  8
0
  6
Continuous
 62
     7
370
    25
100
AcDbLine
 10
7368.0127178412
 20
4710.8001385853
 30
0.0
 11
7354.5627178412
 21
4710.8001385853
 31
0.0
  0
LINE
  5
429
330
1F
100
AcDbEntity
  8
0
  6
Continuous
 62
     7
370
    25
100
AcDbLine
 10
7354.5627178412
 20
4710.8001385853
 30
0.0
 11
7354.5627178412
 21
4713.3001385853
 31
0.0
  0
LINE
  5
42A
330
1F
100
AcDbEntity
  8
0
  6
Continuous
 62
     7
370
    25
100
AcDbLine
 10
7354.5627178412
 20
4810.8001385853
 30
0.0
 11
7368.0127178412
 21
4810.8001385853
 31
0.0
  0
LINE
  5
42B
330
1F
100
AcDbEntity
  8
0
  6
Continuous
 62
     7
370
    25
100
AcDbLine
 10
7354.5627178412
 20
4808.3001385853
 30
0.0
 11
7354.5627178412
 21
4810.8001385853
 31
0.0
  0
LINE
  5
42C
330
1F
100
AcDbEntity
  8
0
  6
Continuous
 62
     7
370
    25
100
AcDbLine
 10
7400.5627178412
 20
4754.5501385853
 30
0.0
 11
7400.5627178412
 21
4767.0501385853
 31
0.0
  0
ARC
  5
42D
330
1F
100
AcDbEntity
  8
0
  6
Continuous
 62
     7
370
    25
100
AcDbCircle
 10
7407.87485441
 20
4710.9028643041
 30
0.0
 40
2.931860662086332
100
AcDbArc
 50
54.8515408005
 51
87.3048150975
  0
LINE
  5
42E
330
1F
100
AcDbEntity
  8
0
  6
Continuous
 62
     7
370
    25
100
AcDbLine
 10
7408.0627178412
 20
4713.3001385853
 30
0.0
 11
7409.5627178412
 21
4713.3001385853
 31
0.0
  0
LINE
  5
42F
330
1F
100
AcDbEntity
  8
0
  6
Continuous
 62
     7
370
    25
100
AcDbLine
 10
7408.0627178412
 20
4713.3001385853
 30
0.0
 11
7408.0127178412
 21
4713.4230809158
 31
0.0
  0
ARC
  5
430
330
1F
100
AcDbEntity
  8
0
  6
Continuous
 62
     7
370
    25
100
AcDbCircle
 10
7407.9745086291
 20
4810.40850481
 30
0.0
 40
2.639624336715185
100
AcDbArc
 50
270.8293994802
 51
306.9903148938
  0
LINE
  5
431
330
1F
100
AcDbEntity
  8
0
  6
Continuous
 62
     7
370
    25
100
AcDbLine
 10
7409.5627178412
 20
4808.3001385853
 30
0.0
 11
7409.5627178412
 21
4713.3001385853
 31
0.0
  0
LINE
  5
432
330
1F
100
AcDbEntity
  8
0
  6
Continuous
 62
     7
370
    25
100
AcDbLine
 10
7409.5627178412
 20
4808.3001385853
 30
0.0
 11
7408.0627178412
 21
4808.3001385853
 31
0.0
  0
LWPOLYLINE
  5
433
330
1F
100
AcDbEntity
  8
0
  6
Continuous
 62
     7
370
    25
100
AcDbPolyline
 90
        3
 70
   128
 43
0.0
 10
7408.0127178412
 20
4808.1830481876
 10
7408.0587039416
 20
4808.2597906263
 10
7408.0627178412
 20
4808.3001385853
  0
LWPOLYLINE
  5
434
330
1F
100
AcDbEntity
  8
0
  6
Continuous
 62
     7
370
    25
100
AcDbPolyline
 90
        3
 70
   128
 43
0.0
 10
7408.0627178412
 20
4713.3001385853
 10
7408.0435031216
 20
4713.1050482633
 10
7408.0127178412
 20
4712.9878886854
  0
ARC
  5
435
330
1F
100
AcDbEntity
  8
0
  6
Continuous
 62
     7
370
    25
100
AcDbCircle
 10
7407.0627178412
 20
4713.3001385853
 30
0.0
 40
2.500000000000346
100
AcDbArc
 50
292.3336826579
 51
0.0
  0
ARC
  5
436
330
1F
100
AcDbEntity
  8
0
  6
Continuous
 62
     7
370
    25
100
AcDbCircle
 10
7407.0627178412
 20
4808.3001385853
 30
0.0
 40
2.5
100
AcDbArc
 50
0.0
 51
67.6663173421
  0
LWPOLYLINE
  5
437
330
1F
100
AcDbEntity
  8
0
  6
Continuous
 62
     7
370
    25
100
AcDbPolyline
 90
        3
 70
   128
 43
0.0
 10
7408.0127178412
 20
4808.6123884852
 10
7408.0435031216
 20
4808.4952289073
 10
7408.0627178412
 20
4808.3001385853
  0
LINE
  5
438
330
1F
100
AcDbEntity
  8
0
  6
Continuous
 62
     8
370
    25
100
AcDbLine
 10
7412.0627178412
 20
4776.8001385853
 30
0.0
 11
7412.0627178412
 21
4782.3001385853
 31
0.0
  0
LINE
  5
439
330
1F
100
AcDbEntity
  8
0
  6
Continuous
 62
     8
370
    25
100
AcDbLine
 10
7412.0627178412
 20
4742.0501385853
 30
0.0
 11
7412.0627178412
 21
4744.8001385853
 31
0.0
  0
LINE
  5
43A
330
1F
100
AcDbEntity
  8
0
  6
Continuous
 62
     8
370
    25
100
AcDbLine
 10
7412.0627178412
 20
4739.3001385853
 30
0.0
 11
7412.0627178412
 21
4742.0501385853
 31
0.0
  0
LINE
  5
43B
330
1F
100
AcDbEntity
  8
0
  6
Continuous
 62
     8
370
    25
100
AcDbLine
 10
7360.4981423123
 20
4323.1120689902
 30
0.0
 11
7360.4981423123
 21
4300.5762588991
 31
0.0
  0
LINE
  5
43C
330
1F
100
AcDbEntity
  8
0
  6
Continuous
 62
     8
370
    25
100
AcDbLine
 10
7360.4981423123
 20
4369.0762588991
 30
0.0
 11
7360.4981423123
 21
4346.540448808
 31
0.0
  0
LINE
  5
43D
330
1F
100
AcDbEntity
  8
0
  6
Continuous
 62
     8
370
    25
100
AcDbLine
 10
7382.9981423123
 20
4323.1120689902
 30
0.0
 11
7382.9981423123
 21
4300.5762588991
 31
0.0
  0
LINE
  5
43E
330
1F
100
AcDbEntity
  8
0
  6
Continuous
 62
     8
370
    25
100
AcDbLine
 10
7382.9981423123
 20
4369.0762588991
 30
0.0
 11
7382.9981423123
 21
4346.540448808
 31
0.0
  0
LINE
  5
43F
330
1F
100
AcDbEntity
  8
0
  6
Continuous
 62
     8
370
    25
100
AcDbLine
 10
7382.9981423123
 20
4326.275755316
 30
0.0
 11
7382.9981423123
 21
4343.3767624822
 31
0.0
  0
LINE
  5
440
330
1F
100
AcDbEntity
  8
0
  6
Continuous
 62
     8
370
    25
100
AcDbLine
 10
7359.9981423122
 20
4326.275755316
 30
0.0
 11
7359.9981423122
 21
4343.3767624822
 31
0.0
  0
LINE
  5
441
330
1F
100
AcDbEntity
  8
0
  6
Continuous
 62
     8
370
    25
100
AcDbLine
 10
7359.9981423122
 20
4323.1120689902
 30
0.0
 11
7359.9981423122
 21
4300.5762588991
 31
0.0
  0
LINE
  5
442
330
1F
100
AcDbEntity
  8
0
  6
Continuous
 62
     8
370
    25
100
AcDbLine
 10
7359.9981423122
 20
4369.0762588991
 30
0.0
 11
7359.9981423122
 21
4346.540448808
 31
0.0
  0
LINE
  5
443
330
1F
100
AcDbEntity
  8
0
  6
Continuous
 62
     8
370
    25
100
AcDbLine
 10
7382.4981423122
 20
4323.1120689902
 30
0.0
 11
7382.4981423122
 21
4300.5762588991
 31
0.0
  0
LINE
  5
444
330
1F
100
AcDbEntity
  8
0
  6
Continuous
 62
     8
370
    25
100
AcDbLine
 10
7382.4981423122
 20
4369.0762588991
 30
0.0
 11
7382.4981423122
 21
4346.540448808
 31
0.0
  0
LINE
  5
445
330
1F
100
AcDbEntity
  8
0
  6
Continuous
 62
     8
370
    25
100
AcDbLine
 10
7368.0127178412
 20
4713.3001385853
 30
0.0
 11
7354.5627178412
 21
4713.3001385853
 31
0.0
  0
LINE
  5
446
330
1F
100
AcDbEntity
  8
0
  6
Continuous
 62
     8
370
    25
100
AcDbLine
 10
7354.5627178412
 20
4808.3001385853
 30
0.0
 11
7368.0127178412
 21
4808.3001385853
 31
0.0
  0
LINE
  5
447
330
1F
100
AcDbEntity
  8
0
  6
Continuous
 62
     8
370
    25
100
AcDbLine
 10
7407.0627178412
 20
4773.5501385853
 30
0.0
 11
7407.0627178412
 21
4748.0501385853
 31
0.0
  0
LINE
  5
448
330
1F
100
AcDbEntity
  8
0
  6
Continuous
 62
     7
370
    25
100
AcDbLine
 10
6595.2200827779
 20
4083.8732681405
 30
0.0
 11
6595.2200827779
 21
4085.8732681405
 31
0.0
  0
LINE
  5
449
330
1F
100
AcDbEntity
  8
0
  6
Continuous
 62
     7
370
    25
100
AcDbLine
 10
6568.2200827779
 20
4085.8732681405
 30
0.0
 11
6568.2200827779
 21
4083.8732681405
 31
0.0
  0
LINE
  5
44A
330
1F
100
AcDbEntity
  8
0
  6
Continuous
 62
     7
370
    25
100
AcDbLine
 10
7095.7200827779
 20
4083.8732681405
 30
0.0
 11
7095.7200827779
 21
4085.8732681405
 31
0.0
  0
LINE
  5
44B
330
1F
100
AcDbEntity
  8
0
  6
Continuous
 62
     7
370
    25
100
AcDbLine
 10
7068.7200827779
 20
4085.8732681405
 30
0.0
 11
7068.7200827779
 21
4083.8732681405
 31
0.0
  0
LINE
  5
44C
330
1F
100
AcDbEntity
  8
0
  6
Continuous
 62
     7
370
    25
100
AcDbLine
 10
6635.2200827779
 20
4083.8732681405
 30
0.0
 11
6635.2200827779
 21
4085.8732681405
 31
0.0
  0
LINE
  5
44D
330
1F
100
AcDbEntity
  8
0
  6
Continuous
 62
     7
370
    25
100
AcDbLine
 10
6608.2200827779
 20
4085.8732681405
 30
0.0
 11
6608.2200827779
 21
4083.8732681405
 31
0.0
  0
LINE
  5
44E
330
1F
100
AcDbEntity
  8
0
  6
Continuous
 62
     7
370
    25
100
AcDbLine
 10
7135.7200827779
 20
4083.8732681405
 30
0.0
 11
7135.7200827779
 21
4085.8732681405
 31
0.0
  0
LINE
  5
44F
330
1F
100
AcDbEntity
  8
0
  6
Continuous
 62
     7
370
    25
100
AcDbLine
 10
7108.7200827779
 20
4085.8732681405
 30
0.0
 11
7108.7200827779
 21
4083.8732681405
 31
0.0
  0
ARC
  5
450
330
1F
100
AcDbEntity
  8
0
  6
Continuous
 62
     7
370
    25
100
AcDbCircle
 10
6837.3887085209
 20
4046.2232681405
 30
0.0
 40
0.5000000000009095
100
AcDbArc
 50
180.0
 51
270.0
  0
ARC
  5
451
330
1F
100
AcDbEntity
  8
0
  6
Continuous
 62
     7
370
    25
100
AcDbCircle
 10
6841.8887085209
 20
4046.2232681405
 30
0.0
 40
0.5000000000009095
100
AcDbArc
 50
270.0
 51
0.0
  0
LINE
  5
452
330
1F
100
AcDbEntity
  8
0
  6
Continuous
 62
     7
370
    25
100
AcDbLine
 10
6842.3887085209
 20
4046.2232681405
 30
0.0
 11
6842.3887085209
 21
4048.7232681405
 31
0.0
  0
LINE
  5
453
330
1F
100
AcDbEntity
  8
0
  6
Continuous
 62
     7
370
    25
100
AcDbLine
 10
6836.8887085209
 20
4048.7232681405
 30
0.0
 11
6836.8887085209
 21
4046.2232681405
 31
0.0
  0
LINE
  5
454
330
1F
100
AcDbEntity
  8
0
  6
Continuous
 62
     7
370
    25
100
AcDbLine
 10
6879.8887085209
 20
4046.2232681405
 30
0.0
 11
6879.8887085209
 21
4048.7232681405
 31
0.0
  0
LINE
  5
455
330
1F
100
AcDbEntity
  8
0
  6
Continuous
 62
     7
370
    25
100
AcDbLine
 10
6874.3887085209
 20
4048.7232681405
 30
0.0
 11
6874.3887085209
 21
4046.2232681405
 31
0.0
  0
ARC
  5
456
330
1F
100
AcDbEntity
  8
0
  6
Continuous
 62
     7
370
    25
100
AcDbCircle
 10
6874.8887085209
 20
4046.2232681405
 30
0.0
 40
0.5000000000009095
100
AcDbArc
 50
180.0
 51
270.0
  0
ARC
  5
457
330
1F
100
AcDbEntity
  8
0
  6
Continuous
 62
     7
370
    25
100
AcDbCircle
 10
6879.3887085209
 20
4046.2232681405
 30
0.0
 40
0.5000000000009095
100
AcDbArc
 50
270.0
 51
0.0
  0
LINE
  5
458
330
1F
100
AcDbEntity
  8
0
  6
Continuous
 62
     7
370
    25
100
AcDbLine
 10
6752.3876633514
 20
4046.2232681405
 30
0.0
 11
6752.3876633514
 21
4048.7232681405
 31
0.0
  0
LINE
  5
459
330
1F
100
AcDbEntity
  8
0
  6
Continuous
 62
     7
370
    25
100
AcDbLine
 10
6746.8876633514
 20
4048.7232681405
 30
0.0
 11
6746.8876633514
 21
4046.2232681405
 31
0.0
  0
ARC
  5
45A
330
1F
100
AcDbEntity
  8
0
  6
Continuous
 62
     7
370
    25
100
AcDbCircle
 10
6747.3876633514
 20
4046.2232681405
 30
0.0
 40
0.5000000000009095
100
AcDbArc
 50
180.0
 51
270.0
  0
ARC
  5
45B
330
1F
100
AcDbEntity
  8
0
  6
Continuous
 62
     7
370
    25
100
AcDbCircle
 10
6751.8876633514
 20
4046.2232681405
 30
0.0
 40
0.5000000000009095
100
AcDbArc
 50
270.0
 51
0.0
  0
ARC
  5
45C
330
1F
100
AcDbEntity
  8
0
  6
Continuous
 62
     7
370
    25
100
AcDbCircle
 10
6784.8876633514
 20
4046.2232681405
 30
0.0
 40
0.5000000000009095
100
AcDbArc
 50
180.0
 51
270.0
  0
ARC
  5
45D
330
1F
100
AcDbEntity
  8
0
  6
Continuous
 62
     7
370
    25
100
AcDbCircle
 10
6789.3876633514
 20
4046.2232681405
 30
0.0
 40
0.5000000000009095
100
AcDbArc
 50
270.0
 51
0.0
  0
LINE
  5
45E
330
1F
100
AcDbEntity
  8
0
  6
Continuous
 62
     7
370
    25
100
AcDbLine
 10
6789.8876633514
 20
4046.2232681405
 30
0.0
 11
6789.8876633514
 21
4048.7232681405
 31
0.0
  0
LINE
  5
45F
330
1F
100
AcDbEntity
  8
0
  6
Continuous
 62
     7
370
    25
100
AcDbLine
 10
6784.3876633514
 20
4048.7232681405
 30
0.0
 11
6784.3876633514
 21
4046.2232681405
 31
0.0
  0
LINE
  5
460
330
1F
100
AcDbEntity
  8
0
  6
Continuous
 62
     7
370
    25
100
AcDbLine
 10
6755.5376633514
 20
4048.7232681405
 30
0.0
 11
6755.5376633514
 21
4037.2232681405
 31
0.0
  0
LINE
  5
461
330
1F
100
AcDbEntity
  8
0
  6
Continuous
 62
     7
370
    25
100
AcDbLine
 10
6781.2376633514
 20
4037.2232681405
 30
0.0
 11
6781.2376633514
 21
4048.7232681405
 31
0.0
  0
LINE
  5
462
330
1F
100
AcDbEntity
  8
0
  6
Continuous
 62
     7
370
    25
100
AcDbLine
 10
6845.5387085209
 20
4048.7232681405
 30
0.0
 11
6845.5387085209
 21
4037.2232681405
 31
0.0
  0
LINE
  5
463
330
1F
100
AcDbEntity
  8
0
  6
Continuous
 62
     7
370
    25
100
AcDbLine
 10
6871.2387085209
 20
4037.2232681405
 30
0.0
 11
6871.2387085209
 21
4048.7232681405
 31
0.0
  0
LINE
  5
464
330
1F
100
AcDbEntity
  8
0
  6
Continuous
 62
     7
370
    25
100
AcDbLine
 10
6661.3988133168
 20
4084.6232681405
 30
0.0
 11
6661.3988133168
 21
4082.6232681405
 31
0.0
  0
LINE
  5
465
330
1F
100
AcDbEntity
  8
0
  6
Continuous
 62
     7
370
    25
100
AcDbLine
 10
6906.6174119164
 20
4103.7232681405
 30
0.0
 11
6934.1174119164
 21
4103.7232681405
 31
0.0
  0
LINE
  5
466
330
1F
100
AcDbEntity
  8
0
  6
Continuous
 62
     7
370
    25
100
AcDbLine
 10
6934.1174119164
 20
4103.7232681405
 30
0.0
 11
6934.1174119164
 21
4080.7232681405
 31
0.0
  0
LINE
  5
467
330
1F
100
AcDbEntity
  8
0
  6
Continuous
 62
     7
370
    25
100
AcDbLine
 10
6934.1174119164
 20
4080.7232681405
 30
0.0
 11
6935.1174119164
 21
4080.7232681405
 31
0.0
  0
LINE
  5
468
330
1F
100
AcDbEntity
  8
0
  6
Continuous
 62
     7
370
    25
100
AcDbLine
 10
7023.1174119164
 20
4080.7232681405
 30
0.0
 11
6935.1174119164
 21
4080.7232681405
 31
0.0
  0
LINE
  5
469
330
1F
100
AcDbEntity
  8
0
  6
Continuous
 62
     7
370
    25
100
AcDbLine
 10
7023.1174119164
 20
4080.7232681405
 30
0.0
 11
7024.1174119164
 21
4080.7232681405
 31
0.0
  0
LINE
  5
46A
330
1F
100
AcDbEntity
  8
0
  6
Continuous
 62
     7
370
    25
100
AcDbLine
 10
7024.1174119164
 20
4080.7232681405
 30
0.0
 11
7024.1174119164
 21
4103.7232681405
 31
0.0
  0
LINE
  5
46B
330
1F
100
AcDbEntity
  8
0
  6
Continuous
 62
     7
370
    25
100
AcDbLine
 10
7024.1174119164
 20
4103.7232681405
 30
0.0
 11
7051.6174119164
 21
4103.7232681405
 31
0.0
  0
ARC
  5
46C
330
1F
100
AcDbEntity
  8
0
  6
Continuous
 62
     7
370
    25
100
AcDbCircle
 10
7037.1174119164
 20
4093.4732681405
 30
0.0
 40
4.25
100
AcDbArc
 50
0.0
 51
180.0
  0
LINE
  5
46D
330
1F
100
AcDbEntity
  8
0
  6
Continuous
 62
     7
370
    25
100
AcDbLine
 10
7032.8674119164
 20
4093.4732681405
 30
0.0
 11
7032.8674119164
 21
4077.7232681405
 31
0.0
  0
LINE
  5
46E
330
1F
100
AcDbEntity
  8
0
  6
Continuous
 62
     7
370
    25
100
AcDbLine
 10
7032.8674119164
 20
4068.2821620393
 30
0.0
 11
7032.8674119164
 21
4062.2232681405
 31
0.0
  0
ARC
  5
46F
330
1F
100
AcDbEntity
  8
0
  6
Continuous
 62
     7
370
    25
100
AcDbCircle
 10
7037.1174119164
 20
4062.2232681405
 30
0.0
 40
4.250000000000806
100
AcDbArc
 50
180.0
 51
238.7196002695
  0
ARC
  5
470
330
1F
100
AcDbEntity
  8
0
  6
Continuous
 62
     7
370
    25
100
AcDbCircle
 10
7037.1174119164
 20
4062.2232681405
 30
0.0
 40
4.250000000000618
100
AcDbArc
 50
273.0639307283
 51
0.0
  0
LINE
  5
471
330
1F
100
AcDbEntity
  8
0
  6
Continuous
 62
     7
370
    25
100
AcDbLine
 10
7041.3674119164
 20
4062.2232681405
 30
0.0
 11
7041.3674119164
 21
4069.2252701725
 31
0.0
  0
LINE
  5
472
330
1F
100
AcDbEntity
  8
0
  6
Continuous
 62
     7
370
    25
100
AcDbLine
 10
7041.3674119164
 20
4077.7232681405
 30
0.0
 11
7041.3674119164
 21
4093.4732681405
 31
0.0
  0
ARC
  5
473
330
1F
100
AcDbEntity
  8
0
  6
Continuous
 62
     7
370
    25
100
AcDbCircle
 10
6921.1174119164
 20
4093.4732681405
 30
0.0
 40
4.250000000000909
100
AcDbArc
 50
0.0
 51
180.0
  0
LINE
  5
474
330
1F
100
AcDbEntity
  8
0
  6
Continuous
 62
     7
370
    25
100
AcDbLine
 10
6916.8674119164
 20
4093.4732681405
 30
0.0
 11
6916.8674119164
 21
4077.7232681405
 31
0.0
  0
LINE
  5
475
330
1F
100
AcDbEntity
  8
0
  6
Continuous
 62
     7
370
    25
100
AcDbLine
 10
6925.3674119164
 20
4077.7232681405
 30
0.0
 11
6925.3674119164
 21
4093.4732681405
 31
0.0
  0
LINE
  5
476
330
1F
100
AcDbEntity
  8
0
  6
Continuous
 62
     7
370
    25
100
AcDbLine
 10
6904.1174119164
 20
4103.7232681405
 30
0.0
 11
6904.1174119164
 21
4077.7232681405
 31
0.0
  0
LINE
  5
477
330
1F
100
AcDbEntity
  8
0
  6
Continuous
 62
     7
370
    25
100
AcDbLine
 10
6904.1174119164
 20
4103.7232681405
 30
0.0
 11
6906.6174119164
 21
4103.7232681405
 31
0.0
  0
LINE
  5
478
330
1F
100
AcDbEntity
  8
0
  6
Continuous
 62
     7
370
    25
100
AcDbLine
 10
6906.6174119164
 20
4048.7232681405
 30
0.0
 11
7051.6174119164
 21
4048.7232681405
 31
0.0
  0
LINE
  5
479
330
1F
100
AcDbEntity
  8
0
  6
Continuous
 62
     7
370
    25
100
AcDbLine
 10
6906.6174119164
 20
4048.7232681405
 30
0.0
 11
6906.6174119164
 21
4050.7232681405
 31
0.0
  0
LINE
  5
47A
330
1F
100
AcDbEntity
  8
0
  6
Continuous
 62
     7
370
    25
100
AcDbLine
 10
7051.6174119164
 20
4048.7232681405
 30
0.0
 11
7051.6174119164
 21
4050.7232681405
 31
0.0
  0
LINE
  5
47B
330
1F
100
AcDbEntity
  8
0
  6
Continuous
 62
     7
370
    25
100
AcDbLine
 10
6935.1174119164
 20
4083.2232681405
 30
0.0
 11
7023.1174119164
 21
4083.2232681405
 31
0.0
  0
LINE
  5
47C
330
1F
100
AcDbEntity
  8
0
  6
Continuous
 62
     7
370
    25
100
AcDbLine
 10
7023.1174119164
 20
4083.2232681405
 30
0.0
 11
7023.1174119164
 21
4080.7232681405
 31
0.0
  0
LINE
  5
47D
330
1F
100
AcDbEntity
  8
0
  6
Continuous
 62
     7
370
    25
100
AcDbLine
 10
6935.1174119164
 20
4080.7232681405
 30
0.0
 11
6935.1174119164
 21
4083.2232681405
 31
0.0
  0
LINE
  5
47E
330
1F
100
AcDbEntity
  8
0
  6
Continuous
 62
     7
370
    25
100
AcDbLine
 10
7051.6174119164
 20
4103.7232681405
 30
0.0
 11
7054.1174119164
 21
4103.7232681405
 31
0.0
  0
LINE
  5
47F
330
1F
100
AcDbEntity
  8
0
  6
Continuous
 62
     7
370
    25
100
AcDbLine
 10
7054.1174119164
 20
4077.7232681405
 30
0.0
 11
7054.1174119164
 21
4103.7232681405
 31
0.0
  0
ARC
  5
480
330
1F
100
AcDbEntity
  8
0
  6
Continuous
 62
     7
370
    25
100
AcDbCircle
 10
6906.5932187289
 20
4051.1488748423
 30
0.0
 40
0.9259228244619485
100
AcDbArc
 50
207.3649622121
 51
271.4972363484
  0
ARC
  5
481
330
1F
100
AcDbEntity
  8
0
  6
Continuous
 62
     7
370
    25
100
AcDbCircle
 10
6906.6078527219
 20
4051.2033811886
 30
0.0
 40
2.480131470288534
100
AcDbArc
 50
191.1619996663
 51
270.2208362177
  0
ARC
  5
482
330
1F
100
AcDbEntity
  8
0
  6
Continuous
 62
     7
370
    25
100
AcDbCircle
 10
7051.6346062976
 20
4051.1903068877
 30
0.0
 40
2.467098665887207
100
AcDbArc
 50
269.600675293
 51
349.0876628106
  0
ARC
  5
483
330
1F
100
AcDbEntity
  8
0
  6
Continuous
 62
     7
370
    25
100
AcDbCircle
 10
7051.6323615585
 20
4051.1767992294
 30
0.0
 40
0.9536482734462708
100
AcDbArc
 50
269.1017794408
 51
331.6032180624
  0
LINE
  5
484
330
1F
100
AcDbEntity
  8
0
  6
Continuous
 62
     7
370
    25
100
AcDbLine
 10
6568.2200827779
 20
4085.8732681405
 30
0.0
 11
6595.2200827779
 21
4085.8732681405
 31
0.0
  0
LINE
  5
485
330
1F
100
AcDbEntity
  8
0
  6
Continuous
 62
     7
370
    25
100
AcDbLine
 10
7094.7714009808
 20
4085.8732681405
 30
0.0
 11
7095.7200827779
 21
4085.8732681405
 31
0.0
  0
LINE
  5
486
330
1F
100
AcDbEntity
  8
0
  6
Continuous
 62
     7
370
    25
100
AcDbLine
 10
7068.7200827779
 20
4085.8732681405
 30
0.0
 11
7094.7714009808
 21
4085.8732681405
 31
0.0
  0
LINE
  5
487
330
1F
100
AcDbEntity
  8
0
  6
Continuous
 62
     7
370
    25
100
AcDbLine
 10
6608.2200827779
 20
4085.8732681405
 30
0.0
 11
6635.2200827779
 21
4085.8732681405
 31
0.0
  0
LINE
  5
488
330
1F
100
AcDbEntity
  8
0
  6
Continuous
 62
     7
370
    25
100
AcDbLine
 10
7132.1850885613
 20
4085.8732681405
 30
0.0
 11
7135.7200827779
 21
4085.8732681405
 31
0.0
  0
LINE
  5
489
330
1F
100
AcDbEntity
  8
0
  6
Continuous
 62
     7
370
    25
100
AcDbLine
 10
7108.7200827779
 20
4085.8732681405
 30
0.0
 11
7132.1850885613
 21
4085.8732681405
 31
0.0
  0
ARC
  5
48A
330
1F
100
AcDbEntity
  8
0
  6
Continuous
 62
     7
370
    25
100
AcDbCircle
 10
7082.220082778
 20
4064.2232681405
 30
0.0
 40
3.000000000000486
100
AcDbArc
 50
268.4038231414
 51
91.5961768586
  0
ARC
  5
48B
330
1F
100
AcDbEntity
  8
0
  6
Continuous
 62
     7
370
    25
100
AcDbCircle
 10
7082.220082778
 20
4064.2232681405
 30
0.0
 40
3.999999999999944
100
AcDbArc
 50
278.1141561003
 51
81.8858438997
  0
LINE
  5
48C
330
1F
100
AcDbEntity
  8
0
  6
Continuous
 62
     7
370
    25
100
AcDbLine
 10
6621.6201803136
 20
4091.8732681405
 30
0.0
 11
6621.6201803136
 21
4085.8732681405
 31
0.0
  0
LINE
  5
48D
330
1F
100
AcDbEntity
  8
0
  6
Continuous
 62
     7
370
    25
100
AcDbLine
 10
6628.1695557221
 20
4091.8732681405
 30
0.0
 11
6628.1695557221
 21
4085.8732681405
 31
0.0
  0
LINE
  5
48E
330
1F
100
AcDbEntity
  8
0
  6
Continuous
 62
     7
370
    25
100
AcDbLine
 10
6621.6201803136
 20
4091.8732681405
 30
0.0
 11
6628.1695557221
 21
4091.8732681405
 31
0.0
  0
LINE
  5
48F
330
1F
100
AcDbEntity
  8
0
  6
Continuous
 62
     7
370
    25
100
AcDbLine
 10
6615.1707073695
 20
4091.8732681405
 30
0.0
 11
6615.1707073695
 21
4085.8732681405
 31
0.0
  0
LINE
  5
490
330
1F
100
AcDbEntity
  8
0
  6
Continuous
 62
     7
370
    25
100
AcDbLine
 10
6615.1707073695
 20
4091.8732681405
 30
0.0
 11
6621.6201803136
 21
4091.8732681405
 31
0.0
  0
LINE
  5
491
330
1F
100
AcDbEntity
  8
0
  6
Continuous
 62
     7
370
    25
100
AcDbLine
 10
6628.2694581864
 20
4091.8732681405
 30
0.0
 11
6628.2694581864
 21
4085.8732681405
 31
0.0
  0
LINE
  5
492
330
1F
100
AcDbEntity
  8
0
  6
Continuous
 62
     7
370
    25
100
AcDbLine
 10
6628.1695557221
 20
4091.8732681405
 30
0.0
 11
6628.2694581864
 21
4091.8732681405
 31
0.0
  0
ARC
  5
493
330
1F
100
AcDbEntity
  8
0
  6
Continuous
 62
     7
370
    25
100
AcDbCircle
 10
7122.220082778
 20
4064.2232681405
 30
0.0
 40
3.000000000000534
100
AcDbArc
 50
183.5479339368
 51
251.091213485
  0
ARC
  5
494
330
1F
100
AcDbEntity
  8
0
  6
Continuous
 62
     7
370
    25
100
AcDbCircle
 10
7122.220082778
 20
4064.2232681405
 30
0.0
 40
3.000000000000669
100
AcDbArc
 50
108.908786515
 51
183.5479339368
  0
ARC
  5
495
330
1F
100
AcDbEntity
  8
0
  6
Continuous
 62
     7
370
    25
100
AcDbCircle
 10
7122.220082778
 20
4064.2232681405
 30
0.0
 40
4.000000000000878
100
AcDbArc
 50
117.5031174756
 51
183.5479339368
  0
ARC
  5
496
330
1F
100
AcDbEntity
  8
0
  6
Continuous
 62
     7
370
    25
100
AcDbCircle
 10
7122.220082778
 20
4064.2232681405
 30
0.0
 40
4.000000000000878
100
AcDbArc
 50
183.5479339368
 51
242.4968825244
  0
LINE
  5
497
330
1F
100
AcDbEntity
  8
0
  6
Continuous
 62
     7
370
    25
100
AcDbLine
 10
7082.1201803136
 20
4091.8732681405
 30
0.0
 11
7082.1201803136
 21
4085.8732681405
 31
0.0
  0
LINE
  5
498
330
1F
100
AcDbEntity
  8
0
  6
Continuous
 62
     7
370
    25
100
AcDbLine
 10
7082.1201803136
 20
4091.8732681405
 30
0.0
 11
7088.6695557221
 21
4091.8732681405
 31
0.0
  0
LINE
  5
499
330
1F
100
AcDbEntity
  8
0
  6
Continuous
 62
     7
370
    25
100
AcDbLine
 10
7088.6695557221
 20
4091.8732681405
 30
0.0
 11
7088.6695557221
 21
4085.8732681405
 31
0.0
  0
LINE
  5
49A
330
1F
100
AcDbEntity
  8
0
  6
Continuous
 62
     7
370
    25
100
AcDbLine
 10
7075.6707073695
 20
4091.8732681405
 30
0.0
 11
7075.6707073695
 21
4085.8732681405
 31
0.0
  0
LINE
  5
49B
330
1F
100
AcDbEntity
  8
0
  6
Continuous
 62
     7
370
    25
100
AcDbLine
 10
7075.6707073695
 20
4091.8732681405
 30
0.0
 11
7082.1201803136
 21
4091.8732681405
 31
0.0
  0
LINE
  5
49C
330
1F
100
AcDbEntity
  8
0
  6
Continuous
 62
     7
370
    25
100
AcDbLine
 10
7088.7694581864
 20
4091.8732681405
 30
0.0
 11
7088.7694581864
 21
4085.8732681405
 31
0.0
  0
LINE
  5
49D
330
1F
100
AcDbEntity
  8
0
  6
Continuous
 62
     7
370
    25
100
AcDbLine
 10
7088.6695557221
 20
4091.8732681405
 30
0.0
 11
7088.7694581864
 21
4091.8732681405
 31
0.0
  0
LINE
  5
49E
330
1F
100
AcDbEntity
  8
0
  6
Continuous
 62
     7
370
    25
100
AcDbLine
 10
7125.563423707
 20
4091.8732681405
 30
0.0
 11
7125.563423707
 21
4085.8732681405
 31
0.0
  0
LINE
  5
49F
330
1F
100
AcDbEntity
  8
0
  6
Continuous
 62
     7
370
    25
100
AcDbLine
 10
7125.563423707
 20
4091.8732681405
 30
0.0
 11
7129.7112509505
 21
4091.8732681405
 31
0.0
  0
LINE
  5
4A0
330
1F
100
AcDbEntity
  8
0
  6
Continuous
 62
     7
370
    25
100
AcDbLine
 10
7129.7112509505
 20
4091.8732681405
 30
0.0
 11
7129.7112509505
 21
4085.8732681405
 31
0.0
  0
LINE
  5
4A1
330
1F
100
AcDbEntity
  8
0
  6
Continuous
 62
     7
370
    25
100
AcDbLine
 10
7118.0722555344
 20
4091.8732681405
 30
0.0
 11
7118.0722555344
 21
4085.8732681405
 31
0.0
  0
LINE
  5
4A2
330
1F
100
AcDbEntity
  8
0
  6
Continuous
 62
     7
370
    25
100
AcDbLine
 10
7118.0722555344
 20
4091.8732681405
 30
0.0
 11
7125.563423707
 21
4091.8732681405
 31
0.0
  0
LINE
  5
4A3
330
1F
100
AcDbEntity
  8
0
  6
Continuous
 62
     7
370
    25
100
AcDbLine
 10
7114.7289146054
 20
4091.8732681405
 30
0.0
 11
7114.7289146054
 21
4085.8732681405
 31
0.0
  0
LINE
  5
4A4
330
1F
100
AcDbEntity
  8
0
  6
Continuous
 62
     7
370
    25
100
AcDbLine
 10
7114.7289146054
 20
4091.8732681405
 30
0.0
 11
7118.0722555344
 21
4091.8732681405
 31
0.0
  0
ARC
  5
4A5
330
1F
100
AcDbEntity
  8
0
  6
Continuous
 62
     7
370
    25
100
AcDbCircle
 10
6581.7200827779
 20
4064.2232681405
 30
0.0
 40
3.000000000000204
100
AcDbArc
 50
3.5479339368
 51
82.2928315392
  0
ARC
  5
4A6
330
1F
100
AcDbEntity
  8
0
  6
Continuous
 62
     7
370
    25
100
AcDbCircle
 10
6581.7200827779
 20
4064.2232681405
 30
0.0
 40
3.00000000000032
100
AcDbArc
 50
277.7071684608
 51
3.5479339368
  0
ARC
  5
4A7
330
1F
100
AcDbEntity
  8
0
  6
Continuous
 62
     7
370
    25
100
AcDbCircle
 10
6581.7200827779
 20
4064.2232681405
 30
0.0
 40
3.999999999999969
100
AcDbArc
 50
284.4117024724
 51
3.5479339368
  0
ARC
  5
4A8
330
1F
100
AcDbEntity
  8
0
  6
Continuous
 62
     7
370
    25
100
AcDbCircle
 10
6581.7200827779
 20
4064.2232681405
 30
0.0
 40
4.000000000000189
100
AcDbArc
 50
3.5479339368
 51
75.5882975276
  0
LINE
  5
4A9
330
1F
100
AcDbEntity
  8
0
  6
Continuous
 62
     7
370
    25
100
AcDbLine
 10
6585.063423707
 20
4091.8732681405
 30
0.0
 11
6585.063423707
 21
4085.8732681405
 31
0.0
  0
LINE
  5
4AA
330
1F
100
AcDbEntity
  8
0
  6
Continuous
 62
     7
370
    25
100
AcDbLine
 10
6589.2112509505
 20
4091.8732681405
 30
0.0
 11
6589.2112509505
 21
4085.8732681405
 31
0.0
  0
LINE
  5
4AB
330
1F
100
AcDbEntity
  8
0
  6
Continuous
 62
     7
370
    25
100
AcDbLine
 10
6585.063423707
 20
4091.8732681405
 30
0.0
 11
6589.2112509505
 21
4091.8732681405
 31
0.0
  0
LINE
  5
4AC
330
1F
100
AcDbEntity
  8
0
  6
Continuous
 62
     7
370
    25
100
AcDbLine
 10
6577.5722555344
 20
4091.8732681405
 30
0.0
 11
6577.5722555344
 21
4085.8732681405
 31
0.0
  0
LINE
  5
4AD
330
1F
100
AcDbEntity
  8
0
  6
Continuous
 62
     7
370
    25
100
AcDbLine
 10
6577.5722555344
 20
4091.8732681405
 30
0.0
 11
6585.063423707
 21
4091.8732681405
 31
0.0
  0
LINE
  5
4AE
330
1F
100
AcDbEntity
  8
0
  6
Continuous
 62
     7
370
    25
100
AcDbLine
 10
6574.2289146054
 20
4091.8732681405
 30
0.0
 11
6574.2289146054
 21
4085.8732681405
 31
0.0
  0
LINE
  5
4AF
330
1F
100
AcDbEntity
  8
0
  6
Continuous
 62
     7
370
    25
100
AcDbLine
 10
6574.2289146054
 20
4091.8732681405
 30
0.0
 11
6577.5722555344
 21
4091.8732681405
 31
0.0
  0
LINE
  5
4B0
330
1F
100
AcDbEntity
  8
0
  6
Continuous
 62
     7
370
    25
100
AcDbLine
 10
6547.9700827779
 20
4058.2732681405
 30
0.0
 11
6551.9700827779
 21
4058.2732681405
 31
0.0
  0
LINE
  5
4B1
330
1F
100
AcDbEntity
  8
0
  6
Continuous
 62
     7
370
    25
100
AcDbLine
 10
6551.9700827779
 20
4082.2732681405
 30
0.0
 11
6547.9700827779
 21
4082.2732681405
 31
0.0
  0
LINE
  5
4B2
330
1F
100
AcDbEntity
  8
0
  6
Continuous
 62
     7
370
    25
100
AcDbLine
 10
6551.9700827779
 20
4058.2732681405
 30
0.0
 11
6551.9700827779
 21
4082.2732681405
 31
0.0
  0
LINE
  5
4B3
330
1F
100
AcDbEntity
  8
0
  6
Continuous
 62
     7
370
    25
100
AcDbLine
 10
6547.9700827779
 20
4058.2732681405
 30
0.0
 11
6547.9700827779
 21
4082.2732681405
 31
0.0
  0
LINE
  5
4B4
330
1F
100
AcDbEntity
  8
0
  6
Continuous
 62
     7
370
    25
100
AcDbLine
 10
6547.9700827779
 20
4090.2732681405
 30
0.0
 11
6551.9700827779
 21
4090.2732681405
 31
0.0
  0
LINE
  5
4B5
330
1F
100
AcDbEntity
  8
0
  6
Continuous
 62
     7
370
    25
100
AcDbLine
 10
6551.9700827779
 20
4090.2732681405
 30
0.0
 11
6551.9700827779
 21
4082.2732681405
 31
0.0
  0
LINE
  5
4B6
330
1F
100
AcDbEntity
  8
0
  6
Continuous
 62
     7
370
    25
100
AcDbLine
 10
6547.9700827779
 20
4082.2732681405
 30
0.0
 11
6547.9700827779
 21
4090.2732681405
 31
0.0
  0
LINE
  5
4B7
330
1F
100
AcDbEntity
  8
0
  6
Continuous
 62
     7
370
    25
100
AcDbLine
 10
6551.9700827779
 20
4050.2732681405
 30
0.0
 11
6547.9700827779
 21
4050.2732681405
 31
0.0
  0
LINE
  5
4B8
330
1F
100
AcDbEntity
  8
0
  6
Continuous
 62
     7
370
    25
100
AcDbLine
 10
6551.9700827779
 20
4058.2732681405
 30
0.0
 11
6551.9700827779
 21
4050.2732681405
 31
0.0
  0
LINE
  5
4B9
330
1F
100
AcDbEntity
  8
0
  6
Continuous
 62
     7
370
    25
100
AcDbLine
 10
6547.9700827779
 20
4050.2732681405
 30
0.0
 11
6547.9700827779
 21
4058.2732681405
 31
0.0
  0
LINE
  5
4BA
330
1F
100
AcDbEntity
  8
0
  6
Continuous
 62
     7
370
    25
100
AcDbLine
 10
6647.9700827779
 20
4078.8732681405
 30
0.0
 11
6551.9700827779
 21
4078.8732681405
 31
0.0
  0
LINE
  5
4BB
330
1F
100
AcDbEntity
  8
0
  6
Continuous
 62
     7
370
    25
100
AcDbLine
 10
6647.9700827779
 20
4050.2732681405
 30
0.0
 11
6647.9700827779
 21
4078.8732681405
 31
0.0
  0
LINE
  5
4BC
330
1F
100
AcDbEntity
  8
0
  6
Continuous
 62
     7
370
    25
100
AcDbLine
 10
6584.2200827779
 20
4069.4732681405
 30
0.0
 11
6572.2200827779
 21
4069.4732681405
 31
0.0
  0
ARC
  5
4BD
330
1F
100
AcDbEntity
  8
0
  6
Continuous
 62
     7
370
    25
100
AcDbCircle
 10
6572.2200827779
 20
4064.2232681405
 30
0.0
 40
5.25
100
AcDbArc
 50
90.0
 51
270.0
  0
LINE
  5
4BE
330
1F
100
AcDbEntity
  8
0
  6
Continuous
 62
     7
370
    25
100
AcDbLine
 10
6572.2200827779
 20
4058.9732681405
 30
0.0
 11
6584.2200827779
 21
4058.9732681405
 31
0.0
  0
ARC
  5
4BF
330
1F
100
AcDbEntity
  8
0
  6
Continuous
 62
     7
370
    25
100
AcDbCircle
 10
6584.2200827779
 20
4064.2232681405
 30
0.0
 40
5.25
100
AcDbArc
 50
270.0
 51
90.0
  0
LINE
  5
4C0
330
1F
100
AcDbEntity
  8
0
  6
Continuous
 62
     7
370
    25
100
AcDbLine
 10
6631.2200827779
 20
4069.4732681405
 30
0.0
 11
6619.2200827779
 21
4069.4732681405
 31
0.0
  0
ARC
  5
4C1
330
1F
100
AcDbEntity
  8
0
  6
Continuous
 62
     7
370
    25
100
AcDbCircle
 10
6619.2200827779
 20
4064.2232681405
 30
0.0
 40
5.25
100
AcDbArc
 50
90.0
 51
270.0
  0
LINE
  5
4C2
330
1F
100
AcDbEntity
  8
0
  6
Continuous
 62
     7
370
    25
100
AcDbLine
 10
6619.2200827779
 20
4058.9732681405
 30
0.0
 11
6631.2200827779
 21
4058.9732681405
 31
0.0
  0
ARC
  5
4C3
330
1F
100
AcDbEntity
  8
0
  6
Continuous
 62
     7
370
    25
100
AcDbCircle
 10
6631.2200827779
 20
4064.2232681405
 30
0.0
 40
5.25
100
AcDbArc
 50
270.0
 51
90.0
  0
LINE
  5
4C4
330
1F
100
AcDbEntity
  8
0
  6
Continuous
 62
     7
370
    25
100
AcDbLine
 10
6647.9700827779
 20
4050.2732681405
 30
0.0
 11
6551.9700827779
 21
4050.2732681405
 31
0.0
  0
LINE
  5
4C5
330
1F
100
AcDbEntity
  8
0
  6
Continuous
 62
     7
370
    25
100
AcDbLine
 10
6647.9700827779
 20
4083.8732681405
 30
0.0
 11
6551.9700827779
 21
4083.8732681405
 31
0.0
  0
LINE
  5
4C6
330
1F
100
AcDbEntity
  8
0
  6
Continuous
 62
     7
370
    25
100
AcDbLine
 10
6647.9700827779
 20
4078.8732681405
 30
0.0
 11
6647.9700827779
 21
4083.8732681405
 31
0.0
  0
LINE
  5
4C7
330
1F
100
AcDbEntity
  8
0
  6
Continuous
 62
     7
370
    25
100
AcDbLine
 10
7155.9700827779
 20
4082.2732681405
 30
0.0
 11
7151.9700827779
 21
4082.2732681405
 31
0.0
  0
LINE
  5
4C8
330
1F
100
AcDbEntity
  8
0
  6
Continuous
 62
     7
370
    25
100
AcDbLine
 10
7151.9700827779
 20
4090.2732681405
 30
0.0
 11
7155.9700827779
 21
4090.2732681405
 31
0.0
  0
LINE
  5
4C9
330
1F
100
AcDbEntity
  8
0
  6
Continuous
 62
     7
370
    25
100
AcDbLine
 10
7155.9700827779
 20
4090.2732681405
 30
0.0
 11
7155.9700827779
 21
4082.2732681405
 31
0.0
  0
LINE
  5
4CA
330
1F
100
AcDbEntity
  8
0
  6
Continuous
 62
     7
370
    25
100
AcDbLine
 10
7151.9700827779
 20
4082.2732681405
 30
0.0
 11
7151.9700827779
 21
4090.2732681405
 31
0.0
  0
LINE
  5
4CB
330
1F
100
AcDbEntity
  8
0
  6
Continuous
 62
     7
370
    25
100
AcDbLine
 10
7151.9700827779
 20
4058.2732681405
 30
0.0
 11
7155.9700827779
 21
4058.2732681405
 31
0.0
  0
LINE
  5
4CC
330
1F
100
AcDbEntity
  8
0
  6
Continuous
 62
     7
370
    25
100
AcDbLine
 10
7155.9700827779
 20
4082.2732681405
 30
0.0
 11
7155.9700827779
 21
4058.2732681405
 31
0.0
  0
LINE
  5
4CD
330
1F
100
AcDbEntity
  8
0
  6
Continuous
 62
     7
370
    25
100
AcDbLine
 10
7151.9700827779
 20
4082.2732681405
 30
0.0
 11
7151.9700827779
 21
4058.2732681405
 31
0.0
  0
LINE
  5
4CE
330
1F
100
AcDbEntity
  8
0
  6
Continuous
 62
     7
370
    25
100
AcDbLine
 10
7155.9700827779
 20
4050.2732681405
 30
0.0
 11
7151.9700827779
 21
4050.2732681405
 31
0.0
  0
LINE
  5
4CF
330
1F
100
AcDbEntity
  8
0
  6
Continuous
 62
     7
370
    25
100
AcDbLine
 10
7155.9700827779
 20
4058.2732681405
 30
0.0
 11
7155.9700827779
 21
4050.2732681405
 31
0.0
  0
LINE
  5
4D0
330
1F
100
AcDbEntity
  8
0
  6
Continuous
 62
     7
370
    25
100
AcDbLine
 10
7151.9700827779
 20
4050.2732681405
 30
0.0
 11
7151.9700827779
 21
4058.2732681405
 31
0.0
  0
LINE
  5
4D1
330
1F
100
AcDbEntity
  8
0
  6
Continuous
 62
     7
370
    25
100
AcDbLine
 10
7055.9700827779
 20
4078.8732681405
 30
0.0
 11
7055.9700827779
 21
4050.2732681405
 31
0.0
  0
LINE
  5
4D2
330
1F
100
AcDbEntity
  8
0
  6
Continuous
 62
     7
370
    25
100
AcDbLine
 10
7055.9700827779
 20
4078.8732681405
 30
0.0
 11
7151.9700827779
 21
4078.8732681405
 31
0.0
  0
LINE
  5
4D3
330
1F
100
AcDbEntity
  8
0
  6
Continuous
 62
     7
370
    25
100
AcDbLine
 10
7119.7200827779
 20
4058.9732681405
 30
0.0
 11
7131.7200827779
 21
4058.9732681405
 31
0.0
  0
ARC
  5
4D4
330
1F
100
AcDbEntity
  8
0
  6
Continuous
 62
     7
370
    25
100
AcDbCircle
 10
7131.7200827779
 20
4064.2232681405
 30
0.0
 40
5.25
100
AcDbArc
 50
270.0
 51
90.0
  0
LINE
  5
4D5
330
1F
100
AcDbEntity
  8
0
  6
Continuous
 62
     7
370
    25
100
AcDbLine
 10
7131.7200827779
 20
4069.4732681405
 30
0.0
 11
7119.7200827779
 21
4069.4732681405
 31
0.0
  0
ARC
  5
4D6
330
1F
100
AcDbEntity
  8
0
  6
Continuous
 62
     7
370
    25
100
AcDbCircle
 10
7119.7200827779
 20
4064.2232681405
 30
0.0
 40
5.25
100
AcDbArc
 50
90.0
 51
270.0
  0
LINE
  5
4D7
330
1F
100
AcDbEntity
  8
0
  6
Continuous
 62
     7
370
    25
100
AcDbLine
 10
7072.7200827779
 20
4058.9732681405
 30
0.0
 11
7084.7200827779
 21
4058.9732681405
 31
0.0
  0
ARC
  5
4D8
330
1F
100
AcDbEntity
  8
0
  6
Continuous
 62
     7
370
    25
100
AcDbCircle
 10
7084.7200827779
 20
4064.2232681405
 30
0.0
 40
5.25
100
AcDbArc
 50
270.0
 51
90.0
  0
LINE
  5
4D9
330
1F
100
AcDbEntity
  8
0
  6
Continuous
 62
     7
370
    25
100
AcDbLine
 10
7084.7200827779
 20
4069.4732681405
 30
0.0
 11
7072.7200827779
 21
4069.4732681405
 31
0.0
  0
ARC
  5
4DA
330
1F
100
AcDbEntity
  8
0
  6
Continuous
 62
     7
370
    25
100
AcDbCircle
 10
7072.7200827779
 20
4064.2232681405
 30
0.0
 40
5.25
100
AcDbArc
 50
90.0
 51
270.0
  0
LINE
  5
4DB
330
1F
100
AcDbEntity
  8
0
  6
Continuous
 62
     7
370
    25
100
AcDbLine
 10
7055.9700827779
 20
4050.2732681405
 30
0.0
 11
7151.9700827779
 21
4050.2732681405
 31
0.0
  0
LINE
  5
4DC
330
1F
100
AcDbEntity
  8
0
  6
Continuous
 62
     7
370
    25
100
AcDbLine
 10
7055.9700827779
 20
4083.8732681405
 30
0.0
 11
7055.9700827779
 21
4078.8732681405
 31
0.0
  0
LINE
  5
4DD
330
1F
100
AcDbEntity
  8
0
  6
Continuous
 62
     7
370
    25
100
AcDbLine
 10
7055.9700827779
 20
4083.8732681405
 30
0.0
 11
7151.9700827779
 21
4083.8732681405
 31
0.0
  0
ARC
  5
4DE
330
1F
100
AcDbEntity
  8
0
  6
Continuous
 62
     7
370
    25
100
AcDbCircle
 10
7137.6200827779
 20
4064.2232681405
 30
0.0
 40
6.250000000000443
100
AcDbArc
 50
128.8977284855
 51
231.1022715145
  0
CIRCLE
  5
4DF
330
1F
100
AcDbEntity
  8
0
  6
Continuous
 62
     7
370
    25
100
AcDbCircle
 10
6987.6200827779
 20
4064.2232681405
 30
0.0
 40
6.25
  0
ARC
  5
4E0
330
1F
100
AcDbEntity
  8
0
  6
Continuous
 62
     7
370
    25
100
AcDbCircle
 10
7087.6200827779
 20
4064.2232681405
 30
0.0
 40
6.249999999999991
100
AcDbArc
 50
122.8598803789
 51
237.1401196211
  0
CIRCLE
  5
4E1
330
1F
100
AcDbEntity
  8
0
  6
Continuous
 62
     7
370
    25
100
AcDbCircle
 10
6937.6200827779
 20
4064.2232681405
 30
0.0
 40
6.25
  0
LINE
  5
4E2
330
1F
100
AcDbEntity
  8
0
  6
Continuous
 62
     7
370
    25
100
AcDbLine
 10
6909.3700827779
 20
4065.9732681405
 30
0.0
 11
6909.3700827779
 21
4062.4732681405
 31
0.0
  0
ARC
  5
4E3
330
1F
100
AcDbEntity
  8
0
  6
Continuous
 62
     7
370
    25
100
AcDbCircle
 10
6912.6200827779
 20
4062.4732681405
 30
0.0
 40
3.25
100
AcDbArc
 50
180.0
 51
0.0
  0
LINE
  5
4E4
330
1F
100
AcDbEntity
  8
0
  6
Continuous
 62
     7
370
    25
100
AcDbLine
 10
6915.8700827779
 20
4062.4732681405
 30
0.0
 11
6915.8700827779
 21
4065.9732681405
 31
0.0
  0
ARC
  5
4E5
330
1F
100
AcDbEntity
  8
0
  6
Continuous
 62
     7
370
    25
100
AcDbCircle
 10
6912.6200827779
 20
4065.9732681405
 30
0.0
 40
3.25
100
AcDbArc
 50
0.0
 51
180.0
  0
LINE
  5
4E6
330
1F
100
AcDbEntity
  8
0
  6
Continuous
 62
     7
370
    25
100
AcDbLine
 10
7116.5044957398
 20
4060.0732681405
 30
0.0
 11
7118.2200827779
 21
4060.0732681405
 31
0.0
  0
ARC
  5
4E7
330
1F
100
AcDbEntity
  8
0
  6
Continuous
 62
     7
370
    25
100
AcDbCircle
 10
7118.2200827779
 20
4064.2232681405
 30
0.0
 40
4.150000000000091
100
AcDbArc
 50
270.0
 51
90.0
  0
LINE
  5
4E8
330
1F
100
AcDbEntity
  8
0
  6
Continuous
 62
     7
370
    25
100
AcDbLine
 10
7118.2200827779
 20
4068.3732681405
 30
0.0
 11
7116.5044957398
 21
4068.3732681405
 31
0.0
  0
LINE
  5
4E9
330
1F
100
AcDbEntity
  8
0
  6
Continuous
 62
     7
370
    25
100
AcDbLine
 10
6957.0200827779
 20
4060.0732681405
 30
0.0
 11
6968.2200827779
 21
4060.0732681405
 31
0.0
  0
ARC
  5
4EA
330
1F
100
AcDbEntity
  8
0
  6
Continuous
 62
     7
370
    25
100
AcDbCircle
 10
6968.2200827779
 20
4064.2232681405
 30
0.0
 40
4.150000000000091
100
AcDbArc
 50
270.0
 51
90.0
  0
LINE
  5
4EB
330
1F
100
AcDbEntity
  8
0
  6
Continuous
 62
     7
370
    25
100
AcDbLine
 10
6968.2200827779
 20
4068.3732681405
 30
0.0
 11
6957.0200827779
 21
4068.3732681405
 31
0.0
  0
ARC
  5
4EC
330
1F
100
AcDbEntity
  8
0
  6
Continuous
 62
     7
370
    25
100
AcDbCircle
 10
6957.0200827779
 20
4064.2232681405
 30
0.0
 40
4.150000000000091
100
AcDbArc
 50
90.0
 51
270.0
  0
CIRCLE
  5
4ED
330
1F
100
AcDbEntity
  8
0
  6
Continuous
 62
     7
370
    25
100
AcDbCircle
 10
7037.6200827779
 20
4064.2232681405
 30
0.0
 40
6.25
  0
CIRCLE
  5
4EE
330
1F
100
AcDbEntity
  8
0
  6
Continuous
 62
     7
370
    25
100
AcDbCircle
 10
6887.6200827779
 20
4064.2232681405
 30
0.0
 40
6.25
  0
LINE
  5
4EF
330
1F
100
AcDbEntity
  8
0
  6
Continuous
 62
     7
370
    25
100
AcDbLine
 10
7008.4700827779
 20
4065.8732681405
 30
0.0
 11
7008.4700827779
 21
4062.5732681405
 31
0.0
  0
ARC
  5
4F0
330
1F
100
AcDbEntity
  8
0
  6
Continuous
 62
     7
370
    25
100
AcDbCircle
 10
7012.6200827779
 20
4062.5732681405
 30
0.0
 40
4.150000000000546
100
AcDbArc
 50
180.0
 51
0.0
  0
LINE
  5
4F1
330
1F
100
AcDbEntity
  8
0
  6
Continuous
 62
     7
370
    25
100
AcDbLine
 10
7016.7700827779
 20
4062.5732681405
 30
0.0
 11
7016.7700827779
 21
4065.8732681405
 31
0.0
  0
ARC
  5
4F2
330
1F
100
AcDbEntity
  8
0
  6
Continuous
 62
     7
370
    25
100
AcDbCircle
 10
7012.6200827779
 20
4065.8732681405
 30
0.0
 40
4.150000000000546
100
AcDbArc
 50
0.0
 51
180.0
  0
LINE
  5
4F3
330
1F
100
AcDbEntity
  8
0
  6
Continuous
 62
     7
370
    25
100
AcDbLine
 10
6858.4700827779
 20
4065.8732681405
 30
0.0
 11
6858.4700827779
 21
4062.5732681405
 31
0.0
  0
ARC
  5
4F4
330
1F
100
AcDbEntity
  8
0
  6
Continuous
 62
     7
370
    25
100
AcDbCircle
 10
6862.6200827779
 20
4062.5732681405
 30
0.0
 40
4.150000000000546
100
AcDbArc
 50
180.0
 51
0.0
  0
LINE
  5
4F5
330
1F
100
AcDbEntity
  8
0
  6
Continuous
 62
     7
370
    25
100
AcDbLine
 10
6866.7700827779
 20
4062.5732681405
 30
0.0
 11
6866.7700827779
 21
4065.8732681405
 31
0.0
  0
ARC
  5
4F6
330
1F
100
AcDbEntity
  8
0
  6
Continuous
 62
     7
370
    25
100
AcDbCircle
 10
6862.6200827779
 20
4065.8732681405
 30
0.0
 40
4.150000000000546
100
AcDbArc
 50
0.0
 51
180.0
  0
ARC
  5
4F7
330
1F
100
AcDbEntity
  8
0
  6
Continuous
 62
     7
370
    25
100
AcDbCircle
 10
6587.6200827779
 20
4064.2232681405
 30
0.0
 40
6.250000000000452
100
AcDbArc
 50
122.8600056551
 51
237.1399943449
  0
ARC
  5
4F8
330
1F
100
AcDbEntity
  8
0
  6
Continuous
 62
     7
370
    25
100
AcDbCircle
 10
6668.2200827779
 20
4064.2232681405
 30
0.0
 40
4.150000000000091
100
AcDbArc
 50
270.0
 51
90.0
  0
LINE
  5
4F9
330
1F
100
AcDbEntity
  8
0
  6
Continuous
 62
     7
370
    25
100
AcDbLine
 10
6668.2200827779
 20
4068.3732681405
 30
0.0
 11
6657.0200827779
 21
4068.3732681405
 31
0.0
  0
ARC
  5
4FA
330
1F
100
AcDbEntity
  8
0
  6
Continuous
 62
     7
370
    25
100
AcDbCircle
 10
6657.0200827779
 20
4064.2232681405
 30
0.0
 40
4.150000000000091
100
AcDbArc
 50
90.0
 51
270.0
  0
LINE
  5
4FB
330
1F
100
AcDbEntity
  8
0
  6
Continuous
 62
     7
370
    25
100
AcDbLine
 10
6657.0200827779
 20
4060.0732681405
 30
0.0
 11
6668.2200827779
 21
4060.0732681405
 31
0.0
  0
ARC
  5
4FC
330
1F
100
AcDbEntity
  8
0
  6
Continuous
 62
     7
370
    25
100
AcDbCircle
 10
6612.6200827779
 20
4062.4732681405
 30
0.0
 40
3.25000000000025
100
AcDbArc
 50
326.7199311827
 51
0.0
  0
LINE
  5
4FD
330
1F
100
AcDbEntity
  8
0
  6
Continuous
 62
     7
370
    25
100
AcDbLine
 10
6615.8700827779
 20
4062.4732681405
 30
0.0
 11
6615.8700827779
 21
4065.9732681405
 31
0.0
  0
ARC
  5
4FE
330
1F
100
AcDbEntity
  8
0
  6
Continuous
 62
     7
370
    25
100
AcDbCircle
 10
6612.6200827779
 20
4065.9732681405
 30
0.0
 40
3.250000000000273
100
AcDbArc
 50
0.0
 51
33.2800688173
  0
ARC
  5
4FF
330
1F
100
AcDbEntity
  8
0
  6
Continuous
 62
     7
370
    25
100
AcDbCircle
 10
6637.6200827779
 20
4064.2232681405
 30
0.0
 40
6.250000000000026
100
AcDbArc
 50
130.9765434178
 51
229.0234565822
  0
CIRCLE
  5
500
330
1F
100
AcDbEntity
  8
0
  6
Continuous
 62
     7
370
    25
100
AcDbCircle
 10
6687.6200827779
 20
4064.2232681405
 30
0.0
 40
6.25
  0
ARC
  5
501
330
1F
100
AcDbEntity
  8
0
  6
Continuous
 62
     7
370
    25
100
AcDbCircle
 10
6712.6200827779
 20
4062.5732681405
 30
0.0
 40
4.150000000000546
100
AcDbArc
 50
180.0
 51
0.0
  0
LINE
  5
502
330
1F
100
AcDbEntity
  8
0
  6
Continuous
 62
     7
370
    25
100
AcDbLine
 10
6716.7700827779
 20
4062.5732681405
 30
0.0
 11
6716.7700827779
 21
4065.8732681405
 31
0.0
  0
ARC
  5
503
330
1F
100
AcDbEntity
  8
0
  6
Continuous
 62
     7
370
    25
100
AcDbCircle
 10
6712.6200827779
 20
4065.8732681405
 30
0.0
 40
4.150000000000546
100
AcDbArc
 50
0.0
 51
180.0
  0
LINE
  5
504
330
1F
100
AcDbEntity
  8
0
  6
Continuous
 62
     7
370
    25
100
AcDbLine
 10
6708.4700827779
 20
4065.8732681405
 30
0.0
 11
6708.4700827779
 21
4062.5732681405
 31
0.0
  0
CIRCLE
  5
505
330
1F
100
AcDbEntity
  8
0
  6
Continuous
 62
     7
370
    25
100
AcDbCircle
 10
6737.6200827779
 20
4064.2232681405
 30
0.0
 40
6.25
  0
ARC
  5
506
330
1F
100
AcDbEntity
  8
0
  6
Continuous
 62
     7
370
    25
100
AcDbCircle
 10
6818.2200827779
 20
4064.2232681405
 30
0.0
 40
4.150000000000091
100
AcDbArc
 50
270.0
 51
90.0
  0
LINE
  5
507
330
1F
100
AcDbEntity
  8
0
  6
Continuous
 62
     7
370
    25
100
AcDbLine
 10
6818.2200827779
 20
4068.3732681405
 30
0.0
 11
6807.0200827779
 21
4068.3732681405
 31
0.0
  0
ARC
  5
508
330
1F
100
AcDbEntity
  8
0
  6
Continuous
 62
     7
370
    25
100
AcDbCircle
 10
6807.0200827779
 20
4064.2232681405
 30
0.0
 40
4.150000000000091
100
AcDbArc
 50
90.0
 51
270.0
  0
LINE
  5
509
330
1F
100
AcDbEntity
  8
0
  6
Continuous
 62
     7
370
    25
100
AcDbLine
 10
6807.0200827779
 20
4060.0732681405
 30
0.0
 11
6818.2200827779
 21
4060.0732681405
 31
0.0
  0
ARC
  5
50A
330
1F
100
AcDbEntity
  8
0
  6
Continuous
 62
     7
370
    25
100
AcDbCircle
 10
6762.6200827779
 20
4062.4732681405
 30
0.0
 40
3.250000000000909
100
AcDbArc
 50
180.0
 51
0.0
  0
LINE
  5
50B
330
1F
100
AcDbEntity
  8
0
  6
Continuous
 62
     7
370
    25
100
AcDbLine
 10
6765.8700827779
 20
4062.4732681405
 30
0.0
 11
6765.8700827779
 21
4065.9732681405
 31
0.0
  0
ARC
  5
50C
330
1F
100
AcDbEntity
  8
0
  6
Continuous
 62
     7
370
    25
100
AcDbCircle
 10
6762.6200827779
 20
4065.9732681405
 30
0.0
 40
3.250000000000909
100
AcDbArc
 50
0.0
 51
180.0
  0
LINE
  5
50D
330
1F
100
AcDbEntity
  8
0
  6
Continuous
 62
     7
370
    25
100
AcDbLine
 10
6759.3700827779
 20
4065.9732681405
 30
0.0
 11
6759.3700827779
 21
4062.4732681405
 31
0.0
  0
CIRCLE
  5
50E
330
1F
100
AcDbEntity
  8
0
  6
Continuous
 62
     7
370
    25
100
AcDbCircle
 10
6787.6200827779
 20
4064.2232681405
 30
0.0
 40
6.25
  0
CIRCLE
  5
50F
330
1F
100
AcDbEntity
  8
0
  6
Continuous
 62
     7
370
    25
100
AcDbCircle
 10
6837.6200827779
 20
4064.2232681405
 30
0.0
 40
6.25
  0
LINE
  5
510
330
1F
100
AcDbEntity
  8
0
  6
Continuous
 62
     7
370
    25
100
AcDbLine
 10
6647.9700827779
 20
4077.7232681405
 30
0.0
 11
7055.9700827779
 21
4077.7232681405
 31
0.0
  0
LINE
  5
511
330
1F
100
AcDbEntity
  8
0
  6
Continuous
 62
     7
370
    25
100
AcDbLine
 10
6647.9700827779
 20
4050.7232681405
 30
0.0
 11
7055.9700827779
 21
4050.7232681405
 31
0.0
  0
LINE
  5
512
330
1F
100
AcDbEntity
  8
0
  6
Continuous
 62
     7
370
    25
100
AcDbLine
 10
6647.9700827779
 20
4081.8732681405
 30
0.0
 11
6648.3988133168
 21
4081.8732681405
 31
0.0
  0
LINE
  5
513
330
1F
100
AcDbEntity
  8
0
  6
Continuous
 62
     7
370
    25
100
AcDbLine
 10
6660.6488133168
 20
4081.8732681405
 30
0.0
 11
6669.1488133168
 21
4081.8732681405
 31
0.0
  0
LINE
  5
514
330
1F
100
AcDbEntity
  8
0
  6
Continuous
 62
     7
370
    25
100
AcDbLine
 10
6702.6488133168
 20
4081.8732681405
 30
0.0
 11
6711.1488133168
 21
4081.8732681405
 31
0.0
  0
LINE
  5
515
330
1F
100
AcDbEntity
  8
0
  6
Continuous
 62
     7
370
    25
100
AcDbLine
 10
6736.1376633514
 20
4081.8732681405
 30
0.0
 11
6744.6376633514
 21
4081.8732681405
 31
0.0
  0
LINE
  5
516
330
1F
100
AcDbEntity
  8
0
  6
Continuous
 62
     7
370
    25
100
AcDbLine
 10
6792.1376633514
 20
4081.8732681405
 30
0.0
 11
6800.6376633514
 21
4081.8732681405
 31
0.0
  0
LINE
  5
517
330
1F
100
AcDbEntity
  8
0
  6
Continuous
 62
     7
370
    25
100
AcDbLine
 10
6813.3876633514
 20
4081.8732681405
 30
0.0
 11
6813.3887085209
 21
4081.8732681405
 31
0.0
  0
LINE
  5
518
330
1F
100
AcDbEntity
  8
0
  6
Continuous
 62
     7
370
    25
100
AcDbLine
 10
6826.1387085209
 20
4081.8732681405
 30
0.0
 11
6834.6387085209
 21
4081.8732681405
 31
0.0
  0
LINE
  5
519
330
1F
100
AcDbEntity
  8
0
  6
Continuous
 62
     7
370
    25
100
AcDbLine
 10
6882.1387085209
 20
4081.8732681405
 30
0.0
 11
6890.6387085209
 21
4081.8732681405
 31
0.0
  0
LINE
  5
51A
330
1F
100
AcDbEntity
  8
0
  6
Continuous
 62
     7
370
    25
100
AcDbLine
 10
6903.3887085209
 20
4081.8732681405
 30
0.0
 11
6904.1174119164
 21
4081.8732681405
 31
0.0
  0
LINE
  5
51B
330
1F
100
AcDbEntity
  8
0
  6
Continuous
 62
     7
370
    25
100
AcDbLine
 10
6916.8674119164
 20
4081.8732681405
 30
0.0
 11
6925.3674119164
 21
4081.8732681405
 31
0.0
  0
LINE
  5
51C
330
1F
100
AcDbEntity
  8
0
  6
Continuous
 62
     7
370
    25
100
AcDbLine
 10
6934.1174119164
 20
4081.8732681405
 30
0.0
 11
6935.1174119164
 21
4081.8732681405
 31
0.0
  0
LINE
  5
51D
330
1F
100
AcDbEntity
  8
0
  6
Continuous
 62
     7
370
    25
100
AcDbLine
 10
7023.1174119164
 20
4081.8732681405
 30
0.0
 11
7024.1174119164
 21
4081.8732681405
 31
0.0
  0
LINE
  5
51E
330
1F
100
AcDbEntity
  8
0
  6
Continuous
 62
     7
370
    25
100
AcDbLine
 10
7032.8674119164
 20
4081.8732681405
 30
0.0
 11
7041.3674119164
 21
4081.8732681405
 31
0.0
  0
LINE
  5
51F
330
1F
100
AcDbEntity
  8
0
  6
Continuous
 62
     7
370
    25
100
AcDbLine
 10
7054.1174119164
 20
4081.8732681405
 30
0.0
 11
7055.9700827779
 21
4081.8732681405
 31
0.0
  0
LINE
  5
520
330
1F
100
AcDbEntity
  8
0
  6
Continuous
 62
     7
370
    25
100
AcDbLine
 10
6660.6488133168
 20
4063.8732681405
 30
0.0
 11
6669.1488133168
 21
4063.8732681405
 31
0.0
  0
LINE
  5
521
330
1F
100
AcDbEntity
  8
0
  6
Continuous
 62
     7
370
    25
100
AcDbLine
 10
6708.4700827779
 20
4063.8732681405
 30
0.0
 11
6711.1488133168
 21
4063.8732681405
 31
0.0
  0
LINE
  5
522
330
1F
100
AcDbEntity
  8
0
  6
Continuous
 62
     7
370
    25
100
AcDbLine
 10
6736.1376633514
 20
4063.8732681405
 30
0.0
 11
6743.8602750827
 21
4063.8732681405
 31
0.0
  0
LINE
  5
523
330
1F
100
AcDbEntity
  8
0
  6
Continuous
 62
     7
370
    25
100
AcDbLine
 10
6792.1376633514
 20
4063.8732681405
 30
0.0
 11
6793.8602750827
 21
4063.8732681405
 31
0.0
  0
LINE
  5
524
330
1F
100
AcDbEntity
  8
0
  6
Continuous
 62
     7
370
    25
100
AcDbLine
 10
6813.3876633514
 20
4063.8732681405
 30
0.0
 11
6813.3887085209
 21
4063.8732681405
 31
0.0
  0
LINE
  5
525
330
1F
100
AcDbEntity
  8
0
  6
Continuous
 62
     7
370
    25
100
AcDbLine
 10
6831.3798904732
 20
4063.8732681405
 30
0.0
 11
6834.6387085209
 21
4063.8732681405
 31
0.0
  0
LINE
  5
526
330
1F
100
AcDbEntity
  8
0
  6
Continuous
 62
     7
370
    25
100
AcDbLine
 10
6882.1387085209
 20
4063.8732681405
 30
0.0
 11
6890.6387085209
 21
4063.8732681405
 31
0.0
  0
LINE
  5
527
330
1F
100
AcDbEntity
  8
0
  6
Continuous
 62
     7
370
    25
100
AcDbLine
 10
7032.8674119164
 20
4063.8732681405
 30
0.0
 11
7041.3674119164
 21
4063.8732681405
 31
0.0
  0
LINE
  5
528
330
1F
100
AcDbEntity
  8
0
  6
Continuous
 62
     7
370
    25
100
AcDbLine
 10
6841.8887084985
 20
4045.7232681405
 30
0.0
 11
6837.3887085209
 21
4045.7232681405
 31
0.0
  0
LINE
  5
529
330
1F
100
AcDbEntity
  8
0
  6
Continuous
 62
     7
370
    25
100
AcDbLine
 10
6879.3887084985
 20
4045.7232681405
 30
0.0
 11
6874.8887085209
 21
4045.7232681405
 31
0.0
  0
LINE
  5
52A
330
1F
100
AcDbEntity
  8
0
  6
Continuous
 62
     7
370
    25
100
AcDbLine
 10
6749.6376633514
 20
4045.7232681405
 30
0.0
 11
6747.3876633514
 21
4045.7232681405
 31
0.0
  0
LINE
  5
52B
330
1F
100
AcDbEntity
  8
0
  6
Continuous
 62
     7
370
    25
100
AcDbLine
 10
6751.8876633514
 20
4045.7232681405
 30
0.0
 11
6749.6376633514
 21
4045.7232681405
 31
0.0
  0
LINE
  5
52C
330
1F
100
AcDbEntity
  8
0
  6
Continuous
 62
     7
370
    25
100
AcDbLine
 10
6789.3876633289
 20
4045.7232681405
 30
0.0
 11
6784.8876633514
 21
4045.7232681405
 31
0.0
  0
LINE
  5
52D
330
1F
100
AcDbEntity
  8
0
  6
Continuous
 62
     7
370
    25
100
AcDbLine
 10
6781.2376633514
 20
4037.2232681405
 30
0.0
 11
6755.5376633514
 21
4037.2232681405
 31
0.0
  0
LINE
  5
52E
330
1F
100
AcDbEntity
  8
0
  6
Continuous
 62
     7
370
    25
100
AcDbLine
 10
6871.2387085209
 20
4037.2232681405
 30
0.0
 11
6845.5387085209
 21
4037.2232681405
 31
0.0
  0
LINE
  5
52F
330
1F
100
AcDbEntity
  8
0
  6
Continuous
 62
     7
370
    25
100
AcDbLine
 10
6648.3988133168
 20
4091.7878436694
 30
0.0
 11
6640.8675785607
 21
4091.7878436694
 31
0.0
  0
LINE
  5
530
330
1F
100
AcDbEntity
  8
0
  6
Continuous
 62
     7
370
    25
100
AcDbLine
 10
6640.8675785607
 20
4083.8732681405
 30
0.0
 11
6640.8675785607
 21
4091.7878436694
 31
0.0
  0
ARC
  5
531
330
1F
100
AcDbEntity
  8
0
  6
Continuous
 62
     7
370
    25
100
AcDbCircle
 10
6646.8675785607
 20
4086.7878436694
 30
0.0
 40
1.999999999999792
100
AcDbArc
 50
270.0
 51
319.9619480089
  0
ARC
  5
532
330
1F
100
AcDbEntity
  8
0
  6
Continuous
 62
     7
370
    25
100
AcDbCircle
 10
6646.8675785607
 20
4086.7878436694
 30
0.0
 40
2.000000000000084
100
AcDbArc
 50
40.0380519911
 51
270.0
  0
ARC
  5
533
330
1F
100
AcDbEntity
  8
0
  6
Continuous
 62
     7
370
    25
100
AcDbCircle
 10
6646.8675785607
 20
4086.7878436694
 30
0.0
 40
2.499999999999545
100
AcDbArc
 50
270.0
 51
307.7700476196
  0
ARC
  5
534
330
1F
100
AcDbEntity
  8
0
  6
Continuous
 62
     7
370
    25
100
AcDbCircle
 10
6646.8675785607
 20
4086.7878436694
 30
0.0
 40
2.499999999999852
100
AcDbArc
 50
52.2299523804
 51
270.0
  0
ARC
  5
535
330
1F
100
AcDbEntity
  8
0
  6
Continuous
 62
     7
370
    25
100
AcDbCircle
 10
6646.8675785607
 20
4086.7878436694
 30
0.0
 40
3.000000000000062
100
AcDbArc
 50
283.7057912418
 51
300.6912491253
  0
ARC
  5
536
330
1F
100
AcDbEntity
  8
0
  6
Continuous
 62
     7
370
    25
100
AcDbCircle
 10
6646.8675785607
 20
4086.7878436694
 30
0.0
 40
3.000000000000278
100
AcDbArc
 50
59.3087508747
 51
256.2942087582
  0
LWPOLYLINE
  5
537
330
1F
100
AcDbEntity
  8
0
  6
Continuous
 62
     7
370
    25
100
AcDbPolyline
 90
        3
 70
   128
 43
0.0
 10
6647.9700827779
 20
4082.9427839234
 10
6648.0650310526
 20
4082.9712866438
 10
6648.3988133168
 20
4083.0925331112
  0
ARC
  5
538
330
1F
100
AcDbEntity
  8
0
  6
Continuous
 62
     7
370
    25
100
AcDbCircle
 10
6646.8675785607
 20
4086.7878436694
 30
0.0
 40
4.000000000000299
100
AcDbArc
 50
67.4922318017
 51
226.7728260756
  0
LINE
  5
539
330
1F
100
AcDbEntity
  8
0
  6
Continuous
 62
     7
370
    25
100
AcDbLine
 10
6711.1488133168
 20
4092.7878436694
 30
0.0
 11
6702.6488133168
 21
4092.7878436694
 31
0.0
  0
LINE
  5
53A
330
1F
100
AcDbEntity
  8
0
  6
Continuous
 62
     7
370
    25
100
AcDbLine
 10
6669.1488133168
 20
4092.7878436694
 30
0.0
 11
6660.6488133168
 21
4092.7878436694
 31
0.0
  0
LINE
  5
53B
330
1F
100
AcDbEntity
  8
0
  6
Continuous
 62
     7
370
    25
100
AcDbLine
 10
6708.772716605
 20
4099.2878436694
 30
0.0
 11
6705.0249100285
 21
4099.2878436694
 31
0.0
  0
LINE
  5
53C
330
1F
100
AcDbEntity
  8
0
  6
Continuous
 62
     7
370
    25
100
AcDbLine
 10
6666.772716605
 20
4099.2878436694
 30
0.0
 11
6663.0249100285
 21
4099.2878436694
 31
0.0
  0
LINE
  5
53D
330
1F
100
AcDbEntity
  8
0
  6
Continuous
 62
     7
370
    25
100
AcDbLine
 10
6661.3988133168
 20
4084.6232681405
 30
0.0
 11
6669.1488133168
 21
4084.6232681405
 31
0.0
  0
LINE
  5
53E
330
1F
100
AcDbEntity
  8
0
  6
Continuous
 62
     7
370
    25
100
AcDbLine
 10
6661.3988133168
 20
4082.6232681405
 30
0.0
 11
6669.1488133168
 21
4082.6232681405
 31
0.0
  0
LINE
  5
53F
330
1F
100
AcDbEntity
  8
0
  6
Continuous
 62
     7
370
    25
100
AcDbLine
 10
6667.4450033067
 20
4089.3732681405
 30
0.0
 11
6667.4450033067
 21
4084.6232681405
 31
0.0
  0
ARC
  5
540
330
1F
100
AcDbEntity
  8
0
  6
Continuous
 62
     7
370
    25
100
AcDbCircle
 10
6662.8988133168
 20
4086.3732681405
 30
0.0
 40
3.000000000000238
100
AcDbArc
 50
90.0
 51
138.5903778907
  0
ARC
  5
541
330
1F
100
AcDbEntity
  8
0
  6
Continuous
 62
     7
370
    25
100
AcDbCircle
 10
6662.8988133168
 20
4086.3732681405
 30
0.0
 40
5.500000000000455
100
AcDbArc
 50
90.0
 51
114.147739917
  0
LINE
  5
542
330
1F
100
AcDbEntity
  8
0
  6
Continuous
 62
     7
370
    25
100
AcDbLine
 10
6662.8988133168
 20
4091.8732681405
 30
0.0
 11
6662.8988133168
 21
4089.3732681405
 31
0.0
  0
LINE
  5
543
330
1F
100
AcDbEntity
  8
0
  6
Continuous
 62
     7
370
    25
100
AcDbLine
 10
6669.1488133168
 20
4089.3732681405
 30
0.0
 11
6662.8988133168
 21
4089.3732681405
 31
0.0
  0
LINE
  5
544
330
1F
100
AcDbEntity
  8
0
  6
Continuous
 62
     7
370
    25
100
AcDbLine
 10
6669.1488133168
 20
4091.8732681405
 30
0.0
 11
6662.8988133168
 21
4091.8732681405
 31
0.0
  0
LINE
  5
545
330
1F
100
AcDbEntity
  8
0
  6
Continuous
 62
     7
370
    25
100
AcDbLine
 10
6815.8887085209
 20
4103.7232681405
 30
0.0
 11
6900.8887085209
 21
4103.7232681405
 31
0.0
  0
LINE
  5
546
330
1F
100
AcDbEntity
  8
0
  6
Continuous
 62
     7
370
    25
100
AcDbLine
 10
6834.6387085209
 20
4060.9732681405
 30
0.0
 11
6834.6387085209
 21
4069.7163462884
 31
0.0
  0
LINE
  5
547
330
1F
100
AcDbEntity
  8
0
  6
Continuous
 62
     7
370
    25
100
AcDbLine
 10
6834.6387085209
 20
4077.7232681405
 30
0.0
 11
6834.6387085209
 21
4095.4732681405
 31
0.0
  0
ARC
  5
548
330
1F
100
AcDbEntity
  8
0
  6
Continuous
 62
     7
370
    25
100
AcDbCircle
 10
6830.3887085209
 20
4095.4732681405
 30
0.0
 40
4.25
100
AcDbArc
 50
0.0
 51
180.0
  0
LINE
  5
549
330
1F
100
AcDbEntity
  8
0
  6
Continuous
 62
     7
370
    25
100
AcDbLine
 10
6826.1387085209
 20
4095.4732681405
 30
0.0
 11
6826.1387085209
 21
4077.7232681405
 31
0.0
  0
ARC
  5
54A
330
1F
100
AcDbEntity
  8
0
  6
Continuous
 62
     7
370
    25
100
AcDbCircle
 10
6830.3887085209
 20
4060.9732681405
 30
0.0
 40
4.25
100
AcDbArc
 50
332.5969921921
 51
0.0
  0
LINE
  5
54B
330
1F
100
AcDbEntity
  8
0
  6
Continuous
 62
     7
370
    25
100
AcDbLine
 10
6890.6387085209
 20
4060.9732681405
 30
0.0
 11
6890.6387085209
 21
4069.6959638769
 31
0.0
  0
LINE
  5
54C
330
1F
100
AcDbEntity
  8
0
  6
Continuous
 62
     7
370
    25
100
AcDbLine
 10
6890.6387085209
 20
4077.7232681405
 30
0.0
 11
6890.6387085209
 21
4095.4732681405
 31
0.0
  0
ARC
  5
54D
330
1F
100
AcDbEntity
  8
0
  6
Continuous
 62
     7
370
    25
100
AcDbCircle
 10
6886.3887085209
 20
4095.4732681405
 30
0.0
 40
4.25
100
AcDbArc
 50
0.0
 51
180.0
  0
LINE
  5
54E
330
1F
100
AcDbEntity
  8
0
  6
Continuous
 62
     7
370
    25
100
AcDbLine
 10
6882.1387085209
 20
4095.4732681405
 30
0.0
 11
6882.1387085209
 21
4077.7232681405
 31
0.0
  0
LINE
  5
54F
330
1F
100
AcDbEntity
  8
0
  6
Continuous
 62
     7
370
    25
100
AcDbLine
 10
6882.1387085209
 20
4067.2261061738
 30
0.0
 11
6882.1387085209
 21
4061.2204301071
 31
0.0
  0
ARC
  5
550
330
1F
100
AcDbEntity
  8
0
  6
Continuous
 62
     7
370
    25
100
AcDbCircle
 10
6886.3887085209
 20
4060.9732681405
 30
0.0
 40
4.249999999999417
100
AcDbArc
 50
321.6718736892
 51
0.0
  0
LINE
  5
551
330
1F
100
AcDbEntity
  8
0
  6
Continuous
 62
     7
370
    25
100
AcDbLine
 10
6813.3887085209
 20
4103.7232681405
 30
0.0
 11
6813.3887085209
 21
4077.7232681405
 31
0.0
  0
LINE
  5
552
330
1F
100
AcDbEntity
  8
0
  6
Continuous
 62
     7
370
    25
100
AcDbLine
 10
6813.3887085209
 20
4068.3732681405
 30
0.0
 11
6813.3887085209
 21
4060.0732681405
 31
0.0
  0
LINE
  5
553
330
1F
100
AcDbEntity
  8
0
  6
Continuous
 62
     7
370
    25
100
AcDbLine
 10
6813.3887085209
 20
4103.7232681405
 30
0.0
 11
6815.8887085209
 21
4103.7232681405
 31
0.0
  0
LINE
  5
554
330
1F
100
AcDbEntity
  8
0
  6
Continuous
 62
     7
370
    25
100
AcDbLine
 10
6900.8887085209
 20
4103.7232681405
 30
0.0
 11
6903.3887085209
 21
4103.7232681405
 31
0.0
  0
LINE
  5
555
330
1F
100
AcDbEntity
  8
0
  6
Continuous
 62
     7
370
    25
100
AcDbLine
 10
6903.3887085209
 20
4103.7232681405
 30
0.0
 11
6903.3887085209
 21
4077.7232681405
 31
0.0
  0
LINE
  5
556
330
1F
100
AcDbEntity
  8
0
  6
Continuous
 62
     7
370
    25
100
AcDbLine
 10
6815.8887085209
 20
4048.7232681405
 30
0.0
 11
6900.8887085209
 21
4048.7232681405
 31
0.0
  0
LINE
  5
557
330
1F
100
AcDbEntity
  8
0
  6
Continuous
 62
     7
370
    25
100
AcDbLine
 10
6900.8887085209
 20
4050.7232681405
 30
0.0
 11
6900.8887085209
 21
4048.7232681405
 31
0.0
  0
LINE
  5
558
330
1F
100
AcDbEntity
  8
0
  6
Continuous
 62
     7
370
    25
100
AcDbLine
 10
6815.8887085209
 20
4050.7232681405
 30
0.0
 11
6815.8887085209
 21
4048.7232681405
 31
0.0
  0
ARC
  5
559
330
1F
100
AcDbEntity
  8
0
  6
Continuous
 62
     7
370
    25
100
AcDbCircle
 10
6900.9059029022
 20
4051.1903068877
 30
0.0
 40
2.467098665884317
100
AcDbArc
 50
269.6006752929
 51
349.0876628107
  0
ARC
  5
55A
330
1F
100
AcDbEntity
  8
0
  6
Continuous
 62
     7
370
    25
100
AcDbCircle
 10
6900.9036581631
 20
4051.1767992294
 30
0.0
 40
0.9536482734476394
100
AcDbArc
 50
269.1017794407
 51
331.6032180625
  0
ARC
  5
55B
330
1F
100
AcDbEntity
  8
0
  6
Continuous
 62
     7
370
    25
100
AcDbCircle
 10
6815.8645153335
 20
4051.1488748423
 30
0.0
 40
0.9259228244607502
100
AcDbArc
 50
207.3649622121
 51
271.4972363484
  0
ARC
  5
55C
330
1F
100
AcDbEntity
  8
0
  6
Continuous
 62
     7
370
    25
100
AcDbCircle
 10
6815.8791493265
 20
4051.2033811886
 30
0.0
 40
2.480131470290138
100
AcDbArc
 50
191.1619996663
 51
270.2208362177
  0
LINE
  5
55D
330
1F
100
AcDbEntity
  8
0
  6
Continuous
 62
     7
370
    25
100
AcDbLine
 10
6725.8876633514
 20
4103.7232681405
 30
0.0
 11
6810.8876633514
 21
4103.7232681405
 31
0.0
  0
LINE
  5
55E
330
1F
100
AcDbEntity
  8
0
  6
Continuous
 62
     7
370
    25
100
AcDbLine
 10
6744.6376633514
 20
4077.7232681405
 30
0.0
 11
6744.6376633514
 21
4095.4732681405
 31
0.0
  0
ARC
  5
55F
330
1F
100
AcDbEntity
  8
0
  6
Continuous
 62
     7
370
    25
100
AcDbCircle
 10
6740.3876633514
 20
4095.4732681405
 30
0.0
 40
4.250000000000909
100
AcDbArc
 50
0.0
 51
180.0
  0
LINE
  5
560
330
1F
100
AcDbEntity
  8
0
  6
Continuous
 62
     7
370
    25
100
AcDbLine
 10
6736.1376633514
 20
4095.4732681405
 30
0.0
 11
6736.1376633514
 21
4077.7232681405
 31
0.0
  0
LINE
  5
561
330
1F
100
AcDbEntity
  8
0
  6
Continuous
 62
     7
370
    25
100
AcDbLine
 10
6736.1376633514
 20
4070.2949180516
 30
0.0
 11
6736.1376633514
 21
4060.9732681405
 31
0.0
  0
ARC
  5
562
330
1F
100
AcDbEntity
  8
0
  6
Continuous
 62
     7
370
    25
100
AcDbCircle
 10
6740.3876633514
 20
4060.9732681405
 30
0.0
 40
4.250000000000909
100
AcDbArc
 50
180.0
 51
224.8074883321
  0
LINE
  5
563
330
1F
100
AcDbEntity
  8
0
  6
Continuous
 62
     7
370
    25
100
AcDbLine
 10
6800.6376633514
 20
4077.7232681405
 30
0.0
 11
6800.6376633514
 21
4095.4732681405
 31
0.0
  0
ARC
  5
564
330
1F
100
AcDbEntity
  8
0
  6
Continuous
 62
     7
370
    25
100
AcDbCircle
 10
6796.3876633514
 20
4095.4732681405
 30
0.0
 40
4.250000000000909
100
AcDbArc
 50
0.0
 51
180.0
  0
LINE
  5
565
330
1F
100
AcDbEntity
  8
0
  6
Continuous
 62
     7
370
    25
100
AcDbLine
 10
6792.1376633514
 20
4095.4732681405
 30
0.0
 11
6792.1376633514
 21
4077.7232681405
 31
0.0
  0
LINE
  5
566
330
1F
100
AcDbEntity
  8
0
  6
Continuous
 62
     7
370
    25
100
AcDbLine
 10
6792.1376633514
 20
4068.5422918453
 30
0.0
 11
6792.1376633514
 21
4060.9732681405
 31
0.0
  0
ARC
  5
567
330
1F
100
AcDbEntity
  8
0
  6
Continuous
 62
     7
370
    25
100
AcDbCircle
 10
6796.3876633514
 20
4060.9732681405
 30
0.0
 40
4.25
100
AcDbArc
 50
180.0
 51
192.9568689596
  0
LINE
  5
568
330
1F
100
AcDbEntity
  8
0
  6
Continuous
 62
     7
370
    25
100
AcDbLine
 10
6723.3932383341
 20
4103.7232681405
 30
0.0
 11
6725.8876633514
 21
4103.7232681405
 31
0.0
  0
LINE
  5
569
330
1F
100
AcDbEntity
  8
0
  6
Continuous
 62
     7
370
    25
100
AcDbLine
 10
6810.8876633514
 20
4103.7232681405
 30
0.0
 11
6813.3876633514
 21
4103.7232681405
 31
0.0
  0
LINE
  5
56A
330
1F
100
AcDbEntity
  8
0
  6
Continuous
 62
     7
370
    25
100
AcDbLine
 10
6813.3876633514
 20
4103.7232681405
 30
0.0
 11
6813.3876633514
 21
4077.7232681405
 31
0.0
  0
LINE
  5
56B
330
1F
100
AcDbEntity
  8
0
  6
Continuous
 62
     7
370
    25
100
AcDbLine
 10
6813.3876633514
 20
4068.3732681405
 30
0.0
 11
6813.3876633514
 21
4060.0732681405
 31
0.0
  0
LINE
  5
56C
330
1F
100
AcDbEntity
  8
0
  6
Continuous
 62
     7
370
    25
100
AcDbLine
 10
6725.8876633514
 20
4048.7232681405
 30
0.0
 11
6810.8876633514
 21
4048.7232681405
 31
0.0
  0
LINE
  5
56D
330
1F
100
AcDbEntity
  8
0
  6
Continuous
 62
     7
370
    25
100
AcDbLine
 10
6725.8876633514
 20
4050.7232681405
 30
0.0
 11
6725.8876633514
 21
4048.7232681405
 31
0.0
  0
LINE
  5
56E
330
1F
100
AcDbEntity
  8
0
  6
Continuous
 62
     7
370
    25
100
AcDbLine
 10
6810.8876633514
 20
4050.7232681405
 30
0.0
 11
6810.8876633514
 21
4048.7232681405
 31
0.0
  0
ARC
  5
56F
330
1F
100
AcDbEntity
  8
0
  6
Continuous
 62
     7
370
    25
100
AcDbCircle
 10
6810.9026129935
 20
4051.1767992294
 30
0.0
 40
0.9536482734449352
100
AcDbArc
 50
269.1017794406
 51
331.6032180625
  0
ARC
  5
570
330
1F
100
AcDbEntity
  8
0
  6
Continuous
 62
     7
370
    25
100
AcDbCircle
 10
6810.9048577326
 20
4051.1903068877
 30
0.0
 40
2.467098665885407
100
AcDbArc
 50
269.6006752929
 51
349.0876628106
  0
ARC
  5
571
330
1F
100
AcDbEntity
  8
0
  6
Continuous
 62
     7
370
    25
100
AcDbCircle
 10
6725.8634701639
 20
4051.1488748423
 30
0.0
 40
0.9259228244611124
100
AcDbArc
 50
207.364962212
 51
271.4972363484
  0
ARC
  5
572
330
1F
100
AcDbEntity
  8
0
  6
Continuous
 62
     7
370
    25
100
AcDbCircle
 10
6725.8781041569
 20
4051.2033811886
 30
0.0
 40
2.480131470287628
100
AcDbArc
 50
191.1619996662
 51
270.2208362178
  0
LINE
  5
573
330
1F
100
AcDbEntity
  8
0
  6
Continuous
 62
     7
370
    25
100
AcDbLine
 10
6650.8988133168
 20
4103.7232681405
 30
0.0
 11
6720.8988133168
 21
4103.7232681405
 31
0.0
  0
LINE
  5
574
330
1F
100
AcDbEntity
  8
0
  6
Continuous
 62
     7
370
    25
100
AcDbLine
 10
6669.1488133168
 20
4060.9732681405
 30
0.0
 11
6669.1488133168
 21
4068.2680128279
 31
0.0
  0
LINE
  5
575
330
1F
100
AcDbEntity
  8
0
  6
Continuous
 62
     7
370
    25
100
AcDbLine
 10
6669.1488133168
 20
4077.7232681405
 30
0.0
 11
6669.1488133168
 21
4095.4732681405
 31
0.0
  0
ARC
  5
576
330
1F
100
AcDbEntity
  8
0
  6
Continuous
 62
     7
370
    25
100
AcDbCircle
 10
6664.8988133168
 20
4095.4732681405
 30
0.0
 40
4.25
100
AcDbArc
 50
0.0
 51
180.0
  0
LINE
  5
577
330
1F
100
AcDbEntity
  8
0
  6
Continuous
 62
     7
370
    25
100
AcDbLine
 10
6660.6488133168
 20
4095.4732681405
 30
0.0
 11
6660.6488133168
 21
4077.7232681405
 31
0.0
  0
LINE
  5
578
330
1F
100
AcDbEntity
  8
0
  6
Continuous
 62
     7
370
    25
100
AcDbLine
 10
6660.6488133168
 20
4068.3732681405
 30
0.0
 11
6660.6488133168
 21
4060.9732681405
 31
0.0
  0
ARC
  5
579
330
1F
100
AcDbEntity
  8
0
  6
Continuous
 62
     7
370
    25
100
AcDbCircle
 10
6664.8988133168
 20
4060.9732681405
 30
0.0
 40
4.25000000000029
100
AcDbArc
 50
180.0
 51
192.2257885932
  0
LWPOLYLINE
  5
57A
330
1F
100
AcDbEntity
  8
0
  6
Continuous
 62
     7
370
    25
100
AcDbPolyline
 90
        3
 70
   128
 43
0.0
 10
6669.0705370902
 20
4060.161344032
 10
6669.1283484051
 20
4060.5566952941
 10
6669.1488133168
 20
4060.9732681405
  0
LINE
  5
57B
330
1F
100
AcDbEntity
  8
0
  6
Continuous
 62
     7
370
    25
100
AcDbLine
 10
6711.1488133168
 20
4060.9732681405
 30
0.0
 11
6711.1488133168
 21
4069.7537147865
 31
0.0
  0
LINE
  5
57C
330
1F
100
AcDbEntity
  8
0
  6
Continuous
 62
     7
370
    25
100
AcDbLine
 10
6711.1488133168
 20
4077.7232681405
 30
0.0
 11
6711.1488133168
 21
4095.4732681405
 31
0.0
  0
ARC
  5
57D
330
1F
100
AcDbEntity
  8
0
  6
Continuous
 62
     7
370
    25
100
AcDbCircle
 10
6706.8988133168
 20
4095.4732681405
 30
0.0
 40
4.25
100
AcDbArc
 50
0.0
 51
180.0
  0
LINE
  5
57E
330
1F
100
AcDbEntity
  8
0
  6
Continuous
 62
     7
370
    25
100
AcDbLine
 10
6702.6488133168
 20
4095.4732681405
 30
0.0
 11
6702.6488133168
 21
4077.7232681405
 31
0.0
  0
ARC
  5
57F
330
1F
100
AcDbEntity
  8
0
  6
Continuous
 62
     7
370
    25
100
AcDbCircle
 10
6706.8988133168
 20
4060.9732681405
 30
0.0
 40
4.25
100
AcDbArc
 50
331.3124283649
 51
0.0
  0
LINE
  5
580
330
1F
100
AcDbEntity
  8
0
  6
Continuous
 62
     7
370
    25
100
AcDbLine
 10
6648.3988133168
 20
4103.7232681405
 30
0.0
 11
6648.3988133168
 21
4077.7232681405
 31
0.0
  0
LINE
  5
581
330
1F
100
AcDbEntity
  8
0
  6
Continuous
 62
     7
370
    25
100
AcDbLine
 10
6648.3988133168
 20
4103.7232681405
 30
0.0
 11
6650.8988133168
 21
4103.7232681405
 31
0.0
  0
LINE
  5
582
330
1F
100
AcDbEntity
  8
0
  6
Continuous
 62
     7
370
    25
100
AcDbLine
 10
6720.8988133168
 20
4103.7232681405
 30
0.0
 11
6723.3932383341
 21
4103.7232681405
 31
0.0
  0
LINE
  5
583
330
1F
100
AcDbEntity
  8
0
  6
Continuous
 62
     7
370
    25
100
AcDbLine
 10
6650.8988133168
 20
4048.7232681405
 30
0.0
 11
6720.8988133168
 21
4048.7232681405
 31
0.0
  0
LINE
  5
584
330
1F
100
AcDbEntity
  8
0
  6
Continuous
 62
     7
370
    25
100
AcDbLine
 10
6720.8988133168
 20
4050.7232681405
 30
0.0
 11
6720.8988133168
 21
4048.7232681405
 31
0.0
  0
LINE
  5
585
330
1F
100
AcDbEntity
  8
0
  6
Continuous
 62
     7
370
    25
100
AcDbLine
 10
6650.8988133168
 20
4050.7232681405
 30
0.0
 11
6650.8988133168
 21
4048.7232681405
 31
0.0
  0
ARC
  5
586
330
1F
100
AcDbEntity
  8
0
  6
Continuous
 62
     7
370
    25
100
AcDbCircle
 10
6650.8746201293
 20
4051.1488748423
 30
0.0
 40
0.9259228244594686
100
AcDbArc
 50
207.3649622119
 51
271.4972363484
  0
ARC
  5
587
330
1F
100
AcDbEntity
  8
0
  6
Continuous
 62
     7
370
    25
100
AcDbCircle
 10
6650.8892541223
 20
4051.2033811886
 30
0.0
 40
2.480131470291207
100
AcDbArc
 50
191.1619996663
 51
270.2208362177
  0
ARC
  5
588
330
1F
100
AcDbEntity
  8
0
  6
Continuous
 62
     7
370
    25
100
AcDbCircle
 10
6720.916007698
 20
4051.1903068877
 30
0.0
 40
2.467098665883594
100
AcDbArc
 50
269.6006752929
 51
349.0876628107
  0
ARC
  5
589
330
1F
100
AcDbEntity
  8
0
  6
Continuous
 62
     7
370
    25
100
AcDbCircle
 10
6720.9137629589
 20
4051.1767992294
 30
0.0
 40
0.9536482734449578
100
AcDbArc
 50
269.1017794406
 51
331.6032180625
  0
LINE
  5
58A
330
1F
100
AcDbEntity
  8
0
  6
Continuous
 62
     8
370
    25
100
AcDbLine
 10
7051.6174119164
 20
4077.7232681405
 30
0.0
 11
7051.6174119164
 21
4103.7232681405
 31
0.0
  0
LINE
  5
58B
330
1F
100
AcDbEntity
  8
0
  6
Continuous
 62
     8
370
    25
100
AcDbLine
 10
6906.6174119164
 20
4077.7232681405
 30
0.0
 11
6906.6174119164
 21
4103.7232681405
 31
0.0
  0
LINE
  5
58C
330
1F
100
AcDbEntity
  8
0
  6
Continuous
 62
     8
370
    25
100
AcDbLine
 10
6647.9700827779
 20
4052.9732681405
 30
0.0
 11
7055.9700827779
 21
4052.9732681405
 31
0.0
  0
LINE
  5
58D
330
1F
100
AcDbEntity
  8
0
  6
Continuous
 62
     8
370
    25
100
AcDbLine
 10
6647.9700827779
 20
4075.4732681405
 30
0.0
 11
7055.9700827779
 21
4075.4732681405
 31
0.0
  0
LINE
  5
58E
330
1F
100
AcDbEntity
  8
0
  6
Continuous
 62
     8
370
    25
100
AcDbLine
 10
6660.6488133168
 20
4066.1232681405
 30
0.0
 11
6669.1488133168
 21
4066.1232681405
 31
0.0
  0
LINE
  5
58F
330
1F
100
AcDbEntity
  8
0
  6
Continuous
 62
     8
370
    25
100
AcDbLine
 10
6708.4776197425
 20
4066.1232681405
 30
0.0
 11
6711.1488133168
 21
4066.1232681405
 31
0.0
  0
LINE
  5
590
330
1F
100
AcDbEntity
  8
0
  6
Continuous
 62
     8
370
    25
100
AcDbLine
 10
6736.1376633514
 20
4066.1232681405
 30
0.0
 11
6743.5742829761
 21
4066.1232681405
 31
0.0
  0
LINE
  5
591
330
1F
100
AcDbEntity
  8
0
  6
Continuous
 62
     8
370
    25
100
AcDbLine
 10
6792.1376633514
 20
4066.1232681405
 30
0.0
 11
6793.5742829761
 21
4066.1232681405
 31
0.0
  0
LINE
  5
592
330
1F
100
AcDbEntity
  8
0
  6
Continuous
 62
     8
370
    25
100
AcDbLine
 10
6813.3876633514
 20
4066.1232681405
 30
0.0
 11
6813.3887085209
 21
4066.1232681405
 31
0.0
  0
LINE
  5
593
330
1F
100
AcDbEntity
  8
0
  6
Continuous
 62
     8
370
    25
100
AcDbLine
 10
6831.6658825798
 20
4066.1232681405
 30
0.0
 11
6834.6387085209
 21
4066.1232681405
 31
0.0
  0
LINE
  5
594
330
1F
100
AcDbEntity
  8
0
  6
Continuous
 62
     8
370
    25
100
AcDbLine
 10
6882.1387085209
 20
4066.1232681405
 30
0.0
 11
6890.6387085209
 21
4066.1232681405
 31
0.0
  0
LINE
  5
595
330
1F
100
AcDbEntity
  8
0
  6
Continuous
 62
     8
370
    25
100
AcDbLine
 10
7032.8674119164
 20
4066.1232681405
 30
0.0
 11
7041.3674119164
 21
4066.1232681405
 31
0.0
  0
LINE
  5
596
330
1F
100
AcDbEntity
  8
0
  6
Continuous
 62
     8
370
    25
100
AcDbLine
 10
6647.9700827779
 20
4079.6232681405
 30
0.0
 11
6648.3988133168
 21
4079.6232681405
 31
0.0
  0
LINE
  5
597
330
1F
100
AcDbEntity
  8
0
  6
Continuous
 62
     8
370
    25
100
AcDbLine
 10
6660.6488133168
 20
4079.6232681405
 30
0.0
 11
6669.1488133168
 21
4079.6232681405
 31
0.0
  0
LINE
  5
598
330
1F
100
AcDbEntity
  8
0
  6
Continuous
 62
     8
370
    25
100
AcDbLine
 10
6702.6488133168
 20
4079.6232681405
 30
0.0
 11
6711.1488133168
 21
4079.6232681405
 31
0.0
  0
LINE
  5
599
330
1F
100
AcDbEntity
  8
0
  6
Continuous
 62
     8
370
    25
100
AcDbLine
 10
6736.1376633514
 20
4079.6232681405
 30
0.0
 11
6744.6376633514
 21
4079.6232681405
 31
0.0
  0
LINE
  5
59A
330
1F
100
AcDbEntity
  8
0
  6
Continuous
 62
     8
370
    25
100
AcDbLine
 10
6792.1376633514
 20
4079.6232681405
 30
0.0
 11
6800.6376633514
 21
4079.6232681405
 31
0.0
  0
LINE
  5
59B
330
1F
100
AcDbEntity
  8
0
  6
Continuous
 62
     8
370
    25
100
AcDbLine
 10
6813.3876633514
 20
4079.6232681405
 30
0.0
 11
6813.3887085209
 21
4079.6232681405
 31
0.0
  0
LINE
  5
59C
330
1F
100
AcDbEntity
  8
0
  6
Continuous
 62
     8
370
    25
100
AcDbLine
 10
6826.1387085209
 20
4079.6232681405
 30
0.0
 11
6834.6387085209
 21
4079.6232681405
 31
0.0
  0
LINE
  5
59D
330
1F
100
AcDbEntity
  8
0
  6
Continuous
 62
     8
370
    25
100
AcDbLine
 10
6882.1387085209
 20
4079.6232681405
 30
0.0
 11
6890.6387085209
 21
4079.6232681405
 31
0.0
  0
LINE
  5
59E
330
1F
100
AcDbEntity
  8
0
  6
Continuous
 62
     8
370
    25
100
AcDbLine
 10
6903.3887085209
 20
4079.6232681405
 30
0.0
 11
6904.1174119164
 21
4079.6232681405
 31
0.0
  0
LINE
  5
59F
330
1F
100
AcDbEntity
  8
0
  6
Continuous
 62
     8
370
    25
100
AcDbLine
 10
6916.8674119164
 20
4079.6232681405
 30
0.0
 11
6925.3674119164
 21
4079.6232681405
 31
0.0
  0
LINE
  5
5A0
330
1F
100
AcDbEntity
  8
0
  6
Continuous
 62
     8
370
    25
100
AcDbLine
 10
7032.8674119164
 20
4079.6232681405
 30
0.0
 11
7041.3674119164
 21
4079.6232681405
 31
0.0
  0
LINE
  5
5A1
330
1F
100
AcDbEntity
  8
0
  6
Continuous
 62
     8
370
    25
100
AcDbLine
 10
7054.1174119164
 20
4079.6232681405
 30
0.0
 11
7055.9700827779
 21
4079.6232681405
 31
0.0
  0
LINE
  5
5A2
330
1F
100
AcDbEntity
  8
0
  6
Continuous
 62
     8
370
    25
100
AcDbLine
 10
6836.8887085209
 20
4046.2232681405
 30
0.0
 11
6842.3887085209
 21
4046.2232681405
 31
0.0
  0
LINE
  5
5A3
330
1F
100
AcDbEntity
  8
0
  6
Continuous
 62
     8
370
    25
100
AcDbLine
 10
6874.3887085209
 20
4046.2232681405
 30
0.0
 11
6879.8887085209
 21
4046.2232681405
 31
0.0
  0
LINE
  5
5A4
330
1F
100
AcDbEntity
  8
0
  6
Continuous
 62
     8
370
    25
100
AcDbLine
 10
6749.6376633514
 20
4046.2232681405
 30
0.0
 11
6752.3876633514
 21
4046.2232681405
 31
0.0
  0
LINE
  5
5A5
330
1F
100
AcDbEntity
  8
0
  6
Continuous
 62
     8
370
    25
100
AcDbLine
 10
6746.8876633514
 20
4046.2232681405
 30
0.0
 11
6749.6376633514
 21
4046.2232681405
 31
0.0
  0
LINE
  5
5A6
330
1F
100
AcDbEntity
  8
0
  6
Continuous
 62
     8
370
    25
100
AcDbLine
 10
6784.3876633514
 20
4046.2232681405
 30
0.0
 11
6789.8876633514
 21
4046.2232681405
 31
0.0
  0
LINE
  5
5A7
330
1F
100
AcDbEntity
  8
0
  6
Continuous
 62
     8
370
    25
100
AcDbLine
 10
6710.4632543838
 20
4097.7878436694
 30
0.0
 11
6703.3343722497
 21
4097.7878436694
 31
0.0
  0
LINE
  5
5A8
330
1F
100
AcDbEntity
  8
0
  6
Continuous
 62
     8
370
    25
100
AcDbLine
 10
6668.4632543838
 20
4097.7878436694
 30
0.0
 11
6661.3343722497
 21
4097.7878436694
 31
0.0
  0
LINE
  5
5A9
330
1F
100
AcDbEntity
  8
0
  6
Continuous
 62
     8
370
    25
100
AcDbLine
 10
6710.0832543339
 20
4098.2878436694
 30
0.0
 11
6703.7143722996
 21
4098.2878436694
 31
0.0
  0
LINE
  5
5AA
330
1F
100
AcDbEntity
  8
0
  6
Continuous
 62
     8
370
    25
100
AcDbLine
 10
6668.0832543339
 20
4098.2878436694
 30
0.0
 11
6661.7143722996
 21
4098.2878436694
 31
0.0
  0
LINE
  5
5AB
330
1F
100
AcDbEntity
  8
0
  6
Continuous
 62
     8
370
    25
100
AcDbLine
 10
6815.8887085209
 20
4103.7232681405
 30
0.0
 11
6815.8887085209
 21
4077.7232681405
 31
0.0
  0
LINE
  5
5AC
330
1F
100
AcDbEntity
  8
0
  6
Continuous
 62
     8
370
    25
100
AcDbLine
 10
6815.8887085209
 20
4068.3732681405
 30
0.0
 11
6815.8887085209
 21
4060.0732681405
 31
0.0
  0
LINE
  5
5AD
330
1F
100
AcDbEntity
  8
0
  6
Continuous
 62
     8
370
    25
100
AcDbLine
 10
6900.8887085209
 20
4103.7232681405
 30
0.0
 11
6900.8887085209
 21
4077.7232681405
 31
0.0
  0
LINE
  5
5AE
330
1F
100
AcDbEntity
  8
0
  6
Continuous
 62
     8
370
    25
100
AcDbLine
 10
6725.8876633514
 20
4103.7232681405
 30
0.0
 11
6725.8876633514
 21
4077.7232681405
 31
0.0
  0
LINE
  5
5AF
330
1F
100
AcDbEntity
  8
0
  6
Continuous
 62
     8
370
    25
100
AcDbLine
 10
6810.8876633514
 20
4103.7232681405
 30
0.0
 11
6810.8876633514
 21
4077.7232681405
 31
0.0
  0
LINE
  5
5B0
330
1F
100
AcDbEntity
  8
0
  6
Continuous
 62
     8
370
    25
100
AcDbLine
 10
6810.8876633514
 20
4068.3732681405
 30
0.0
 11
6810.8876633514
 21
4060.0732681405
 31
0.0
  0
LINE
  5
5B1
330
1F
100
AcDbEntity
  8
0
  6
Continuous
 62
     8
370
    25
100
AcDbLine
 10
6650.8988133168
 20
4103.7232681405
 30
0.0
 11
6650.8988133168
 21
4077.7232681405
 31
0.0
  0
LINE
  5
5B2
330
1F
100
AcDbEntity
  8
0
  6
Continuous
 62
     8
370
    25
100
AcDbLine
 10
6720.8988133168
 20
4103.7232681405
 30
0.0
 11
6720.8988133168
 21
4077.7232681405
 31
0.0
  0
ENDSEC
  0
SECTION
  2
OBJECTS
  0
DICTIONARY
  5
C
330
0
100
AcDbDictionary
281
     1
  3
ACAD_DETAILVIEWSTYLE
350
5BA
  3
ACAD_GROUP
350
D
  3
ACAD_LAYOUT
350
1A
  3
ACAD_MATERIAL
350
43
  3
ACAD_MLEADERSTYLE
350
6B
  3
ACAD_MLINESTYLE
350
17
  3
ACAD_PLOTSETTINGS
350
19
  3
ACAD_PLOTSTYLENAME
350
E
  3
ACAD_SCALELIST
350
47
  3
ACAD_SECTIONVIEWSTYLE
350
5BB
  3
ACAD_TABLESTYLE
350
69
  3
ACAD_VISUALSTYLE
350
2A
  3
ACDB_RECOMPOSE_DATA
350
5B7
  3
AcDbVariableDictionary
350
5B3
  0
SUN
  5
6D
330
29
100
AcDbSun
 90
        1
290
     0
 63
     7
421
 16777215
 40
1.0
291
     1
 91
  2455826
 92
 54000000
292
     0
 70
     2
 71
   256
280
     1
  0
DICTIONARY
  5
5BA
102
{ACAD_REACTORS
330
C
102
}
330
C
100
AcDbDictionary
281
     1
  0
DICTIONARY
  5
D
102
{ACAD_REACTORS
330
C
102
}
330
C
100
AcDbDictionary
281
     1
  0
DICTIONARY
  5
1A
102
{ACAD_REACTORS
330
C
102
}
330
C
100
AcDbDictionary
281
     1
  3
Layout1
350
1E
  3
Layout2
350
26
  3
Model
350
22
  0
DICTIONARY
  5
43
102
{ACAD_REACTORS
330
C
102
}
330
C
100
AcDbDictionary
281
     1
  3
ByBlock
350
45
  3
ByLayer
350
44
  3
Global
350
46
  0
DICTIONARY
  5
6B
102
{ACAD_REACTORS
330
C
102
}
330
C
100
AcDbDictionary
281
     1
  3
Standard
350
6C
  0
DICTIONARY
  5
17
102
{ACAD_REACTORS
330
C
102
}
330
C
100
AcDbDictionary
281
     1
  3
Standard
350
18
  0
DICTIONARY
  5
19
102
{ACAD_REACTORS
330
C
102
}
330
C
100
AcDbDictionary
281
     1
  0
ACDBDICTIONARYWDFLT
  5
E
102
{ACAD_REACTORS
330
C
102
}
330
C
100
AcDbDictionary
281
     1
  3
Normal
350
F
100
AcDbDictionaryWithDefault
340
F
  0
DICTIONARY
  5
47
102
{ACAD_REACTORS
330
C
102
}
330
C
100
AcDbDictionary
281
     1
  3
A0
350
48
  3
A1
350
49
  3
A2
350
4A
  3
A3
350
4B
  3
A4
350
4C
  3
A5
350
4D
  3
A6
350
4E
  3
A7
350
4F
  3
A8
350
50
  3
A9
350
51
  3
B0
350
52
  3
B1
350
53
  3
B2
350
54
  3
B3
350
55
  3
B4
350
56
  3
B5
350
57
  3
B6
350
58
  3
B7
350
59
  3
B8
350
5A
  3
B9
350
5B
  3
C0
350
5C
  3
C1
350
5D
  3
C2
350
5E
  3
C3
350
5F
  3
C4
350
60
  3
C5
350
61
  3
C6
350
62
  3
C7
350
63
  3
C8
350
64
  3
C9
350
65
  3
D0
350
66
  3
D1
350
67
  3
D2
350
68
  0
DICTIONARY
  5
5BB
102
{ACAD_REACTORS
330
C
102
}
330
C
100
AcDbDictionary
281
     1
  0
DICTIONARY
  5
69
102
{ACAD_REACTORS
330
C
102
}
330
C
100
AcDbDictionary
281
     1
  3
Standard
350
6A
  0
DICTIONARY
  5
2A
102
{ACAD_REACTORS
330
C
102
}
330
C
100
AcDbDictionary
281
     1
  3
2dWireframe
350
2F
  3
Basic
350
32
  3
Brighten
350
36
  3
ColorChange
350
3A
  3
Conceptual
350
34
  3
Dim
350
35
  3
EdgeColorOff
350
3D
  3
Facepattern
350
39
  3
Flat
350
2B
  3
FlatWithEdges
350
2C
  3
Gouraud
350
2D
  3
GouraudWithEdges
350
2E
  3
Hidden
350
31
  3
JitterOff
350
3B
  3
Linepattern
350
38
  3
OverhangOff
350
3C
  3
Realistic
350
33
  3
Shaded
350
42
  3
Shaded with edges
350
41
  3
Shades of Gray
350
3E
  3
Sketchy
350
3F
  3
Thicken
350
37
  3
Wireframe
350
30
  3
X-Ray
350
40
  0
XRECORD
  5
5B7
102
{ACAD_REACTORS
330
C
102
}
330
C
100
AcDbXrecord
280
     1
 90
        1
330
6A
  0
DICTIONARY
  5
5B3
102
{ACAD_REACTORS
330
C
102
}
330
C
100
AcDbDictionary
281
     1
  3
CANNOSCALE
350
5B4
  3
CENTEREXE
350
5BC
  3
CENTERLTYPEFILE
350
5BD
  3
CMLEADERSTYLE
350
5B9
  3
CTABLESTYLE
350
5B8
  0
LAYOUT
  5
1E
102
{ACAD_REACTORS
330
1A
102
}
330
1A
100
AcDbPlotSettings
  1

  2
none_device
  4

  6

 40
0.0
 41
0.0
 42
0.0
 43
0.0
 44
0.0
 45
0.0
 46
0.0
 47
0.0
 48
0.0
 49
0.0
140
0.0
141
0.0
142
1.0
143
1.0
 70
   688
 72
     1
 73
     0
 74
     5
  7

 75
    16
 76
     0
 77
     2
 78
   300
147
1.0
148
0.0
149
0.0
100
AcDbLayout
  1
Layout1
 70
     1
 71
     1
 10
0.0
 20
0.0
 11
420.0
 21
297.0
 12
0.0
 22
0.0
 32
0.0
 14
1.0000000000E+20
 24
1.0000000000E+20
 34
1.0000000000E+20
 15
-1.0000000000E+20
 25
-1.0000000000E+20
 35
-1.0000000000E+20
146
0.0
 13
0.0
 23
0.0
 33
0.0
 16
1.0
 26
0.0
 36
0.0
 17
0.0
 27
1.0
 37
0.0
 76
     0
330
1B
  0
LAYOUT
  5
26
102
{ACAD_REACTORS
330
1A
102
}
330
1A
100
AcDbPlotSettings
  1

  2
none_device
  4

  6

 40
0.0
 41
0.0
 42
0.0
 43
0.0
 44
0.0
 45
0.0
 46
0.0
 47
0.0
 48
0.0
 49
0.0
140
0.0
141
0.0
142
1.0
143
1.0
 70
   688
 72
     1
 73
     0
 74
     5
  7

 75
    16
 76
     0
 77
     2
 78
   300
147
1.0
148
0.0
149
0.0
100
AcDbLayout
  1
Layout2
 70
     1
 71
     2
 10
0.0
 20
0.0
 11
0.0
 21
0.0
 12
0.0
 22
0.0
 32
0.0
 14
0.0
 24
0.0
 34
0.0
 15
0.0
 25
0.0
 35
0.0
146
0.0
 13
0.0
 23
0.0
 33
0.0
 16
1.0
 26
0.0
 36
0.0
 17
0.0
 27
1.0
 37
0.0
 76
     0
330
23
  0
LAYOUT
  5
22
102
{ACAD_REACTORS
330
1A
102
}
330
1A
100
AcDbPlotSettings
  1

  2
none_device
  4
Letter_(8.50_x_11.00_Inches)
  6

 40
6.35
 41
6.35
 42
6.35000508
 43
6.35000508
 44
215.9
 45
279.4
 46
0.0
 47
0.0
 48
0.0
 49
0.0
140
0.0
141
0.0
142
1.0
143
1.0
 70
  1712
 72
     1
 73
     0
 74
     0
  7

 75
     0
 76
     0
 77
     2
 78
   300
147
1.0
148
0.0
149
0.0
100
AcDbLayout
  1
Model
 70
     1
 71
     0
 10
0.0
 20
0.0
 11
20000.0
 21
10000.0
 12
0.0
 22
0.0
 32
0.0
 14
0.0
 24
0.0
 34
0.0
 15
20000.0
 25
10000.0
 35
0.0
146
0.0
 13
0.0
 23
0.0
 33
0.0
 16
1.0
 26
0.0
 36
0.0
 17
0.0
 27
1.0
 37
0.0
 76
     0
330
1F
331
29
  0
MATERIAL
  5
45
102
{ACAD_REACTORS
330
43
102
}
330
43
100
AcDbMaterial
  1
ByBlock
 72
     1
 94
      127
  0
MATERIAL
  5
44
102
{ACAD_REACTORS
330
43
102
}
330
43
100
AcDbMaterial
  1
ByLayer
 72
     1
 94
      127
  0
MATERIAL
  5
46
102
{ACAD_REACTORS
330
43
102
}
330
43
100
AcDbMaterial
  1
Global
 72
     1
 94
      127
  0
MLEADERSTYLE
  5
6C
102
{ACAD_REACTORS
330
6B
102
}
330
6B
100
AcDbMLeaderStyle
179
     2
170
     2
171
     1
172
     0
 90
        2
 40
0.0
 41
0.0
173
     1
 91
-1056964608
340
14
 92
       -2
290
     1
 42
2.0
291
     1
 43
8.0
  3
Standard
341
0
 44
4.0
300

342
11
174
     1
178
     6
175
     1
176
     0
 93
-1056964608
 45
4.0
292
     0
297
     0
 46
4.0
343
0
 94
-1056964608
 47
1.0
 49
1.0
140
1.0
293
     1
141
0.0
294
     1
177
     0
142
1.0
295
     0
296
     0
143
3.75
271
     0
272
     9
273
     9
298
     0
  0
MLINESTYLE
  5
18
102
{ACAD_REACTORS
330
17
102
}
330
17
100
AcDbMlineStyle
  2
Standard
 70
     0
  3

 62
   256
 51
90.0
 52
90.0
 71
     2
 49
0.5
 62
   256
  6
BYLAYER
 49
-0.5
 62
   256
  6
BYLAYER
  0
ACDBPLACEHOLDER
  5
F
102
{ACAD_REACTORS
330
E
102
}
330
E
  0
SCALE
  5
48
102
{ACAD_REACTORS
330
47
102
}
330
47
100
AcDbScale
 70
     0
300
1:1
140
1.0
141
1.0
290
     1
  0
SCALE
  5
49
102
{ACAD_REACTORS
330
47
102
}
330
47
100
AcDbScale
 70
     0
300
1:2
140
1.0
141
2.0
290
     0
  0
SCALE
  5
4A
102
{ACAD_REACTORS
330
47
102
}
330
47
100
AcDbScale
 70
     0
300
1:4
140
1.0
141
4.0
290
     0
  0
SCALE
  5
4B
102
{ACAD_REACTORS
330
47
102
}
330
47
100
AcDbScale
 70
     0
300
1:5
140
1.0
141
5.0
290
     0
  0
SCALE
  5
4C
102
{ACAD_REACTORS
330
47
102
}
330
47
100
AcDbScale
 70
     0
300
1:8
140
1.0
141
8.0
290
     0
  0
SCALE
  5
4D
102
{ACAD_REACTORS
330
47
102
}
330
47
100
AcDbScale
 70
     0
300
1:10
140
1.0
141
10.0
290
     0
  0
SCALE
  5
4E
102
{ACAD_REACTORS
330
47
102
}
330
47
100
AcDbScale
 70
     0
300
1:16
140
1.0
141
16.0
290
     0
  0
SCALE
  5
4F
102
{ACAD_REACTORS
330
47
102
}
330
47
100
AcDbScale
 70
     0
300
1:20
140
1.0
141
20.0
290
     0
  0
SCALE
  5
50
102
{ACAD_REACTORS
330
47
102
}
330
47
100
AcDbScale
 70
     0
300
1:30
140
1.0
141
30.0
290
     0
  0
SCALE
  5
51
102
{ACAD_REACTORS
330
47
102
}
330
47
100
AcDbScale
 70
     0
300
1:40
140
1.0
141
40.0
290
     0
  0
SCALE
  5
52
102
{ACAD_REACTORS
330
47
102
}
330
47
100
AcDbScale
 70
     0
300
1:50
140
1.0
141
50.0
290
     0
  0
SCALE
  5
53
102
{ACAD_REACTORS
330
47
102
}
330
47
100
AcDbScale
 70
     0
300
1:100
140
1.0
141
100.0
290
     0
  0
SCALE
  5
54
102
{ACAD_REACTORS
330
47
102
}
330
47
100
AcDbScale
 70
     0
300
2:1
140
2.0
141
1.0
290
     0
  0
SCALE
  5
55
102
{ACAD_REACTORS
330
47
102
}
330
47
100
AcDbScale
 70
     0
300
4:1
140
4.0
141
1.0
290
     0
  0
SCALE
  5
56
102
{ACAD_REACTORS
330
47
102
}
330
47
100
AcDbScale
 70
     0
300
8:1
140
8.0
141
1.0
290
     0
  0
SCALE
  5
57
102
{ACAD_REACTORS
330
47
102
}
330
47
100
AcDbScale
 70
     0
300
10:1
140
10.0
141
1.0
290
     0
  0
SCALE
  5
58
102
{ACAD_REACTORS
330
47
102
}
330
47
100
AcDbScale
 70
     0
300
100:1
140
100.0
141
1.0
290
     0
  0
SCALE
  5
59
102
{ACAD_REACTORS
330
47
102
}
330
47
100
AcDbScale
 70
     0
300
1/128" = 1'-0"
140
0.0078125
141
12.0
290
     0
  0
SCALE
  5
5A
102
{ACAD_REACTORS
330
47
102
}
330
47
100
AcDbScale
 70
     0
300
1/64" = 1'-0"
140
0.015625
141
12.0
290
     0
  0
SCALE
  5
5B
102
{ACAD_REACTORS
330
47
102
}
330
47
100
AcDbScale
 70
     0
300
1/32" = 1'-0"
140
0.03125
141
12.0
290
     0
  0
SCALE
  5
5C
102
{ACAD_REACTORS
330
47
102
}
330
47
100
AcDbScale
 70
     0
300
1/16" = 1'-0"
140
0.0625
141
12.0
290
     0
  0
SCALE
  5
5D
102
{ACAD_REACTORS
330
47
102
}
330
47
100
AcDbScale
 70
     0
300
3/32" = 1'-0"
140
0.09375
141
12.0
290
     0
  0
SCALE
  5
5E
102
{ACAD_REACTORS
330
47
102
}
330
47
100
AcDbScale
 70
     0
300
1/8" = 1'-0"
140
0.125
141
12.0
290
     0
  0
SCALE
  5
5F
102
{ACAD_REACTORS
330
47
102
}
330
47
100
AcDbScale
 70
     0
300
3/16" = 1'-0"
140
0.1875
141
12.0
290
     0
  0
SCALE
  5
60
102
{ACAD_REACTORS
330
47
102
}
330
47
100
AcDbScale
 70
     0
300
1/4" = 1'-0"
140
0.25
141
12.0
290
     0
  0
SCALE
  5
61
102
{ACAD_REACTORS
330
47
102
}
330
47
100
AcDbScale
 70
     0
300
3/8" = 1'-0"
140
0.375
141
12.0
290
     0
  0
SCALE
  5
62
102
{ACAD_REACTORS
330
47
102
}
330
47
100
AcDbScale
 70
     0
300
1/2" = 1'-0"
140
0.5
141
12.0
290
     0
  0
SCALE
  5
63
102
{ACAD_REACTORS
330
47
102
}
330
47
100
AcDbScale
 70
     0
300
3/4" = 1'-0"
140
0.75
141
12.0
290
     0
  0
SCALE
  5
64
102
{ACAD_REACTORS
330
47
102
}
330
47
100
AcDbScale
 70
     0
300
1" = 1'-0"
140
1.0
141
12.0
290
     0
  0
SCALE
  5
65
102
{ACAD_REACTORS
330
47
102
}
330
47
100
AcDbScale
 70
     0
300
1-1/2" = 1'-0"
140
1.5
141
12.0
290
     0
  0
SCALE
  5
66
102
{ACAD_REACTORS
330
47
102
}
330
47
100
AcDbScale
 70
     0
300
3" = 1'-0"
140
3.0
141
12.0
290
     0
  0
SCALE
  5
67
102
{ACAD_REACTORS
330
47
102
}
330
47
100
AcDbScale
 70
     0
300
6" = 1'-0"
140
6.0
141
12.0
290
     0
  0
SCALE
  5
68
102
{ACAD_REACTORS
330
47
102
}
330
47
100
AcDbScale
 70
     0
300
1'-0" = 1'-0"
140
12.0
141
12.0
290
     0
  0
TABLESTYLE
  5
6A
102
{ACAD_REACTORS
330
69
102
}
102
{ACAD_XDICTIONARY
360
5B5
102
}
330
69
100
AcDbTableStyle
  3
Standard
 70
     0
 71
     0
 40
0.06
 41
0.06
280
     0
281
     0
  7
Standard
140
4.5
170
     2
 62
     0
 63
   257
283
     0
 90
        4
 91
        0
  1

274
    -2
284
     1
 64
     0
275
    -2
285
     1
 65
     0
276
    -2
286
     1
 66
     0
277
    -2
287
     1
 67
     0
278
    -2
288
     1
 68
     0
279
    -2
289
     1
 69
     0
  7
Standard
140
6.0
170
     5
 62
     0
 63
   257
283
     0
 90
        4
 91
        0
  1

274
    -2
284
     1
 64
     0
275
    -2
285
     1
 65
     0
276
    -2
286
     1
 66
     0
277
    -2
287
     1
 67
     0
278
    -2
288
     1
 68
     0
279
    -2
289
     1
 69
     0
  7
Standard
140
4.5
170
     5
 62
     0
 63
   257
283
     0
 90
        4
 91
        0
  1

274
    -2
284
     1
 64
     0
275
    -2
285
     1
 65
     0
276
    -2
286
     1
 66
     0
277
    -2
287
     1
 67
     0
278
    -2
288
     1
 68
     0
279
    -2
289
     1
 69
     0
  0
VISUALSTYLE
  5
2F
102
{ACAD_REACTORS
330
2A
102
}
330
2A
100
AcDbVisualStyle
  2
2dWireframe
 70
     4
177
     3
291
     0
 70
    58
 90
        0
176
     1
 90
        2
176
     1
 90
        0
176
     1
 90
        0
176
     1
 40
0.6
176
     1
 40
30.0
176
     1
 62
     7
420
 16777215
176
     1
 90
        1
176
     1
 90
        4
176
     1
 62
     7
176
     1
 62
   257
176
     1
 90
        1
176
     1
 90
        1
176
     1
 40
1.0
176
     1
 90
        0
176
     1
 62
   257
176
     1
 40
1.0
176
     1
 90
        1
176
     1
 90
        6
176
     1
 90
        2
176
     1
 62
     7
176
     1
 90
        5
176
     1
 90
        0
176
     1
 90
        0
176
     1
290
     0
176
     1
 90
        1
176
     1
 40
0.0
176
     1
 90
        0
176
     1
290
     1
176
     1
290
     1
176
     1
290
     0
176
     1
290
     0
176
     1
290
     0
176
     1
290
     0
176
     1
290
     0
176
     1
290
     0
176
     1
290
     0
176
     1
 90
       50
176
     1
 40
0.0
176
     1
 40
1.0
176
     1
 90
        0
176
     1
 62
    18
420
        0
176
     1
 90
       50
176
     1
 90
        3
176
     1
 62
     5
420
      255
176
     1
290
     0
176
     1
 90
       50
176
     1
 90
       50
176
     1
 90
       50
176
     1
290
     0
176
     1
 90
       50
176
     1
 62
   256
176
     0
 40
1.0
176
     0
 90
        2
176
     1
  1
strokes_ogs.tif
176
     1
290
     0
176
     1
 40
1.0
176
     1
 40
1.0
176
     1
  0
VISUALSTYLE
  5
32
102
{ACAD_REACTORS
330
2A
102
}
330
2A
100
AcDbVisualStyle
  2
Basic
 70
     7
177
     3
291
     1
 70
    58
 90
        1
176
     1
 90
        0
176
     1
 90
        1
176
     1
 90
        0
176
     1
 40
0.6
176
     1
 40
30.0
176
     1
 62
     7
420
 16777215
176
     1
 90
        0
176
     1
 90
        4
176
     1
 62
     7
176
     1
 62
   257
176
     1
 90
        1
176
     1
 90
        1
176
     1
 40
1.0
176
     1
 90
        8
176
     1
 62
     7
176
     1
 40
1.0
176
     1
 90
        1
176
     1
 90
        6
176
     1
 90
        2
176
     1
 62
     7
176
     1
 90
        5
176
     1
 90
        0
176
     1
 90
        0
176
     1
290
     0
176
     1
 90
        1
176
     1
 40
0.0
176
     1
 90
        0
176
     1
290
     0
176
     1
290
     1
176
     1
290
     1
176
     1
290
     0
176
     1
290
     0
176
     1
290
     0
176
     1
290
     0
176
     1
290
     0
176
     1
290
     0
176
     1
 90
       50
176
     1
 40
0.0
176
     1
 40
1.0
176
     1
 90
        0
176
     1
 62
    18
420
        0
176
     1
 90
       50
176
     1
 90
        3
176
     1
 62
     5
420
      255
176
     1
290
     0
176
     1
 90
       50
176
     1
 90
       50
176
     1
 90
       50
176
     1
290
     0
176
     1
 90
       50
176
     1
 62
   256
176
     0
 40
1.0
176
     0
 90
        2
176
     1
  1
strokes_ogs.tif
176
     1
290
     0
176
     1
 40
1.0
176
     1
 40
1.0
176
     1
  0
VISUALSTYLE
  5
36
102
{ACAD_REACTORS
330
2A
102
}
330
2A
100
AcDbVisualStyle
  2
Brighten
 70
    12
177
     3
291
     1
 70
    58
 90
        2
176
     1
 90
        2
176
     1
 90
        0
176
     1
 90
        0
176
     1
 40
0.6
176
     1
 40
30.0
176
     1
 62
     7
420
 16777215
176
     1
 90
        1
176
     1
 90
        4
176
     1
 62
     7
176
     1
 62
   257
176
     1
 90
        1
176
     1
 90
        1
176
     1
 40
1.0
176
     1
 90
        8
176
     1
 62
     7
176
     1
 40
1.0
176
     1
 90
        1
176
     1
 90
        6
176
     1
 90
        2
176
     1
 62
     7
176
     1
 90
        5
176
     1
 90
        0
176
     1
 90
        0
176
     1
290
     0
176
     1
 90
        1
176
     1
 40
50.0
176
     1
 90
        0
176
     1
290
     0
176
     1
290
     1
176
     1
290
     1
176
     1
290
     0
176
     1
290
     0
176
     1
290
     0
176
     1
290
     0
176
     1
290
     0
176
     1
290
     0
176
     1
 90
       50
176
     1
 40
0.0
176
     1
 40
1.0
176
     1
 90
        0
176
     1
 62
    18
420
        0
176
     1
 90
       50
176
     1
 90
        3
176
     1
 62
     5
420
      255
176
     1
290
     0
176
     1
 90
       50
176
     1
 90
       50
176
     1
 90
       50
176
     1
290
     0
176
     1
 90
       50
176
     1
 62
   256
176
     0
 40
1.0
176
     0
 90
        2
176
     1
  1
strokes_ogs.tif
176
     1
290
     0
176
     1
 40
1.0
176
     1
 40
1.0
176
     1
  0
VISUALSTYLE
  5
3A
102
{ACAD_REACTORS
330
2A
102
}
330
2A
100
AcDbVisualStyle
  2
ColorChange
 70
    16
177
     3
291
     1
 70
    58
 90
        2
176
     1
 90
        2
176
     1
 90
        3
176
     1
 90
        0
176
     1
 40
0.6
176
     1
 40
30.0
176
     1
 62
     8
420
  8421504
176
     1
 90
        1
176
     1
 90
        4
176
     1
 62
     7
176
     1
 62
   257
176
     1
 90
        1
176
     1
 90
        1
176
     1
 40
1.0
176
     1
 90
        8
176
     1
 62
     8
420
  8421504
176
     1
 40
1.0
176
     1
 90
        1
176
     1
 90
        6
176
     1
 90
        2
176
     1
 62
     7
176
     1
 90
        5
176
     1
 90
        0
176
     1
 90
        0
176
     1
290
     0
176
     1
 90
        1
176
     1
 40
0.0
176
     1
 90
        0
176
     1
290
     0
176
     1
290
     1
176
     1
290
     1
176
     1
290
     0
176
     1
290
     0
176
     1
290
     0
176
     1
290
     0
176
     1
290
     0
176
     1
290
     0
176
     1
 90
       50
176
     1
 40
0.0
176
     1
 40
1.0
176
     1
 90
        0
176
     1
 62
    18
420
        0
176
     1
 90
       50
176
     1
 90
        3
176
     1
 62
     5
420
      255
176
     1
290
     0
176
     1
 90
       50
176
     1
 90
       50
176
     1
 90
       50
176
     1
290
     0
176
     1
 90
       50
176
     1
 62
   256
176
     0
 40
1.0
176
     0
 90
        2
176
     1
  1
strokes_ogs.tif
176
     1
290
     0
176
     1
 40
1.0
176
     1
 40
1.0
176
     1
  0
VISUALSTYLE
  5
34
102
{ACAD_REACTORS
330
2A
102
}
330
2A
100
AcDbVisualStyle
  2
Conceptual
 70
     9
177
     3
291
     0
 70
    58
 90
        3
176
     1
 90
        2
176
     1
 90
        0
176
     1
 90
        0
176
     1
 40
0.6
176
     1
 40
30.0
176
     1
 62
     7
420
 16777215
176
     1
 90
        2
176
     1
 90
        2
176
     1
 62
     7
176
     1
 62
   257
176
     1
 90
        1
176
     1
 90
        1
176
     1
 40
179.0
176
     1
 90
        8
176
     1
 62
     7
176
     1
 40
1.0
176
     1
 90
        1
176
     1
 90
        6
176
     1
 90
        2
176
     1
 62
     7
176
     1
 90
        3
176
     1
 90
        0
176
     1
 90
        0
176
     1
290
     0
176
     1
 90
        1
176
     1
 40
0.0
176
     1
 90
        0
176
     1
290
     0
176
     1
290
     1
176
     1
290
     1
176
     1
290
     0
176
     1
290
     0
176
     1
290
     0
176
     1
290
     0
176
     1
290
     0
176
     1
290
     0
176
     1
 90
       50
176
     1
 40
0.0
176
     1
 40
1.0
176
     1
 90
        0
176
     1
 62
    18
420
        0
176
     1
 90
       50
176
     1
 90
        3
176
     1
 62
     5
420
      255
176
     1
290
     0
176
     1
 90
       50
176
     1
 90
       50
176
     1
 90
       50
176
     1
290
     0
176
     1
 90
       50
176
     1
 62
   256
176
     0
 40
1.0
176
     0
 90
        2
176
     1
  1
strokes_ogs.tif
176
     1
290
     0
176
     1
 40
1.0
176
     1
 40
1.0
176
     1
  0
VISUALSTYLE
  5
35
102
{ACAD_REACTORS
330
2A
102
}
330
2A
100
AcDbVisualStyle
  2
Dim
 70
    11
177
     3
291
     1
 70
    58
 90
        2
176
     1
 90
        2
176
     1
 90
        0
176
     1
 90
        0
176
     1
 40
0.6
176
     1
 40
30.0
176
     1
 62
     7
420
 16777215
176
     1
 90
        1
176
     1
 90
        4
176
     1
 62
     7
176
     1
 62
   257
176
     1
 90
        1
176
     1
 90
        1
176
     1
 40
1.0
176
     1
 90
        8
176
     1
 62
     7
176
     1
 40
1.0
176
     1
 90
        1
176
     1
 90
        6
176
     1
 90
        2
176
     1
 62
     7
176
     1
 90
        5
176
     1
 90
        0
176
     1
 90
        0
176
     1
290
     0
176
     1
 90
        1
176
     1
 40
-50.0
176
     1
 90
        0
176
     1
290
     0
176
     1
290
     1
176
     1
290
     1
176
     1
290
     0
176
     1
290
     0
176
     1
290
     0
176
     1
290
     0
176
     1
290
     0
176
     1
290
     0
176
     1
 90
       50
176
     1
 40
0.0
176
     1
 40
1.0
176
     1
 90
        0
176
     1
 62
    18
420
        0
176
     1
 90
       50
176
     1
 90
        3
176
     1
 62
     5
420
      255
176
     1
290
     0
176
     1
 90
       50
176
     1
 90
       50
176
     1
 90
       50
176
     1
290
     0
176
     1
 90
       50
176
     1
 62
   256
176
     0
 40
1.0
176
     0
 90
        2
176
     1
  1
strokes_ogs.tif
176
     1
290
     0
176
     1
 40
1.0
176
     1
 40
1.0
176
     1
  0
VISUALSTYLE
  5
3D
102
{ACAD_REACTORS
330
2A
102
}
330
2A
100
AcDbVisualStyle
  2
EdgeColorOff
 70
    22
177
     3
291
     1
 70
    58
 90
        2
176
     0
 90
        2
176
     0
 90
        0
176
     0
 90
        0
176
     0
 40
0.6
176
     0
 40
30.0
176
     0
 62
     7
420
 16777215
176
     0
 90
        1
176
     0
 90
        4
176
     0
 62
     7
176
     0
 62
   257
176
     0
 90
        1
176
     0
 90
        1
176
     0
 40
1.0
176
     0
 90
        8
176
     2
 62
     7
176
     0
 40
1.0
176
     0
 90
        1
176
     0
 90
        6
176
     0
 90
        2
176
     0
 62
     7
176
     0
 90
        5
176
     0
 90
        0
176
     0
 90
        0
176
     0
290
     0
176
     0
 90
        1
176
     0
 40
0.0
176
     0
 90
        0
176
     0
290
     0
176
     0
290
     1
176
     0
290
     1
176
     0
290
     0
176
     0
290
     0
176
     0
290
     0
176
     0
290
     0
176
     0
290
     0
176
     0
290
     0
176
     0
 90
       50
176
     0
 40
0.0
176
     0
 40
1.0
176
     0
 90
        0
176
     0
 62
    18
420
        0
176
     0
 90
       50
176
     0
 90
        3
176
     0
 62
     5
420
      255
176
     0
290
     0
176
     0
 90
       50
176
     0
 90
       50
176
     0
 90
       50
176
     0
290
     0
176
     0
 90
       50
176
     0
 62
   256
176
     0
 40
1.0
176
     0
 90
        2
176
     0
  1
strokes_ogs.tif
176
     0
290
     0
176
     0
 40
1.0
176
     0
 40
1.0
176
     0
  0
VISUALSTYLE
  5
39
102
{ACAD_REACTORS
330
2A
102
}
330
2A
100
AcDbVisualStyle
  2
Facepattern
 70
    15
177
     3
291
     1
 70
    58
 90
        2
176
     1
 90
        2
176
     1
 90
        0
176
     1
 90
        0
176
     1
 40
0.6
176
     1
 40
30.0
176
     1
 62
     7
420
 16777215
176
     1
 90
        1
176
     1
 90
        4
176
     1
 62
     7
176
     1
 62
   257
176
     1
 90
        1
176
     1
 90
        1
176
     1
 40
1.0
176
     1
 90
        8
176
     1
 62
     7
176
     1
 40
1.0
176
     1
 90
        1
176
     1
 90
        6
176
     1
 90
        2
176
     1
 62
     7
176
     1
 90
        5
176
     1
 90
        0
176
     1
 90
        0
176
     1
290
     0
176
     1
 90
        1
176
     1
 40
0.0
176
     1
 90
        0
176
     1
290
     0
176
     1
290
     1
176
     1
290
     1
176
     1
290
     0
176
     1
290
     0
176
     1
290
     0
176
     1
290
     0
176
     1
290
     0
176
     1
290
     0
176
     1
 90
       50
176
     1
 40
0.0
176
     1
 40
1.0
176
     1
 90
        0
176
     1
 62
    18
420
        0
176
     1
 90
       50
176
     1
 90
        3
176
     1
 62
     5
420
      255
176
     1
290
     0
176
     1
 90
       50
176
     1
 90
       50
176
     1
 90
       50
176
     1
290
     0
176
     1
 90
       50
176
     1
 62
   256
176
     0
 40
1.0
176
     0
 90
        2
176
     1
  1
strokes_ogs.tif
176
     1
290
     0
176
     1
 40
1.0
176
     1
 40
1.0
176
     1
  0
VISUALSTYLE
  5
2B
102
{ACAD_REACTORS
330
2A
102
}
330
2A
100
AcDbVisualStyle
  2
Flat
 70
     0
177
     3
291
     1
 70
    58
 90
        2
176
     1
 90
        1
176
     1
 90
        1
176
     1
 90
        2
176
     1
 40
0.6
176
     1
 40
30.0
176
     1
 62
     7
420
 16777215
176
     1
 90
        0
176
     1
 90
        0
176
     1
 62
     7
176
     1
 62
   257
176
     1
 90
        1
176
     1
 90
        1
176
     1
 40
1.0
176
     1
 90
        8
176
     1
 62
     7
176
     1
 40
1.0
176
     1
 90
        1
176
     1
 90
        6
176
     1
 90
        2
176
     1
 62
     7
176
     1
 90
        5
176
     1
 90
        0
176
     1
 90
        0
176
     1
290
     0
176
     1
 90
       13
176
     1
 40
0.0
176
     1
 90
        0
176
     1
290
     0
176
     1
290
     1
176
     1
290
     1
176
     1
290
     0
176
     1
290
     0
176
     1
290
     0
176
     1
290
     0
176
     1
290
     0
176
     1
290
     0
176
     1
 90
       50
176
     1
 40
0.0
176
     1
 40
1.0
176
     1
 90
        0
176
     1
 62
    18
420
        0
176
     1
 90
       50
176
     1
 90
        3
176
     1
 62
     5
420
      255
176
     1
290
     0
176
     1
 90
       50
176
     1
 90
       50
176
     1
 90
       50
176
     1
290
     0
176
     1
 90
       50
176
     1
 62
   256
176
     0
 40
1.0
176
     0
 90
        2
176
     1
  1
strokes_ogs.tif
176
     1
290
     0
176
     1
 40
1.0
176
     1
 40
1.0
176
     1
  0
VISUALSTYLE
  5
2C
102
{ACAD_REACTORS
330
2A
102
}
330
2A
100
AcDbVisualStyle
  2
FlatWithEdges
 70
     1
177
     3
291
     1
 70
    58
 90
        2
176
     1
 90
        1
176
     1
 90
        1
176
     1
 90
        2
176
     1
 40
0.6
176
     1
 40
30.0
176
     1
 62
     7
420
 16777215
176
     1
 90
        1
176
     1
 90
        0
176
     1
 62
     7
176
     1
 62
   257
176
     1
 90
        1
176
     1
 90
        1
176
     1
 40
1.0
176
     1
 90
        0
176
     1
 62
   257
176
     1
 40
1.0
176
     1
 90
        1
176
     1
 90
        6
176
     1
 90
        2
176
     1
 62
     7
176
     1
 90
        5
176
     1
 90
        0
176
     1
 90
        0
176
     1
290
     0
176
     1
 90
       13
176
     1
 40
0.0
176
     1
 90
        0
176
     1
290
     0
176
     1
290
     1
176
     1
290
     1
176
     1
290
     0
176
     1
290
     0
176
     1
290
     0
176
     1
290
     0
176
     1
290
     0
176
     1
290
     0
176
     1
 90
       50
176
     1
 40
0.0
176
     1
 40
1.0
176
     1
 90
        0
176
     1
 62
    18
420
        0
176
     1
 90
       50
176
     1
 90
        3
176
     1
 62
     5
420
      255
176
     1
290
     0
176
     1
 90
       50
176
     1
 90
       50
176
     1
 90
       50
176
     1
290
     0
176
     1
 90
       50
176
     1
 62
   256
176
     0
 40
1.0
176
     0
 90
        2
176
     1
  1
strokes_ogs.tif
176
     1
290
     0
176
     1
 40
1.0
176
     1
 40
1.0
176
     1
  0
VISUALSTYLE
  5
2D
102
{ACAD_REACTORS
330
2A
102
}
330
2A
100
AcDbVisualStyle
  2
Gouraud
 70
     2
177
     3
291
     1
 70
    58
 90
        2
176
     1
 90
        2
176
     1
 90
        1
176
     1
 90
        2
176
     1
 40
0.6
176
     1
 40
30.0
176
     1
 62
     7
420
 16777215
176
     1
 90
        0
176
     1
 90
        0
176
     1
 62
     7
176
     1
 62
   257
176
     1
 90
        1
176
     1
 90
        1
176
     1
 40
1.0
176
     1
 90
        0
176
     1
 62
     7
176
     1
 40
1.0
176
     1
 90
        1
176
     1
 90
        6
176
     1
 90
        2
176
     1
 62
     7
176
     1
 90
        5
176
     1
 90
        0
176
     1
 90
        0
176
     1
290
     0
176
     1
 90
       13
176
     1
 40
0.0
176
     1
 90
        0
176
     1
290
     0
176
     1
290
     1
176
     1
290
     1
176
     1
290
     0
176
     1
290
     0
176
     1
290
     0
176
     1
290
     0
176
     1
290
     0
176
     1
290
     0
176
     1
 90
       50
176
     1
 40
0.0
176
     1
 40
1.0
176
     1
 90
        0
176
     1
 62
    18
420
        0
176
     1
 90
       50
176
     1
 90
        3
176
     1
 62
     5
420
      255
176
     1
290
     0
176
     1
 90
       50
176
     1
 90
       50
176
     1
 90
       50
176
     1
290
     0
176
     1
 90
       50
176
     1
 62
   256
176
     0
 40
1.0
176
     0
 90
        2
176
     1
  1
strokes_ogs.tif
176
     1
290
     0
176
     1
 40
1.0
176
     1
 40
1.0
176
     1
  0
VISUALSTYLE
  5
2E
102
{ACAD_REACTORS
330
2A
102
}
330
2A
100
AcDbVisualStyle
  2
GouraudWithEdges
 70
     3
177
     3
291
     1
 70
    58
 90
        2
176
     1
 90
        2
176
     1
 90
        1
176
     1
 90
        2
176
     1
 40
0.6
176
     1
 40
30.0
176
     1
 62
     7
420
 16777215
176
     1
 90
        1
176
     1
 90
        0
176
     1
 62
     7
176
     1
 62
   257
176
     1
 90
        1
176
     1
 90
        1
176
     1
 40
1.0
176
     1
 90
        0
176
     1
 62
   257
176
     1
 40
1.0
176
     1
 90
        1
176
     1
 90
        6
176
     1
 90
        2
176
     1
 62
     7
176
     1
 90
        5
176
     1
 90
        0
176
     1
 90
        0
176
     1
290
     0
176
     1
 90
       13
176
     1
 40
0.0
176
     1
 90
        0
176
     1
290
     0
176
     1
290
     1
176
     1
290
     1
176
     1
290
     0
176
     1
290
     0
176
     1
290
     0
176
     1
290
     0
176
     1
290
     0
176
     1
290
     0
176
     1
 90
       50
176
     1
 40
0.0
176
     1
 40
1.0
176
     1
 90
        0
176
     1
 62
    18
420
        0
176
     1
 90
       50
176
     1
 90
        3
176
     1
 62
     5
420
      255
176
     1
290
     0
176
     1
 90
       50
176
     1
 90
       50
176
     1
 90
       50
176
     1
290
     0
176
     1
 90
       50
176
     1
 62
   256
176
     0
 40
1.0
176
     0
 90
        2
176
     1
  1
strokes_ogs.tif
176
     1
290
     0
176
     1
 40
1.0
176
     1
 40
1.0
176
     1
  0
VISUALSTYLE
  5
31
102
{ACAD_REACTORS
330
2A
102
}
330
2A
100
AcDbVisualStyle
  2
Hidden
 70
     6
177
     3
291
     0
 70
    58
 90
        1
176
     1
 90
        2
176
     1
 90
        2
176
     1
 90
        0
176
     1
 40
0.6
176
     1
 40
30.0
176
     1
 62
     7
420
 16777215
176
     1
 90
        2
176
     1
 90
        2
176
     1
 62
     7
176
     1
 62
   257
176
     1
 90
        2
176
     1
 90
        1
176
     1
 40
40.0
176
     1
 90
        0
176
     1
 62
   257
176
     1
 40
1.0
176
     1
 90
        1
176
     1
 90
        6
176
     1
 90
        2
176
     1
 62
     7
176
     1
 90
        3
176
     1
 90
        0
176
     1
 90
        0
176
     1
290
     0
176
     1
 90
        1
176
     1
 40
0.0
176
     1
 90
        0
176
     1
290
     0
176
     1
290
     1
176
     1
290
     1
176
     1
290
     0
176
     1
290
     0
176
     1
290
     0
176
     1
290
     0
176
     1
290
     0
176
     1
290
     0
176
     1
 90
       50
176
     1
 40
0.0
176
     1
 40
1.0
176
     1
 90
        0
176
     1
 62
    18
420
        0
176
     1
 90
       50
176
     1
 90
        3
176
     1
 62
     5
420
      255
176
     1
290
     0
176
     1
 90
       50
176
     1
 90
       50
176
     1
 90
       50
176
     1
290
     0
176
     1
 90
       50
176
     1
 62
   256
176
     0
 40
1.0
176
     0
 90
        2
176
     1
  1
strokes_ogs.tif
176
     1
290
     0
176
     1
 40
1.0
176
     1
 40
1.0
176
     1
  0
VISUALSTYLE
  5
3B
102
{ACAD_REACTORS
330
2A
102
}
330
2A
100
AcDbVisualStyle
  2
JitterOff
 70
    20
177
     3
291
     1
 70
    58
 90
        2
176
     0
 90
        2
176
     0
 90
        0
176
     0
 90
        0
176
     0
 40
0.6
176
     0
 40
30.0
176
     0
 62
     7
420
 16777215
176
     0
 90
        1
176
     0
 90
        4
176
     0
 62
     7
176
     0
 62
   257
176
     0
 90
        1
176
     0
 90
        1
176
     0
 40
1.0
176
     0
 90
       10
176
     2
 62
     7
176
     0
 40
1.0
176
     0
 90
        1
176
     0
 90
        6
176
     0
 90
        2
176
     0
 62
     7
176
     0
 90
        5
176
     0
 90
        0
176
     0
 90
        0
176
     0
290
     0
176
     0
 90
        1
176
     0
 40
0.0
176
     0
 90
        0
176
     0
290
     0
176
     0
290
     1
176
     0
290
     1
176
     0
290
     0
176
     0
290
     0
176
     0
290
     0
176
     0
290
     0
176
     0
290
     0
176
     0
290
     0
176
     0
 90
       50
176
     0
 40
0.0
176
     0
 40
1.0
176
     0
 90
        0
176
     0
 62
    18
420
        0
176
     0
 90
       50
176
     0
 90
        3
176
     0
 62
     5
420
      255
176
     0
290
     0
176
     0
 90
       50
176
     0
 90
       50
176
     0
 90
       50
176
     0
290
     0
176
     0
 90
       50
176
     0
 62
   256
176
     0
 40
1.0
176
     0
 90
        2
176
     0
  1
strokes_ogs.tif
176
     0
290
     0
176
     0
 40
1.0
176
     0
 40
1.0
176
     0
  0
VISUALSTYLE
  5
38
102
{ACAD_REACTORS
330
2A
102
}
330
2A
100
AcDbVisualStyle
  2
Linepattern
 70
    14
177
     3
291
     1
 70
    58
 90
        2
176
     1
 90
        2
176
     1
 90
        0
176
     1
 90
        0
176
     1
 40
0.6
176
     1
 40
30.0
176
     1
 62
     7
420
 16777215
176
     1
 90
        1
176
     1
 90
        4
176
     1
 62
     7
176
     1
 62
   257
176
     1
 90
        7
176
     1
 90
        7
176
     1
 40
1.0
176
     1
 90
        8
176
     1
 62
     7
176
     1
 40
1.0
176
     1
 90
        1
176
     1
 90
        6
176
     1
 90
        2
176
     1
 62
     7
176
     1
 90
        5
176
     1
 90
        0
176
     1
 90
        0
176
     1
290
     0
176
     1
 90
        1
176
     1
 40
0.0
176
     1
 90
        0
176
     1
290
     0
176
     1
290
     1
176
     1
290
     1
176
     1
290
     0
176
     1
290
     0
176
     1
290
     0
176
     1
290
     0
176
     1
290
     0
176
     1
290
     0
176
     1
 90
       50
176
     1
 40
0.0
176
     1
 40
1.0
176
     1
 90
        0
176
     1
 62
    18
420
        0
176
     1
 90
       50
176
     1
 90
        3
176
     1
 62
     5
420
      255
176
     1
290
     0
176
     1
 90
       50
176
     1
 90
       50
176
     1
 90
       50
176
     1
290
     0
176
     1
 90
       50
176
     1
 62
   256
176
     0
 40
1.0
176
     0
 90
        2
176
     1
  1
strokes_ogs.tif
176
     1
290
     0
176
     1
 40
1.0
176
     1
 40
1.0
176
     1
  0
VISUALSTYLE
  5
3C
102
{ACAD_REACTORS
330
2A
102
}
330
2A
100
AcDbVisualStyle
  2
OverhangOff
 70
    21
177
     3
291
     1
 70
    58
 90
        2
176
     0
 90
        2
176
     0
 90
        0
176
     0
 90
        0
176
     0
 40
0.6
176
     0
 40
30.0
176
     0
 62
     7
420
 16777215
176
     0
 90
        1
176
     0
 90
        4
176
     0
 62
     7
176
     0
 62
   257
176
     0
 90
        1
176
     0
 90
        1
176
     0
 40
1.0
176
     0
 90
        9
176
     2
 62
     7
176
     0
 40
1.0
176
     0
 90
        1
176
     0
 90
        6
176
     0
 90
        2
176
     0
 62
     7
176
     0
 90
        5
176
     0
 90
        0
176
     0
 90
        0
176
     0
290
     0
176
     0
 90
        1
176
     0
 40
0.0
176
     0
 90
        0
176
     0
290
     0
176
     0
290
     1
176
     0
290
     1
176
     0
290
     0
176
     0
290
     0
176
     0
290
     0
176
     0
290
     0
176
     0
290
     0
176
     0
290
     0
176
     0
 90
       50
176
     0
 40
0.0
176
     0
 40
1.0
176
     0
 90
        0
176
     0
 62
    18
420
        0
176
     0
 90
       50
176
     0
 90
        3
176
     0
 62
     5
420
      255
176
     0
290
     0
176
     0
 90
       50
176
     0
 90
       50
176
     0
 90
       50
176
     0
290
     0
176
     0
 90
       50
176
     0
 62
   256
176
     0
 40
1.0
176
     0
 90
        2
176
     0
  1
strokes_ogs.tif
176
     0
290
     0
176
     0
 40
1.0
176
     0
 40
1.0
176
     0
  0
VISUALSTYLE
  5
33
102
{ACAD_REACTORS
330
2A
102
}
330
2A
100
AcDbVisualStyle
  2
Realistic
 70
     8
177
     3
291
     0
 70
    58
 90
        2
176
     1
 90
        3
176
     1
 90
        0
176
     1
 90
        2
176
     1
 40
0.6
176
     1
 40
30.0
176
     1
 62
     7
420
 16777215
176
     1
 90
        0
176
     1
 90
        0
176
     1
 62
     7
176
     1
 62
   257
176
     1
 90
        1
176
     1
 90
        1
176
     1
 40
1.0
176
     1
 90
        8
176
     1
 62
   257
176
     1
 40
1.0
176
     1
 90
        1
176
     1
 90
        6
176
     1
 90
        2
176
     1
 62
     7
176
     1
 90
        3
176
     1
 90
        0
176
     1
 90
        0
176
     1
290
     0
176
     1
 90
       13
176
     1
 40
0.0
176
     1
 90
        0
176
     1
290
     0
176
     1
290
     1
176
     1
290
     1
176
     1
290
     0
176
     1
290
     0
176
     1
290
     0
176
     1
290
     0
176
     1
290
     0
176
     1
290
     0
176
     1
 90
       50
176
     1
 40
0.0
176
     1
 40
1.0
176
     1
 90
        0
176
     1
 62
    18
420
        0
176
     1
 90
       50
176
     1
 90
        3
176
     1
 62
     5
420
      255
176
     1
290
     0
176
     1
 90
       50
176
     1
 90
       50
176
     1
 90
       50
176
     1
290
     0
176
     1
 90
       50
176
     1
 62
   256
176
     0
 40
1.0
176
     0
 90
        2
176
     1
  1
strokes_ogs.tif
176
     1
290
     0
176
     1
 40
1.0
176
     1
 40
1.0
176
     1
  0
VISUALSTYLE
  5
42
102
{ACAD_REACTORS
330
2A
102
}
330
2A
100
AcDbVisualStyle
  2
Shaded
 70
    27
177
     3
291
     0
 70
    58
 90
        2
176
     1
 90
        2
176
     1
 90
        1
176
     1
 90
        2
176
     1
 40
0.6
176
     1
 40
30.0
176
     1
 62
     7
420
 16777215
176
     1
 90
        0
176
     1
 90
        4
176
     1
 62
     7
176
     1
 62
   257
176
     1
 90
        1
176
     1
 90
        1
176
     1
 40
1.0
176
     1
 90
        8
176
     1
 62
   257
176
     1
 40
1.0
176
     1
 90
        1
176
     1
 90
        6
176
     1
 90
        2
176
     1
 62
     8
420
  7895160
176
     1
 90
        3
176
     1
 90
        0
176
     1
 90
        0
176
     1
290
     0
176
     1
 90
        5
176
     1
 40
0.0
176
     1
 90
        0
176
     1
290
     0
176
     1
290
     1
176
     1
290
     1
176
     1
290
     0
176
     1
290
     0
176
     1
290
     0
176
     1
290
     0
176
     1
290
     0
176
     1
290
     0
176
     1
 90
       50
176
     1
 40
0.0
176
     1
 40
1.0
176
     1
 90
        0
176
     1
 62
    18
420
        0
176
     1
 90
       50
176
     1
 90
        3
176
     1
 62
     5
420
      255
176
     1
290
     0
176
     1
 90
       50
176
     1
 90
       50
176
     1
 90
       50
176
     1
290
     0
176
     1
 90
       50
176
     1
 62
   256
176
     0
 40
1.0
176
     0
 90
        2
176
     1
  1
strokes_ogs.tif
176
     1
290
     0
176
     1
 40
1.0
176
     1
 40
1.0
176
     1
  0
VISUALSTYLE
  5
41
102
{ACAD_REACTORS
330
2A
102
}
330
2A
100
AcDbVisualStyle
  2
Shaded with edges
 70
    26
177
     3
291
     0
 70
    58
 90
        2
176
     1
 90
        2
176
     1
 90
        1
176
     1
 90
        2
176
     1
 40
0.6
176
     1
 40
30.0
176
     1
 62
     7
420
 16777215
176
     1
 90
        1
176
     1
 90
       10
176
     1
 62
     7
176
     1
 62
   257
176
     1
 90
        2
176
     1
 90
        1
176
     1
 40
1.0
176
     1
 90
        8
176
     1
 62
   257
176
     1
 40
1.0
176
     1
 90
        1
176
     1
 90
        6
176
     1
 90
        2
176
     1
 62
     7
176
     1
 90
        3
176
     1
 90
        0
176
     1
 90
        0
176
     1
290
     0
176
     1
 90
        5
176
     1
 40
0.0
176
     1
 90
        0
176
     1
290
     0
176
     1
290
     1
176
     1
290
     1
176
     1
290
     0
176
     1
290
     0
176
     1
290
     0
176
     1
290
     0
176
     1
290
     0
176
     1
290
     0
176
     1
 90
       50
176
     1
 40
0.0
176
     1
 40
1.0
176
     1
 90
        0
176
     1
 62
    18
420
        0
176
     1
 90
       50
176
     1
 90
        3
176
     1
 62
     5
420
      255
176
     1
290
     0
176
     1
 90
       50
176
     1
 90
       50
176
     1
 90
       50
176
     1
290
     0
176
     1
 90
       50
176
     1
 62
   256
176
     0
 40
1.0
176
     0
 90
        2
176
     1
  1
strokes_ogs.tif
176
     1
290
     0
176
     1
 40
1.0
176
     1
 40
1.0
176
     1
  0
VISUALSTYLE
  5
3E
102
{ACAD_REACTORS
330
2A
102
}
330
2A
100
AcDbVisualStyle
  2
Shades of Gray
 70
    23
177
     3
291
     0
 70
    58
 90
        2
176
     1
 90
        2
176
     1
 90
        3
176
     1
 90
        0
176
     1
 40
0.6
176
     1
 40
30.0
176
     1
 62
     7
420
 16777215
176
     1
 90
        2
176
     1
 90
        2
176
     1
 62
     7
176
     1
 62
     7
176
     1
 90
        1
176
     1
 90
        1
176
     1
 40
40.0
176
     1
 90
        8
176
     1
 62
     7
176
     1
 40
1.0
176
     1
 90
        1
176
     1
 90
        6
176
     1
 90
        2
176
     1
 62
     7
176
     1
 90
        3
176
     1
 90
        0
176
     1
 90
        0
176
     1
290
     0
176
     1
 90
        1
176
     1
 40
0.0
176
     1
 90
        0
176
     1
290
     0
176
     1
290
     1
176
     1
290
     1
176
     1
290
     0
176
     1
290
     0
176
     1
290
     0
176
     1
290
     0
176
     1
290
     0
176
     1
290
     0
176
     1
 90
       50
176
     1
 40
0.0
176
     1
 40
1.0
176
     1
 90
        0
176
     1
 62
    18
420
        0
176
     1
 90
       50
176
     1
 90
        3
176
     1
 62
     5
420
      255
176
     1
290
     0
176
     1
 90
       50
176
     1
 90
       50
176
     1
 90
       50
176
     1
290
     0
176
     1
 90
       50
176
     1
 62
   256
176
     0
 40
1.0
176
     0
 90
        2
176
     1
  1
strokes_ogs.tif
176
     1
290
     0
176
     1
 40
1.0
176
     1
 40
1.0
176
     1
  0
VISUALSTYLE
  5
3F
102
{ACAD_REACTORS
330
2A
102
}
330
2A
100
AcDbVisualStyle
  2
Sketchy
 70
    24
177
     3
291
     0
 70
    58
 90
        1
176
     1
 90
        2
176
     1
 90
        2
176
     1
 90
        0
176
     1
 40
0.6
176
     1
 40
30.0
176
     1
 62
     7
420
 16777215
176
     1
 90
        2
176
     1
 90
        2
176
     1
 62
     7
176
     1
 62
     7
176
     1
 90
        1
176
     1
 90
        1
176
     1
 40
40.0
176
     1
 90
       11
176
     1
 62
     7
176
     1
 40
1.0
176
     1
 90
        1
176
     1
 90
        6
176
     1
 90
        2
176
     1
 62
     7
176
     1
 90
        6
176
     1
 90
        0
176
     1
 90
        0
176
     1
290
     0
176
     1
 90
        1
176
     1
 40
0.0
176
     1
 90
        0
176
     1
290
     0
176
     1
290
     1
176
     1
290
     1
176
     1
290
     0
176
     1
290
     0
176
     1
290
     0
176
     1
290
     0
176
     1
290
     0
176
     1
290
     0
176
     1
 90
       50
176
     1
 40
0.0
176
     1
 40
1.0
176
     1
 90
        0
176
     1
 62
    18
420
        0
176
     1
 90
       50
176
     1
 90
        3
176
     1
 62
     5
420
      255
176
     1
290
     0
176
     1
 90
       50
176
     1
 90
       50
176
     1
 90
       50
176
     1
290
     0
176
     1
 90
       50
176
     1
 62
   256
176
     0
 40
1.0
176
     0
 90
        2
176
     1
  1
strokes_ogs.tif
176
     1
290
     0
176
     1
 40
1.0
176
     1
 40
1.0
176
     1
  0
VISUALSTYLE
  5
37
102
{ACAD_REACTORS
330
2A
102
}
330
2A
100
AcDbVisualStyle
  2
Thicken
 70
    13
177
     3
291
     1
 70
    58
 90
        2
176
     1
 90
        2
176
     1
 90
        0
176
     1
 90
        0
176
     1
 40
0.6
176
     1
 40
30.0
176
     1
 62
     7
420
 16777215
176
     1
 90
        1
176
     1
 90
        4
176
     1
 62
     7
176
     1
 62
   257
176
     1
 90
        1
176
     1
 90
        1
176
     1
 40
1.0
176
     1
 90
       12
176
     1
 62
     7
176
     1
 40
1.0
176
     1
 90
        1
176
     1
 90
        6
176
     1
 90
        2
176
     1
 62
     7
176
     1
 90
        5
176
     1
 90
        0
176
     1
 90
        0
176
     1
290
     0
176
     1
 90
        1
176
     1
 40
0.0
176
     1
 90
        0
176
     1
290
     0
176
     1
290
     1
176
     1
290
     1
176
     1
290
     0
176
     1
290
     0
176
     1
290
     0
176
     1
290
     0
176
     1
290
     0
176
     1
290
     0
176
     1
 90
       50
176
     1
 40
0.0
176
     1
 40
1.0
176
     1
 90
        0
176
     1
 62
    18
420
        0
176
     1
 90
       50
176
     1
 90
        3
176
     1
 62
     5
420
      255
176
     1
290
     0
176
     1
 90
       50
176
     1
 90
       50
176
     1
 90
       50
176
     1
290
     0
176
     1
 90
       50
176
     1
 62
   256
176
     0
 40
1.0
176
     0
 90
        2
176
     1
  1
strokes_ogs.tif
176
     1
290
     0
176
     1
 40
1.0
176
     1
 40
1.0
176
     1
  0
VISUALSTYLE
  5
30
102
{ACAD_REACTORS
330
2A
102
}
330
2A
100
AcDbVisualStyle
  2
Wireframe
 70
     5
177
     3
291
     0
 70
    58
 90
        0
176
     1
 90
        2
176
     1
 90
        0
176
     1
 90
        0
176
     1
 40
0.6
176
     1
 40
30.0
176
     1
 62
     7
420
 16777215
176
     1
 90
        1
176
     1
 90
        4
176
     1
 62
     7
176
     1
 62
   257
176
     1
 90
        1
176
     1
 90
        1
176
     1
 40
1.0
176
     1
 90
        0
176
     1
 62
   257
176
     1
 40
1.0
176
     1
 90
        1
176
     1
 90
        6
176
     1
 90
        2
176
     1
 62
     7
176
     1
 90
        3
176
     1
 90
        0
176
     1
 90
        0
176
     1
290
     0
176
     1
 90
        1
176
     1
 40
0.0
176
     1
 90
        0
176
     1
290
     0
176
     1
290
     1
176
     1
290
     1
176
     1
290
     0
176
     1
290
     0
176
     1
290
     0
176
     1
290
     0
176
     1
290
     0
176
     1
290
     0
176
     1
 90
       50
176
     1
 40
0.0
176
     1
 40
1.0
176
     1
 90
        0
176
     1
 62
    18
420
        0
176
     1
 90
       50
176
     1
 90
        3
176
     1
 62
     5
420
      255
176
     1
290
     0
176
     1
 90
       50
176
     1
 90
       50
176
     1
 90
       50
176
     1
290
     0
176
     1
 90
       50
176
     1
 62
   256
176
     0
 40
1.0
176
     0
 90
        2
176
     1
  1
strokes_ogs.tif
176
     1
290
     0
176
     1
 40
1.0
176
     1
 40
1.0
176
     1
  0
VISUALSTYLE
  5
40
102
{ACAD_REACTORS
330
2A
102
}
330
2A
100
AcDbVisualStyle
  2
X-Ray
 70
    25
177
     3
291
     0
 70
    58
 90
        2
176
     1
 90
        2
176
     1
 90
        1
176
     1
 90
        1
176
     1
 40
0.5
176
     1
 40
30.0
176
     1
 62
     7
420
 16777215
176
     1
 90
        1
176
     1
 90
        0
176
     1
 62
     7
176
     1
 62
   257
176
     1
 90
        1
176
     1
 90
        1
176
     1
 40
1.0
176
     1
 90
        8
176
     1
 62
     7
176
     1
 40
1.0
176
     1
 90
        1
176
     1
 90
        6
176
     1
 90
        2
176
     1
 62
     7
176
     1
 90
        3
176
     1
 90
        0
176
     1
 90
        0
176
     1
290
     0
176
     1
 90
       13
176
     1
 40
0.0
176
     1
 90
        0
176
     1
290
     0
176
     1
290
     1
176
     1
290
     1
176
     1
290
     0
176
     1
290
     0
176
     1
290
     0
176
     1
290
     0
176
     1
290
     0
176
     1
290
     0
176
     1
 90
       50
176
     1
 40
0.0
176
     1
 40
1.0
176
     1
 90
        0
176
     1
 62
    18
420
        0
176
     1
 90
       50
176
     1
 90
        3
176
     1
 62
     5
420
      255
176
     1
290
     0
176
     1
 90
       50
176
     1
 90
       50
176
     1
 90
       50
176
     1
290
     0
176
     1
 90
       50
176
     1
 62
   256
176
     0
 40
1.0
176
     0
 90
        2
176
     1
  1
strokes_ogs.tif
176
     1
290
     0
176
     1
 40
1.0
176
     1
 40
1.0
176
     1
  0
DICTIONARYVAR
  5
5B4
102
{ACAD_REACTORS
330
5B3
102
}
330
5B3
100
DictionaryVariables
280
     0
  1
1:1
  0
DICTIONARYVAR
  5
5BC
102
{ACAD_REACTORS
330
5B3
102
}
330
5B3
100
DictionaryVariables
280
     0
  1
3.500000
  0
DICTIONARYVAR
  5
5BD
102
{ACAD_REACTORS
330
5B3
102
}
330
5B3
100
DictionaryVariables
280
     0
  1
acadiso.lin
  0
DICTIONARYVAR
  5
5B9
102
{ACAD_REACTORS
330
5B3
102
}
330
5B3
100
DictionaryVariables
280
     0
  1
Standard
  0
DICTIONARYVAR
  5
5B8
102
{ACAD_REACTORS
330
5B3
102
}
330
5B3
100
DictionaryVariables
280
     0
  1
Standard
  0
DICTIONARY
  5
5B5
330
6A
100
AcDbDictionary
280
     1
281
     1
  3
ACAD_ROUNDTRIP_2008_TABLESTYLE_CELLSTYLEMAP
360
5B6
  0
CELLSTYLEMAP
  5
5B6
102
{ACAD_REACTORS
330
5B5
102
}
330
5B5
100
AcDbCellStyleMap
 90
        3
300
CELLSTYLE
  1
TABLEFORMAT_BEGIN
 90
        5
170
     1
 91
        0
 92
    32768
 62
   257
 93
        1
300
CONTENTFORMAT
  1
CONTENTFORMAT_BEGIN
 90
        0
 91
        0
 92
        4
 93
        0
300

 40
0.0
140
1.0
 94
        5
 62
     0
340
11
144
6.0
309
CONTENTFORMAT_END
171
     1
301
MARGIN
  1
CELLMARGIN_BEGIN
 40
1.5
 40
1.5
 40
1.5
 40
1.5
 40
1.5
 40
1.5
309
CELLMARGIN_END
 94
        6
 95
        1
302
GRIDFORMAT
  1
GRIDFORMAT_BEGIN
 90
        0
 91
        1
 62
     0
 92
       -2
340
14
 93
        0
 40
0.045
309
GRIDFORMAT_END
 95
        2
302
GRIDFORMAT
  1
GRIDFORMAT_BEGIN
 90
        0
 91
        1
 62
     0
 92
       -2
340
14
 93
        0
 40
0.045
309
GRIDFORMAT_END
 95
        4
302
GRIDFORMAT
  1
GRIDFORMAT_BEGIN
 90
        0
 91
        1
 62
     0
 92
       -2
340
14
 93
        0
 40
0.045
309
GRIDFORMAT_END
 95
        8
302
GRIDFORMAT
  1
GRIDFORMAT_BEGIN
 90
        0
 91
        1
 62
     0
 92
       -2
340
14
 93
        0
 40
0.045
309
GRIDFORMAT_END
 95
       16
302
GRIDFORMAT
  1
GRIDFORMAT_BEGIN
 90
        0
 91
        1
 62
     0
 92
       -2
340
14
 93
        0
 40
0.045
309
GRIDFORMAT_END
 95
       32
302
GRIDFORMAT
  1
GRIDFORMAT_BEGIN
 90
        0
 91
        1
 62
     0
 92
       -2
340
14
 93
        0
 40
0.045
309
GRIDFORMAT_END
309
TABLEFORMAT_END
  1
CELLSTYLE_BEGIN
 90
        1
 91
        1
300
_TITLE
309
CELLSTYLE_END
300
CELLSTYLE
  1
TABLEFORMAT_BEGIN
 90
        5
170
     1
 91
        0
 92
        0
 62
   257
 93
        1
300
CONTENTFORMAT
  1
CONTENTFORMAT_BEGIN
 90
        0
 91
        0
 92
        4
 93
        0
300

 40
0.0
140
1.0
 94
        5
 62
     0
340
11
144
4.5
309
CONTENTFORMAT_END
171
     1
301
MARGIN
  1
CELLMARGIN_BEGIN
 40
1.5
 40
1.5
 40
1.5
 40
1.5
 40
1.5
 40
1.5
309
CELLMARGIN_END
 94
        6
 95
        1
302
GRIDFORMAT
  1
GRIDFORMAT_BEGIN
 90
        0
 91
        1
 62
     0
 92
       -2
340
14
 93
        0
 40
0.045
309
GRIDFORMAT_END
 95
        2
302
GRIDFORMAT
  1
GRIDFORMAT_BEGIN
 90
        0
 91
        1
 62
     0
 92
       -2
340
14
 93
        0
 40
0.045
309
GRIDFORMAT_END
 95
        4
302
GRIDFORMAT
  1
GRIDFORMAT_BEGIN
 90
        0
 91
        1
 62
     0
 92
       -2
340
14
 93
        0
 40
0.045
309
GRIDFORMAT_END
 95
        8
302
GRIDFORMAT
  1
GRIDFORMAT_BEGIN
 90
        0
 91
        1
 62
     0
 92
       -2
340
14
 93
        0
 40
0.045
309
GRIDFORMAT_END
 95
       16
302
GRIDFORMAT
  1
GRIDFORMAT_BEGIN
 90
        0
 91
        1
 62
     0
 92
       -2
340
14
 93
        0
 40
0.045
309
GRIDFORMAT_END
 95
       32
302
GRIDFORMAT
  1
GRIDFORMAT_BEGIN
 90
        0
 91
        1
 62
     0
 92
       -2
340
14
 93
        0
 40
0.045
309
GRIDFORMAT_END
309
TABLEFORMAT_END
  1
CELLSTYLE_BEGIN
 90
        2
 91
        1
300
_HEADER
309
CELLSTYLE_END
300
CELLSTYLE
  1
TABLEFORMAT_BEGIN
 90
        5
170
     1
 91
        0
 92
        0
 62
   257
 93
        1
300
CONTENTFORMAT
  1
CONTENTFORMAT_BEGIN
 90
        0
 91
        0
 92
        4
 93
        0
300

 40
0.0
140
1.0
 94
        2
 62
     0
340
11
144
4.5
309
CONTENTFORMAT_END
171
     1
301
MARGIN
  1
CELLMARGIN_BEGIN
 40
1.5
 40
1.5
 40
1.5
 40
1.5
 40
1.5
 40
1.5
309
CELLMARGIN_END
 94
        6
 95
        1
302
GRIDFORMAT
  1
GRIDFORMAT_BEGIN
 90
        0
 91
        1
 62
     0
 92
       -2
340
14
 93
        0
 40
0.045
309
GRIDFORMAT_END
 95
        2
302
GRIDFORMAT
  1
GRIDFORMAT_BEGIN
 90
        0
 91
        1
 62
     0
 92
       -2
340
14
 93
        0
 40
0.045
309
GRIDFORMAT_END
 95
        4
302
GRIDFORMAT
  1
GRIDFORMAT_BEGIN
 90
        0
 91
        1
 62
     0
 92
       -2
340
14
 93
        0
 40
0.045
309
GRIDFORMAT_END
 95
        8
302
GRIDFORMAT
  1
GRIDFORMAT_BEGIN
 90
        0
 91
        1
 62
     0
 92
       -2
340
14
 93
        0
 40
0.045
309
GRIDFORMAT_END
 95
       16
302
GRIDFORMAT
  1
GRIDFORMAT_BEGIN
 90
        0
 91
        1
 62
     0
 92
       -2
340
14
 93
        0
 40
0.045
309
GRIDFORMAT_END
 95
       32
302
GRIDFORMAT
  1
GRIDFORMAT_BEGIN
 90
        0
 91
        1
 62
     0
 92
       -2
340
14
 93
        0
 40
0.045
309
GRIDFORMAT_END
309
TABLEFORMAT_END
  1
CELLSTYLE_BEGIN
 90
        3
 91
        2
300
_DATA
309
CELLSTYLE_END
  0
ENDSEC
  0
EOF
