  0
SECTION
  2
HEADER
  9
$ACADVER
  1
AC1015
  9
$ACADMAINTVER
 70
     6
  9
$DWGCODEPAGE
  3
ANSI_1250
  9
$INSBASE
 10
0.0
 20
0.0
 30
0.0
  9
$EXTMIN
 10
0.0
 20
0.0
 30
0.0
  9
$EXTMAX
 10
20000.0
 20
10000.0
 30
0.0
  9
$LIMMIN
 10
0.0
 20
0.0
  9
$LIMMAX
 10
20000.0
 20
10000.0
  9
$ORTHOMODE
 70
     0
  9
$REGENMODE
 70
     1
  9
$FILLMODE
 70
     1
  9
$QTEXTMODE
 70
     0
  9
$MIRRTEXT
 70
     1
  9
$LTSCALE
 40
1.0
  9
$ATTMODE
 70
     1
  9
$TEXTSIZE
 40
2.0
  9
$TRACEWID
 40
1.0
  9
$TEXTSTYLE
  7
Standard
  9
$CLAYER
  8
0
  9
$CELTYPE
  6
ByLayer
  9
$CECOLOR
 62
   256
  9
$CELTSCALE
 40
1.0
  9
$DISPSILH
 70
     0
  9
$DIMSCALE
 40
1.0
  9
$DIMASZ
 40
2.0
  9
$DIMEXO
 40
1.0
  9
$DIMDLI
 40
3.75
  9
$DIMRND
 40
0.0
  9
$DIMDLE
 40
0.0
  9
$DIMEXE
 40
1.0
  9
$DIMTP
 40
0.0
  9
$DIMTM
 40
0.0
  9
$DIMTXT
 40
2.0
  9
$DIMCEN
 40
2.5
  9
$DIMTSZ
 40
0.0
  9
$DIMTOL
 70
     0
  9
$DIMLIM
 70
     0
  9
$DIMTIH
 70
     1
  9
$DIMTOH
 70
     1
  9
$DIMSE1
 70
     0
  9
$DIMSE2
 70
     0
  9
$DIMTAD
 70
     1
  9
$DIMZIN
 70
     0
  9
$DIMBLK
  1

  9
$DIMASO
 70
     1
  9
$DIMSHO
 70
     1
  9
$DIMPOST
  1

  9
$DIMAPOST
  1

  9
$DIMALT
 70
     0
  9
$DIMALTD
 70
     3
  9
$DIMALTF
 40
0.0393700787
  9
$DIMLFAC
 40
1.0
  9
$DIMTOFL
 70
     1
  9
$DIMTVP
 40
0.0
  9
$DIMTIX
 70
     0
  9
$DIMSOXD
 70
     0
  9
$DIMSAH
 70
     0
  9
$DIMBLK1
  1

  9
$DIMBLK2
  1

  9
$DIMSTYLE
  2
ISO-25
  9
$DIMCLRD
 70
     0
  9
$DIMCLRE
 70
     0
  9
$DIMCLRT
 70
     0
  9
$DIMTFAC
 40
1.0
  9
$DIMGAP
 40
1.524
  9
$DIMJUST
 70
     0
  9
$DIMSD1
 70
     0
  9
$DIMSD2
 70
     0
  9
$DIMTOLJ
 70
     0
  9
$DIMTZIN
 70
     0
  9
$DIMALTZ
 70
     0
  9
$DIMALTTZ
 70
     0
  9
$DIMUPT
 70
     0
  9
$DIMDEC
 70
     2
  9
$DIMTDEC
 70
     0
  9
$DIMALTU
 70
     2
  9
$DIMALTTD
 70
     3
  9
$DIMTXSTY
  7
Standard
  9
$DIMAUNIT
 70
     0
  9
$DIMADEC
 70
     2
  9
$DIMALTRND
 40
0.0
  9
$DIMAZIN
 70
     0
  9
$DIMDSEP
 70
    44
  9
$DIMATFIT
 70
     3
  9
$DIMFRAC
 70
     0
  9
$DIMLDRBLK
  1

  9
$DIMLUNIT
 70
     2
  9
$DIMLWD
 70
    -2
  9
$DIMLWE
 70
    -2
  9
$DIMTMOVE
 70
     0
  9
$LUNITS
 70
     2
  9
$LUPREC
 70
     3
  9
$SKETCHINC
 40
1.0
  9
$FILLETRAD
 40
10.0
  9
$AUNITS
 70
     0
  9
$AUPREC
 70
     2
  9
$MENU
  1
.
  9
$ELEVATION
 40
0.0
  9
$PELEVATION
 40
0.0
  9
$THICKNESS
 40
0.0
  9
$LIMCHECK
 70
     0
  9
$CHAMFERA
 40
0.0
  9
$CHAMFERB
 40
0.0
  9
$CHAMFERC
 40
0.0
  9
$CHAMFERD
 40
0.0
  9
$SKPOLY
 70
     0
  9
$TDCREATE
 40
2459122.32538309
  9
$TDUCREATE
 40
2459122.242049757
  9
$TDUPDATE
 40
2459122.325383322
  9
$TDUUPDATE
 40
2459122.242049988
  9
$TDINDWG
 40
0.0000000116
  9
$TDUSRTIMER
 40
0.0000000116
  9
$USRTIMER
 70
     1
  9
$ANGBASE
 50
0.0
  9
$ANGDIR
 70
     0
  9
$PDMODE
 70
     0
  9
$PDSIZE
 40
-1.0
  9
$PLINEWID
 40
0.0
  9
$SPLFRAME
 70
     0
  9
$SPLINETYPE
 70
     6
  9
$SPLINESEGS
 70
     8
  9
$HANDSEED
  5
121
  9
$SURFTAB1
 70
     6
  9
$SURFTAB2
 70
     6
  9
$SURFTYPE
 70
     6
  9
$SURFU
 70
     6
  9
$SURFV
 70
     6
  9
$UCSBASE
  2

  9
$UCSNAME
  2

  9
$UCSORG
 10
0.0
 20
0.0
 30
0.0
  9
$UCSXDIR
 10
1.0
 20
0.0
 30
0.0
  9
$UCSYDIR
 10
0.0
 20
1.0
 30
0.0
  9
$UCSORTHOREF
  2

  9
$UCSORTHOVIEW
 70
     0
  9
$UCSORGTOP
 10
0.0
 20
0.0
 30
0.0
  9
$UCSORGBOTTOM
 10
0.0
 20
0.0
 30
0.0
  9
$UCSORGLEFT
 10
0.0
 20
0.0
 30
0.0
  9
$UCSORGRIGHT
 10
0.0
 20
0.0
 30
0.0
  9
$UCSORGFRONT
 10
0.0
 20
0.0
 30
0.0
  9
$UCSORGBACK
 10
0.0
 20
0.0
 30
0.0
  9
$PUCSBASE
  2

  9
$PUCSNAME
  2

  9
$PUCSORG
 10
0.0
 20
0.0
 30
0.0
  9
$PUCSXDIR
 10
1.0
 20
0.0
 30
0.0
  9
$PUCSYDIR
 10
0.0
 20
1.0
 30
0.0
  9
$PUCSORTHOREF
  2

  9
$PUCSORTHOVIEW
 70
     0
  9
$PUCSORGTOP
 10
0.0
 20
0.0
 30
0.0
  9
$PUCSORGBOTTOM
 10
0.0
 20
0.0
 30
0.0
  9
$PUCSORGLEFT
 10
0.0
 20
0.0
 30
0.0
  9
$PUCSORGRIGHT
 10
0.0
 20
0.0
 30
0.0
  9
$PUCSORGFRONT
 10
0.0
 20
0.0
 30
0.0
  9
$PUCSORGBACK
 10
0.0
 20
0.0
 30
0.0
  9
$USERI1
 70
     0
  9
$USERI2
 70
     0
  9
$USERI3
 70
     0
  9
$USERI4
 70
     0
  9
$USERI5
 70
     0
  9
$USERR1
 40
0.0
  9
$USERR2
 40
0.0
  9
$USERR3
 40
0.0
  9
$USERR4
 40
0.0
  9
$USERR5
 40
0.0
  9
$WORLDVIEW
 70
     1
  9
$SHADEDGE
 70
     3
  9
$SHADEDIF
 70
    70
  9
$TILEMODE
 70
     1
  9
$MAXACTVP
 70
    64
  9
$PINSBASE
 10
0.0
 20
0.0
 30
0.0
  9
$PLIMCHECK
 70
     0
  9
$PEXTMIN
 10
1.0000000000E+20
 20
1.0000000000E+20
 30
1.0000000000E+20
  9
$PEXTMAX
 10
-1.0000000000E+20
 20
-1.0000000000E+20
 30
-1.0000000000E+20
  9
$PLIMMIN
 10
0.0
 20
0.0
  9
$PLIMMAX
 10
420.0
 20
297.0
  9
$UNITMODE
 70
     0
  9
$VISRETAIN
 70
     1
  9
$PLINEGEN
 70
     0
  9
$PSLTSCALE
 70
     1
  9
$TREEDEPTH
 70
  3020
  9
$CMLSTYLE
  2
Standard
  9
$CMLJUST
 70
     0
  9
$CMLSCALE
 40
20.0
  9
$PROXYGRAPHICS
 70
     1
  9
$MEASUREMENT
 70
     1
  9
$CELWEIGHT
370
    -1
  9
$ENDCAPS
280
     0
  9
$JOINSTYLE
280
     0
  9
$LWDISPLAY
290
     1
  9
$INSUNITS
 70
     4
  9
$HYPERLINKBASE
  1

  9
$STYLESHEET
  1

  9
$XEDIT
290
     1
  9
$CEPSNTYPE
380
     0
  9
$PSTYLEMODE
290
     1
  9
$FINGERPRINTGUID
  2
{49ef5396-e85b-4bd4-ab6d-57b7056e44dc}
  9
$VERSIONGUID
  2
{FAEB1C32-E019-11D5-929B-00C0DF256EC4}
  9
$EXTNAMES
290
     1
  9
$PSVPSCALE
 40
0.0
  9
$OLESTARTUP
290
     0
  0
ENDSEC
  0
SECTION
  2
CLASSES
  0
CLASS
  1
ACDBDICTIONARYWDFLT
  2
AcDbDictionaryWithDefault
  3
ObjectDBX Classes
 90
        0
280
     0
281
     0
  0
CLASS
  1
VISUALSTYLE
  2
AcDbVisualStyle
  3
ObjectDBX Classes
 90
     4095
280
     0
281
     0
  0
CLASS
  1
MATERIAL
  2
AcDbMaterial
  3
ObjectDBX Classes
 90
     1153
280
     0
281
     0
  0
CLASS
  1
SCALE
  2
AcDbScale
  3
ObjectDBX Classes
 90
     1153
280
     0
281
     0
  0
CLASS
  1
TABLESTYLE
  2
AcDbTableStyle
  3
ObjectDBX Classes
 90
     4095
280
     0
281
     0
  0
CLASS
  1
MLEADERSTYLE
  2
AcDbMLeaderStyle
  3
ACDB_MLEADERSTYLE_CLASS
 90
     4095
280
     0
281
     0
  0
CLASS
  1
SUN
  2
AcDbSun
  3
SCENEOE
 90
     1153
280
     0
281
     0
  0
CLASS
  1
ACDBPLACEHOLDER
  2
AcDbPlaceHolder
  3
ObjectDBX Classes
 90
        0
280
     0
281
     0
  0
CLASS
  1
LAYOUT
  2
AcDbLayout
  3
ObjectDBX Classes
 90
        0
280
     0
281
     0
  0
ENDSEC
  0
SECTION
  2
TABLES
  0
TABLE
  2
VPORT
  5
8
330
0
100
AcDbSymbolTable
 70
     1
  0
VPORT
  5
29
330
8
100
AcDbSymbolTableRecord
100
AcDbViewportTableRecord
  2
*Active
 70
     0
 10
0.0
 20
0.0
 11
1.0
 21
1.0
 12
10000.0
 22
5000.0
 13
0.0
 23
0.0
 14
10.0
 24
10.0
 15
10.0
 25
10.0
 16
0.0
 26
0.0
 36
1.0
 17
0.0
 27
0.0
 37
0.0
 40
10000.0
 41
2.0
 42
50.0
 43
0.0
 44
0.0
 50
0.0
 51
0.0
 71
     0
 72
  2000
 73
     1
 74
     3
 75
     0
 76
     0
 77
     0
 78
     0
281
     0
 65
     1
110
0.0
120
0.0
130
0.0
111
1.0
121
0.0
131
0.0
112
0.0
122
1.0
132
0.0
 79
     0
146
0.0
  0
ENDTAB
  0
TABLE
  2
LTYPE
  5
5
330
0
100
AcDbSymbolTable
 70
     6
  0
LTYPE
  5
14
330
5
100
AcDbSymbolTableRecord
100
AcDbLinetypeTableRecord
  2
ByBlock
 70
     0
  3

 72
    65
 73
     0
 40
0.0
  0
LTYPE
  5
15
330
5
100
AcDbSymbolTableRecord
100
AcDbLinetypeTableRecord
  2
ByLayer
 70
     0
  3

 72
    65
 73
     0
 40
0.0
  0
LTYPE
  5
16
330
5
100
AcDbSymbolTableRecord
100
AcDbLinetypeTableRecord
  2
Continuous
 70
     0
  3
Solid line
 72
    65
 73
     0
 40
0.0
  0
LTYPE
  5
6E
330
5
100
AcDbSymbolTableRecord
100
AcDbLinetypeTableRecord
  2
HIDDEN
 70
     0
  3
Hidden __ __ __ __ __ __ __ __ __ __ __ __ __ __
 72
    65
 73
     2
 40
1.905
 49
1.27
 74
     0
 49
-0.635
 74
     0
  0
LTYPE
  5
6F
330
5
100
AcDbSymbolTableRecord
100
AcDbLinetypeTableRecord
  2
PHANTOM
 70
     0
  3
Phantom ______  __  __  ______  __  __  ______
 72
    65
 73
     6
 40
12.7
 49
6.35
 74
     0
 49
-1.27
 74
     0
 49
1.27
 74
     0
 49
-1.27
 74
     0
 49
1.27
 74
     0
 49
-1.27
 74
     0
  0
LTYPE
  5
70
330
5
100
AcDbSymbolTableRecord
100
AcDbLinetypeTableRecord
  2
CENTER
 70
     0
  3
Center ____ _ ____ _ ____ _ ____ _ ____ _ ____
 72
    65
 73
     4
 40
10.16
 49
6.35
 74
     0
 49
-1.27
 74
     0
 49
1.27
 74
     0
 49
-1.27
 74
     0
  0
LTYPE
  5
71
330
5
100
AcDbSymbolTableRecord
100
AcDbLinetypeTableRecord
  2
CENTERX2
 70
     0
  3
Center (2x) ________  __  ________  __  _____
 72
    65
 73
     4
 40
20.32
 49
12.7
 74
     0
 49
-2.54
 74
     0
 49
2.54
 74
     0
 49
-2.54
 74
     0
  0
LTYPE
  5
72
330
5
100
AcDbSymbolTableRecord
100
AcDbLinetypeTableRecord
  2
DOT2
 70
     0
  3
Dot (.5x) ........................................
 72
    65
 73
     2
 40
0.635
 49
0.0
 74
     0
 49
-0.635
 74
     0
  0
ENDTAB
  0
TABLE
  2
LAYER
  5
2
330
0
100
AcDbSymbolTable
 70
    13
  0
LAYER
  5
10
330
2
100
AcDbSymbolTableRecord
100
AcDbLayerTableRecord
  2
0
 70
     0
 62
     7
  6
Continuous
370
    -3
390
F
  0
LAYER
  5
73
330
2
100
AcDbSymbolTableRecord
100
AcDbLayerTableRecord
  2
FORMAT
 70
     0
 62
     7
  6
Continuous
370
    -3
390
F
  0
LAYER
  5
74
330
2
100
AcDbSymbolTableRecord
100
AcDbLayerTableRecord
  2
OSA
 70
     0
 62
     7
  6
CENTER
370
    -3
390
F
  0
LAYER
  5
75
330
2
100
AcDbSymbolTableRecord
100
AcDbLayerTableRecord
  2
0_35
 70
     0
 62
     7
  6
Continuous
370
    35
390
F
  0
LAYER
  5
76
330
2
100
AcDbSymbolTableRecord
100
AcDbLayerTableRecord
  2
0_5
 70
     0
 62
     7
  6
Continuous
370
    50
390
F
  0
LAYER
  5
77
330
2
100
AcDbSymbolTableRecord
100
AcDbLayerTableRecord
  2
0_25
 70
     0
 62
     7
  6
Continuous
370
    25
390
F
  0
LAYER
  5
78
330
2
100
AcDbSymbolTableRecord
100
AcDbLayerTableRecord
  2
0_18
 70
     0
 62
     7
  6
Continuous
370
    -3
390
F
  0
LAYER
  5
79
330
2
100
AcDbSymbolTableRecord
100
AcDbLayerTableRecord
  2
SLD-0
 70
     0
 62
   179
  6
Continuous
370
    -3
390
F
  0
LAYER
  5
7A
330
2
100
AcDbSymbolTableRecord
100
AcDbLayerTableRecord
  2
KOTY
 70
     0
 62
     7
  6
Continuous
370
    -3
390
F
  0
LAYER
  5
7B
330
2
100
AcDbSymbolTableRecord
100
AcDbLayerTableRecord
  2
SILNA
 70
     0
 62
   179
  6
Continuous
370
    -3
390
F
  0
LAYER
  5
7C
330
2
100
AcDbSymbolTableRecord
100
AcDbLayerTableRecord
  2
0_18_1
 70
     0
 62
   179
  6
Continuous
370
    -3
390
F
  0
LAYER
  5
7D
330
2
100
AcDbSymbolTableRecord
100
AcDbLayerTableRecord
  2
0_35_1
 70
     0
 62
   179
  6
Continuous
370
    35
390
F
  0
LAYER
  5
7E
330
2
100
AcDbSymbolTableRecord
100
AcDbLayerTableRecord
  2
0_5_1
 70
     0
 62
   179
  6
Continuous
370
    50
390
F
  0
ENDTAB
  0
TABLE
  2
STYLE
  5
3
330
0
100
AcDbSymbolTable
 70
     1
  0
STYLE
  5
11
330
3
100
AcDbSymbolTableRecord
100
AcDbTextStyleTableRecord
  2
Standard
 70
     0
 40
0.0
 41
1.0
 50
0.0
 71
     0
 42
2.0
  3
txt
  4

  0
ENDTAB
  0
TABLE
  2
VIEW
  5
6
330
0
100
AcDbSymbolTable
 70
     0
  0
ENDTAB
  0
TABLE
  2
UCS
  5
7
330
0
100
AcDbSymbolTable
 70
     0
  0
ENDTAB
  0
TABLE
  2
APPID
  5
9
330
0
100
AcDbSymbolTable
 70
     1
  0
APPID
  5
12
330
9
100
AcDbSymbolTableRecord
100
AcDbRegAppTableRecord
  2
ACAD
 70
     0
  0
ENDTAB
  0
TABLE
  2
DIMSTYLE
  5
A
330
0
100
AcDbSymbolTable
 70
     1
100
AcDbDimStyleTable
  0
DIMSTYLE
105
27
330
A
100
AcDbSymbolTableRecord
100
AcDbDimStyleTableRecord
  2
ISO-25
 70
     0
 41
2.5
 42
0.625
 43
3.75
 44
1.25
 73
     0
 74
     0
 77
     1
 78
     8
140
2.5
141
2.5
143
0.0393700787
147
0.625
171
     3
172
     1
178
     0
271
     2
272
     2
274
     3
278
    44
283
     0
284
     8
340
11
  0
ENDTAB
  0
TABLE
  2
BLOCK_RECORD
  5
1
330
0
100
AcDbSymbolTable
 70
     1
  0
BLOCK_RECORD
  5
1F
330
1
100
AcDbSymbolTableRecord
100
AcDbBlockTableRecord
  2
*Model_Space
340
22
  0
BLOCK_RECORD
  5
1B
330
1
100
AcDbSymbolTableRecord
100
AcDbBlockTableRecord
  2
*Paper_Space
340
1E
  0
BLOCK_RECORD
  5
23
330
1
100
AcDbSymbolTableRecord
100
AcDbBlockTableRecord
  2
*Paper_Space0
340
26
  0
ENDTAB
  0
ENDSEC
  0
SECTION
  2
BLOCKS
  0
BLOCK
  5
20
330
1F
100
AcDbEntity
  8
0
100
AcDbBlockBegin
  2
*Model_Space
 70
     0
 10
0.0
 20
0.0
 30
0.0
  3
*Model_Space
  1

  0
ENDBLK
  5
21
330
1F
100
AcDbEntity
  8
0
100
AcDbBlockEnd
  0
BLOCK
  5
1C
330
1B
100
AcDbEntity
 67
     1
  8
0
100
AcDbBlockBegin
  2
*Paper_Space
 70
     0
 10
0.0
 20
0.0
 30
0.0
  3
*Paper_Space
  1

  0
ENDBLK
  5
1D
330
1B
100
AcDbEntity
 67
     1
  8
0
100
AcDbBlockEnd
  0
BLOCK
  5
24
330
23
100
AcDbEntity
  8
0
100
AcDbBlockBegin
  2
*Paper_Space0
 70
     0
 10
0.0
 20
0.0
 30
0.0
  3
*Paper_Space0
  1

  0
ENDBLK
  5
25
330
23
100
AcDbEntity
  8
0
100
AcDbBlockEnd
  0
ENDSEC
  0
SECTION
  2
ENTITIES
  0
ARC
  5
7F
330
1F
100
AcDbEntity
  8
0
  6
Continuous
 62
     7
370
    25
100
AcDbCircle
 10
6260.1291506061
 20
5196.5433810602
 30
0.0
 40
2.101095518620888
100
AcDbArc
 50
180.1455369465
 51
237.972465151
  0
ARC
  5
80
330
1F
100
AcDbEntity
  8
0
  6
Continuous
 62
     7
370
    25
100
AcDbCircle
 10
6287.8898113313
 20
5196.5450932678
 30
0.0
 40
2.115343077454331
100
AcDbArc
 50
302.1313641261
 51
357.9695403449
  0
LINE
  5
81
330
1F
100
AcDbEntity
  8
0
  6
Continuous
 62
     7
370
    25
100
AcDbLine
 10
6290.0152138729
 20
5196.4861437174
 30
0.0
 11
6290.0163183777
 21
5202.2589361013
 31
0.0
  0
LINE
  5
82
330
1F
100
AcDbEntity
  8
0
  6
Continuous
 62
     7
370
    25
100
AcDbLine
 10
6258.0163189634
 20
5202.2650586417
 30
0.0
 11
6258.0152144586
 21
5196.4922662577
 31
0.0
  0
LWPOLYLINE
  5
83
330
1F
100
AcDbEntity
  8
0
  6
Continuous
 62
     7
370
    25
100
AcDbPolyline
 90
       21
 70
   128
 43
0.0
 10
6290.0044587722
 20
5202.2308200809
 10
6290.0124059122
 20
5202.3729141694
 10
6289.9373673788
 20
5202.7678346714
 10
6289.7732183471
 20
5203.1444651709
 10
6289.5194173249
 20
5203.5104458871
 10
6289.1677819932
 20
5203.8714262633
 10
6288.7136727268
 20
5204.225049721
 10
6288.1625662813
 20
5204.5642548414
 10
6287.5254010241
 20
5204.8835699132
 10
6286.8095162331
 20
5205.1818758943
 10
6286.0196210859
 20
5205.4593020487
 10
6285.1600470998
 20
5205.715743775
 10
6284.2353633501
 20
5205.9507728393
 10
6283.2505764148
 20
5206.1637379877
 10
6282.2111624287
 20
5206.3538750503
 10
6281.1230382293
 20
5206.5203910246
 10
6279.9925118247
 20
5206.6625230465
 10
6278.8262266379
 20
5206.7795789593
 10
6277.6311044994
 20
5206.8709652282
 10
6276.4789244148
 20
5206.9334230193
 10
6276.1078257208
 20
5206.948377549
  0
LWPOLYLINE
  5
84
330
1F
100
AcDbEntity
  8
0
  6
Continuous
 62
     7
370
    25
100
AcDbPolyline
 90
       24
 70
   128
 43
0.0
 10
6276.1078257208
 20
5206.948377549
 10
6275.4602857109
 20
5206.9685782377
 10
6274.223281735
 20
5206.98663464
 10
6272.9848594158
 20
5206.9779419819
 10
6271.7527622208
 20
5206.9425472064
 10
6270.5344635981
 20
5206.8806520442
 10
6269.3373034838
 20
5206.7926010852
 10
6268.1684711776
 20
5206.6788754956
 10
6267.0349504099
 20
5206.5400831217
 10
6265.943463844
 20
5206.3769437286
 10
6264.9004166331
 20
5206.1902674753
 10
6263.9118386026
 20
5205.9809234057
 10
6262.983324865
 20
5205.7497924765
 10
6262.1199757717
 20
5205.4976957378
 10
6261.3263407053
 20
5205.2252816099
 10
6260.606380907
 20
5204.9328456174
 10
6259.9634970895
 20
5204.6200434662
 10
6259.400751921
 20
5204.2854662773
 10
6258.9216273798
 20
5203.926193741
 10
6258.532368562
 20
5203.5386374221
 10
6258.2712810673
 20
5203.1707184798
 10
6258.1033127067
 20
5202.7983593713
 10
6258.0237780442
 20
5202.4216506955
 10
6258.0278485391
 20
5202.2759770747
  0
LINE
  5
85
330
1F
100
AcDbEntity
  8
0
  6
Continuous
 62
     7
370
    25
100
AcDbLine
 10
6289.0166493937
 20
5203.9891160714
 30
0.0
 11
6289.0196319105
 21
5219.5775045825
 31
0.0
  0
LINE
  5
86
330
1F
100
AcDbEntity
  8
0
  6
Continuous
 62
     7
370
    25
100
AcDbLine
 10
6259.0196324596
 20
5219.5832444641
 30
0.0
 11
6259.0166504385
 21
5203.9974469798
 31
0.0
  0
LWPOLYLINE
  5
87
330
1F
100
AcDbEntity
  8
0
  6
Continuous
 62
     7
370
    25
100
AcDbPolyline
 90
       20
 70
   128
 43
0.0
 10
6289.0155356569
 20
5219.6057103743
 10
6288.97340493
 20
5220.0109223941
 10
6288.8382226456
 20
5220.4284837511
 10
6288.6220785382
 20
5220.8209495375
 10
6288.321824273
 20
5221.1976083536
 10
6287.9246787462
 20
5221.5667173864
 10
6287.4184861872
 20
5221.9288658889
 10
6286.8076934512
 20
5222.2746542387
 10
6286.1128185145
 20
5222.5935239265
 10
6285.3473861066
 20
5222.8838333188
 10
6284.5168321863
 20
5223.1475314486
 10
6283.6251288183
 20
5223.3860301829
 10
6282.6764371353
 20
5223.5999382949
 10
6281.6755293456
 20
5223.7893009607
 10
6280.627820428
 20
5223.9538398221
 10
6279.539295945
 20
5224.0931216708
 10
6278.4164188268
 20
5224.2066687545
 10
6277.2660371049
 20
5224.2940301291
 10
6276.1578991498
 20
5224.3522705397
 10
6275.9289921523
 20
5224.3612468749
  0
LWPOLYLINE
  5
88
330
1F
100
AcDbEntity
  8
0
  6
Continuous
 62
     7
370
    25
100
AcDbPolyline
 90
       23
 70
   128
 43
0.0
 10
6275.9289921523
 20
5224.3612468749
 10
6275.3069409323
 20
5224.380466027
 10
6274.1189803308
 20
5224.3964344817
 10
6272.9302925406
 20
5224.38538731
 10
6271.7487745763
 20
5224.3473871936
 10
6270.5820113508
 20
5224.282643366
 10
6269.4373821271
 20
5224.1914917177
 10
6268.3220622615
 20
5224.0743805787
 10
6267.2429457186
 20
5223.931847186
 10
6266.2065631494
 20
5223.7644807507
 10
6265.2189932715
 20
5223.5728651581
 10
6264.2857649083
 20
5223.3574889432
 10
6263.4117478806
 20
5223.1186003962
 10
6262.6010364104
 20
5222.8559677541
 10
6261.8568503759
 20
5222.5684732673
 10
6261.1815564154
 20
5222.2534272328
 10
6260.5771690079
 20
5221.905503788
 10
6260.0474664506
 20
5221.5157484107
 10
6259.6543200911
 20
5221.1326676692
 10
6259.3627235377
 20
5220.741229645
 10
6259.1628326676
 20
5220.3403353844
 10
6259.0489022284
 20
5219.9277924462
 10
6259.0293428028
 20
5219.5839285542
  0
ARC
  5
89
330
1F
100
AcDbEntity
  8
0
  6
Continuous
 62
     7
370
    25
100
AcDbCircle
 10
6284.8255908121
 20
5166.2503747188
 30
0.0
 40
4.566337331705432
100
AcDbArc
 50
280.1120269049
 51
335.5738185406
  0
LWPOLYLINE
  5
8A
330
1F
100
AcDbEntity
  8
0
  6
Continuous
 62
     7
370
    25
100
AcDbPolyline
 90
       11
 70
   128
 43
0.0
 10
6259.0200029733
 20
5164.6052743615
 10
6259.0430907692
 20
5164.3259620149
 10
6259.1676669456
 20
5163.9516814065
 10
6259.3793802517
 20
5163.5929408995
 10
6259.6847017601
 20
5163.2410134465
 10
6260.0919571348
 20
5162.8944403061
 10
6260.5997700446
 20
5162.5595222741
 10
6261.1975791023
 20
5162.2433073322
 10
6261.8753542743
 20
5161.9485900447
 10
6262.6277710906
 20
5161.6751933702
 10
6263.2253264999
 20
5161.4920164634
  0
LINE
  5
8B
330
1F
100
AcDbEntity
  8
0
  6
Continuous
 62
     7
370
    25
100
AcDbLine
 10
6288.983217192
 20
5164.3621005034
 30
0.0
 11
6289.0053995976
 21
5164.5780750427
 31
0.0
  0
LINE
  5
8C
330
1F
100
AcDbEntity
  8
0
  6
Continuous
 62
     7
370
    25
100
AcDbLine
 10
6259.0149383141
 20
5195.0488768324
 30
0.0
 11
6259.0091226859
 21
5164.652980825
 31
0.0
  0
LINE
  5
8D
330
1F
100
AcDbEntity
  8
0
  6
Continuous
 62
     7
370
    25
100
AcDbLine
 10
6289.0091221368
 20
5164.6472409435
 30
0.0
 11
6289.014937765
 21
5195.0431369508
 31
0.0
  0
LWPOLYLINE
  5
8E
330
1F
100
AcDbEntity
  8
0
  6
Continuous
 62
     7
370
    25
100
AcDbPolyline
 90
       28
 70
   128
 43
0.0
 10
6268.0094660522
 20
5163.531957884
 10
6268.0183152375
 20
5163.5528662972
 10
6268.0770598893
 20
5163.6298749744
 10
6268.2219667133
 20
5163.753508205
 10
6268.4544536161
 20
5163.8961680279
 10
6268.7780324115
 20
5164.0471134034
 10
6269.1917422384
 20
5164.1976906954
 10
6269.6895514864
 20
5164.340556503
 10
6270.262471091
 20
5164.4700305357
 10
6270.8998946901
 20
5164.5818668966
 10
6271.5903155024
 20
5164.6729373859
 10
6272.3216689099
 20
5164.7409780232
 10
6273.0815144432
 20
5164.7844236879
 10
6273.8571676316
 20
5164.8023109132
 10
6274.6358240874
 20
5164.7942249072
 10
6275.404625308
 20
5164.7602782099
 10
6276.1507724086
 20
5164.7011180653
 10
6276.8618620564
 20
5164.617928848
 10
6277.5258521818
 20
5164.512478877
 10
6278.1311501286
 20
5164.3872215834
 10
6278.6666812348
 20
5164.2454996852
 10
6279.1219704449
 20
5164.0919514114
 10
6279.4873782346
 20
5163.9333035983
 10
6279.7549701923
 20
5163.7798213347
 10
6279.9213864108
 20
5163.6473926905
 10
6279.9953498154
 20
5163.5578814693
 10
6280.0089998594
 20
5163.528122134
 10
6280.0090002691
 20
5163.5283793744
  0
LWPOLYLINE
  5
8F
330
1F
100
AcDbEntity
  8
0
  6
Continuous
 62
     7
370
    25
100
AcDbPolyline
 90
       42
 70
   128
 43
0.0
 10
6289.013777669
 20
5194.9989197641
 10
6289.0144900334
 20
5195.0058555569
 10
6288.975266649
 20
5195.3964042427
 10
6288.8447326677
 20
5195.7693049048
 10
6288.6269254809
 20
5196.1273554182
 10
6288.3148489429
 20
5196.4789778774
 10
6287.9005413809
 20
5196.8250095467
 10
6287.3861863939
 20
5197.158845597
 10
6286.7827106354
 20
5197.4736016228
 10
6286.0996910591
 20
5197.7668557598
 10
6285.342347602
 20
5198.0388046525
 10
6284.5151712371
 20
5198.2894972518
 10
6283.6228085158
 20
5198.5186096674
 10
6282.6703566171
 20
5198.7255430545
 10
6281.6634189776
 20
5198.9095528758
 10
6280.6080771677
 20
5199.0698490954
 10
6279.5108356521
 20
5199.2056657861
 10
6278.3785589003
 20
5199.3163083099
 10
6277.2184072151
 20
5199.4011852673
 10
6276.037773116
 20
5199.4598301374
 10
6274.844218609
 20
5199.4919157227
 10
6273.6454132203
 20
5199.4972633011
 10
6272.4490725851
 20
5199.4758475981
 10
6271.2629469164
 20
5199.4278007366
 10
6270.0946726616
 20
5199.3534094207
 10
6268.9517388294
 20
5199.2531078916
 10
6267.8414376477
 20
5199.12746859
 10
6266.7708027798
 20
5198.97718752
 10
6265.746546444
 20
5198.8030624375
 10
6264.7749948442
 20
5198.6059604783
 10
6263.8620214321
 20
5198.3867693608
 10
6263.0129784455
 20
5198.1463219279
 10
6262.2326305864
 20
5197.8852760975
 10
6261.5251055772
 20
5197.603919474
 10
6260.8939090941
 20
5197.3018508201
 10
6260.3421468467
 20
5196.9774917196
 10
6259.873348513
 20
5196.6275367473
 10
6259.4941498095
 20
5196.2478438617
 10
6259.2445241785
 20
5195.888916607
 10
6259.0876207246
 20
5195.5254273496
 10
6259.0163616363
 20
5195.1155791734
 10
6259.0230545398
 20
5195.0346095313
  0
LINE
  5
90
330
1F
100
AcDbEntity
  8
0
  6
Continuous
 62
     7
370
    25
100
AcDbLine
 10
6282.5187553361
 20
5223.6297702596
 30
0.0
 11
6282.5187553361
 21
5226.0771337588
 31
0.0
  0
LINE
  5
91
330
1F
100
AcDbEntity
  8
0
  6
Continuous
 62
     7
370
    25
100
AcDbLine
 10
6265.5187553361
 20
5226.0771337588
 30
0.0
 11
6265.5187553361
 21
5223.6310272051
 31
0.0
  0
LWPOLYLINE
  5
92
330
1F
100
AcDbEntity
  8
0
  6
Continuous
 62
     7
370
    25
100
AcDbPolyline
 90
        8
 70
   128
 43
0.0
 10
6258.2568534478
 20
5228.5290030965
 10
6258.253320124
 20
5228.537992446
 10
6258.2828250159
 20
5228.4667464082
 10
6258.352546826
 20
5228.2743801894
 10
6258.4597619559
 20
5227.946145554
 10
6258.6080312867
 20
5227.4426986905
 10
6258.8014801165
 20
5226.7123909542
 10
6259.0442359416
 20
5225.6901783764
  0
ARC
  5
93
330
1F
100
AcDbEntity
  8
0
  6
Continuous
 62
     7
370
    25
100
AcDbCircle
 10
6315.6763500472
 20
5219.9658084104
 30
0.0
 40
27.29019823782106
100
AcDbArc
 50
162.1820005975
 51
167.8917592681
  0
ARC
  5
94
330
1F
100
AcDbEntity
  8
0
  6
Continuous
 62
     7
370
    25
100
AcDbCircle
 10
6273.9919097473
 20
5146.9661816324
 30
0.0
 40
53.27207131259489
100
AcDbArc
 50
81.8865437185
 51
97.4476371529
  0
LINE
  5
95
330
1F
100
AcDbEntity
  8
0
  6
Continuous
 62
     7
370
    25
100
AcDbLine
 10
6258.0152144586
 20
5196.4922662577
 30
0.0
 11
6258.0156865341
 21
5196.5255420001
 31
0.0
  0
LINE
  5
96
330
1F
100
AcDbEntity
  8
0
  6
Continuous
 62
     7
370
    25
100
AcDbLine
 10
6290.0161372263
 20
5202.2384086964
 30
0.0
 11
6290.0163183777
 21
5202.2589361013
 31
0.0
  0
LINE
  5
97
330
1F
100
AcDbEntity
  8
0
  6
Continuous
 62
     7
370
    25
100
AcDbLine
 10
6289.0196319105
 20
5219.5775045825
 30
0.0
 11
6289.0195250136
 21
5219.5931555826
 31
0.0
  0
ARC
  5
98
330
1F
100
AcDbEntity
  8
0
  6
Continuous
 62
     7
370
    25
100
AcDbCircle
 10
6274.0187553361
 20
5241.0353150504
 30
0.0
 40
27.49999999999984
100
AcDbArc
 50
303.0571536368
 51
236.9456895932
  0
LINE
  5
99
330
1F
100
AcDbEntity
  8
0
  6
Continuous
 62
     7
370
    25
100
AcDbLine
 10
6259.0096377677
 20
5164.6188828054
 30
0.0
 11
6259.0091226859
 21
5164.652980825
 31
0.0
  0
LINE
  5
9A
330
1F
100
AcDbEntity
  8
0
  6
Continuous
 62
     7
370
    25
100
AcDbLine
 10
6289.0091221368
 20
5164.6472409435
 30
0.0
 11
6289.0080306334
 21
5164.5981291425
 31
0.0
  0
ARC
  5
9B
330
1F
100
AcDbEntity
  8
0
  6
Continuous
 62
     7
370
    25
100
AcDbCircle
 10
6273.9330035082
 20
5203.0507533113
 30
0.0
 40
42.91276808163897
100
AcDbArc
 50
255.6412151428
 51
285.7253274878
  0
ARC
  5
9C
330
1F
100
AcDbEntity
  8
0
  6
Continuous
 62
     7
370
    25
100
AcDbCircle
 10
6274.0174281138
 20
5183.4152097397
 30
0.0
 40
22.15152233117786
100
AcDbArc
 50
261.3227680137
 51
278.1438354748
  0
LWPOLYLINE
  5
9D
330
1F
100
AcDbEntity
  8
0
  6
Continuous
 62
     7
370
    25
100
AcDbPolyline
 90
       25
 70
   128
 43
0.0
 10
6282.2101277347
 20
5223.7667910324
 10
6282.0765001183
 20
5223.8797355856
 10
6281.7155102571
 20
5224.1128991637
 10
6281.2541814248
 20
5224.3338925825
 10
6280.6985277482
 20
5224.5398348551
 10
6280.0557930229
 20
5224.7280412088
 10
6279.3343562789
 20
5224.8960580861
 10
6278.5436225475
 20
5225.04169513
 10
6277.693900252
 20
5225.1630537388
 10
6276.7962668221
 20
5225.2585518177
 10
6275.8624242824
 20
5225.3269444029
 10
6274.9045466984
 20
5225.3673398927
 10
6273.9351214694
 20
5225.37921167
 10
6272.9667865358
 20
5225.362404968
 10
6272.0121656242
 20
5225.3171388879
 10
6271.0837036782
 20
5225.2440035421
 10
6270.1935046191
 20
5225.1439523618
 10
6269.3531735531
 20
5225.0182896671
 10
6268.5736654808
 20
5224.8686536634
 10
6267.8651424819
 20
5224.6969950849
 10
6267.2368412372
 20
5224.5055517636
 10
6266.6969526145
 20
5224.2968194561
 10
6266.2525148875
 20
5224.0735193071
 10
6265.9093219817
 20
5223.8385623756
 10
6265.8273829375
 20
5223.7667910324
  0
LWPOLYLINE
  5
9E
330
1F
100
AcDbEntity
  8
0
  6
Continuous
 62
     7
370
    25
100
AcDbPolyline
 90
       29
 70
   128
 43
0.0
 10
6282.5187553361
 20
5226.0771337588
 10
6282.4800081305
 20
5226.2869530364
 10
6282.3324449536
 20
5226.5352189711
 10
6282.0765001183
 20
5226.7775130645
 10
6281.7155102571
 20
5227.0106766425
 10
6281.2541814248
 20
5227.2316700614
 10
6280.6985277482
 20
5227.437612334
 10
6280.0557930229
 20
5227.6258186877
 10
6279.3343562789
 20
5227.7938355649
 10
6278.5436225475
 20
5227.9394726088
 10
6277.693900252
 20
5228.0608312177
 10
6276.7962668221
 20
5228.1563292965
 10
6275.8624242824
 20
5228.2247218818
 10
6274.9045466984
 20
5228.2651173716
 10
6273.9351214694
 20
5228.2769891489
 10
6272.9667865358
 20
5228.2601824469
 10
6272.0121656242
 20
5228.2149163667
 10
6271.0837036782
 20
5228.141781021
 10
6270.1935046191
 20
5228.0417298407
 10
6269.3531735531
 20
5227.916067146
 10
6268.5736654808
 20
5227.7664311423
 10
6267.8651424819
 20
5227.5947725638
 10
6267.2368412372
 20
5227.4033292425
 10
6266.6969526145
 20
5227.194596935
 10
6266.2525148875
 20
5226.971296786
 10
6265.9093219817
 20
5226.7363398544
 10
6265.6718479414
 20
5226.4927891634
 10
6265.543188604
 20
5226.2438197684
 10
6265.5187553361
 20
5226.0771337588
  0
LWPOLYLINE
  5
9F
330
1F
100
AcDbEntity
  8
0
  6
Continuous
 62
     7
370
    25
100
AcDbPolyline
 90
       47
 70
   128
 43
0.0
 10
6282.5187553361
 20
5224.2700281219
 10
6283.1373450845
 20
5224.4847902896
 10
6283.7046082803
 20
5224.7276895612
 10
6284.175609118
 20
5224.9840002154
 10
6284.5456665796
 20
5225.2511749219
 10
6284.8111028679
 20
5225.5265583784
 10
6284.9692799577
 20
5225.8074137004
 10
6285.0186258141
 20
5226.0909496215
 10
6284.9586500158
 20
5226.3743482344
 10
6284.7899486292
 20
5226.6547929962
 10
6284.5141982846
 20
5226.9294967211
 10
6284.1341395126
 20
5227.1957292799
 10
6283.6535495081
 20
5227.4508447338
 10
6283.0772045905
 20
5227.6923076309
 10
6282.4108327346
 20
5227.9177182044
 10
6281.6610566431
 20
5228.1248362228
 10
6280.8353279279
 20
5228.3116032541
 10
6279.9418530517
 20
5228.4761631237
 10
6278.9895117694
 20
5228.6168803617
 10
6277.9877688764
 20
5228.7323564569
 10
6276.9465801437
 20
5228.821443756
 10
6275.8762933727
 20
5228.8832568694
 10
6274.7875455542
 20
5228.9171814706
 10
6273.691157153
 20
5228.9228804017
 10
6272.5980245698
 20
5228.9002970242
 10
6271.5190118473
 20
5228.8496557818
 10
6270.4648426985
 20
5228.77145997
 10
6269.4459939303
 20
5228.6664867337
 10
6268.4725913193
 20
5228.5357793443
 10
6267.554308978
 20
5228.3806368304
 10
6266.7002732089
 20
5228.2026010682
 10
6265.9189718031
 20
5228.0034414569
 10
6265.2181696851
 20
5227.7851373343
 10
6264.6048317411
 20
5227.5498583047
 10
6264.0850535992
 20
5227.299942677
 10
6263.6640010481
 20
5227.0378742249
 10
6263.3458586971
 20
5226.7662575024
 10
6263.133788388
 20
5226.4877919586
 10
6263.0298977706
 20
5226.2052451091
 10
6263.0352193567
 20
5225.9214250314
 10
6263.1497002579
 20
5225.639152457
 10
6263.3722027116
 20
5225.3612327375
 10
6263.7005153885
 20
5225.090427964
 10
6264.1313753696
 20
5224.829429516
 10
6264.660500575
 20
5224.5808313134
 10
6265.2826323205
 20
5224.3471040366
 10
6265.5187553361
 20
5224.2700281219
  0
LWPOLYLINE
  5
A0
330
1F
100
AcDbEntity
  8
0
  6
Continuous
 62
     7
370
    25
100
AcDbPolyline
 90
       29
 70
   128
 43
0.0
 10
6274.0187553361
 20
5229.7998864035
 10
6272.746666469
 20
5229.7859004248
 10
6271.4837430313
 20
5229.7440432582
 10
6270.2390844153
 20
5229.6746164855
 10
6269.021658415
 20
5229.5781203282
 10
6267.8402366124
 20
5229.4552500432
 10
6266.7033311789
 20
5229.3068909139
 10
6265.619133544
 20
5229.1341118711
 10
6264.5954553767
 20
5228.9381577918
 10
6263.6396723014
 20
5228.7204405296
 10
6262.7586707573
 20
5228.4825287424
 10
6261.9587983806
 20
5228.2261365901
 10
6261.2458182701
 20
5227.953111384
 10
6260.6248674639
 20
5227.665420277
 10
6260.1004199267
 20
5227.36513609
 10
6259.676254315
 20
5227.0544223776
 10
6259.3554267519
 20
5226.7355178392
 10
6259.1402488072
 20
5226.4107201892
 10
6259.032270843
 20
5226.0823696022
 10
6259.032270843
 20
5225.7528318517
 10
6259.1402488072
 20
5225.4244812647
 10
6259.3554267519
 20
5225.0996836147
 10
6259.676254315
 20
5224.7807790762
 10
6260.1004199267
 20
5224.4700653638
 10
6260.6248674639
 20
5224.1697811769
 10
6261.2458182701
 20
5223.8820900699
 10
6261.9587983806
 20
5223.6090648638
 10
6262.7586707573
 20
5223.3526727115
 10
6263.5129745327
 20
5223.1465615408
  0
LWPOLYLINE
  5
A1
330
1F
100
AcDbEntity
  8
0
  6
Continuous
 62
     7
370
    25
100
AcDbPolyline
 90
       29
 70
   128
 43
0.0
 10
6284.5231138679
 20
5223.1462003781
 10
6285.2788399149
 20
5223.3526727115
 10
6286.0787122916
 20
5223.6090648638
 10
6286.7916924021
 20
5223.8820900699
 10
6287.4126432083
 20
5224.1697811769
 10
6287.9370907455
 20
5224.4700653638
 10
6288.3612563572
 20
5224.7807790762
 10
6288.6820839203
 20
5225.0996836147
 10
6288.897261865
 20
5225.4244812647
 10
6289.0052398292
 20
5225.7528318517
 10
6289.0052398292
 20
5226.0823696022
 10
6288.897261865
 20
5226.4107201892
 10
6288.6820839203
 20
5226.7355178392
 10
6288.3612563572
 20
5227.0544223776
 10
6287.9370907455
 20
5227.36513609
 10
6287.4126432083
 20
5227.665420277
 10
6286.7916924021
 20
5227.953111384
 10
6286.0787122916
 20
5228.2261365901
 10
6285.2788399149
 20
5228.4825287424
 10
6284.3978383708
 20
5228.7204405296
 10
6283.4420552955
 20
5228.9381577918
 10
6282.4183771282
 20
5229.1341118711
 10
6281.3341794933
 20
5229.3068909139
 10
6280.1972740598
 20
5229.4552500432
 10
6279.0158522572
 20
5229.5781203282
 10
6277.7984262569
 20
5229.6746164855
 10
6276.5537676409
 20
5229.7440432582
 10
6275.2908442032
 20
5229.7859004248
 10
6274.0187553361
 20
5229.7998864035
  0
LWPOLYLINE
  5
A2
330
1F
100
AcDbEntity
  8
0
  6
Continuous
 62
     7
370
    25
100
AcDbPolyline
 90
       23
 70
   128
 43
0.0
 10
6274.0187553361
 20
5228.7947337323
 10
6272.9391348662
 20
5228.7803301145
 10
6271.8709586418
 20
5228.7372719427
 10
6270.8255495967
 20
5228.6660156445
 10
6269.8139893268
 20
5228.5673165542
 10
6268.8470006226
 20
5228.4422209068
 10
6267.934833805
 20
5228.2920547473
 10
6267.0871580691
 20
5228.1184098743
 10
6266.3129589886
 20
5227.9231269666
 10
6265.6204432663
 20
5227.7082760717
 10
6265.0169517413
 20
5227.4761346625
 10
6264.5088815738
 20
5227.2291634958
 10
6264.1016184339
 20
5226.9699805272
 10
6263.7994794122
 20
5226.7013331607
 10
6263.6056672577
 20
5226.4260691253
 10
6263.5222364272
 20
5226.1471062882
 10
6263.5500713084
 20
5225.8674017249
 10
6263.6888768446
 20
5225.5899203734
 10
6263.9371816625
 20
5225.3176036049
 10
6264.2923536695
 20
5225.053338045
 10
6264.7506279537
 20
5224.7999249743
 10
6265.3071466938
 20
5224.5600506345
 10
6265.5187553361
 20
5224.4816660129
  0
LWPOLYLINE
  5
A3
330
1F
100
AcDbEntity
  8
0
  6
Continuous
 62
     7
370
    25
100
AcDbPolyline
 90
       23
 70
   128
 43
0.0
 10
6282.5187553361
 20
5224.4816660129
 10
6282.7303639784
 20
5224.5600506345
 10
6283.2868827185
 20
5224.7999249743
 10
6283.7451570027
 20
5225.053338045
 10
6284.1003290097
 20
5225.3176036049
 10
6284.3486338276
 20
5225.5899203734
 10
6284.4874393638
 20
5225.8674017249
 10
6284.515274245
 20
5226.1471062882
 10
6284.4318434145
 20
5226.4260691253
 10
6284.23803126
 20
5226.7013331607
 10
6283.9358922383
 20
5226.9699805272
 10
6283.5286290984
 20
5227.2291634958
 10
6283.0205589309
 20
5227.4761346625
 10
6282.4170674059
 20
5227.7082760717
 10
6281.7245516836
 20
5227.9231269666
 10
6280.9503526031
 20
5228.1184098743
 10
6280.1026768672
 20
5228.2920547473
 10
6279.1905100496
 20
5228.4422209068
 10
6278.2235213454
 20
5228.5673165542
 10
6277.2119610755
 20
5228.6660156445
 10
6276.1665520304
 20
5228.7372719427
 10
6275.098375806
 20
5228.7803301145
 10
6274.0187553361
 20
5228.7947337323
  0
LWPOLYLINE
  5
A4
330
1F
100
AcDbEntity
  8
0
  6
Continuous
 62
     7
370
    25
100
AcDbPolyline
 90
       20
 70
   128
 43
0.0
 10
6276.5187553361
 20
5262.7828400403
 10
6276.3784482258
 20
5262.688577849
 10
6275.9711959674
 20
5262.6273554032
 10
6275.3456705744
 20
5262.5957594712
 10
6274.5715723052
 20
5262.5835856025
 10
6273.7342827293
 20
5262.582210357
 10
6272.9285534587
 20
5262.5902339225
 10
6272.2459993433
 20
5262.6144463355
 10
6271.7638150793
 20
5262.6649963495
 10
6271.5342957412
 20
5262.7481163623
 10
6271.581045358
 20
5262.8607571139
 10
6271.9032109777
 20
5262.9889255076
 10
6272.4718989221
 20
5263.10868099
 10
6273.218777356
 20
5263.1924043526
 10
6274.0450960974
 20
5263.2207455012
 10
6274.8546887766
 20
5263.1897472615
 10
6275.5710586996
 20
5263.1078198435
 10
6276.1262763953
 20
5262.9911896594
 10
6276.4534338359
 20
5262.8627448857
 10
6276.5187553361
 20
5262.7828400403
  0
ARC
  5
A5
330
1F
100
AcDbEntity
  8
0
  6
Continuous
 62
     7
370
    25
100
AcDbCircle
 10
6274.0187553361
 20
5241.0353150504
 30
0.0
 40
22.5
100
AcDbArc
 50
180.0
 51
236.0458520276
  0
ARC
  5
A6
330
1F
100
AcDbEntity
  8
0
  6
Continuous
 62
     7
370
    25
100
AcDbCircle
 10
6274.0187553361
 20
5241.0353150504
 30
0.0
 40
22.50000000000021
100
AcDbArc
 50
303.8854528619
 51
180.0
  0
LWPOLYLINE
  5
A7
330
1F
100
AcDbEntity
  8
0
  6
Continuous
 62
     8
370
    25
100
AcDbPolyline
 90
       18
 70
   128
 43
0.0
 10
6289.0149181841
 20
5194.9407957712
 10
6289.215389746
 20
5195.1785761528
 10
6289.4159133345
 20
5195.5281467533
 10
6289.508411438
 20
5195.8810841542
 10
6289.492235249
 20
5196.2349127533
 10
6289.3674982316
 20
5196.5871506971
 10
6289.1350753265
 20
5196.9353272896
 10
6288.7965968134
 20
5197.277000322
 10
6288.3544368758
 20
5197.6097732037
 10
6287.811696948
 20
5197.9313117719
 10
6287.1721839606
 20
5198.2393606646
 10
6286.4403836378
 20
5198.5317591401
 10
6285.621429033
 20
5198.8064562332
 10
6284.7210645243
 20
5199.0615251413
 10
6283.7456055219
 20
5199.2951767391
 10
6282.7018941698
 20
5199.5057721286
 10
6281.5972513533
 20
5199.6918341344
 10
6281.5103964868
 20
5199.7050282171
  0
LWPOLYLINE
  5
A8
330
1F
100
AcDbEntity
  8
0
  6
Continuous
 62
     8
370
    25
100
AcDbPolyline
 90
       18
 70
   128
 43
0.0
 10
6267.0867810762
 20
5199.7888356738
 10
6266.6634250068
 20
5199.7290103205
 10
6265.547373629
 20
5199.5484764988
 10
6264.4907174228
 20
5199.3431097529
 10
6263.5008680723
 20
5199.114350583
 10
6262.5847686595
 20
5198.8638035704
 10
6261.7488449635
 20
5198.5932261223
 10
6260.9989603885
 20
5198.3045161451
 10
6260.340374836
 20
5197.9996987319
 10
6259.7777078104
 20
5197.6809119578
 10
6259.3149060167
 20
5197.3503918829
 10
6258.9552156769
 20
5197.0104568682
 10
6258.7011597602
 20
5196.6634913135
 10
6258.5545202865
 20
5196.3119289328
 10
6258.5163258262
 20
5195.9582356838
 10
6258.5868442861
 20
5195.6048924703
 10
6258.7655810298
 20
5195.2543777412
 10
6259.0149187332
 20
5194.9465356528
  0
LWPOLYLINE
  5
A9
330
1F
100
AcDbEntity
  8
0
  6
Continuous
 62
     8
370
    25
100
AcDbPolyline
 90
       40
 70
   128
 43
0.0
 10
6258.0156865341
 20
5196.5255420001
 10
6258.0364053856
 20
5196.7164264371
 10
6258.158960589
 20
5197.0753178209
 10
6258.3898300823
 20
5197.4302054598
 10
6258.7274367929
 20
5197.7786651112
 10
6259.1694745245
 20
5198.1183164426
 10
6259.7129237113
 20
5198.4468392908
 10
6260.3540720442
 20
5198.7619895117
 10
6261.08853983
 20
5199.0616143097
 10
6261.911309909
 20
5199.3436669436
 10
6262.8167619272
 20
5199.6062207081
 10
6263.7987107294
 20
5199.8474820945
 10
6264.8504486094
 20
5200.065803043
 10
6265.9647911311
 20
5200.2596922002
 10
6267.1341262051
 20
5200.4278251066
 10
6268.3504660873
 20
5200.5690532438
 10
6269.6055019428
 20
5200.6824118804
 10
6270.8906606042
 20
5200.7671266622
 10
6272.1971631346
 20
5200.8226189012
 10
6273.5160847971
 20
5200.8485095291
 10
6274.8384160193
 20
5200.8446216867
 10
6276.1551239381
 20
5200.8109819319
 10
6277.4572141033
 20
5200.7478200584
 10
6278.7357919188
 20
5200.6555675258
 10
6279.9821234017
 20
5200.5348545123
 10
6281.1876948441
 20
5200.3865056105
 10
6282.3442709706
 20
5200.2115341935
 10
6283.4439511937
 20
5200.0111354937
 10
6284.4792235822
 20
5199.7866784373
 10
6285.443016176
 20
5199.5396962936
 10
6286.3287452945
 20
5199.2718762012
 10
6287.1303605096
 20
5198.9850476428
 10
6287.8423859766
 20
5198.6811699483
 10
6288.4599578396
 20
5198.3623189106
 10
6288.9788574565
 20
5198.0306726054
 10
6289.3955402168
 20
5197.6884965133
 10
6289.7071597547
 20
5197.3381280441
 10
6289.9115873928
 20
5196.9819605696
 10
6290.007426683
 20
5196.6224270748
 10
6290.0151574204
 20
5196.4747834228
  0
LWPOLYLINE
  5
AA
330
1F
100
AcDbEntity
  8
0
  6
Continuous
 62
     8
370
    25
100
AcDbPolyline
 90
       22
 70
   128
 43
0.0
 10
6276.1562284429
 20
5206.5837743159
 10
6274.8395205241
 20
5206.6174140706
 10
6273.5171893019
 20
5206.621301913
 10
6272.1982676395
 20
5206.5954112851
 10
6270.891765109
 20
5206.5399190461
 10
6269.6066064476
 20
5206.4552042644
 10
6268.3515705921
 20
5206.3418456277
 10
6267.13523071
 20
5206.2006174905
 10
6265.9658956359
 20
5206.0324845842
 10
6264.8515531142
 20
5205.838595427
 10
6263.7998152342
 20
5205.6202744784
 10
6262.8178664321
 20
5205.379013092
 10
6261.9124144138
 20
5205.1164593276
 10
6261.0896443348
 20
5204.8344066936
 10
6260.355176549
 20
5204.5347818956
 10
6259.7140282161
 20
5204.2196316747
 10
6259.1705790293
 20
5203.8911088265
 10
6258.7285412977
 20
5203.5514574952
 10
6258.3909345871
 20
5203.2029978437
 10
6258.1600650938
 20
5202.8481102048
 10
6258.0375098904
 20
5202.489218821
 10
6258.0163189634
 20
5202.2650586417
  0
LWPOLYLINE
  5
AB
330
1F
100
AcDbEntity
  8
0
  6
Continuous
 62
     8
370
    25
100
AcDbPolyline
 90
       19
 70
   128
 43
0.0
 10
6290.0163183777
 20
5202.2589361013
 10
6290.0085311879
 20
5202.3952194587
 10
6289.9126918976
 20
5202.7547529535
 10
6289.7082642595
 20
5203.110920428
 10
6289.3966447216
 20
5203.4612888972
 10
6288.9799619613
 20
5203.8034649893
 10
6288.4610623444
 20
5204.1351112945
 10
6287.8434904815
 20
5204.4539623323
 10
6287.1314650145
 20
5204.7578400268
 10
6286.3298497994
 20
5205.0446685852
 10
6285.4441206809
 20
5205.3124886776
 10
6284.480328087
 20
5205.5594708212
 10
6283.4450556985
 20
5205.7839278776
 10
6282.3453754755
 20
5205.9843265774
 10
6281.1887993489
 20
5206.1592979944
 10
6279.9832279065
 20
5206.3076468963
 10
6278.7368964237
 20
5206.4283599097
 10
6277.4583186082
 20
5206.5206124423
 10
6276.1562284429
 20
5206.5837743159
  0
LWPOLYLINE
  5
AC
330
1F
100
AcDbEntity
  8
0
  6
Continuous
 62
     8
370
    25
100
AcDbPolyline
 90
       14
 70
   128
 43
0.0
 10
6276.0226681663
 20
5207.2757953208
 10
6277.2761011605
 20
5207.2145999224
 10
6278.5060486735
 20
5207.1246530927
 10
6279.7036489053
 20
5207.0066029007
 10
6280.8602731187
 20
5206.8612999006
 10
6281.9675878099
 20
5206.6897910041
 10
6283.017614751
 20
5206.4933119365
 10
6284.0027884739
 20
5206.273278334
 10
6284.9160107794
 20
5206.0312755439
 10
6285.7507018798
 20
5205.7690472018
 10
6286.5008478067
 20
5205.4884826688
 10
6287.1610437413
 20
5205.1916034189
 10
6287.7265329569
 20
5204.8805484739
 10
6288.1156369754
 20
5204.6172609091
  0
LWPOLYLINE
  5
AD
330
1F
100
AcDbEntity
  8
0
  6
Continuous
 62
     8
370
    25
100
AcDbPolyline
 90
       18
 70
   128
 43
0.0
 10
6259.8135911146
 20
5204.541767102
 10
6259.9075691997
 20
5204.6148792629
 10
6260.3903078504
 20
5204.9359447127
 10
6260.9712235477
 20
5205.2446764943
 10
6261.6461307807
 20
5205.538850188
 10
6262.4101668271
 20
5205.8163462656
 10
6263.2578267899
 20
5206.0751653615
 10
6264.1830032595
 20
5206.3134426783
 10
6265.1790303183
 20
5206.5294614224
 10
6266.2387315686
 20
5206.7216651737
 10
6267.3544718384
 20
5206.8886691
 10
6268.5182121937
 20
5207.0292699339
 10
6269.7215678585
 20
5207.1424546434
 10
6270.9558686276
 20
5207.22740773
 10
6272.2122213357
 20
5207.2835171047
 10
6273.4815739328
 20
5207.3103784983
 10
6274.7547807043
 20
5207.3077983737
 10
6276.0226681663
 20
5207.2757953208
  0
LWPOLYLINE
  5
AE
330
1F
100
AcDbEntity
  8
0
  6
Continuous
 62
     8
370
    25
100
AcDbPolyline
 90
       22
 70
   128
 43
0.0
 10
6276.0257975967
 20
5223.6320404086
 10
6274.7579101347
 20
5223.6640434615
 10
6273.4847033632
 20
5223.6666235861
 10
6272.2153507661
 20
5223.6397621925
 10
6270.958998058
 20
5223.5836528178
 10
6269.7246972888
 20
5223.4986997312
 10
6268.5213416241
 20
5223.3855150217
 10
6267.3576012688
 20
5223.2449141878
 10
6266.2418609989
 20
5223.0779102615
 10
6265.1821597487
 20
5222.8857065102
 10
6264.1861326899
 20
5222.6696877661
 10
6263.2609562202
 20
5222.4314104493
 10
6262.4132962575
 20
5222.1725913534
 10
6261.649260211
 20
5221.8950952758
 10
6260.9743529781
 20
5221.6009215821
 10
6260.3934372808
 20
5221.2921898005
 10
6259.91069863
 20
5220.9711243507
 10
6259.5296151688
 20
5220.6400385165
 10
6259.2529326123
 20
5220.3013177789
 10
6259.0826444645
 20
5219.9574026287
 10
6259.0199776556
 20
5219.6107709823
 10
6259.0196324596
 20
5219.5832444641
  0
LWPOLYLINE
  5
AF
330
1F
100
AcDbEntity
  8
0
  6
Continuous
 62
     8
370
    25
100
AcDbPolyline
 90
       18
 70
   128
 43
0.0
 10
6289.0195250136
 20
5219.5931555826
 10
6288.9738806689
 20
5219.8968287179
 10
6288.8207289203
 20
5220.2413993117
 10
6288.5609349305
 20
5220.5812072068
 10
6288.1963705212
 20
5220.9138040795
 10
6287.7296623873
 20
5221.2367935617
 10
6287.1641731717
 20
5221.5478485067
 10
6286.503977237
 20
5221.8447277566
 10
6285.7538313102
 20
5222.1252922896
 10
6284.9191402098
 20
5222.3875206317
 10
6284.0059179043
 20
5222.6295234218
 10
6283.0207441814
 20
5222.8495570243
 10
6281.9707172402
 20
5223.0460360919
 10
6280.8634025491
 20
5223.2175449884
 10
6279.7067783357
 20
5223.3628479885
 10
6278.5091781039
 20
5223.4808981805
 10
6277.2792305909
 20
5223.5708450102
 10
6276.0257975967
 20
5223.6320404086
  0
ARC
  5
B0
330
1F
100
AcDbEntity
  8
0
  6
Continuous
 62
     8
370
    25
100
AcDbCircle
 10
6274.0187553361
 20
5241.0353150504
 30
0.0
 40
26.5000000000002
100
AcDbArc
 50
304.4764890901
 51
235.5277178246
  0
LWPOLYLINE
  5
B1
330
1F
100
AcDbEntity
  8
0
  6
Continuous
 62
     8
370
    25
100
AcDbPolyline
 90
       39
 70
   128
 43
0.0
 10
6259.0091226859
 20
5164.652980825
 10
6259.0275568061
 20
5164.8554105116
 10
6259.1445751211
 20
5165.200984273
 10
6259.3686928399
 20
5165.542588979
 10
6259.6982951892
 20
5165.8777633598
 10
6260.1310073767
 20
5166.2040924765
 10
6260.6637117009
 20
5166.5192251201
 10
6261.2925700152
 20
5166.8208907529
 10
6262.0130513808
 20
5167.1069158669
 10
6262.8199647132
 20
5167.3752396448
 10
6263.7074961831
 20
5167.6239288075
 10
6264.6692511061
 20
5167.8511915439
 10
6265.6983000158
 20
5168.0553904208
 10
6266.7872285914
 20
5168.2350541806
 10
6267.9281910774
 20
5168.3888883418
 10
6269.112966813
 20
5168.5157845258
 10
6270.3330194619
 20
5168.6148284426
 10
6271.5795585168
 20
5168.6853064785
 10
6272.8436026352
 20
5168.7267108377
 10
6274.1160443503
 20
5168.7387432008
 10
6275.3877156904
 20
5168.7213168744
 10
6276.6494542344
 20
5168.6745574156
 10
6277.892169127
 20
5168.5988017273
 10
6279.1069065791
 20
5168.4945956309
 10
6280.2849143794
 20
5168.3626899339
 10
6281.4177049548
 20
5168.2040350197
 10
6282.4971165232
 20
5168.0197740007
 10
6283.5153718995
 20
5167.8112344817
 10
6284.4651345304
 20
5167.5799189948
 10
6285.3395613545
 20
5167.3274941733
 10
6286.1323521062
 20
5167.0557787439
 10
6286.8377947103
 20
5166.7667304224
 10
6287.4508064364
 20
5166.4624318086
 10
6287.9669705211
 20
5166.145075381
 10
6288.3825679904
 20
5165.8169477
 10
6288.6946044549
 20
5165.480412933
 10
6288.9008316847
 20
5165.1378958207
 10
6288.999763808
 20
5164.7918642067
 10
6289.0091221368
 20
5164.6472409435
  0
LWPOLYLINE
  5
B2
330
1F
100
AcDbEntity
  8
0
  6
Continuous
 62
     8
370
    25
100
AcDbPolyline
 90
       47
 70
   128
 43
0.0
 10
6288.5902867848
 20
5163.9787932273
 10
6288.5985104704
 20
5164.3211986106
 10
6288.4987187632
 20
5164.662548297
 10
6288.2916504863
 20
5165.0003150528
 10
6287.9788387006
 20
5165.3319981711
 10
6287.5625993551
 20
5165.6551419863
 10
6287.0460141404
 20
5165.9673540545
 10
6286.4329076727
 20
5166.2663228668
 10
6285.7278191776
 20
5166.5498349627
 10
6284.9359688839
 20
5166.8157913179
 10
6284.0632193739
 20
5167.0622228845
 10
6283.1160321797
 20
5167.2873051695
 10
6282.1014199439
 20
5167.4893717423
 10
6281.0268945005
 20
5167.6669265729
 10
6279.90041126
 20
5167.8186551072
 10
6278.7303103101
 20
5167.9434340004
 10
6277.5252546689
 20
5168.0403394331
 10
6276.2941661468
 20
5168.1086539515
 10
6275.0461592924
 20
5168.1478717787
 10
6273.7904739119
 20
5168.1577025597
 10
6272.5364066605
 20
5168.1380735108
 10
6271.2932422133
 20
5168.0891299586
 10
6270.070184525
 20
5168.0112342642
 10
6268.8762886868
 20
5167.9049631398
 10
6267.7203938857
 20
5167.7711033798
 10
6266.6110579626
 20
5167.610646035
 10
6265.5564940523
 20
5167.4247790754
 10
6264.5645097773
 20
5167.2148785949
 10
6263.6424494418
 20
5166.9824986234
 10
6262.7971396582
 20
5166.7293596207
 10
6262.0348388042
 20
5166.4573357396
 10
6261.3611906888
 20
5166.1684409496
 10
6260.7811827667
 20
5165.8648141267
 10
6260.2991092139
 20
5165.5487032176
 10
6259.9185391342
 20
5165.222448597
 10
6259.6422901352
 20
5164.8884657399
 10
6259.4724074681
 20
5164.5492273385
 10
6259.4101488845
 20
5164.2072449953
 10
6259.4559753253
 20
5163.8650506279
 10
6259.6095475075
 20
5163.5251777236
 10
6259.8697284364
 20
5163.1901425825
 10
6260.2345918235
 20
5162.8624256876
 10
6260.7014363479
 20
5162.5444533402
 10
6261.266805656
 20
5162.2385796961
 10
6261.9265139513
 20
5161.947069337
 10
6262.6756769845
 20
5161.6720805034
 10
6263.2909338804
 20
5161.4785027291
  0
ARC
  5
B3
330
1F
100
AcDbEntity
  8
0
  6
Continuous
 62
     8
370
    25
100
AcDbCircle
 10
6284.6618902834
 20
5166.1325082672
 30
0.0
 40
4.480043252663163
100
AcDbArc
 50
281.6097955691
 51
331.2665618675
  0
LWPOLYLINE
  5
B4
330
1F
100
AcDbEntity
  8
0
  6
Continuous
 62
     8
370
    25
100
AcDbPolyline
 90
        9
 70
   128
 43
0.0
 10
6280.5452410815
 20
5162.9622512161
 10
6280.4469841386
 20
5162.7304635422
 10
6280.2385683644
 20
5162.5041744178
 10
6279.9235598104
 20
5162.2872557124
 10
6279.5073483605
 20
5162.0834189651
 10
6278.9970555079
 20
5161.8961518794
 10
6278.4014125047
 20
5161.7286586469
 10
6277.730610968
 20
5161.5838051232
 10
6277.1553824498
 20
5161.4870729248
  0
LWPOLYLINE
  5
B5
330
1F
100
AcDbEntity
  8
0
  6
Continuous
 62
     8
370
    25
100
AcDbPolyline
 90
       35
 70
   128
 43
0.0
 10
6270.6754721592
 20
5161.5172355871
 10
6270.4597040284
 20
5161.553641573
 10
6269.7723647666
 20
5161.6928608136
 10
6269.1575123704
 20
5161.8553322739
 10
6268.6256671349
 20
5162.0382760221
 10
6268.1859290794
 20
5162.2385618401
 10
6267.845822244
 20
5162.452762782
 10
6267.6111659509
 20
5162.6772138102
 10
6267.4859752344
 20
5162.9080745055
 10
6267.4723921423
 20
5163.1413947773
 10
6267.5706490852
 20
5163.3731824512
 10
6267.7790648594
 20
5163.5994715756
 10
6268.0940734133
 20
5163.8163902811
 10
6268.5102848633
 20
5164.0202270283
 10
6269.0205777159
 20
5164.207494114
 10
6269.6162207191
 20
5164.3749873465
 10
6270.2870222558
 20
5164.5198408702
 10
6271.0215047258
 20
5164.639576201
 10
6271.8071009305
 20
5164.7321446343
 10
6272.6303691009
 20
5164.7959622985
 10
6273.4772228904
 20
5164.8299372556
 10
6274.3331723958
 20
5164.8334881849
 10
6275.1835720839
 20
5164.8065543287
 10
6276.0138713801
 20
5164.749596533
 10
6276.8098636333
 20
5164.6635893614
 10
6277.5579291954
 20
5164.5500044204
 10
6278.2452684572
 20
5164.4107851798
 10
6278.8601208534
 20
5164.2483137196
 10
6279.3919660889
 20
5164.0653699713
 10
6279.8317041444
 20
5163.8650841533
 10
6280.1718109798
 20
5163.6508832114
 10
6280.4064672729
 20
5163.4264321832
 10
6280.5316579894
 20
5163.1955714879
 10
6280.5452410815
 20
5162.9622512161
 10
6280.5452410815
 20
5162.9622512161
  0
LWPOLYLINE
  5
B6
330
1F
100
AcDbEntity
  8
0
  6
Continuous
 62
     8
370
    25
100
AcDbPolyline
 90
       39
 70
   128
 43
0.0
 10
6289.014937765
 20
5195.0431369508
 10
6289.0055794362
 20
5195.1877602141
 10
6288.9066473129
 20
5195.533791828
 10
6288.7004200831
 20
5195.8763089403
 10
6288.3883836186
 20
5196.2128437074
 10
6287.9727861493
 20
5196.5409713884
 10
6287.4566220646
 20
5196.858327816
 10
6286.8436103385
 20
5197.1626264297
 10
6286.1381677344
 20
5197.4516747512
 10
6285.3453769826
 20
5197.7233901807
 10
6284.4709501586
 20
5197.9758150022
 10
6283.5211875277
 20
5198.2071304891
 10
6282.5029321514
 20
5198.4156700081
 10
6281.423520583
 20
5198.5999310271
 10
6280.2907300076
 20
5198.7585859412
 10
6279.1127222073
 20
5198.8904916383
 10
6277.8979847552
 20
5198.9946977346
 10
6276.6552698626
 20
5199.0704534229
 10
6275.3935313186
 20
5199.1172128818
 10
6274.1218599785
 20
5199.1346392082
 10
6272.8494182634
 20
5199.1226068451
 10
6271.585374145
 20
5199.0812024859
 10
6270.3388350901
 20
5199.0107244499
 10
6269.1187824412
 20
5198.9116805331
 10
6267.9340067056
 20
5198.7847843492
 10
6266.7930442196
 20
5198.630950188
 10
6265.704115644
 20
5198.4512864282
 10
6264.6750667343
 20
5198.2470875512
 10
6263.7133118113
 20
5198.0198248148
 10
6262.8257803414
 20
5197.7711356521
 10
6262.018867009
 20
5197.5028118743
 10
6261.2983856434
 20
5197.2167867602
 10
6260.6695273291
 20
5196.9151211275
 10
6260.1368230049
 20
5196.5999884838
 10
6259.7041108174
 20
5196.2736593672
 10
6259.3745084681
 20
5195.9384849863
 10
6259.1503907493
 20
5195.5968802803
 10
6259.0333724343
 20
5195.251306519
 10
6259.0149383141
 20
5195.0488768324
  0
LINE
  5
B7
330
1F
100
AcDbEntity
  8
0
  6
Continuous
 62
     8
370
    25
100
AcDbLine
 10
6280.0015345313
 20
5163.4488629332
 30
0.0
 11
6280.0088260143
 21
5163.5213605043
 31
0.0
  0
LWPOLYLINE
  5
B8
330
1F
100
AcDbEntity
  8
0
  6
Continuous
 62
     8
370
    25
100
AcDbPolyline
 90
       24
 70
   128
 43
0.0
 10
6268.0089768623
 20
5163.5242319853
 10
6268.0316056808
 20
5163.3899177906
 10
6268.1582751525
 20
5163.16936072
 10
6268.3939308498
 20
5162.9555399843
 10
6268.7341829528
 20
5162.7524386591
 10
6269.1726932087
 20
5162.5638401379
 10
6269.701293001
 20
5162.3932576543
 10
6270.3101355159
 20
5162.2438688372
 10
6270.9878791692
 20
5162.1184565177
 10
6271.7218988789
 20
5162.0193568899
 10
6272.4985212468
 20
5161.9484159924
 10
6273.3032792676
 20
5161.9069553198
 10
6274.1211818219
 20
5161.8957472062
 10
6274.9369929327
 20
5161.9150004374
 10
6275.7355155826
 20
5161.9643563622
 10
6276.5018748055
 20
5162.042895573
 10
6277.2217947791
 20
5162.149155033
 10
6277.8818647564
 20
5162.2811553295
 10
6278.4697888826
 20
5162.4364375468
 10
6278.9746152437
 20
5162.6121090708
 10
6279.3869398797
 20
5162.8048974735
 10
6279.6990819628
 20
5163.0112114718
 10
6279.9052268766
 20
5163.2272078261
 10
6280.0015345313
 20
5163.4488629332
  0
ARC
  5
B9
330
1F
100
AcDbEntity
  8
0
  6
Continuous
 62
     7
370
    25
100
AcDbCircle
 10
6504.7530725832
 20
5200.6969130013
 30
0.0
 40
0.4754649916457247
100
AcDbArc
 50
290.6444870073
 51
18.5324946351
  0
ARC
  5
BA
330
1F
100
AcDbEntity
  8
0
  6
Continuous
 62
     7
370
    25
100
AcDbCircle
 10
6474.8988164707
 20
5192.2454046397
 30
0.0
 40
0.4815903396362554
100
AcDbArc
 50
193.7131707042
 51
278.1595833292
  0
LINE
  5
BB
330
1F
100
AcDbEntity
  8
0
  6
Continuous
 62
     7
370
    25
100
AcDbLine
 10
6505.2117230771
 20
5200.8505437935
 30
0.0
 11
6503.5762210526
 21
5206.6233361774
 31
0.0
  0
LINE
  5
BC
330
1F
100
AcDbEntity
  8
0
  6
Continuous
 62
     7
370
    25
100
AcDbLine
 10
6472.7879944834
 20
5197.9006585656
 30
0.0
 11
6474.4234965079
 21
5192.1278661817
 31
0.0
  0
ARC
  5
BD
330
1F
100
AcDbEntity
  8
0
  6
Continuous
 62
     7
370
    25
100
AcDbCircle
 10
6473.2388041592
 20
5198.0555892598
 30
0.0
 40
0.4684744607768944
100
AcDbArc
 50
116.7456769905
 51
199.0184865455
  0
ARC
  5
BE
330
1F
100
AcDbEntity
  8
0
  6
Continuous
 62
     7
370
    25
100
AcDbCircle
 10
6503.1015452699
 20
5206.5065897085
 30
0.0
 40
0.4807713161231912
100
AcDbArc
 50
13.7069048272
 51
97.8523630235
  0
ARC
  5
BF
330
1F
100
AcDbEntity
  8
0
  6
Continuous
 62
     7
370
    25
100
AcDbCircle
 10
6502.8007995413
 20
5207.4154604416
 30
0.0
 40
0.4639060166126077
100
AcDbArc
 50
192.1548123694
 51
272.7327774102
  0
ARC
  5
C0
330
1F
100
AcDbEntity
  8
0
  6
Continuous
 62
     7
370
    25
100
AcDbCircle
 10
6473.0093654305
 20
5198.9932117158
 30
0.0
 40
0.4876541189125038
100
AcDbArc
 50
297.8619800859
 51
17.7368313696
  0
LINE
  5
C1
330
1F
100
AcDbEntity
  8
0
  6
Continuous
 62
     7
370
    25
100
AcDbLine
 10
6502.3415053016
 20
5207.312884566
 30
0.0
 11
6497.7075828989
 21
5223.6691296538
 31
0.0
  0
LINE
  5
C2
330
1F
100
AcDbEntity
  8
0
  6
Continuous
 62
     7
370
    25
100
AcDbLine
 10
6468.8436204902
 20
5215.4916193928
 30
0.0
 11
6473.4775428929
 21
5199.135374305
 31
0.0
  0
ARC
  5
C3
330
1F
100
AcDbEntity
  8
0
  6
Continuous
 62
     7
370
    25
100
AcDbCircle
 10
6469.7773123629
 20
5215.7866558588
 30
0.0
 40
0.9689422012225027
100
AcDbArc
 50
109.4252889175
 51
197.4640602525
  0
ARC
  5
C4
330
1F
100
AcDbEntity
  8
0
  6
Continuous
 62
     7
370
    25
100
AcDbCircle
 10
6496.7502017833
 20
5223.4153659336
 30
0.0
 40
0.9820270373763897
100
AcDbArc
 50
14.7196415773
 51
100.0208916857
  0
LINE
  5
C5
330
1F
100
AcDbEntity
  8
0
  6
Continuous
 62
     7
370
    25
100
AcDbLine
 10
6502.5975882308
 20
5199.0717982338
 30
0.0
 11
6502.4616186716
 21
5199.5517267354
 31
0.0
  0
LINE
  5
C6
330
1F
100
AcDbEntity
  8
0
  6
Continuous
 62
     7
370
    25
100
AcDbLine
 10
6477.4461845841
 20
5192.4645511758
 30
0.0
 11
6477.5821541433
 21
5191.9846226743
 31
0.0
  0
LINE
  5
C7
330
1F
100
AcDbEntity
  8
0
  6
Continuous
 62
     7
370
    25
100
AcDbLine
 10
6428.4987095031
 20
5213.5353150504
 30
0.0
 11
6429.4987095031
 21
5213.5353150504
 31
0.0
  0
LINE
  5
C8
330
1F
100
AcDbEntity
  8
0
  6
Continuous
 62
     7
370
    25
100
AcDbLine
 10
6429.4987095031
 20
5268.5353150504
 30
0.0
 11
6428.4987095031
 21
5268.5353150504
 31
0.0
  0
ARC
  5
C9
330
1F
100
AcDbEntity
  8
0
  6
Continuous
 62
     7
370
    25
100
AcDbCircle
 10
6429.4987095031
 20
5267.5353150504
 30
0.0
 40
1.0
100
AcDbArc
 50
0.0
 51
90.0
  0
ARC
  5
CA
330
1F
100
AcDbEntity
  8
0
  6
Continuous
 62
     7
370
    25
100
AcDbCircle
 10
6429.4987095031
 20
5214.5353150504
 30
0.0
 40
1.0
100
AcDbArc
 50
270.0
 51
0.0
  0
ARC
  5
CB
330
1F
100
AcDbEntity
  8
0
  6
Continuous
 62
     7
370
    25
100
AcDbCircle
 10
6484.8560129705
 20
5160.656406778
 30
0.0
 40
0.4566067148952422
100
AcDbArc
 50
191.8334519299
 51
270.7626586743
  0
ARC
  5
CC
330
1F
100
AcDbEntity
  8
0
  6
Continuous
 62
     7
370
    25
100
AcDbCircle
 10
6512.8321788011
 20
5168.5826489109
 30
0.0
 40
0.4598769059006499
100
AcDbArc
 50
300.6098260514
 51
20.5451359167
  0
LINE
  5
CD
330
1F
100
AcDbEntity
  8
0
  6
Continuous
 62
     7
370
    25
100
AcDbLine
 10
6480.9691118159
 20
5172.6925626332
 30
0.0
 11
6484.4060297044
 21
5160.5613557537
 31
0.0
  0
LINE
  5
CE
330
1F
100
AcDbEntity
  8
0
  6
Continuous
 62
     7
370
    25
100
AcDbLine
 10
6475.7945040943
 20
5190.9572517611
 30
0.0
 11
6480.4291982188
 21
5174.5982827453
 31
0.0
  0
LINE
  5
CF
330
1F
100
AcDbEntity
  8
0
  6
Continuous
 62
     7
370
    25
100
AcDbLine
 10
6513.2699921131
 20
5168.7388660147
 30
0.0
 11
6504.658466503
 21
5199.1347620221
 31
0.0
  0
ARC
  5
D0
330
1F
100
AcDbEntity
  8
0
  6
Continuous
 62
     7
370
    25
100
AcDbCircle
 10
6476.2627262434
 20
5191.1016728146
 30
0.0
 40
0.4864787159604184
100
AcDbArc
 50
113.6457508234
 51
196.9818789198
  0
ARC
  5
D1
330
1F
100
AcDbEntity
  8
0
  6
Continuous
 62
     7
370
    25
100
AcDbCircle
 10
6504.1877613379
 20
5199.0190627823
 30
0.0
 40
0.4790311818379394
100
AcDbArc
 50
14.6075936903
 51
94.3312926784
  0
ARC
  5
D2
330
1F
100
AcDbEntity
  8
0
  6
Continuous
 62
     7
370
    25
100
AcDbCircle
 10
6479.3116060826
 20
5233.5719950384
 30
0.0
 40
73.58732294106872
100
AcDbArc
 50
290.9203825457
 51
297.2610549639
  0
ARC
  5
D3
330
1F
100
AcDbEntity
  8
0
  6
Continuous
 62
     7
370
    25
100
AcDbCircle
 10
6479.3116060826
 20
5233.5719950384
 30
0.0
 40
73.58732294106842
100
AcDbArc
 50
274.3750822496
 51
280.7157546677
  0
ARC
  5
D4
330
1F
100
AcDbEntity
  8
0
  6
Continuous
 62
     7
370
    25
100
AcDbCircle
 10
6484.5740009669
 20
5214.9974456619
 30
0.0
 40
12.00000000000063
100
AcDbArc
 50
150.0994720393
 51
167.1188977191
  0
ARC
  5
D5
330
1F
100
AcDbEntity
  8
0
  6
Continuous
 62
     7
370
    25
100
AcDbCircle
 10
6484.5740009669
 20
5214.9974456619
 30
0.0
 40
11.99999999999987
100
AcDbArc
 50
44.5172394949
 51
59.9005279607
  0
LINE
  5
D6
330
1F
100
AcDbEntity
  8
0
  6
Continuous
 62
     7
370
    25
100
AcDbLine
 10
6490.5920341477
 20
5225.3793181633
 30
0.0
 11
6489.8155770124
 21
5228.2770956421
 31
0.0
  0
LINE
  5
D7
330
1F
100
AcDbEntity
  8
0
  6
Continuous
 62
     7
370
    25
100
AcDbLine
 10
6473.3948379655
 20
5223.8771718754
 30
0.0
 11
6474.1712951008
 21
5220.9793943965
 31
0.0
  0
LWPOLYLINE
  5
D8
330
1F
100
AcDbEntity
  8
0
  6
Continuous
 62
     7
370
    25
100
AcDbPolyline
 90
        9
 70
   128
 43
0.0
 10
6430.4987095031
 20
5218.5353150504
 10
6435.5049269572
 20
5218.5400042955
 10
6440.3976927797
 20
5218.5962806536
 10
6445.157986818
 20
5218.7593108769
 10
6449.7697543051
 20
5219.0740250252
 10
6454.2199112951
 20
5219.5711767416
 10
6458.4992686482
 20
5220.2437462261
 10
6462.601221622
 20
5221.0715517227
 10
6466.5209347144
 20
5222.0353150504
  0
LWPOLYLINE
  5
D9
330
1F
100
AcDbEntity
  8
0
  6
Continuous
 62
     7
370
    25
100
AcDbPolyline
 90
        3
 70
   128
 43
0.0
 10
6436.5000733695
 20
5263.1905124043
 10
6434.8006403398
 20
5263.3669739365
 10
6430.4987095031
 20
5263.5353150504
  0
LWPOLYLINE
  5
DA
330
1F
100
AcDbEntity
  8
0
  6
Continuous
 62
     7
370
    25
100
AcDbPolyline
 90
       28
 70
   128
 43
0.0
 10
6495.4987095031
 20
5229.7998864035
 10
6494.8258769528
 20
5231.9966151723
 10
6494.0793816773
 20
5233.940966065
 10
6493.2896483411
 20
5235.6572414653
 10
6492.4831868727
 20
5237.1668918132
 10
6491.6829746522
 20
5238.4887568257
 10
6490.7213789227
 20
5239.9018657208
 10
6489.8327284666
 20
5241.0744803882
 10
6489.0433625065
 20
5242.0291841292
 10
6488.3742549764
 20
5242.784243412
 10
6487.7481272624
 20
5243.451416211
 10
6487.0185351196
 20
5244.1862127935
 10
6486.1124881716
 20
5245.0422672959
 10
6485.0154448208
 20
5246.0058050799
 10
6483.7117553214
 20
5247.0615808245
 10
6482.1852802802
 20
5248.1932688963
 10
6480.4200980246
 20
5249.3839098103
 10
6478.0392276644
 20
5250.8247180342
 10
6475.2929689147
 20
5252.29620531
 10
6472.1667033137
 20
5253.7741912015
 10
6468.6538069213
 20
5255.2381122048
 10
6464.7582196414
 20
5256.6726433935
 10
6460.4972385395
 20
5258.0694601776
 10
6456.5786897536
 20
5259.2303227431
 10
6452.4458584058
 20
5260.3315792397
 10
6448.1400201849
 20
5261.3388835013
 10
6443.7153456178
 20
5262.2123449869
 10
6441.4636507663
 20
5262.5613654231
  0
LINE
  5
DB
330
1F
100
AcDbEntity
  8
0
  6
Continuous
 62
     7
370
    25
100
AcDbLine
 10
6428.4987095031
 20
5252.0353150504
 30
0.0
 11
6415.4987095031
 21
5252.0353150504
 31
0.0
  0
LINE
  5
DC
330
1F
100
AcDbEntity
  8
0
  6
Continuous
 62
     7
370
    25
100
AcDbLine
 10
6415.4987095031
 20
5230.0353150504
 30
0.0
 11
6428.4987095031
 21
5230.0353150504
 31
0.0
  0
LWPOLYLINE
  5
DD
330
1F
100
AcDbEntity
  8
0
  6
Continuous
 62
     7
370
    25
100
AcDbPolyline
 90
       10
 70
   128
 43
0.0
 10
6475.1747311864
 20
5191.8214175407
 10
6475.059729843
 20
5191.7885889497
 10
6475.0492004131
 20
5191.7853574703
 10
6475.1432167532
 20
5191.8117457689
 10
6475.3411194063
 20
5191.8675687506
 10
6475.6415202274
 20
5191.9524348573
 10
6476.0423121206
 20
5192.0657488142
 10
6476.5406838187
 20
5192.2067158054
 10
6477.1331396024
 20
5192.3743470486
 10
6477.446608138
 20
5192.4630561679
  0
LWPOLYLINE
  5
DE
330
1F
100
AcDbEntity
  8
0
  6
Continuous
 62
     7
370
    25
100
AcDbPolyline
 90
       45
 70
   128
 43
0.0
 10
6502.4620422255
 20
5199.5502317274
 10
6502.9612728525
 20
5199.6918341344
 10
6503.5260281022
 20
5199.8520576652
 10
6503.9955846363
 20
5199.9853188682
 10
6504.366648853
 20
5200.0906830117
 10
6504.6366180035
 20
5200.1674110419
 10
6504.8035984481
 20
5200.2149647669
 10
6504.866418939
 20
5200.2330106314
 10
6504.8246388357
 20
5200.2214220567
 10
6504.6785511954
 20
5200.1802803283
 10
6504.429180718
 20
5200.1098740258
 10
6504.0782765583
 20
5200.0106969989
 10
6503.6283000568
 20
5199.8834449031
 10
6503.0824074754
 20
5199.7290103205
 10
6502.4444278582
 20
5199.5484764988
 10
6501.718836174
 20
5199.3431097529
 10
6500.910721927
 20
5199.114350583
 10
6500.0257534582
 20
5198.8638035704
 10
6499.0701381853
 20
5198.5932261223
 10
6498.050579063
 20
5198.3045161451
 10
6496.9742275659
 20
5197.9996987319
 10
6495.8486335265
 20
5197.6809119578
 10
6494.6816921782
 20
5197.3503918829
 10
6493.481588776
 20
5197.0104568682
 10
6492.2567411832
 20
5196.6634913135
 10
6491.0157408255
 20
5196.3119289328
 10
6489.7672924287
 20
5195.9582356838
 10
6488.5201529614
 20
5195.6048924703
 10
6487.2830702108
 20
5195.2543777412
 10
6486.0647214237
 20
5194.9091501054
 10
6484.8736524413
 20
5194.5716310868
 10
6483.7182177568
 20
5194.2441881388
 10
6482.6065219143
 20
5193.9291180384
 10
6481.5463626614
 20
5193.6286307759
 10
6480.5451762535
 20
5193.3448340536
 10
6479.609985294
 20
5193.0797185016
 10
6478.7473494755
 20
5192.8351437151
 10
6477.9633195685
 20
5192.6128252103
 10
6477.2633949793
 20
5192.414322392
 10
6476.6524851762
 20
5192.2410276147
 10
6476.1348752525
 20
5192.0941564168
 10
6475.7141958698
 20
5191.9747389942
 10
6475.3933977918
 20
5191.8836129743
 10
6475.1747311864
 20
5191.8214175407
 10
6475.1747311864
 20
5191.8214175407
  0
LWPOLYLINE
  5
DF
330
1F
100
AcDbEntity
  8
0
  6
Continuous
 62
     7
370
    25
100
AcDbPolyline
 90
       40
 70
   128
 43
0.0
 10
6473.1328507957
 20
5198.5180300099
 10
6473.1332986215
 20
5198.5181917277
 10
6473.1961191124
 20
5198.5362375922
 10
6473.363099557
 20
5198.5837913172
 10
6473.6330687075
 20
5198.6605193474
 10
6474.0041329242
 20
5198.7658834909
 10
6474.4736894583
 20
5198.8991446939
 10
6475.038444708
 20
5199.0593682247
 10
6475.6944373211
 20
5199.2454302305
 10
6476.4370659807
 20
5199.45602562
 10
6477.2611216804
 20
5199.6896772178
 10
6478.1608242614
 20
5199.9447461258
 10
6479.1298629566
 20
5200.219443219
 10
6480.1614406559
 20
5200.5118416945
 10
6481.2483215828
 20
5200.8198905872
 10
6482.3828820486
 20
5201.1414291554
 10
6483.5571639268
 20
5201.4742020371
 10
6484.7629304737
 20
5201.8158750695
 10
6485.9917241034
 20
5202.164051662
 10
6487.2349257113
 20
5202.5162896058
 10
6488.4838151316
 20
5202.8701182048
 10
6489.7296323021
 20
5203.2230556058
 10
6490.9636387107
 20
5203.5726262063
 10
6492.1771786889
 20
5203.9163780197
 10
6493.3617401258
 20
5204.2518998742
 10
6494.5090141739
 20
5204.5768383249
 10
6495.6109535302
 20
5204.8889141621
 10
6496.6598288818
 20
5205.185938398
 10
6497.6482831217
 20
5205.4658276211
 10
6498.5693829536
 20
5205.7266186095
 10
6499.4166675241
 20
5205.9664821017
 10
6500.1841937405
 20
5206.1837356279
 10
6500.8665779581
 20
5206.3768553105
 10
6501.4590337418
 20
5206.5444865537
 10
6501.9574054399
 20
5206.6854535449
 10
6502.3581973331
 20
5206.7987675018
 10
6502.6585981542
 20
5206.8836336085
 10
6502.8565008073
 20
5206.9394565902
 10
6502.9505171474
 20
5206.9658448888
 10
6502.9588556021
 20
5206.968111064
  0
LWPOLYLINE
  5
E0
330
1F
100
AcDbEntity
  8
0
  6
Continuous
 62
     7
370
    25
100
AcDbPolyline
 90
        3
 70
   128
 43
0.0
 10
6477.5584683544
 20
5192.4966951883
 10
6477.4570548418
 20
5192.4677346568
 10
6477.4461845841
 20
5192.4645511758
  0
LWPOLYLINE
  5
E1
330
1F
100
AcDbEntity
  8
0
  6
Continuous
 62
     7
370
    25
100
AcDbPolyline
 90
       34
 70
   128
 43
0.0
 10
6502.4616186716
 20
5199.5517267354
 10
6502.445543236
 20
5199.5472983047
 10
6502.3337637762
 20
5199.5158584953
 10
6502.1163636977
 20
5199.4544920596
 10
6501.7951977811
 20
5199.3637225543
 10
6501.3730061009
 20
5199.244324393
 10
6500.8533906476
 20
5199.0973162385
 10
6500.240784597
 20
5198.9239523127
 10
6499.540414488
 20
5198.7257116954
 10
6498.7582556313
 20
5198.5042857057
 10
6497.9009811307
 20
5198.261563472
 10
6496.9759049497
 20
5197.9996158149
 10
6495.9909195124
 20
5197.7206775794
 10
6494.954428367
 20
5197.4271285681
 10
6493.8752744906
 20
5197.1214732379
 10
6492.7626648436
 20
5196.806319332
 10
6491.6260918192
 20
5196.4843556327
 10
6490.4752522576
 20
5196.1583290205
 10
6489.3199647163
 20
5195.8310210397
 10
6488.1700857013
 20
5195.5052241665
 10
6487.0354255747
 20
5195.1837179849
 10
6485.9256648568
 20
5194.8692454724
 10
6484.8502716348
 20
5194.5644895975
 10
6483.8184207843
 20
5194.2720504299
 10
6482.8389156931
 20
5193.9944229575
 10
6481.9201131532
 20
5193.7339758
 10
6481.0698520639
 20
5193.4929310007
 10
6480.2953865531
 20
5193.2733450688
 10
6479.6033240874
 20
5193.0770914341
 10
6478.9995690998
 20
5192.9058444634
 10
6478.4892726149
 20
5192.7610651754
 10
6478.0767883025
 20
5192.6439887761
 10
6477.7656353332
 20
5192.5556141199
 10
6477.5584683544
 20
5192.4966951883
  0
LWPOLYLINE
  5
E2
330
1F
100
AcDbEntity
  8
0
  6
Continuous
 62
     7
370
    25
100
AcDbPolyline
 90
       37
 70
   128
 43
0.0
 10
6469.53319394
 20
5216.7263475328
 10
6469.5874991554
 20
5216.7419680309
 10
6469.7468117646
 20
5216.7873380622
 10
6470.0098721611
 20
5216.8620973787
 10
6470.3746215408
 20
5216.9656608873
 10
6470.8382052451
 20
5217.0972180632
 10
6471.3969951031
 20
5217.255739293
 10
6472.0466178265
 20
5217.4399839333
 10
6472.7819892367
 20
5217.64851002
 10
6473.5973540553
 20
5217.8796855536
 10
6474.4863309472
 20
5218.1317012721
 10
6475.4419624627
 20
5218.402584811
 10
6476.4567694897
 20
5218.6902161392
 10
6477.5228097872
 20
5218.9923441515
 10
6478.6317401445
 20
5219.3066042867
 10
6479.774881678
 20
5219.6305370331
 10
6480.9432877553
 20
5219.9616071778
 10
6482.1278140146
 20
5220.2972236479
 10
6483.3191899319
 20
5220.6347597896
 10
6484.5080913754
 20
5220.971573925
 10
6485.6852135792
 20
5221.3050300266
 10
6486.8413439662
 20
5221.6325183485
 10
6487.9674342484
 20
5221.9514758505
 10
6489.0546712427
 20
5222.2594062576
 10
6490.0945458455
 20
5222.5538995969
 10
6491.0789196279
 20
5222.8326510588
 10
6492.0000885306
 20
5223.0934790351
 10
6492.850843158
 20
5223.3343421933
 10
6493.6245252014
 20
5223.5533554525
 10
6494.31507955
 20
5223.7488047371
 10
6494.9171016798
 20
5223.9191603915
 10
6495.4258799512
 20
5224.0630891515
 10
6495.8374324845
 20
5224.1794645797
 10
6496.148538323
 20
5224.2673758803
 10
6496.3567626419
 20
5224.3261350284
 10
6496.4604758035
 20
5224.3552821539
 10
6496.4728287963
 20
5224.3586734308
  0
LINE
  5
E3
330
1F
100
AcDbEntity
  8
0
  6
Continuous
 62
     7
370
    25
100
AcDbLine
 10
6428.4987095031
 20
5268.5353150504
 30
0.0
 11
6428.4987095031
 21
5213.5353150504
 31
0.0
  0
LINE
  5
E4
330
1F
100
AcDbEntity
  8
0
  6
Continuous
 62
     7
370
    25
100
AcDbLine
 10
6430.4987095031
 20
5267.5353150492
 30
0.0
 11
6430.4987095031
 21
5214.5353150504
 31
0.0
  0
LWPOLYLINE
  5
E5
330
1F
100
AcDbEntity
  8
0
  6
Continuous
 62
     7
370
    25
100
AcDbPolyline
 90
       39
 70
   128
 43
0.0
 10
6513.0179464032
 20
5168.1581073343
 10
6513.0163637518
 20
5168.1577025597
 10
6512.9462326572
 20
5168.1380735108
 10
6512.7726382244
 20
5168.0891299586
 10
6512.4968656859
 20
5168.0112342642
 10
6512.120956765
 20
5167.9049631398
 10
6511.6476945599
 20
5167.7711033798
 10
6511.0805829385
 20
5167.610646035
 10
6510.4238205966
 20
5167.4247790754
 10
6509.682269973
 20
5167.2148785949
 10
6508.8614212489
 20
5166.9824986234
 10
6507.9673517012
 20
5166.7293596207
 10
6507.006680708
 20
5166.4573357396
 10
6505.9865207411
 20
5166.1684409496
 10
6504.9144247081
 20
5165.8648141267
 10
6503.798330033
 20
5165.5487032176
 10
6502.6464998901
 20
5165.222448597
 10
6501.4674620269
 20
5164.8884657399
 10
6500.2699456272
 20
5164.5492273385
 10
6499.0628166834
 20
5164.2072449953
 10
6497.855012356
 20
5163.8650506279
 10
6496.6554748056
 20
5163.5251777236
 10
6495.4730849884
 20
5163.1901425825
 10
6494.3165969052
 20
5162.8624256876
 10
6493.1945727889
 20
5162.5444533402
 10
6492.1153197137
 20
5162.2385796961
 10
6491.0868280916
 20
5161.947069337
 10
6490.1167125148
 20
5161.6720805035
 10
6489.2121553796
 20
5161.4156491166
 10
6488.3798537106
 20
5161.1796737047
 10
6487.6259695782
 20
5160.9659013472
 10
6486.9560844766
 20
5160.7759147398
 10
6486.3751580008
 20
5160.6111204768
 10
6485.8874911272
 20
5160.4727386374
 10
6485.4966943707
 20
5160.3617937523
 10
6485.2056610538
 20
5160.2791072185
 10
6485.0165458853
 20
5160.2252912183
 10
6484.9307490077
 20
5160.2007441865
 10
6484.9252428731
 20
5160.1991037637
  0
ARC
  5
E6
330
1F
100
AcDbEntity
  8
0
  6
Continuous
 62
     7
370
    25
100
AcDbCircle
 10
6532.6007966279
 20
5188.2094552545
 30
0.0
 40
53.90534271702312
100
AcDbArc
 50
194.3528678488
 51
197.0025434379
  0
ARC
  5
E7
330
1F
100
AcDbEntity
  8
0
  6
Continuous
 62
     7
370
    25
100
AcDbCircle
 10
6476.0278730974
 20
5172.3205934611
 30
0.0
 40
5.030369719897513
100
AcDbArc
 50
1.5483783201
 51
30.1436963056
  0
LWPOLYLINE
  5
E8
330
1F
100
AcDbEntity
  8
0
  6
Continuous
 62
     7
370
    25
100
AcDbPolyline
 90
       38
 70
   128
 43
0.0
 10
6476.1392966619
 20
5191.5746194815
 10
6476.1563871143
 20
5191.5795942636
 10
6476.2696084676
 20
5191.6119122185
 10
6476.4880128178
 20
5191.6740269104
 10
6476.8099379759
 20
5191.7654656089
 10
6477.2329338971
 20
5191.8855324105
 10
6477.753781327
 20
5192.0333135342
 10
6478.3685163023
 20
5192.2076842764
 10
6479.0724603184
 20
5192.4073175705
 10
6479.8602559365
 20
5192.6306940867
 10
6480.7259075562
 20
5192.8761137946
 10
6481.6628270459
 20
5193.1417089022
 10
6482.6638838827
 20
5193.4254580704
 10
6483.7214594195
 20
5193.7252017966
 10
6484.8275048679
 20
5194.03865885
 10
6485.9736025542
 20
5194.3634436333
 10
6487.151029983
 20
5194.6970843381
 10
6488.3508262206
 20
5195.0370417572
 10
6489.5638600932
 20
5195.3807286093
 10
6490.7808996805
 20
5195.7255292301
 10
6491.9926825764
 20
5196.0688194785
 10
6493.1899863815
 20
5196.4079867085
 10
6494.3636988907
 20
5196.7404496527
 10
6495.5048874433
 20
5197.0636780674
 10
6496.6048669051
 20
5197.3752119891
 10
6497.6552657684
 20
5197.6726804565
 10
6498.6480898635
 20
5197.9538195551
 10
6499.5757831997
 20
5198.2164896465
 10
6500.4312854703
 20
5198.4586916527
 10
6501.2080857867
 20
5198.6785822703
 10
6501.9002722294
 20
5198.8744879987
 10
6502.5025768415
 20
5199.0449178773
 10
6503.0104157213
 20
5199.1885748316
 10
6503.4199239082
 20
5199.3043655455
 10
6503.7279847978
 20
5199.3914087817
 10
6503.9322538606
 20
5199.4490420887
 10
6504.0311764857
 20
5199.4768268423
 10
6504.0410910154
 20
5199.4795354927
  0
LWPOLYLINE
  5
E9
330
1F
100
AcDbEntity
  8
0
  6
Continuous
 62
     7
370
    25
100
AcDbPolyline
 90
       49
 70
   128
 43
0.0
 10
6498.9790801083
 20
5162.9622512161
 10
6498.1608783432
 20
5162.7304635422
 10
6497.3620102825
 20
5162.5041744178
 10
6496.5961447805
 20
5162.2872557124
 10
6495.876386008
 20
5162.0834189651
 10
6495.2150492373
 20
5161.8961518794
 10
6494.623450124
 20
5161.7286586469
 10
6494.1117110927
 20
5161.5838051232
 10
6493.6885881403
 20
5161.4640697924
 10
6493.3613210178
 20
5161.3715013591
 10
6493.1355093563
 20
5161.3076836949
 10
6493.0150168561
 20
5161.2737087378
 10
6493.0019051771
 20
5161.2701578086
 10
6493.0963986639
 20
5161.2970916647
 10
6493.2968805067
 20
5161.3540494604
 10
6493.5999204056
 20
5161.440056632
 10
6494.0003332639
 20
5161.553641573
 10
6494.4912679065
 20
5161.6928608136
 10
6495.0643243057
 20
5161.8553322739
 10
6495.7096973075
 20
5162.0382760221
 10
6496.416344401
 20
5162.2385618401
 10
6497.1721746584
 20
5162.452762782
 10
6497.9642556146
 20
5162.6772138102
 10
6498.7790345447
 20
5162.9080745055
 10
6499.6025703554
 20
5163.1413947773
 10
6500.4207721206
 20
5163.3731824512
 10
6501.2196401812
 20
5163.5994715756
 10
6501.9855056833
 20
5163.8163902811
 10
6502.7052644557
 20
5164.0202270283
 10
6503.3666012264
 20
5164.207494114
 10
6503.9582003398
 20
5164.3749873465
 10
6504.469939371
 20
5164.5198408702
 10
6504.8930623234
 20
5164.639576201
 10
6505.220329446
 20
5164.7321446343
 10
6505.4461411074
 20
5164.7959622985
 10
6505.5666336077
 20
5164.8299372556
 10
6505.5797452866
 20
5164.8334881849
 10
6505.4852517998
 20
5164.8065543287
 10
6505.284769957
 20
5164.749596533
 10
6504.9817300582
 20
5164.6635893614
 10
6504.5813171999
 20
5164.5500044204
 10
6504.0903825572
 20
5164.4107851798
 10
6503.5173261581
 20
5164.2483137196
 10
6502.8719531562
 20
5164.0653699713
 10
6502.1653060628
 20
5163.8650841533
 10
6501.4094758053
 20
5163.6508832114
 10
6500.6173948491
 20
5163.4264321832
 10
6499.802615919
 20
5163.1955714879
 10
6498.9790801083
 20
5162.9622512161
  0
LINE
  5
EA
330
1F
100
AcDbEntity
  8
0
  6
Continuous
 62
     7
370
    25
100
AcDbLine
 10
6475.6921739745
 20
5221.3869126625
 30
0.0
 11
6474.1712951008
 21
5220.9793943965
 31
0.0
  0
LINE
  5
EB
330
1F
100
AcDbEntity
  8
0
  6
Continuous
 62
     7
370
    25
100
AcDbLine
 10
6490.5920341477
 20
5225.3793181633
 30
0.0
 11
6475.6921739745
 21
5221.3869126625
 31
0.0
  0
LWPOLYLINE
  5
EC
330
1F
100
AcDbEntity
  8
0
  6
Continuous
 62
     7
370
    25
100
AcDbPolyline
 90
       11
 70
   128
 43
0.0
 10
6441.4669542642
 20
5262.5826778406
 10
6441.4824718379
 20
5262.582210357
 10
6441.2484783504
 20
5262.5902339225
 10
6440.761473296
 20
5262.6144463355
 10
6440.0781743882
 20
5262.6649963495
 10
6439.2770268064
 20
5262.7481163623
 10
6438.4441195081
 20
5262.8607571139
 10
6437.6666163878
 20
5262.9889255076
 10
6437.034724973
 20
5263.10868099
 10
6436.6301582092
 20
5263.1924043526
 10
6436.5031169723
 20
5263.219824171
  0
LINE
  5
ED
330
1F
100
AcDbEntity
  8
0
  6
Continuous
 62
     7
370
    25
100
AcDbLine
 10
6495.4987095031
 20
5229.7998864035
 30
0.0
 11
6466.5209347144
 21
5222.0353150504
 31
0.0
  0
LINE
  5
EE
330
1F
100
AcDbEntity
  8
0
  6
Continuous
 62
     7
370
    25
100
AcDbLine
 10
6415.4987095031
 20
5252.0353150504
 30
0.0
 11
6415.4987095031
 21
5230.0353150504
 31
0.0
  0
LWPOLYLINE
  5
EF
330
1F
100
AcDbEntity
  8
0
  6
Continuous
 62
     8
370
    25
100
AcDbPolyline
 90
       38
 70
   128
 43
0.0
 10
6474.5616919175
 20
5192.1674280432
 10
6474.7837535304
 20
5192.2305899168
 10
6475.1085116258
 20
5192.3228424494
 10
6475.5337477765
 20
5192.4435554628
 10
6476.0565571884
 20
5192.5919043647
 10
6476.6733685431
 20
5192.7668757817
 10
6477.3799683936
 20
5192.9672744815
 10
6478.1715299464
 20
5193.1917315379
 10
6479.0426460336
 20
5193.4387136815
 10
6479.987366049
 20
5193.7065337739
 10
6480.9992365968
 20
5193.9933623323
 10
6482.0713455753
 20
5194.2972400268
 10
6483.196369393
 20
5194.6160910646
 10
6484.3666229964
 20
5194.9477373698
 10
6485.574112367
 20
5195.2899134618
 10
6486.8105891277
 20
5195.6402819311
 10
6488.0676068887
 20
5195.9964494056
 10
6489.336578944
 20
5196.3559829004
 10
6490.6088369278
 20
5196.7164264371
 10
6491.8756900279
 20
5197.0753178209
 10
6493.1284843532
 20
5197.4302054598
 10
6494.358662048
 20
5197.7786651112
 10
6495.5578197514
 20
5198.1183164426
 10
6496.7177660002
 20
5198.4468392908
 10
6497.8305771855
 20
5198.7619895117
 10
6498.8886516784
 20
5199.0616143097
 10
6499.8847617574
 20
5199.3436669437
 10
6500.8121029805
 20
5199.6062207081
 10
6501.6643406668
 20
5199.8474820945
 10
6502.4356531688
 20
5200.065803043
 10
6503.12077164
 20
5200.2596922002
 10
6503.7150160266
 20
5200.4278251066
 10
6504.2143270369
 20
5200.5690532438
 10
6504.6152938702
 20
5200.6824118804
 10
6504.9151775167
 20
5200.7671266622
 10
6505.1119294669
 20
5200.8226189012
 10
6505.2042057054
 20
5200.8485095291
 10
6505.2117230645
 20
5200.8505438323
  0
LWPOLYLINE
  5
F0
330
1F
100
AcDbEntity
  8
0
  6
Continuous
 62
     8
370
    25
100
AcDbPolyline
 90
        3
 70
   128
 43
0.0
 10
6474.4234965129
 20
5192.1278661648
 10
6474.4438436929
 20
5192.1337882885
 10
6474.5616919175
 20
5192.1674280432
  0
LWPOLYLINE
  5
F1
330
1F
100
AcDbEntity
  8
0
  6
Continuous
 62
     8
370
    25
100
AcDbPolyline
 90
       40
 70
   128
 43
0.0
 10
6503.5762210526
 20
5206.6233361774
 10
6503.5687036809
 20
5206.621301913
 10
6503.4764274424
 20
5206.5954112851
 10
6503.2796754922
 20
5206.5399190461
 10
6502.9797918457
 20
5206.4552042644
 10
6502.5788250124
 20
5206.3418456277
 10
6502.0795140021
 20
5206.2006174905
 10
6501.4852696156
 20
5206.0324845842
 10
6500.8001511443
 20
5205.838595427
 10
6500.0288386423
 20
5205.6202744784
 10
6499.176600956
 20
5205.379013092
 10
6498.2492597329
 20
5205.1164593276
 10
6497.253149654
 20
5204.8344066936
 10
6496.195075161
 20
5204.5347818956
 10
6495.0822639757
 20
5204.2196316747
 10
6493.9223177269
 20
5203.8911088265
 10
6492.7231600235
 20
5203.5514574952
 10
6491.4929823287
 20
5203.2029978437
 10
6490.2401880034
 20
5202.8481102048
 10
6488.9733349033
 20
5202.489218821
 10
6487.7010769195
 20
5202.1287752843
 10
6486.4321048642
 20
5201.7692417895
 10
6485.1750871032
 20
5201.413074315
 10
6483.9386103425
 20
5201.0627058458
 10
6482.7311209719
 20
5200.7205297537
 10
6481.5608673685
 20
5200.3888834485
 10
6480.4358435508
 20
5200.0700324107
 10
6479.3637345723
 20
5199.7661547163
 10
6478.3518640245
 20
5199.4793261579
 10
6477.4071440091
 20
5199.2115060654
 10
6476.536027922
 20
5198.9645239218
 10
6475.7444663691
 20
5198.7400668654
 10
6475.0378665186
 20
5198.5396681656
 10
6474.4210551639
 20
5198.3646967486
 10
6473.898245752
 20
5198.2163478467
 10
6473.4730096013
 20
5198.0956348333
 10
6473.1482515059
 20
5198.0033823007
 10
6472.926189893
 20
5197.9402204272
 10
6472.8083416684
 20
5197.9065806724
 10
6472.7879944834
 20
5197.9006585656
  0
LWPOLYLINE
  5
F2
330
1F
100
AcDbEntity
  8
0
  6
Continuous
 62
     8
370
    25
100
AcDbPolyline
 90
       39
 70
   128
 43
0.0
 10
6473.4775428745
 20
5199.1353744114
 10
6473.4949969225
 20
5199.1404604973
 10
6473.6071010894
 20
5199.1724635502
 10
6473.8222545419
 20
5199.2336589486
 10
6474.1389070943
 20
5199.3236057783
 10
6474.5547772578
 20
5199.4416559703
 10
6475.0668686782
 20
5199.5869589704
 10
6475.6714917253
 20
5199.7584678669
 10
6476.364290076
 20
5199.9549469345
 10
6477.1402721024
 20
5200.174980537
 10
6477.9938468362
 20
5200.4169833271
 10
6478.9188642519
 20
5200.6792116692
 10
6479.9086595778
 20
5200.9597762022
 10
6480.9561013159
 20
5201.2566554521
 10
6482.0536426245
 20
5201.5677103971
 10
6483.1933756933
 20
5201.8906998793
 10
6484.3670887194
 20
5202.223296752
 10
6485.5663250735
 20
5202.5631046471
 10
6486.7824442304
 20
5202.9076752409
 10
6488.0066840235
 20
5203.2545258945
 10
6489.2302237771
 20
5203.6011575409
 10
6490.4442478592
 20
5203.9450726911
 10
6491.6400091986
 20
5204.2837934287
 10
6492.8088923073
 20
5204.6148792629
 10
6493.9424753558
 20
5204.9359447127
 10
6495.0325908522
 20
5205.2446764943
 10
6496.0713844894
 20
5205.538850188
 10
6497.0513717355
 20
5205.8163462656
 10
6497.9654917599
 20
5206.0751653615
 10
6498.8071583068
 20
5206.3134426783
 10
6499.5703071496
 20
5206.5294614224
 10
6500.2494397832
 20
5206.7216651737
 10
6500.8396630415
 20
5206.8886691
 10
6501.3367243525
 20
5207.0292699339
 10
6501.7370423779
 20
5207.1424546434
 10
6502.0377328173
 20
5207.22740773
 10
6502.2366291891
 20
5207.2835171047
 10
6502.3322984404
 20
5207.3103784983
 10
6502.3415052341
 20
5207.3128847126
  0
LWPOLYLINE
  5
F3
330
1F
100
AcDbEntity
  8
0
  6
Continuous
 62
     8
370
    25
100
AcDbPolyline
 90
       39
 70
   128
 43
0.0
 10
6497.7075828989
 20
5223.6691296538
 10
6497.6983760376
 20
5223.6666235861
 10
6497.6027067863
 20
5223.6397621925
 10
6497.4038104146
 20
5223.5836528178
 10
6497.1031199752
 20
5223.4986997312
 10
6496.7028019498
 20
5223.3855150217
 10
6496.2057406388
 20
5223.2449141878
 10
6495.6155173805
 20
5223.0779102615
 10
6494.9363847468
 20
5222.8857065102
 10
6494.1732359041
 20
5222.6696877661
 10
6493.3315693572
 20
5222.4314104493
 10
6492.4174493328
 20
5222.1725913534
 10
6491.4374620867
 20
5221.8950952758
 10
6490.3986684495
 20
5221.6009215821
 10
6489.308552953
 20
5221.2921898005
 10
6488.1749699046
 20
5220.9711243507
 10
6487.0060867958
 20
5220.6400385165
 10
6485.8103254565
 20
5220.3013177789
 10
6484.5963013743
 20
5219.9574026287
 10
6483.3727616207
 20
5219.6107709823
 10
6482.1485218276
 20
5219.2639203287
 10
6480.9324026708
 20
5218.9193497349
 10
6479.7331663166
 20
5218.5795418398
 10
6478.5594532905
 20
5218.2469449671
 10
6477.4197202218
 20
5217.9239554849
 10
6476.3221789132
 20
5217.6129005399
 10
6475.2747371751
 20
5217.31602129
 10
6474.2849418492
 20
5217.035456757
 10
6473.3599244335
 20
5216.7732284149
 10
6472.5063496997
 20
5216.5312256248
 10
6471.7303676733
 20
5216.3111920223
 10
6471.0375693226
 20
5216.1147129547
 10
6470.4329462755
 20
5215.9432040582
 10
6469.920854855
 20
5215.7979010581
 10
6469.5049846916
 20
5215.6798508661
 10
6469.1883321392
 20
5215.5899040364
 10
6468.9731786867
 20
5215.528708638
 10
6468.8610745198
 20
5215.4967055851
 10
6468.8436204902
 20
5215.4916193928
  0
LINE
  5
F4
330
1F
100
AcDbEntity
  8
0
  6
Continuous
 62
     8
370
    25
100
AcDbLine
 10
6429.4987095031
 20
5213.5353150504
 30
0.0
 11
6429.4987095031
 21
5268.5353150504
 31
0.0
  0
LWPOLYLINE
  5
F5
330
1F
100
AcDbEntity
  8
0
  6
Continuous
 62
     8
370
    25
100
AcDbPolyline
 90
       39
 70
   128
 43
0.0
 10
6484.4060297082
 20
5160.5613557411
 10
6484.40639099
 20
5160.5614785676
 10
6484.4670414788
 20
5160.578904894
 10
6484.6312351317
 20
5160.6256643529
 10
6484.8977889295
 20
5160.7014200412
 10
6485.2647823462
 20
5160.8056261376
 10
6485.7295711857
 20
5160.9375318346
 10
6486.2888066338
 20
5161.0961867488
 10
6486.9384593862
 20
5161.2804477678
 10
6487.67384868
 20
5161.4889872867
 10
6488.4896760185
 20
5161.7203027737
 10
6489.3800633471
 20
5161.9727275952
 10
6490.3385954045
 20
5162.2444430246
 10
6491.3583659454
 20
5162.5334913461
 10
6492.4320274997
 20
5162.8377899599
 10
6493.5518443112
 20
5163.1551463874
 10
6494.7097480742
 20
5163.4832740685
 10
6495.8973960655
 20
5163.8198088355
 10
6497.1062312542
 20
5164.1623259478
 10
6498.3275439549
 20
5164.5083575617
 10
6499.5525345818
 20
5164.8554105116
 10
6500.7723770492
 20
5165.200984273
 10
6501.9782823642
 20
5165.542588979
 10
6503.1615619515
 20
5165.8777633598
 10
6504.3136902544
 20
5166.2040924765
 10
6505.4263661621
 20
5166.5192251201
 10
6506.4915728193
 20
5166.8208907529
 10
6507.5016353875
 20
5167.1069158669
 10
6508.4492763428
 20
5167.3752396448
 10
6509.3276679105
 20
5167.6239288075
 10
6510.130481259
 20
5167.8511915439
 10
6510.8519321
 20
5168.0553904208
 10
6511.4868223634
 20
5168.2350541806
 10
6512.0305776505
 20
5168.3888883418
 10
6512.4792801919
 20
5168.5157845258
 10
6512.8296970755
 20
5168.6148284426
 10
6513.0793035396
 20
5168.6853064785
 10
6513.2263011641
 20
5168.7267108377
 10
6513.2699921087
 20
5168.7388660293
  0
LWPOLYLINE
  5
F6
330
1F
100
AcDbEntity
  8
0
  6
Continuous
 62
     8
370
    25
100
AcDbPolyline
 90
       39
 70
   128
 43
0.0
 10
6504.658466503
 20
5199.1347620221
 10
6504.6147755539
 20
5199.1226068451
 10
6504.4677779295
 20
5199.0812024859
 10
6504.2181714653
 20
5199.0107244499
 10
6503.8677545817
 20
5198.9116805331
 10
6503.4190520403
 20
5198.7847843492
 10
6502.8752967533
 20
5198.630950188
 10
6502.2404064898
 20
5198.4512864282
 10
6501.5189556489
 20
5198.2470875512
 10
6500.7161423003
 20
5198.0198248148
 10
6499.8377507327
 20
5197.7711356521
 10
6498.8901097774
 20
5197.5028118743
 10
6497.8800472091
 20
5197.2167867602
 10
6496.814840552
 20
5196.9151211275
 10
6495.7021646442
 20
5196.5999884838
 10
6494.5500363413
 20
5196.2736593672
 10
6493.3667567541
 20
5195.9384849863
 10
6492.160851439
 20
5195.5968802804
 10
6490.9410089716
 20
5195.251306519
 10
6489.7160183448
 20
5194.9042535691
 10
6488.494705644
 20
5194.5582219551
 10
6487.2858704554
 20
5194.2157048428
 10
6486.0982224641
 20
5193.8791700758
 10
6484.9403187011
 20
5193.5510423948
 10
6483.8205018896
 20
5193.2336859672
 10
6482.7468403353
 20
5192.9293873535
 10
6481.7270697944
 20
5192.640339032
 10
6480.7685377369
 20
5192.3686236025
 10
6479.8781504084
 20
5192.116198781
 10
6479.0623230699
 20
5191.8848832941
 10
6478.326933776
 20
5191.6763437751
 10
6477.6772810236
 20
5191.4920827561
 10
6477.1180455755
 20
5191.333427842
 10
6476.6532567361
 20
5191.2015221449
 10
6476.2862633194
 20
5191.0973160486
 10
6476.0197095215
 20
5191.0215603603
 10
6475.8555158687
 20
5190.9748009014
 10
6475.7948653799
 20
5190.957374575
 10
6475.7945040943
 20
5190.9572517611
  0
LINE
  5
F7
330
1F
100
AcDbEntity
  8
0
  6
Continuous
 62
     7
370
    25
100
AcDbLine
 10
6289.0164993342
 20
5003.5180388505
 30
0.0
 11
6289.0196287645
 21
5008.1519612532
 31
0.0
  0
LINE
  5
F8
330
1F
100
AcDbEntity
  8
0
  6
Continuous
 62
     7
370
    25
100
AcDbLine
 10
6259.0196356056
 20
5008.1722211716
 30
0.0
 11
6259.0165061752
 21
5003.5382987689
 31
0.0
  0
LINE
  5
F9
330
1F
100
AcDbEntity
  8
0
  6
Continuous
 62
     7
370
    25
100
AcDbLine
 10
6290.0152105172
 20
5001.6092778247
 30
0.0
 11
6290.016315022
 21
5003.2447798492
 31
0.0
  0
LINE
  5
FA
330
1F
100
AcDbEntity
  8
0
  6
Continuous
 62
     7
370
    25
100
AcDbLine
 10
6258.0163223191
 20
5003.2663904287
 30
0.0
 11
6258.0152178143
 21
5001.6308884043
 31
0.0
  0
LINE
  5
FB
330
1F
100
AcDbEntity
  8
0
  6
Continuous
 62
     7
370
    25
100
AcDbLine
 10
6246.5187553361
 20
5062.9389834039
 30
0.0
 11
6246.5187553361
 21
5061.9389834039
 31
0.0
  0
LINE
  5
FC
330
1F
100
AcDbEntity
  8
0
  6
Continuous
 62
     7
370
    25
100
AcDbLine
 10
6301.5187553361
 20
5061.9389834039
 30
0.0
 11
6301.5187553361
 21
5062.9389834039
 31
0.0
  0
ARC
  5
FD
330
1F
100
AcDbEntity
  8
0
  6
Continuous
 62
     7
370
    25
100
AcDbCircle
 10
6300.5187553361
 20
5061.9389834039
 30
0.0
 40
1.0
100
AcDbArc
 50
270.0
 51
0.0
  0
ARC
  5
FE
330
1F
100
AcDbEntity
  8
0
  6
Continuous
 62
     7
370
    25
100
AcDbCircle
 10
6247.5187553361
 20
5061.9389834039
 30
0.0
 40
1.0
100
AcDbArc
 50
180.0
 51
270.0
  0
LINE
  5
FF
330
1F
100
AcDbEntity
  8
0
  6
Continuous
 62
     7
370
    25
100
AcDbLine
 10
6259.0115998911
 20
4996.273289677
 30
0.0
 11
6259.0091258319
 21
4992.6098119574
 31
0.0
  0
LINE
  5
100
330
1F
100
AcDbEntity
  8
0
  6
Continuous
 62
     7
370
    25
100
AcDbLine
 10
6289.0091189908
 20
4992.589552039
 30
0.0
 11
6289.01159305
 21
4996.2530297586
 31
0.0
  0
LWPOLYLINE
  5
101
330
1F
100
AcDbEntity
  8
0
  6
Continuous
 62
     7
370
    25
100
AcDbPolyline
 90
       30
 70
   128
 43
0.0
 10
6251.5179820838
 20
5060.9389834039
 10
6251.7820986734
 20
5059.1800458665
 10
6251.9848155022
 20
5057.79154288
 10
6252.1381013195
 20
5056.7211342835
 10
6252.2890619048
 20
5055.650892462
 10
6252.531216233
 20
5053.9034309834
 10
6252.7798032201
 20
5052.0741462109
 10
6253.2452354306
 20
5048.5686719092
 10
6253.7391864005
 20
5044.7626201198
 10
6254.3290186736
 20
5040.1528243821
 10
6254.8849225142
 20
5035.7975770303
 10
6255.4080749161
 20
5031.7402900893
 10
6255.6955401588
 20
5029.5457866452
 10
6255.9773016945
 20
5027.4287482194
 10
6256.2533793663
 20
5025.3943513946
 10
6256.5219344626
 20
5023.4601695441
 10
6256.7788077247
 20
5021.657563134
 10
6257.0446580414
 20
5019.846969515
 10
6257.2799110995
 20
5018.2963621888
 10
6257.5322194679
 20
5016.6922736725
 10
6257.7876334612
 20
5015.1357468886
 10
6258.04080813
 20
5013.6647740866
 10
6258.1794594963
 20
5012.8912701971
 10
6258.3138782958
 20
5012.1639456037
 10
6258.4426799821
 20
5011.4884479983
 10
6258.5786031104
 20
5010.7989507192
 10
6258.7336355781
 20
5010.0425838062
 10
6258.9383972472
 20
5009.0936506212
 10
6259.1949433409
 20
5007.986163483
 10
6259.5057148846
 20
5006.7671533465
  0
LWPOLYLINE
  5
102
330
1F
100
AcDbEntity
  8
0
  6
Continuous
 62
     7
370
    25
100
AcDbPolyline
 90
       39
 70
   128
 43
0.0
 10
6288.5317957876
 20
5006.7671533465
 10
6288.872332214
 20
5008.1096201032
 10
6289.1587982322
 20
5009.3639979786
 10
6289.3954411454
 20
5010.4853850084
 10
6289.5882074692
 20
5011.4542992452
 10
6289.7394773219
 20
5012.2484960465
 10
6289.8741093534
 20
5012.9796518159
 10
6290.0817300967
 20
5014.1505020438
 10
6290.3185958553
 20
5015.5475650363
 10
6290.5810671387
 20
5017.1672997564
 10
6290.8392325829
 20
5018.828606347
 10
6290.9971779304
 20
5019.8759106864
 10
6291.1493331671
 20
5020.9055465982
 10
6291.2755855584
 20
5021.7744821867
 10
6291.3717247872
 20
5022.4445886186
 10
6291.4399653676
 20
5022.9244756006
 10
6291.5564381026
 20
5023.7513402054
 10
6291.7115157876
 20
5024.8667316733
 10
6291.9050834369
 20
5026.2803601594
 10
6292.1369925717
 20
5028.0020138087
 10
6292.4023122421
 20
5030.0039588063
 10
6292.6592666876
 20
5031.9698553985
 10
6293.000894198
 20
5034.6148553814
 10
6293.3047541865
 20
5036.9875378251
 10
6293.5711717884
 20
5039.0756917332
 10
6293.8043506069
 20
5040.9042882151
 10
6294.0530441121
 20
5042.8508750102
 10
6294.3317298457
 20
5045.0219176807
 10
6294.6403208622
 20
5047.4054271383
 10
6294.8969324888
 20
5049.3647722249
 10
6295.1437167464
 20
5051.2244994419
 10
6295.3705534993
 20
5052.9086687822
 10
6295.5775132471
 20
5054.4210883643
 10
6295.6780106127
 20
5055.1463535223
 10
6295.7824692672
 20
5055.8934265155
 10
6295.9178924835
 20
5056.8511121071
 10
6296.0859217128
 20
5058.0213111627
 10
6296.2864931104
 20
5059.3900732417
 10
6296.5195285884
 20
5060.9389834039
  0
LINE
  5
103
330
1F
100
AcDbEntity
  8
0
  6
Continuous
 62
     7
370
    25
100
AcDbLine
 10
6285.0187553361
 20
5062.9389834039
 30
0.0
 11
6285.0187553361
 21
5075.9389834039
 31
0.0
  0
LINE
  5
104
330
1F
100
AcDbEntity
  8
0
  6
Continuous
 62
     7
370
    25
100
AcDbLine
 10
6263.0187553361
 20
5075.9389834039
 30
0.0
 11
6263.0187553361
 21
5062.9389834039
 31
0.0
  0
ARC
  5
105
330
1F
100
AcDbEntity
  8
0
  6
Continuous
 62
     7
370
    25
100
AcDbCircle
 10
6272.9727866542
 20
5008.1679186478
 30
0.0
 40
13.95298102921885
100
AcDbArc
 50
178.3719107287
 51
202.5840363385
  0
ARC
  5
106
330
1F
100
AcDbEntity
  8
0
  6
Continuous
 62
     7
370
    25
100
AcDbCircle
 10
6275.0658653161
 20
5008.166349912
 30
0.0
 40
13.9536228877034
100
AcDbArc
 50
336.6003277781
 51
1.3944479368
  0
ARC
  5
107
330
1F
100
AcDbEntity
  8
0
  6
Continuous
 62
     7
370
    25
100
AcDbCircle
 10
6274.8316016988
 20
5003.5846487701
 30
0.0
 40
14.1850540291016
100
AcDbArc
 50
312.56750932
 51
359.7309505285
  0
ARC
  5
108
330
1F
100
AcDbEntity
  8
0
  6
Continuous
 62
     7
370
    25
100
AcDbCircle
 10
6273.2355060982
 20
5003.5948489859
 30
0.0
 40
14.21911237508306
100
AcDbArc
 50
180.2278691682
 51
230.9156591472
  0
ARC
  5
109
330
1F
100
AcDbEntity
  8
0
  6
Continuous
 62
     7
370
    25
100
AcDbCircle
 10
6273.0797764026
 20
5003.2560646909
 30
0.0
 40
15.049129067369
100
AcDbArc
 50
159.0239894739
 51
231.9584942857
  0
ARC
  5
10A
330
1F
100
AcDbEntity
  8
0
  6
Continuous
 62
     7
370
    25
100
AcDbCircle
 10
6274.9539968743
 20
5003.2531424947
 30
0.0
 40
15.04880519693159
100
AcDbArc
 50
307.2957068481
 51
20.7708599171
  0
LWPOLYLINE
  5
10B
330
1F
100
AcDbEntity
  8
0
  6
Continuous
 62
     7
370
    25
100
AcDbPolyline
 90
       40
 70
   128
 43
0.0
 10
6258.0152178143
 20
5001.6308884043
 10
6258.0364053856
 20
5000.8288559792
 10
6258.158960589
 20
4999.562002879
 10
6258.3898300823
 20
4998.3092085538
 10
6258.7274367929
 20
4997.0790308589
 10
6259.1694745245
 20
4995.8798731556
 10
6259.7129237113
 20
4994.7199269067
 10
6260.3540720442
 20
4993.6071157214
 10
6261.08853983
 20
4992.5490412285
 10
6261.911309909
 20
4991.5529311496
 10
6262.8167619272
 20
4990.6255899265
 10
6263.7987107294
 20
4989.7733522402
 10
6264.8504486094
 20
4989.0020397381
 10
6265.9647911311
 20
4988.3169212669
 10
6267.1341262051
 20
4987.7226768803
 10
6268.3504660873
 20
4987.2233658701
 10
6269.6055019428
 20
4986.8223990367
 10
6270.8906606042
 20
4986.5225153903
 10
6272.1971631346
 20
4986.3257634401
 10
6273.5160847971
 20
4986.2334872015
 10
6274.8384160193
 20
4986.2463170149
 10
6276.1551239381
 20
4986.3641652394
 10
6277.4572141033
 20
4986.5862268524
 10
6278.7357919188
 20
4986.9109849478
 10
6279.9821234017
 20
4987.3362210984
 10
6281.1876948441
 20
4987.8590305103
 10
6282.3442709706
 20
4988.475841865
 10
6283.4439511937
 20
4989.1824417155
 10
6284.4792235822
 20
4989.9740032684
 10
6285.443016176
 20
4990.8451193556
 10
6286.3287452945
 20
4991.7898393709
 10
6287.1303605096
 20
4992.8017099188
 10
6287.8423859766
 20
4993.8738188972
 10
6288.4599578396
 20
4994.9988427149
 10
6288.9788574565
 20
4996.1690963184
 10
6289.3955402168
 20
4997.3765856889
 10
6289.7071597547
 20
4998.6130624497
 10
6289.9115873928
 20
4999.8700802107
 10
6290.007426683
 20
5001.139052266
 10
6290.0152105172
 20
5001.6092778247
  0
LINE
  5
10C
330
1F
100
AcDbEntity
  8
0
  6
Continuous
 62
     7
370
    25
100
AcDbLine
 10
6301.5187553361
 20
5062.9389834039
 30
0.0
 11
6246.5187553361
 21
5062.9389834039
 31
0.0
  0
LINE
  5
10D
330
1F
100
AcDbEntity
  8
0
  6
Continuous
 62
     7
370
    25
100
AcDbLine
 10
6300.5187553361
 20
5060.9389834039
 30
0.0
 11
6247.5187553361
 21
5060.9389834039
 31
0.0
  0
LWPOLYLINE
  5
10E
330
1F
100
AcDbEntity
  8
0
  6
Continuous
 62
     7
370
    25
100
AcDbPolyline
 90
       39
 70
   128
 43
0.0
 10
6259.0091258319
 20
4992.6098119574
 10
6259.0275568061
 20
4991.8851583252
 10
6259.1445751211
 20
4990.6653158578
 10
6259.3686928399
 20
4989.4594105427
 10
6259.6982951892
 20
4988.2761309555
 10
6260.1310073767
 20
4987.1240026526
 10
6260.6637117009
 20
4986.0113267449
 10
6261.2925700152
 20
4984.9461200877
 10
6262.0130513808
 20
4983.9360575195
 10
6262.8199647132
 20
4982.9884165641
 10
6263.7074961831
 20
4982.1100249965
 10
6264.6692511061
 20
4981.3072116479
 10
6265.6983000158
 20
4980.585760807
 10
6266.7872285914
 20
4979.9508705436
 10
6267.9281910774
 20
4979.4071152565
 10
6269.112966813
 20
4978.9584127151
 10
6270.3330194619
 20
4978.6079958315
 10
6271.5795585168
 20
4978.3583893673
 10
6272.8436026352
 20
4978.2113917429
 10
6274.1160443503
 20
4978.1680620795
 10
6275.3877156904
 20
4978.2287125683
 10
6276.6494542344
 20
4978.3929062211
 10
6277.892169127
 20
4978.659460019
 10
6279.1069065791
 20
4979.0264534356
 10
6280.2849143794
 20
4979.4912422751
 10
6281.4177049548
 20
4980.0504777232
 10
6282.4971165232
 20
4980.7001304756
 10
6283.5153718995
 20
4981.4355197695
 10
6284.4651345304
 20
4982.251347108
 10
6285.3395613545
 20
4983.1417344365
 10
6286.1323521062
 20
4984.1002664939
 10
6286.8377947103
 20
4985.1200370349
 10
6287.4508064364
 20
4986.1936985891
 10
6287.9669705211
 20
4987.3135154007
 10
6288.3825679904
 20
4988.4714191637
 10
6288.6946044549
 20
4989.659067155
 10
6288.9008316847
 20
4990.8679023436
 10
6288.999763808
 20
4992.0892150444
 10
6289.0091189908
 20
4992.589552039
  0
CIRCLE
  5
10F
330
1F
100
AcDbEntity
  8
0
  6
Continuous
 62
     7
370
    25
100
AcDbCircle
 10
6274.0187553361
 20
5052.4389834039
 30
0.0
 40
2.5
  0
ARC
  5
110
330
1F
100
AcDbEntity
  8
0
  6
Continuous
 62
     7
370
    25
100
AcDbCircle
 10
6273.8438421952
 20
5010.8444639533
 30
0.0
 40
14.90650680121832
100
AcDbArc
 50
195.7655650743
 51
270.6723248365
  0
ARC
  5
111
330
1F
100
AcDbEntity
  8
0
  6
Continuous
 62
     7
370
    25
100
AcDbCircle
 10
6274.1936752597
 20
5010.8444439727
 30
0.0
 40
14.90648690157172
100
AcDbArc
 50
269.3276481937
 51
344.2368270185
  0
LINE
  5
112
330
1F
100
AcDbEntity
  8
0
  6
Continuous
 62
     7
370
    25
100
AcDbLine
 10
6274.0187553361
 20
5075.9389834039
 30
0.0
 11
6263.0187553361
 21
5075.9389834039
 31
0.0
  0
LINE
  5
113
330
1F
100
AcDbEntity
  8
0
  6
Continuous
 62
     7
370
    25
100
AcDbLine
 10
6285.0187553361
 20
5075.9389834039
 30
0.0
 11
6274.0187553361
 21
5075.9389834039
 31
0.0
  0
LINE
  5
114
330
1F
100
AcDbEntity
  8
0
  6
Continuous
 62
     7
370
    25
100
AcDbLine
 10
6274.95802974
 20
5054.7389834039
 30
0.0
 11
6273.0872499564
 21
5054.7389834039
 31
0.0
  0
ARC
  5
115
330
1F
100
AcDbEntity
  8
0
  6
Continuous
 62
     8
370
    25
100
AcDbCircle
 10
6273.9278958587
 20
5008.7869335972
 30
0.0
 40
15.07396576231017
100
AcDbArc
 50
203.3623057901
 51
278.0000429087
  0
ARC
  5
116
330
1F
100
AcDbEntity
  8
0
  6
Continuous
 62
     8
370
    25
100
AcDbCircle
 10
6274.2355792106
 20
5008.6667597136
 30
0.0
 40
14.9149200743924
100
AcDbArc
 50
276.8937586263
 51
336.1027981476
  0
ARC
  5
117
330
1F
100
AcDbEntity
  8
0
  6
Continuous
 62
     8
370
    25
100
AcDbCircle
 10
6274.2078907007
 20
5008.9362179025
 30
0.0
 40
13.9525114186202
100
AcDbArc
 50
276.9336553208
 51
332.9180062844
  0
ARC
  5
118
330
1F
100
AcDbEntity
  8
0
  6
Continuous
 62
     8
370
    25
100
AcDbCircle
 10
6273.9530547133
 20
5009.0759990236
 30
0.0
 40
14.12400750746138
100
AcDbArc
 50
207.4395937383
 51
277.8914601959
  0
ARC
  5
119
330
1F
100
AcDbEntity
  8
0
  6
Continuous
 62
     8
370
    25
100
AcDbCircle
 10
6274.1032798579
 20
5004.3338319772
 30
0.0
 40
15.22952131091118
100
AcDbArc
 50
277.2402853752
 51
312.6788832062
  0
ARC
  5
11A
330
1F
100
AcDbEntity
  8
0
  6
Continuous
 62
     8
370
    25
100
AcDbCircle
 10
6274.0026949844
 20
5004.4915358913
 30
0.0
 40
15.39885186337204
100
AcDbArc
 50
230.8033738169
 51
277.5376043883
  0
ARC
  5
11B
330
1F
100
AcDbEntity
  8
0
  6
Continuous
 62
     8
370
    25
100
AcDbCircle
 10
6274.5228251202
 20
5003.4809440969
 30
0.0
 40
14.95054502220936
100
AcDbArc
 50
276.0148964926
 51
14.1627200674
  0
ARC
  5
11C
330
1F
100
AcDbEntity
  8
0
  6
Continuous
 62
     8
370
    25
100
AcDbCircle
 10
6273.7194415211
 20
5003.5605528376
 30
0.0
 40
15.13456445699248
100
AcDbArc
 50
166.2444398259
 51
279.0093497858
  0
ARC
  5
11D
330
1F
100
AcDbEntity
  8
0
  6
Continuous
 62
     8
370
    25
100
AcDbCircle
 10
6274.0032544256
 20
5004.2936481897
 30
0.0
 40
16.43560499425826
100
AcDbArc
 50
231.6520449311
 51
277.5270649935
  0
ARC
  5
11E
330
1F
100
AcDbEntity
  8
0
  6
Continuous
 62
     8
370
    25
100
AcDbCircle
 10
6274.0795865363
 20
5004.1972412378
 30
0.0
 40
16.33015138466101
100
AcDbArc
 50
277.3058634447
 51
307.7292087434
  0
LINE
  5
11F
330
1F
100
AcDbEntity
  8
0
  6
Continuous
 62
     8
370
    25
100
AcDbLine
 10
6246.5187553361
 20
5061.9389834039
 30
0.0
 11
6301.5187553361
 21
5061.9389834039
 31
0.0
  0
ENDSEC
  0
SECTION
  2
OBJECTS
  0
DICTIONARY
  5
C
330
0
100
AcDbDictionary
281
     1
  3
ACAD_GROUP
350
D
  3
ACAD_LAYOUT
350
1A
  3
ACAD_MLINESTYLE
350
17
  3
ACAD_PLOTSETTINGS
350
19
  3
ACAD_PLOTSTYLENAME
350
E
  3
ACAD_SCALELIST
350
47
  3
DWGPROPS
350
120
  0
DICTIONARY
  5
D
102
{ACAD_REACTORS
330
C
102
}
330
C
100
AcDbDictionary
281
     1
  0
DICTIONARY
  5
1A
102
{ACAD_REACTORS
330
C
102
}
330
C
100
AcDbDictionary
281
     1
  3
Layout1
350
1E
  3
Layout2
350
26
  3
Model
350
22
  0
DICTIONARY
  5
17
102
{ACAD_REACTORS
330
C
102
}
330
C
100
AcDbDictionary
281
     1
  3
Standard
350
18
  0
DICTIONARY
  5
19
102
{ACAD_REACTORS
330
C
102
}
330
C
100
AcDbDictionary
281
     1
  0
ACDBDICTIONARYWDFLT
  5
E
102
{ACAD_REACTORS
330
C
102
}
330
C
100
AcDbDictionary
281
     1
  3
Normal
350
F
100
AcDbDictionaryWithDefault
340
F
  0
DICTIONARY
  5
47
102
{ACAD_REACTORS
330
C
102
}
330
C
100
AcDbDictionary
281
     1
  3
A0
350
48
  3
A1
350
49
  3
A2
350
4A
  3
A3
350
4B
  3
A4
350
4C
  3
A5
350
4D
  3
A6
350
4E
  3
A7
350
4F
  3
A8
350
50
  3
A9
350
51
  3
B0
350
52
  3
B1
350
53
  3
B2
350
54
  3
B3
350
55
  3
B4
350
56
  3
B5
350
57
  3
B6
350
58
  3
B7
350
59
  3
B8
350
5A
  3
B9
350
5B
  3
C0
350
5C
  3
C1
350
5D
  3
C2
350
5E
  3
C3
350
5F
  3
C4
350
60
  3
C5
350
61
  3
C6
350
62
  3
C7
350
63
  3
C8
350
64
  3
C9
350
65
  3
D0
350
66
  3
D1
350
67
  3
D2
350
68
  0
XRECORD
  5
120
102
{ACAD_REACTORS
330
C
102
}
330
C
100
AcDbXrecord
280
     1
  1
DWGPROPS COOKIE
  2

  3

  4

  6

  7

  8
radek.stransky
  9

300
=
301
=
302
=
303
=
304
=
305
=
306
=
307
=
308
=
309
=
 40
0.0
 41
2459122.242049757
 42
2459122.242049988
  1

 90
        0
  0
LAYOUT
  5
1E
102
{ACAD_REACTORS
330
1A
102
}
330
1A
100
AcDbPlotSettings
  1

  2
none_device
  4

  6

 40
0.0
 41
0.0
 42
0.0
 43
0.0
 44
0.0
 45
0.0
 46
0.0
 47
0.0
 48
0.0
 49
0.0
140
0.0
141
0.0
142
1.0
143
1.0
 70
   688
 72
     1
 73
     0
 74
     5
  7

 75
    16
147
1.0
148
0.0
149
0.0
100
AcDbLayout
  1
Layout1
 70
     1
 71
     1
 10
0.0
 20
0.0
 11
420.0
 21
297.0
 12
0.0
 22
0.0
 32
0.0
 14
1.0000000000E+20
 24
1.0000000000E+20
 34
1.0000000000E+20
 15
-1.0000000000E+20
 25
-1.0000000000E+20
 35
-1.0000000000E+20
146
0.0
 13
0.0
 23
0.0
 33
0.0
 16
1.0
 26
0.0
 36
0.0
 17
0.0
 27
1.0
 37
0.0
 76
     0
330
1B
  0
LAYOUT
  5
26
102
{ACAD_REACTORS
330
1A
102
}
330
1A
100
AcDbPlotSettings
  1

  2
none_device
  4

  6

 40
0.0
 41
0.0
 42
0.0
 43
0.0
 44
0.0
 45
0.0
 46
0.0
 47
0.0
 48
0.0
 49
0.0
140
0.0
141
0.0
142
1.0
143
1.0
 70
   688
 72
     1
 73
     0
 74
     5
  7

 75
    16
147
1.0
148
0.0
149
0.0
100
AcDbLayout
  1
Layout2
 70
     1
 71
     2
 10
0.0
 20
0.0
 11
0.0
 21
0.0
 12
0.0
 22
0.0
 32
0.0
 14
0.0
 24
0.0
 34
0.0
 15
0.0
 25
0.0
 35
0.0
146
0.0
 13
0.0
 23
0.0
 33
0.0
 16
1.0
 26
0.0
 36
0.0
 17
0.0
 27
1.0
 37
0.0
 76
     0
330
23
  0
LAYOUT
  5
22
102
{ACAD_REACTORS
330
1A
102
}
330
1A
100
AcDbPlotSettings
  1

  2
none_device
  4
Letter_(8.50_x_11.00_Inches)
  6

 40
6.35
 41
6.35
 42
6.35000508
 43
6.35000508
 44
215.9
 45
279.4
 46
0.0
 47
0.0
 48
0.0
 49
0.0
140
0.0
141
0.0
142
1.0
143
1.0
 70
  1712
 72
     1
 73
     0
 74
     0
  7

 75
     0
147
1.0
148
0.0
149
0.0
100
AcDbLayout
  1
Model
 70
     1
 71
     0
 10
0.0
 20
0.0
 11
20000.0
 21
10000.0
 12
0.0
 22
0.0
 32
0.0
 14
0.0
 24
0.0
 34
0.0
 15
20000.0
 25
10000.0
 35
0.0
146
0.0
 13
0.0
 23
0.0
 33
0.0
 16
1.0
 26
0.0
 36
0.0
 17
0.0
 27
1.0
 37
0.0
 76
     0
330
1F
331
29
  0
MLINESTYLE
  5
18
102
{ACAD_REACTORS
330
17
102
}
330
17
100
AcDbMlineStyle
  2
Standard
 70
     0
  3

 62
   256
 51
90.0
 52
90.0
 71
     2
 49
0.5
 62
   256
  6
BYLAYER
 49
-0.5
 62
   256
  6
BYLAYER
  0
ACDBPLACEHOLDER
  5
F
102
{ACAD_REACTORS
330
E
102
}
330
E
  0
SCALE
  5
48
102
{ACAD_REACTORS
330
47
102
}
330
47
100
AcDbScale
 70
     0
300
1:1
140
1.0
141
1.0
290
     1
  0
SCALE
  5
49
102
{ACAD_REACTORS
330
47
102
}
330
47
100
AcDbScale
 70
     0
300
1:2
140
1.0
141
2.0
290
     0
  0
SCALE
  5
4A
102
{ACAD_REACTORS
330
47
102
}
330
47
100
AcDbScale
 70
     0
300
1:4
140
1.0
141
4.0
290
     0
  0
SCALE
  5
4B
102
{ACAD_REACTORS
330
47
102
}
330
47
100
AcDbScale
 70
     0
300
1:5
140
1.0
141
5.0
290
     0
  0
SCALE
  5
4C
102
{ACAD_REACTORS
330
47
102
}
330
47
100
AcDbScale
 70
     0
300
1:8
140
1.0
141
8.0
290
     0
  0
SCALE
  5
4D
102
{ACAD_REACTORS
330
47
102
}
330
47
100
AcDbScale
 70
     0
300
1:10
140
1.0
141
10.0
290
     0
  0
SCALE
  5
4E
102
{ACAD_REACTORS
330
47
102
}
330
47
100
AcDbScale
 70
     0
300
1:16
140
1.0
141
16.0
290
     0
  0
SCALE
  5
4F
102
{ACAD_REACTORS
330
47
102
}
330
47
100
AcDbScale
 70
     0
300
1:20
140
1.0
141
20.0
290
     0
  0
SCALE
  5
50
102
{ACAD_REACTORS
330
47
102
}
330
47
100
AcDbScale
 70
     0
300
1:30
140
1.0
141
30.0
290
     0
  0
SCALE
  5
51
102
{ACAD_REACTORS
330
47
102
}
330
47
100
AcDbScale
 70
     0
300
1:40
140
1.0
141
40.0
290
     0
  0
SCALE
  5
52
102
{ACAD_REACTORS
330
47
102
}
330
47
100
AcDbScale
 70
     0
300
1:50
140
1.0
141
50.0
290
     0
  0
SCALE
  5
53
102
{ACAD_REACTORS
330
47
102
}
330
47
100
AcDbScale
 70
     0
300
1:100
140
1.0
141
100.0
290
     0
  0
SCALE
  5
54
102
{ACAD_REACTORS
330
47
102
}
330
47
100
AcDbScale
 70
     0
300
2:1
140
2.0
141
1.0
290
     0
  0
SCALE
  5
55
102
{ACAD_REACTORS
330
47
102
}
330
47
100
AcDbScale
 70
     0
300
4:1
140
4.0
141
1.0
290
     0
  0
SCALE
  5
56
102
{ACAD_REACTORS
330
47
102
}
330
47
100
AcDbScale
 70
     0
300
8:1
140
8.0
141
1.0
290
     0
  0
SCALE
  5
57
102
{ACAD_REACTORS
330
47
102
}
330
47
100
AcDbScale
 70
     0
300
10:1
140
10.0
141
1.0
290
     0
  0
SCALE
  5
58
102
{ACAD_REACTORS
330
47
102
}
330
47
100
AcDbScale
 70
     0
300
100:1
140
100.0
141
1.0
290
     0
  0
SCALE
  5
59
102
{ACAD_REACTORS
330
47
102
}
330
47
100
AcDbScale
 70
     0
300
1/128" = 1'-0"
140
0.0078125
141
12.0
290
     0
  0
SCALE
  5
5A
102
{ACAD_REACTORS
330
47
102
}
330
47
100
AcDbScale
 70
     0
300
1/64" = 1'-0"
140
0.015625
141
12.0
290
     0
  0
SCALE
  5
5B
102
{ACAD_REACTORS
330
47
102
}
330
47
100
AcDbScale
 70
     0
300
1/32" = 1'-0"
140
0.03125
141
12.0
290
     0
  0
SCALE
  5
5C
102
{ACAD_REACTORS
330
47
102
}
330
47
100
AcDbScale
 70
     0
300
1/16" = 1'-0"
140
0.0625
141
12.0
290
     0
  0
SCALE
  5
5D
102
{ACAD_REACTORS
330
47
102
}
330
47
100
AcDbScale
 70
     0
300
3/32" = 1'-0"
140
0.09375
141
12.0
290
     0
  0
SCALE
  5
5E
102
{ACAD_REACTORS
330
47
102
}
330
47
100
AcDbScale
 70
     0
300
1/8" = 1'-0"
140
0.125
141
12.0
290
     0
  0
SCALE
  5
5F
102
{ACAD_REACTORS
330
47
102
}
330
47
100
AcDbScale
 70
     0
300
3/16" = 1'-0"
140
0.1875
141
12.0
290
     0
  0
SCALE
  5
60
102
{ACAD_REACTORS
330
47
102
}
330
47
100
AcDbScale
 70
     0
300
1/4" = 1'-0"
140
0.25
141
12.0
290
     0
  0
SCALE
  5
61
102
{ACAD_REACTORS
330
47
102
}
330
47
100
AcDbScale
 70
     0
300
3/8" = 1'-0"
140
0.375
141
12.0
290
     0
  0
SCALE
  5
62
102
{ACAD_REACTORS
330
47
102
}
330
47
100
AcDbScale
 70
     0
300
1/2" = 1'-0"
140
0.5
141
12.0
290
     0
  0
SCALE
  5
63
102
{ACAD_REACTORS
330
47
102
}
330
47
100
AcDbScale
 70
     0
300
3/4" = 1'-0"
140
0.75
141
12.0
290
     0
  0
SCALE
  5
64
102
{ACAD_REACTORS
330
47
102
}
330
47
100
AcDbScale
 70
     0
300
1" = 1'-0"
140
1.0
141
12.0
290
     0
  0
SCALE
  5
65
102
{ACAD_REACTORS
330
47
102
}
330
47
100
AcDbScale
 70
     0
300
1-1/2" = 1'-0"
140
1.5
141
12.0
290
     0
  0
SCALE
  5
66
102
{ACAD_REACTORS
330
47
102
}
330
47
100
AcDbScale
 70
     0
300
3" = 1'-0"
140
3.0
141
12.0
290
     0
  0
SCALE
  5
67
102
{ACAD_REACTORS
330
47
102
}
330
47
100
AcDbScale
 70
     0
300
6" = 1'-0"
140
6.0
141
12.0
290
     0
  0
SCALE
  5
68
102
{ACAD_REACTORS
330
47
102
}
330
47
100
AcDbScale
 70
     0
300
1'-0" = 1'-0"
140
12.0
141
12.0
290
     0
  0
ENDSEC
  0
EOF
