  0
SECTION
  2
HEADER
  9
$ACADVER
  1
AC1015
  9
$ACADMAINTVER
 70
     6
  9
$DWGCODEPAGE
  3
ANSI_1250
  9
$INSBASE
 10
0.0
 20
0.0
 30
0.0
  9
$EXTMIN
 10
0.0
 20
0.0
 30
0.0
  9
$EXTMAX
 10
20000.0
 20
10000.0
 30
0.0
  9
$LIMMIN
 10
0.0
 20
0.0
  9
$LIMMAX
 10
20000.0
 20
10000.0
  9
$ORTHOMODE
 70
     0
  9
$REGENMODE
 70
     1
  9
$FILLMODE
 70
     1
  9
$QTEXTMODE
 70
     0
  9
$MIRRTEXT
 70
     1
  9
$LTSCALE
 40
1.0
  9
$ATTMODE
 70
     1
  9
$TEXTSIZE
 40
2.0
  9
$TRACEWID
 40
1.0
  9
$TEXTSTYLE
  7
Standard
  9
$CLAYER
  8
0
  9
$CELTYPE
  6
ByLayer
  9
$CECOLOR
 62
   256
  9
$CELTSCALE
 40
1.0
  9
$DISPSILH
 70
     0
  9
$DIMSCALE
 40
1.0
  9
$DIMASZ
 40
2.0
  9
$DIMEXO
 40
1.0
  9
$DIMDLI
 40
3.75
  9
$DIMRND
 40
0.0
  9
$DIMDLE
 40
0.0
  9
$DIMEXE
 40
1.0
  9
$DIMTP
 40
0.0
  9
$DIMTM
 40
0.0
  9
$DIMTXT
 40
2.0
  9
$DIMCEN
 40
2.5
  9
$DIMTSZ
 40
0.0
  9
$DIMTOL
 70
     0
  9
$DIMLIM
 70
     0
  9
$DIMTIH
 70
     1
  9
$DIMTOH
 70
     1
  9
$DIMSE1
 70
     0
  9
$DIMSE2
 70
     0
  9
$DIMTAD
 70
     1
  9
$DIMZIN
 70
     0
  9
$DIMBLK
  1

  9
$DIMASO
 70
     1
  9
$DIMSHO
 70
     1
  9
$DIMPOST
  1

  9
$DIMAPOST
  1

  9
$DIMALT
 70
     0
  9
$DIMALTD
 70
     3
  9
$DIMALTF
 40
0.0393700787
  9
$DIMLFAC
 40
1.0
  9
$DIMTOFL
 70
     1
  9
$DIMTVP
 40
0.0
  9
$DIMTIX
 70
     0
  9
$DIMSOXD
 70
     0
  9
$DIMSAH
 70
     0
  9
$DIMBLK1
  1

  9
$DIMBLK2
  1

  9
$DIMSTYLE
  2
ISO-25
  9
$DIMCLRD
 70
     0
  9
$DIMCLRE
 70
     0
  9
$DIMCLRT
 70
     0
  9
$DIMTFAC
 40
1.0
  9
$DIMGAP
 40
1.524
  9
$DIMJUST
 70
     0
  9
$DIMSD1
 70
     0
  9
$DIMSD2
 70
     0
  9
$DIMTOLJ
 70
     0
  9
$DIMTZIN
 70
     0
  9
$DIMALTZ
 70
     0
  9
$DIMALTTZ
 70
     0
  9
$DIMUPT
 70
     0
  9
$DIMDEC
 70
     2
  9
$DIMTDEC
 70
     0
  9
$DIMALTU
 70
     2
  9
$DIMALTTD
 70
     3
  9
$DIMTXSTY
  7
Standard
  9
$DIMAUNIT
 70
     0
  9
$DIMADEC
 70
     2
  9
$DIMALTRND
 40
0.0
  9
$DIMAZIN
 70
     0
  9
$DIMDSEP
 70
    44
  9
$DIMATFIT
 70
     3
  9
$DIMFRAC
 70
     0
  9
$DIMLDRBLK
  1

  9
$DIMLUNIT
 70
     2
  9
$DIMLWD
 70
    -2
  9
$DIMLWE
 70
    -2
  9
$DIMTMOVE
 70
     0
  9
$LUNITS
 70
     2
  9
$LUPREC
 70
     3
  9
$SKETCHINC
 40
1.0
  9
$FILLETRAD
 40
10.0
  9
$AUNITS
 70
     0
  9
$AUPREC
 70
     2
  9
$MENU
  1
.
  9
$ELEVATION
 40
0.0
  9
$PELEVATION
 40
0.0
  9
$THICKNESS
 40
0.0
  9
$LIMCHECK
 70
     0
  9
$CHAMFERA
 40
0.0
  9
$CHAMFERB
 40
0.0
  9
$CHAMFERC
 40
0.0
  9
$CHAMFERD
 40
0.0
  9
$SKPOLY
 70
     0
  9
$TDCREATE
 40
2458677.413363079
  9
$TDUCREATE
 40
2458677.330029746
  9
$TDUPDATE
 40
2458677.413363773
  9
$TDUUPDATE
 40
2458677.33003044
  9
$TDINDWG
 40
0.0000000116
  9
$TDUSRTIMER
 40
0.0000000116
  9
$USRTIMER
 70
     1
  9
$ANGBASE
 50
0.0
  9
$ANGDIR
 70
     0
  9
$PDMODE
 70
     0
  9
$PDSIZE
 40
-1.0
  9
$PLINEWID
 40
0.0
  9
$SPLFRAME
 70
     0
  9
$SPLINETYPE
 70
     6
  9
$SPLINESEGS
 70
     8
  9
$HANDSEED
  5
22D
  9
$SURFTAB1
 70
     6
  9
$SURFTAB2
 70
     6
  9
$SURFTYPE
 70
     6
  9
$SURFU
 70
     6
  9
$SURFV
 70
     6
  9
$UCSBASE
  2

  9
$UCSNAME
  2

  9
$UCSORG
 10
0.0
 20
0.0
 30
0.0
  9
$UCSXDIR
 10
1.0
 20
0.0
 30
0.0
  9
$UCSYDIR
 10
0.0
 20
1.0
 30
0.0
  9
$UCSORTHOREF
  2

  9
$UCSORTHOVIEW
 70
     0
  9
$UCSORGTOP
 10
0.0
 20
0.0
 30
0.0
  9
$UCSORGBOTTOM
 10
0.0
 20
0.0
 30
0.0
  9
$UCSORGLEFT
 10
0.0
 20
0.0
 30
0.0
  9
$UCSORGRIGHT
 10
0.0
 20
0.0
 30
0.0
  9
$UCSORGFRONT
 10
0.0
 20
0.0
 30
0.0
  9
$UCSORGBACK
 10
0.0
 20
0.0
 30
0.0
  9
$PUCSBASE
  2

  9
$PUCSNAME
  2

  9
$PUCSORG
 10
0.0
 20
0.0
 30
0.0
  9
$PUCSXDIR
 10
1.0
 20
0.0
 30
0.0
  9
$PUCSYDIR
 10
0.0
 20
1.0
 30
0.0
  9
$PUCSORTHOREF
  2

  9
$PUCSORTHOVIEW
 70
     0
  9
$PUCSORGTOP
 10
0.0
 20
0.0
 30
0.0
  9
$PUCSORGBOTTOM
 10
0.0
 20
0.0
 30
0.0
  9
$PUCSORGLEFT
 10
0.0
 20
0.0
 30
0.0
  9
$PUCSORGRIGHT
 10
0.0
 20
0.0
 30
0.0
  9
$PUCSORGFRONT
 10
0.0
 20
0.0
 30
0.0
  9
$PUCSORGBACK
 10
0.0
 20
0.0
 30
0.0
  9
$USERI1
 70
     0
  9
$USERI2
 70
     0
  9
$USERI3
 70
     0
  9
$USERI4
 70
     0
  9
$USERI5
 70
     0
  9
$USERR1
 40
0.0
  9
$USERR2
 40
0.0
  9
$USERR3
 40
0.0
  9
$USERR4
 40
0.0
  9
$USERR5
 40
0.0
  9
$WORLDVIEW
 70
     1
  9
$SHADEDGE
 70
     3
  9
$SHADEDIF
 70
    70
  9
$TILEMODE
 70
     1
  9
$MAXACTVP
 70
    64
  9
$PINSBASE
 10
0.0
 20
0.0
 30
0.0
  9
$PLIMCHECK
 70
     0
  9
$PEXTMIN
 10
1.0000000000E+20
 20
1.0000000000E+20
 30
1.0000000000E+20
  9
$PEXTMAX
 10
-1.0000000000E+20
 20
-1.0000000000E+20
 30
-1.0000000000E+20
  9
$PLIMMIN
 10
0.0
 20
0.0
  9
$PLIMMAX
 10
420.0
 20
297.0
  9
$UNITMODE
 70
     0
  9
$VISRETAIN
 70
     1
  9
$PLINEGEN
 70
     0
  9
$PSLTSCALE
 70
     1
  9
$TREEDEPTH
 70
  3020
  9
$CMLSTYLE
  2
Standard
  9
$CMLJUST
 70
     0
  9
$CMLSCALE
 40
20.0
  9
$PROXYGRAPHICS
 70
     1
  9
$MEASUREMENT
 70
     1
  9
$CELWEIGHT
370
    -1
  9
$ENDCAPS
280
     0
  9
$JOINSTYLE
280
     0
  9
$LWDISPLAY
290
     1
  9
$INSUNITS
 70
     4
  9
$HYPERLINKBASE
  1

  9
$STYLESHEET
  1

  9
$XEDIT
290
     1
  9
$CEPSNTYPE
380
     0
  9
$PSTYLEMODE
290
     1
  9
$FINGERPRINTGUID
  2
{54A17159-AF6B-49D1-910D-32E54C7ACC06}
  9
$VERSIONGUID
  2
{FAEB1C32-E019-11D5-929B-00C0DF256EC4}
  9
$EXTNAMES
290
     1
  9
$PSVPSCALE
 40
0.0
  9
$OLESTARTUP
290
     0
  0
ENDSEC
  0
SECTION
  2
CLASSES
  0
CLASS
  1
ACDBDICTIONARYWDFLT
  2
AcDbDictionaryWithDefault
  3
ObjectDBX Classes
 90
        0
280
     0
281
     0
  0
CLASS
  1
VISUALSTYLE
  2
AcDbVisualStyle
  3
ObjectDBX Classes
 90
     4095
280
     0
281
     0
  0
CLASS
  1
MATERIAL
  2
AcDbMaterial
  3
ObjectDBX Classes
 90
     1153
280
     0
281
     0
  0
CLASS
  1
SCALE
  2
AcDbScale
  3
ObjectDBX Classes
 90
     1153
280
     0
281
     0
  0
CLASS
  1
TABLESTYLE
  2
AcDbTableStyle
  3
ObjectDBX Classes
 90
     4095
280
     0
281
     0
  0
CLASS
  1
MLEADERSTYLE
  2
AcDbMLeaderStyle
  3
ACDB_MLEADERSTYLE_CLASS
 90
     4095
280
     0
281
     0
  0
CLASS
  1
SUN
  2
AcDbSun
  3
SCENEOE
 90
     1153
280
     0
281
     0
  0
CLASS
  1
ACDBPLACEHOLDER
  2
AcDbPlaceHolder
  3
ObjectDBX Classes
 90
        0
280
     0
281
     0
  0
CLASS
  1
LAYOUT
  2
AcDbLayout
  3
ObjectDBX Classes
 90
        0
280
     0
281
     0
  0
ENDSEC
  0
SECTION
  2
TABLES
  0
TABLE
  2
VPORT
  5
8
330
0
100
AcDbSymbolTable
 70
     1
  0
VPORT
  5
29
330
8
100
AcDbSymbolTableRecord
100
AcDbViewportTableRecord
  2
*Active
 70
     0
 10
0.0
 20
0.0
 11
1.0
 21
1.0
 12
10000.0
 22
5000.0
 13
0.0
 23
0.0
 14
10.0
 24
10.0
 15
10.0
 25
10.0
 16
0.0
 26
0.0
 36
1.0
 17
0.0
 27
0.0
 37
0.0
 40
10000.0
 41
2.0
 42
50.0
 43
0.0
 44
0.0
 50
0.0
 51
0.0
 71
     0
 72
  2000
 73
     1
 74
     3
 75
     0
 76
     0
 77
     0
 78
     0
281
     0
 65
     1
110
0.0
120
0.0
130
0.0
111
1.0
121
0.0
131
0.0
112
0.0
122
1.0
132
0.0
 79
     0
146
0.0
  0
ENDTAB
  0
TABLE
  2
LTYPE
  5
5
330
0
100
AcDbSymbolTable
 70
     6
  0
LTYPE
  5
14
330
5
100
AcDbSymbolTableRecord
100
AcDbLinetypeTableRecord
  2
ByBlock
 70
     0
  3

 72
    65
 73
     0
 40
0.0
  0
LTYPE
  5
15
330
5
100
AcDbSymbolTableRecord
100
AcDbLinetypeTableRecord
  2
ByLayer
 70
     0
  3

 72
    65
 73
     0
 40
0.0
  0
LTYPE
  5
16
330
5
100
AcDbSymbolTableRecord
100
AcDbLinetypeTableRecord
  2
Continuous
 70
     0
  3
Solid line
 72
    65
 73
     0
 40
0.0
  0
LTYPE
  5
6E
330
5
100
AcDbSymbolTableRecord
100
AcDbLinetypeTableRecord
  2
HIDDEN
 70
     0
  3
Hidden __ __ __ __ __ __ __ __ __ __ __ __ __ __
 72
    65
 73
     2
 40
1.905
 49
1.27
 74
     0
 49
-0.635
 74
     0
  0
LTYPE
  5
6F
330
5
100
AcDbSymbolTableRecord
100
AcDbLinetypeTableRecord
  2
PHANTOM
 70
     0
  3
Phantom ______  __  __  ______  __  __  ______
 72
    65
 73
     6
 40
12.7
 49
6.35
 74
     0
 49
-1.27
 74
     0
 49
1.27
 74
     0
 49
-1.27
 74
     0
 49
1.27
 74
     0
 49
-1.27
 74
     0
  0
LTYPE
  5
70
330
5
100
AcDbSymbolTableRecord
100
AcDbLinetypeTableRecord
  2
CENTER
 70
     0
  3
Center ____ _ ____ _ ____ _ ____ _ ____ _ ____
 72
    65
 73
     4
 40
10.16
 49
6.35
 74
     0
 49
-1.27
 74
     0
 49
1.27
 74
     0
 49
-1.27
 74
     0
  0
LTYPE
  5
71
330
5
100
AcDbSymbolTableRecord
100
AcDbLinetypeTableRecord
  2
CENTERX2
 70
     0
  3
Center (2x) ________  __  ________  __  _____
 72
    65
 73
     4
 40
20.32
 49
12.7
 74
     0
 49
-2.54
 74
     0
 49
2.54
 74
     0
 49
-2.54
 74
     0
  0
LTYPE
  5
72
330
5
100
AcDbSymbolTableRecord
100
AcDbLinetypeTableRecord
  2
DOT2
 70
     0
  3
Dot (.5x) ........................................
 72
    65
 73
     2
 40
0.635
 49
0.0
 74
     0
 49
-0.635
 74
     0
  0
ENDTAB
  0
TABLE
  2
LAYER
  5
2
330
0
100
AcDbSymbolTable
 70
    13
  0
LAYER
  5
10
330
2
100
AcDbSymbolTableRecord
100
AcDbLayerTableRecord
  2
0
 70
     0
 62
     7
  6
Continuous
370
    -3
390
F
  0
LAYER
  5
73
330
2
100
AcDbSymbolTableRecord
100
AcDbLayerTableRecord
  2
FORMAT
 70
     0
 62
     7
  6
Continuous
370
    -3
390
F
  0
LAYER
  5
74
330
2
100
AcDbSymbolTableRecord
100
AcDbLayerTableRecord
  2
OSA
 70
     0
 62
     7
  6
CENTER
370
    -3
390
F
  0
LAYER
  5
75
330
2
100
AcDbSymbolTableRecord
100
AcDbLayerTableRecord
  2
0_35
 70
     0
 62
     7
  6
Continuous
370
    35
390
F
  0
LAYER
  5
76
330
2
100
AcDbSymbolTableRecord
100
AcDbLayerTableRecord
  2
0_5
 70
     0
 62
     7
  6
Continuous
370
    50
390
F
  0
LAYER
  5
77
330
2
100
AcDbSymbolTableRecord
100
AcDbLayerTableRecord
  2
0_25
 70
     0
 62
     7
  6
Continuous
370
    25
390
F
  0
LAYER
  5
78
330
2
100
AcDbSymbolTableRecord
100
AcDbLayerTableRecord
  2
0_18
 70
     0
 62
     7
  6
Continuous
370
    -3
390
F
  0
LAYER
  5
79
330
2
100
AcDbSymbolTableRecord
100
AcDbLayerTableRecord
  2
SLD-0
 70
     0
 62
   179
  6
Continuous
370
    -3
390
F
  0
LAYER
  5
7A
330
2
100
AcDbSymbolTableRecord
100
AcDbLayerTableRecord
  2
KOTY
 70
     0
 62
     7
  6
Continuous
370
    -3
390
F
  0
LAYER
  5
7B
330
2
100
AcDbSymbolTableRecord
100
AcDbLayerTableRecord
  2
SILNA
 70
     0
 62
   179
  6
Continuous
370
    -3
390
F
  0
LAYER
  5
7C
330
2
100
AcDbSymbolTableRecord
100
AcDbLayerTableRecord
  2
0_18_1
 70
     0
 62
   179
  6
Continuous
370
    -3
390
F
  0
LAYER
  5
7D
330
2
100
AcDbSymbolTableRecord
100
AcDbLayerTableRecord
  2
0_35_1
 70
     0
 62
   179
  6
Continuous
370
    35
390
F
  0
LAYER
  5
7E
330
2
100
AcDbSymbolTableRecord
100
AcDbLayerTableRecord
  2
0_5_1
 70
     0
 62
   179
  6
Continuous
370
    50
390
F
  0
ENDTAB
  0
TABLE
  2
STYLE
  5
3
330
0
100
AcDbSymbolTable
 70
     1
  0
STYLE
  5
11
330
3
100
AcDbSymbolTableRecord
100
AcDbTextStyleTableRecord
  2
Standard
 70
     0
 40
0.0
 41
1.0
 50
0.0
 71
     0
 42
2.0
  3
txt
  4

  0
ENDTAB
  0
TABLE
  2
VIEW
  5
6
330
0
100
AcDbSymbolTable
 70
     0
  0
ENDTAB
  0
TABLE
  2
UCS
  5
7
330
0
100
AcDbSymbolTable
 70
     0
  0
ENDTAB
  0
TABLE
  2
APPID
  5
9
330
0
100
AcDbSymbolTable
 70
     1
  0
APPID
  5
12
330
9
100
AcDbSymbolTableRecord
100
AcDbRegAppTableRecord
  2
ACAD
 70
     0
  0
ENDTAB
  0
TABLE
  2
DIMSTYLE
  5
A
330
0
100
AcDbSymbolTable
 70
     1
100
AcDbDimStyleTable
  0
DIMSTYLE
105
27
330
A
100
AcDbSymbolTableRecord
100
AcDbDimStyleTableRecord
  2
ISO-25
 70
     0
 41
2.5
 42
0.625
 43
3.75
 44
1.25
 73
     0
 74
     0
 77
     1
 78
     8
140
2.5
141
2.5
143
0.0393700787
147
0.625
171
     3
172
     1
178
     0
271
     2
272
     2
274
     3
278
    44
283
     0
284
     8
340
11
  0
ENDTAB
  0
TABLE
  2
BLOCK_RECORD
  5
1
330
0
100
AcDbSymbolTable
 70
     1
  0
BLOCK_RECORD
  5
1F
330
1
100
AcDbSymbolTableRecord
100
AcDbBlockTableRecord
  2
*Model_Space
340
22
  0
BLOCK_RECORD
  5
1B
330
1
100
AcDbSymbolTableRecord
100
AcDbBlockTableRecord
  2
*Paper_Space
340
1E
  0
BLOCK_RECORD
  5
23
330
1
100
AcDbSymbolTableRecord
100
AcDbBlockTableRecord
  2
*Paper_Space0
340
26
  0
ENDTAB
  0
ENDSEC
  0
SECTION
  2
BLOCKS
  0
BLOCK
  5
20
330
1F
100
AcDbEntity
  8
0
100
AcDbBlockBegin
  2
*Model_Space
 70
     0
 10
0.0
 20
0.0
 30
0.0
  3
*Model_Space
  1

  0
ENDBLK
  5
21
330
1F
100
AcDbEntity
  8
0
100
AcDbBlockEnd
  0
BLOCK
  5
1C
330
1B
100
AcDbEntity
 67
     1
  8
0
100
AcDbBlockBegin
  2
*Paper_Space
 70
     0
 10
0.0
 20
0.0
 30
0.0
  3
*Paper_Space
  1

  0
ENDBLK
  5
1D
330
1B
100
AcDbEntity
 67
     1
  8
0
100
AcDbBlockEnd
  0
BLOCK
  5
24
330
23
100
AcDbEntity
  8
0
100
AcDbBlockBegin
  2
*Paper_Space0
 70
     0
 10
0.0
 20
0.0
 30
0.0
  3
*Paper_Space0
  1

  0
ENDBLK
  5
25
330
23
100
AcDbEntity
  8
0
100
AcDbBlockEnd
  0
ENDSEC
  0
SECTION
  2
ENTITIES
  0
ARC
  5
7F
330
1F
100
AcDbEntity
  8
0
  6
Continuous
 62
     7
370
    25
100
AcDbCircle
 10
6249.0187553361
 20
5217.0888518077
 30
0.0
 40
3.0
100
AcDbArc
 50
180.0
 51
270.0
  0
ARC
  5
80
330
1F
100
AcDbEntity
  8
0
  6
Continuous
 62
     7
370
    25
100
AcDbCircle
 10
6299.0187553361
 20
5217.0888518077
 30
0.0
 40
3.0
100
AcDbArc
 50
270.0
 51
0.0
  0
LINE
  5
81
330
1F
100
AcDbEntity
  8
0
  6
Continuous
 62
     7
370
    25
100
AcDbLine
 10
6246.0187544718
 20
5224.0888453704
 30
0.0
 11
6246.0187544718
 21
5217.0888460857
 31
0.0
  0
LINE
  5
82
330
1F
100
AcDbEntity
  8
0
  6
Continuous
 62
     7
370
    25
100
AcDbLine
 10
6302.0187562004
 20
5217.0888460857
 30
0.0
 11
6302.0187562004
 21
5224.0888453704
 31
0.0
  0
LINE
  5
83
330
1F
100
AcDbEntity
  8
0
  6
Continuous
 62
     7
370
    25
100
AcDbLine
 10
6258.0187545761
 20
5214.0888549072
 30
0.0
 11
6258.0187545761
 21
5149.1206563694
 31
0.0
  0
LINE
  5
84
330
1F
100
AcDbEntity
  8
0
  6
Continuous
 62
     7
370
    25
100
AcDbLine
 10
6258.0187545761
 20
5135.1206577999
 30
0.0
 11
6258.0187545761
 21
5132.6206601841
 31
0.0
  0
LINE
  5
85
330
1F
100
AcDbEntity
  8
0
  6
Continuous
 62
     7
370
    25
100
AcDbLine
 10
6290.0187560961
 20
5132.6206601841
 30
0.0
 11
6290.0187560961
 21
5135.1206577999
 31
0.0
  0
LINE
  5
86
330
1F
100
AcDbEntity
  8
0
  6
Continuous
 62
     7
370
    25
100
AcDbLine
 10
6290.0187560961
 20
5149.1206563694
 30
0.0
 11
6290.0187560961
 21
5214.0888549072
 31
0.0
  0
LINE
  5
87
330
1F
100
AcDbEntity
  8
0
  6
Continuous
 62
     7
370
    25
100
AcDbLine
 10
6240.0187534884
 20
5072.6206577999
 30
0.0
 11
6246.9125410214
 21
5005.3150035125
 31
0.0
  0
LINE
  5
88
330
1F
100
AcDbEntity
  8
0
  6
Continuous
 62
     7
370
    25
100
AcDbLine
 10
6301.1249696508
 20
5005.3150035125
 30
0.0
 11
6308.0187571838
 21
5072.6206577999
 31
0.0
  0
LINE
  5
89
330
1F
100
AcDbEntity
  8
0
  6
Continuous
 62
     7
370
    25
100
AcDbLine
 10
6308.0187571838
 20
5072.6206577999
 30
0.0
 11
6301.3281972751
 21
5129.9683130962
 31
0.0
  0
LINE
  5
8A
330
1F
100
AcDbEntity
  8
0
  6
Continuous
 62
     7
370
    25
100
AcDbLine
 10
6246.7093133971
 20
5129.9683130962
 30
0.0
 11
6240.0187534884
 21
5072.6206577999
 31
0.0
  0
ARC
  5
8B
330
1F
100
AcDbEntity
  8
0
  6
Continuous
 62
     7
370
    25
100
AcDbCircle
 10
6249.6891029982
 20
5129.6206670479
 30
0.0
 40
3.0
100
AcDbArc
 50
90.0
 51
173.345574954
  0
ARC
  5
8C
330
1F
100
AcDbEntity
  8
0
  6
Continuous
 62
     7
370
    25
100
AcDbCircle
 10
6298.348407674
 20
5129.6206670479
 30
0.0
 40
3.0
100
AcDbArc
 50
6.654425046
 51
90.0
  0
ARC
  5
8D
330
1F
100
AcDbEntity
  8
0
  6
Continuous
 62
     7
370
    25
100
AcDbCircle
 10
6249.8969274699
 20
5005.6206670479
 30
0.0
 40
3.000000000000517
100
AcDbArc
 50
185.8481280262
 51
270.0
  0
ARC
  5
8E
330
1F
100
AcDbEntity
  8
0
  6
Continuous
 62
     7
370
    25
100
AcDbCircle
 10
6298.1405832023
 20
5005.6206670479
 30
0.0
 40
3.000000000000517
100
AcDbArc
 50
270.0
 51
354.1518719738
  0
LINE
  5
8F
330
1F
100
AcDbEntity
  8
0
  6
Continuous
 62
     7
370
    25
100
AcDbLine
 10
6299.0187557086
 20
5135.1206577999
 30
0.0
 11
6297.0187553808
 21
5139.1206659061
 31
0.0
  0
LINE
  5
90
330
1F
100
AcDbEntity
  8
0
  6
Continuous
 62
     7
370
    25
100
AcDbLine
 10
6251.0187552914
 20
5139.1206659061
 30
0.0
 11
6249.0187549636
 21
5135.1206577999
 31
0.0
  0
LINE
  5
91
330
1F
100
AcDbEntity
  8
0
  6
Continuous
 62
     7
370
    25
100
AcDbLine
 10
6251.0187552914
 20
5146.1206651908
 30
0.0
 11
6251.0187552914
 21
5139.1206659061
 31
0.0
  0
LINE
  5
92
330
1F
100
AcDbEntity
  8
0
  6
Continuous
 62
     7
370
    25
100
AcDbLine
 10
6297.0187553808
 20
5139.1206659061
 30
0.0
 11
6297.0187553808
 21
5146.1206651908
 31
0.0
  0
ARC
  5
93
330
1F
100
AcDbEntity
  8
0
  6
Continuous
 62
     7
370
    25
100
AcDbCircle
 10
6254.0187553361
 20
5146.1206670479
 30
0.0
 40
3.0
100
AcDbArc
 50
90.0
 51
180.0
  0
ARC
  5
94
330
1F
100
AcDbEntity
  8
0
  6
Continuous
 62
     7
370
    25
100
AcDbCircle
 10
6294.0187553361
 20
5146.1206670479
 30
0.0
 40
3.0
100
AcDbArc
 50
0.0
 51
90.0
  0
LINE
  5
95
330
1F
100
AcDbEntity
  8
0
  6
Continuous
 62
     7
370
    25
100
AcDbLine
 10
6258.0187545761
 20
5135.1206577999
 30
0.0
 11
6258.0187545761
 21
5132.6206601841
 31
0.0
  0
LINE
  5
96
330
1F
100
AcDbEntity
  8
0
  6
Continuous
 62
     7
370
    25
100
AcDbLine
 10
6290.0187560961
 20
5132.6206601841
 30
0.0
 11
6290.0187560961
 21
5135.1206577999
 31
0.0
  0
LWPOLYLINE
  5
97
330
1F
100
AcDbEntity
  8
0
  6
Continuous
 62
     7
370
    25
100
AcDbPolyline
 90
        3
 70
   128
 43
0.0
 10
6033.6811897948
 20
5278.0028260929
 10
6033.3476571038
 20
5277.4958885891
 10
6033.0620167449
 20
5276.9426978809
  0
LWPOLYLINE
  5
98
330
1F
100
AcDbEntity
  8
0
  6
Continuous
 62
     7
370
    25
100
AcDbPolyline
 90
        3
 70
   128
 43
0.0
 10
6035.9620956376
 20
5267.3724569065
 10
6036.5067479804
 20
5267.0708723051
 10
6037.0655713275
 20
5266.8343461734
  0
LWPOLYLINE
  5
99
330
1F
100
AcDbEntity
  8
0
  6
Continuous
 62
     7
370
    25
100
AcDbPolyline
 90
        3
 70
   128
 43
0.0
 10
6013.9606801465
 20
5343.0804811102
 10
6013.6271623567
 20
5342.573551057
 10
6013.3415070966
 20
5342.0203603488
  0
LWPOLYLINE
  5
9A
330
1F
100
AcDbEntity
  8
0
  6
Continuous
 62
     7
370
    25
100
AcDbPolyline
 90
        3
 70
   128
 43
0.0
 10
6016.2416008905
 20
5332.4501119238
 10
6016.7862383321
 20
5332.1485273224
 10
6017.3450616792
 20
5331.9120086414
  0
LWPOLYLINE
  5
9B
330
1F
100
AcDbEntity
  8
0
  6
Continuous
 62
     7
370
    25
100
AcDbPolyline
 90
        3
 70
   128
 43
0.0
 10
6510.9719393447
 20
5266.8343461734
 10
6511.5307626918
 20
5267.0708723051
 10
6512.0754150346
 20
5267.3724569065
  0
LWPOLYLINE
  5
9C
330
1F
100
AcDbEntity
  8
0
  6
Continuous
 62
     7
370
    25
100
AcDbPolyline
 90
        3
 70
   128
 43
0.0
 10
6514.9754939273
 20
5276.9426978809
 10
6514.6898535684
 20
5277.4958885891
 10
6514.3563208774
 20
5278.0028260929
  0
LWPOLYLINE
  5
9D
330
1F
100
AcDbEntity
  8
0
  6
Continuous
 62
     7
370
    25
100
AcDbPolyline
 90
        3
 70
   128
 43
0.0
 10
6530.692448993
 20
5331.9120086414
 10
6531.2512723401
 20
5332.1485273224
 10
6531.7959097817
 20
5332.4501119238
  0
LWPOLYLINE
  5
9E
330
1F
100
AcDbEntity
  8
0
  6
Continuous
 62
     7
370
    25
100
AcDbPolyline
 90
        3
 70
   128
 43
0.0
 10
6534.6960035756
 20
5342.0203603488
 10
6534.4103483155
 20
5342.573551057
 10
6534.0768305257
 20
5343.0804811102
  0
LINE
  5
9F
330
1F
100
AcDbEntity
  8
0
  6
Continuous
 62
     7
370
    25
100
AcDbLine
 10
6273.0698234889
 20
5214.0888549072
 30
0.0
 11
6299.0187557086
 21
5214.0888549072
 31
0.0
  0
LINE
  5
A0
330
1F
100
AcDbEntity
  8
0
  6
Continuous
 62
     7
370
    25
100
AcDbLine
 10
6249.0187549636
 20
5214.0888549072
 30
0.0
 11
6273.0698234889
 21
5214.0888549072
 31
0.0
  0
ARC
  5
A1
330
1F
100
AcDbEntity
  8
0
  6
Continuous
 62
     7
370
    25
100
AcDbCircle
 10
6274.0065634329
 20
5110.6206670479
 30
0.0
 40
40.00000000000014
100
AcDbArc
 50
125.0782898291
 51
216.1325535933
  0
ARC
  5
A2
330
1F
100
AcDbEntity
  8
0
  6
Continuous
 62
     7
370
    25
100
AcDbCircle
 10
6274.0065634329
 20
5110.6206670479
 30
0.0
 40
40.00000000000058
100
AcDbArc
 50
323.9185430601
 51
54.8042818271
  0
ARC
  5
A3
330
1F
100
AcDbEntity
  8
0
  6
Continuous
 62
     7
370
    25
100
AcDbCircle
 10
6274.005644695
 20
5110.6206670479
 30
0.0
 40
40.00000000000037
100
AcDbArc
 50
125.0766817715
 51
216.1344778605
  0
LINE
  5
A4
330
1F
100
AcDbEntity
  8
0
  6
Continuous
 62
     7
370
    25
100
AcDbLine
 10
6240.0187534884
 20
5072.6206577999
 30
0.0
 11
6308.0187571838
 21
5072.6206577999
 31
0.0
  0
LINE
  5
A5
330
1F
100
AcDbEntity
  8
0
  6
Continuous
 62
     7
370
    25
100
AcDbLine
 10
6249.6891023263
 20
5132.6206601841
 30
0.0
 11
6298.3484083459
 21
5132.6206601841
 31
0.0
  0
LINE
  5
A6
330
1F
100
AcDbEntity
  8
0
  6
Continuous
 62
     7
370
    25
100
AcDbLine
 10
6298.1405837133
 20
5002.6206649524
 30
0.0
 11
6249.8969269589
 21
5002.6206649524
 31
0.0
  0
LINE
  5
A7
330
1F
100
AcDbEntity
  8
0
  6
Continuous
 62
     7
370
    25
100
AcDbLine
 10
6251.0187552914
 20
5139.1206659061
 30
0.0
 11
6297.0187553808
 21
5139.1206659061
 31
0.0
  0
LINE
  5
A8
330
1F
100
AcDbEntity
  8
0
  6
Continuous
 62
     7
370
    25
100
AcDbLine
 10
6249.0187549636
 20
5135.1206577999
 30
0.0
 11
6299.0187557086
 21
5135.1206577999
 31
0.0
  0
LINE
  5
A9
330
1F
100
AcDbEntity
  8
0
  6
Continuous
 62
     7
370
    25
100
AcDbLine
 10
6254.0187557831
 20
5149.1206563694
 30
0.0
 11
6294.0187548891
 21
5149.1206563694
 31
0.0
  0
LINE
  5
AA
330
1F
100
AcDbEntity
  8
0
  6
Continuous
 62
     7
370
    25
100
AcDbLine
 10
6290.5160599992
 20
5132.6206601841
 30
0.0
 11
6290.0187560961
 21
5132.9849935752
 31
0.0
  0
LINE
  5
AB
330
1F
100
AcDbEntity
  8
0
  6
Continuous
 62
     7
370
    25
100
AcDbLine
 10
6258.0187545761
 20
5132.9888678772
 30
0.0
 11
6257.516060178
 21
5132.6206601841
 31
0.0
  0
LWPOLYLINE
  5
AC
330
1F
100
AcDbEntity
  8
0
  6
Continuous
 62
     7
370
    25
100
AcDbPolyline
 90
        9
 70
   128
 43
0.0
 10
6033.8624922231
 20
5274.3011690361
 10
6034.2363325551
 20
5273.0674571973
 10
6034.6306470826
 20
5271.7662579996
 10
6035.0161550239
 20
5270.4940862638
 10
6035.3642759517
 20
5269.3452812416
 10
6035.6491861537
 20
5268.4050626737
 10
6035.8497706845
 20
5267.7431381923
 10
6035.9511432841
 20
5267.4086220247
 10
6035.9620956376
 20
5267.3724569065
  0
LWPOLYLINE
  5
AD
330
1F
100
AcDbEntity
  8
0
  6
Continuous
 62
     7
370
    25
100
AcDbPolyline
 90
        6
 70
   128
 43
0.0
 10
6033.0620167449
 20
5276.9426978809
 10
6033.0621508554
 20
5276.9422657472
 10
6033.1212339595
 20
5276.7472989542
 10
6033.2834629014
 20
5276.2119598371
 10
6033.536812444
 20
5275.3759152872
 10
6033.8624922231
 20
5274.3011690361
  0
LWPOLYLINE
  5
AE
330
1F
100
AcDbEntity
  8
0
  6
Continuous
 62
     7
370
    25
100
AcDbPolyline
 90
        9
 70
   128
 43
0.0
 10
6014.1419974759
 20
5339.378831504
 10
6014.5158378079
 20
5338.1451196653
 10
6014.9101523355
 20
5336.8439204675
 10
6015.2956453755
 20
5335.5717412812
 10
6015.6437663034
 20
5334.4229437095
 10
6015.9286765054
 20
5333.4827176911
 10
6016.1292759374
 20
5332.8207932097
 10
6016.2306336358
 20
5332.4862770421
 10
6016.2416008905
 20
5332.4501119238
  0
LWPOLYLINE
  5
AF
330
1F
100
AcDbEntity
  8
0
  6
Continuous
 62
     7
370
    25
100
AcDbPolyline
 90
        6
 70
   128
 43
0.0
 10
6013.3415070966
 20
5342.0203603488
 10
6013.3416561082
 20
5342.0199207646
 10
6013.4007243112
 20
5341.8249688727
 10
6013.5629681542
 20
5341.2896148545
 10
6013.8163176969
 20
5340.4535703045
 10
6014.1419974759
 20
5339.378831504
  0
LWPOLYLINE
  5
B0
330
1F
100
AcDbEntity
  8
0
  6
Continuous
 62
     7
370
    25
100
AcDbPolyline
 90
       10
 70
   128
 43
0.0
 10
6512.5074145988
 20
5268.798065899
 10
6512.8237513497
 20
5269.8419667465
 10
6513.1921229556
 20
5271.0576183778
 10
6513.5852304891
 20
5272.3548538667
 10
6513.9738974765
 20
5273.6374415142
 10
6514.3293050721
 20
5274.8102821094
 10
6514.6250931218
 20
5275.7863975746
 10
6514.8393271163
 20
5276.4933682663
 10
6514.9561075166
 20
5276.8787718994
 10
6514.9754939273
 20
5276.9426978809
  0
LWPOLYLINE
  5
B1
330
1F
100
AcDbEntity
  8
0
  6
Continuous
 62
     7
370
    25
100
AcDbPolyline
 90
        4
 70
   128
 43
0.0
 10
6512.0754150346
 20
5267.3724569065
 10
6512.1191052392
 20
5267.5166554433
 10
6512.2665820315
 20
5268.0033124668
 10
6512.5074145988
 20
5268.798065899
  0
LWPOLYLINE
  5
B2
330
1F
100
AcDbEntity
  8
0
  6
Continuous
 62
     7
370
    25
100
AcDbPolyline
 90
       14
 70
   128
 43
0.0
 10
6531.7959097817
 20
5332.4501119238
 10
6531.7978469327
 20
5332.4565268737
 10
6531.8717864945
 20
5332.7005259377
 10
6532.047649999
 20
5333.2808442098
 10
6532.3123840287
 20
5334.154439686
 10
6532.6463488534
 20
5335.2565295679
 10
6533.0247787431
 20
5336.5053660852
 10
6533.4196297124
 20
5337.8083385211
 10
6533.8015762761
 20
5339.0688053948
 10
6534.1423360303
 20
5340.1932842714
 10
6534.4166068032
 20
5341.0983733517
 10
6534.6040634111
 20
5341.7169578058
 10
6534.6907881692
 20
5342.0031495077
 10
6534.6960035756
 20
5342.0203603488
  0
LINE
  5
B3
330
1F
100
AcDbEntity
  8
0
  6
Continuous
 62
     7
370
    25
100
AcDbLine
 10
5994.018754144
 20
5389.0888519269
 30
0.0
 11
6554.0187565282
 21
5389.0888519269
 31
0.0
  0
LINE
  5
B4
330
1F
100
AcDbEntity
  8
0
  6
Continuous
 62
     7
370
    25
100
AcDbLine
 10
5994.018754144
 20
5389.0888519269
 30
0.0
 11
5994.018754144
 21
5406.0888519195
 31
0.0
  0
SPLINE
  5
B5
330
1F
100
AcDbEntity
  8
0
  6
Continuous
 62
     7
370
    25
100
AcDbSpline
210
0.0
220
0.0
230
1.0
 70
    24
 71
     3
 72
   110
 73
   106
 74
     0
 42
0.000000001
 43
0.00000001
 40
0.0
 40
0.0
 40
0.0
 40
0.0
 40
0.0156249999999998
 40
0.0156249999999998
 40
0.0234374999999998
 40
0.0234374999999998
 40
0.0312499999999998
 40
0.0312499999999998
 40
0.0624999999999994
 40
0.0624999999999994
 40
0.093749999999999
 40
0.093749999999999
 40
0.1249999999999988
 40
0.1249999999999988
 40
0.1328124999999986
 40
0.1328124999999986
 40
0.1406249999999985
 40
0.1406249999999985
 40
0.1562499999999983
 40
0.1562499999999983
 40
0.187499999999998
 40
0.187499999999998
 40
0.2187499999999976
 40
0.2187499999999976
 40
0.2343749999999975
 40
0.2343749999999975
 40
0.2421874999999974
 40
0.2421874999999974
 40
0.2499999999999974
 40
0.2499999999999974
 40
0.2812499999999972
 40
0.2812499999999972
 40
0.3124999999999969
 40
0.3124999999999969
 40
0.3437499999999967
 40
0.3437499999999967
 40
0.3593749999999966
 40
0.3593749999999966
 40
0.3671874999999965
 40
0.3671874999999965
 40
0.3749999999999965
 40
0.3749999999999965
 40
0.4062499999999966
 40
0.4062499999999966
 40
0.4374999999999966
 40
0.4374999999999966
 40
0.4687499999999967
 40
0.4687499999999967
 40
0.4843749999999967
 40
0.4843749999999967
 40
0.4921874999999967
 40
0.4921874999999967
 40
0.4999999999999967
 40
0.4999999999999967
 40
0.5312499999999967
 40
0.5312499999999967
 40
0.5624999999999967
 40
0.5624999999999967
 40
0.5937499999999967
 40
0.5937499999999967
 40
0.6015624999999967
 40
0.6015624999999967
 40
0.6093749999999967
 40
0.6093749999999967
 40
0.6249999999999968
 40
0.6249999999999968
 40
0.6562499999999969
 40
0.6562499999999969
 40
0.6874999999999971
 40
0.6874999999999971
 40
0.7031249999999971
 40
0.7031249999999971
 40
0.7109374999999973
 40
0.7109374999999973
 40
0.7187499999999974
 40
0.7187499999999974
 40
0.7499999999999977
 40
0.7499999999999977
 40
0.7812499999999979
 40
0.7812499999999979
 40
0.796874999999998
 40
0.796874999999998
 40
0.8046874999999981
 40
0.8046874999999981
 40
0.8124999999999981
 40
0.8124999999999981
 40
0.8437499999999987
 40
0.8437499999999987
 40
0.8749999999999992
 40
0.8749999999999992
 40
0.8906249999999994
 40
0.8906249999999994
 40
0.8984374999999996
 40
0.8984374999999996
 40
0.9062499999999996
 40
0.9062499999999996
 40
0.9374999999999998
 40
0.9374999999999998
 40
0.9453124999999998
 40
0.9453124999999998
 40
0.9531249999999998
 40
0.9531249999999998
 40
0.9687499999999999
 40
0.9687499999999999
 40
1.0
 40
1.0
 40
1.0
 40
1.0
 10
6554.0187553361
 20
5406.088851807739
 30
0.0
 10
6554.0187553361
 20
5406.088851807739
 30
0.0
 10
6553.892297485932
 20
5406.088851807739
 30
0.0
 10
6553.513679957306
 20
5406.088851807739
 30
0.0
 10
6553.355969599446
 20
5406.088851807739
 30
0.0
 10
6552.977473740058
 20
5406.088851807739
 30
0.0
 10
6552.756660899201
 20
5406.088851807739
 30
0.0
 10
6551.501010877427
 20
5406.088851807739
 30
0.0
 10
6550.009712743735
 20
5406.088851807739
 30
0.0
 10
6546.097540052662
 20
5406.088851807739
 30
0.0
 10
6543.676514405979
 20
5406.088851807739
 30
0.0
 10
6537.917684270209
 20
5406.088851807739
 30
0.0
 10
6534.579886354988
 20
5406.088851807739
 30
0.0
 10
6529.824871311679
 20
5406.088851807739
 30
0.0
 10
6528.843215054858
 20
5406.088851807739
 30
0.0
 10
6526.833809939011
 20
5406.088851807739
 30
0.0
 10
6525.805018858729
 20
5406.088851807739
 30
0.0
 10
6522.647757184025
 20
5406.088851807739
 30
0.0
 10
6520.448451409628
 20
5406.088851807739
 30
0.0
 10
6513.576096584498
 20
5406.088851807739
 30
0.0
 10
6508.629312210232
 20
5406.088851807739
 30
0.0
 10
6498.034224223928
 20
5406.088851807739
 30
0.0
 10
6492.385831072985
 20
5406.088851807739
 30
0.0
 10
6483.392439660579
 20
5406.088851807739
 30
0.0
 10
6480.307682651523
 20
5406.088851807739
 30
0.0
 10
6475.549357305575
 20
5406.088851807739
 30
0.0
 10
6473.941373918491
 20
5406.088851807739
 30
0.0
 10
6470.681410443603
 20
5406.088851807739
 30
0.0
 10
6469.032604896935
 20
5406.088851807739
 30
0.0
 10
6460.72642242901
 20
5406.088851807739
 30
0.0
 10
6453.853791718085
 20
5406.088851807739
 30
0.0
 10
6439.679688859099
 20
5406.088851807739
 30
0.0
 10
6432.378120259519
 20
5406.088851807739
 30
0.0
 10
6417.358870930354
 20
5406.088851807739
 30
0.0
 10
6409.641157901096
 20
5406.088851807739
 30
0.0
 10
6397.753360831829
 20
5406.088851807739
 30
0.0
 10
6393.738802537838
 20
5406.088851807739
 30
0.0
 10
6387.638335955518
 20
5406.088851807739
 30
0.0
 10
6385.589574022159
 20
5406.088851807739
 30
0.0
 10
6381.475922285372
 20
5406.088851807739
 30
0.0
 10
6379.414068321372
 20
5406.088851807739
 30
0.0
 10
6369.080030424304
 20
5406.088851807739
 30
0.0
 10
6360.73372456615
 20
5406.088851807739
 30
0.0
 10
6343.889433972507
 20
5406.088851807739
 30
0.0
 10
6335.391429737102
 20
5406.088851807739
 30
0.0
 10
6318.245907112563
 20
5406.088851807739
 30
0.0
 10
6309.598387766461
 20
5406.088851807739
 30
0.0
 10
6296.513648748281
 20
5406.088851807739
 30
0.0
 10
6292.133128357806
 20
5406.088851807739
 30
0.0
 10
6285.53348164521
 20
5406.088851807739
 30
0.0
 10
6283.326639348244
 20
5406.088851807739
 30
0.0
 10
6278.922494235801
 20
5406.088851807739
 30
0.0
 10
6276.723432908321
 20
5406.088851807739
 30
0.0
 10
6265.743045428449
 20
5406.088851807739
 30
0.0
 10
6257.006376558177
 20
5406.088851807739
 30
0.0
 10
6239.626461410458
 20
5406.088851807739
 30
0.0
 10
6230.983217822269
 20
5406.088851807739
 30
0.0
 10
6213.790783089245
 20
5406.088851807739
 30
0.0
 10
6205.241583508862
 20
5406.088851807739
 30
0.0
 10
6194.615851952385
 20
5406.088851807739
 30
0.0
 10
6192.493750751731
 20
5406.088851807739
 30
0.0
 10
6188.255716434063
 20
5406.088851807739
 30
0.0
 10
6186.138708832813
 20
5406.088851807739
 30
0.0
 10
6179.826001557019
 20
5406.088851807739
 30
0.0
 10
6175.659330847363
 20
5406.088851807739
 30
0.0
 10
6163.283755679835
 20
5406.088851807739
 30
0.0
 10
6155.19900858136
 20
5406.088851807739
 30
0.0
 10
6139.362411529612
 20
5406.088851807739
 30
0.0
 10
6131.61053296199
 20
5406.088851807739
 30
0.0
 10
6120.240567177705
 20
5406.088851807739
 30
0.0
 10
6116.493628950238
 20
5406.088851807739
 30
0.0
 10
6110.939566302583
 20
5406.088851807739
 30
0.0
 10
6109.099275049634
 20
5406.088851807739
 30
0.0
 10
6105.441183739745
 20
5406.088851807739
 30
0.0
 10
6103.627100915286
 20
5406.088851807739
 30
0.0
 10
6094.653304239644
 20
5406.088851807739
 30
0.0
 10
6087.760858564574
 20
5406.088851807739
 30
0.0
 10
6074.550516313865
 20
5406.088851807739
 30
0.0
 10
6068.232572880045
 20
5406.088851807739
 30
0.0
 10
6059.200196531907
 20
5406.088851807739
 30
0.0
 10
6056.263629470195
 20
5406.088851807739
 30
0.0
 10
6051.973163696826
 20
5406.088851807739
 30
0.0
 10
6050.562082498443
 20
5406.088851807739
 30
0.0
 10
6047.778702862782
 20
5406.088851807739
 30
0.0
 10
6046.404679740001
 20
5406.088851807739
 30
0.0
 10
6039.655723098764
 20
5406.088851807739
 30
0.0
 10
6034.659431664276
 20
5406.088851807739
 30
0.0
 10
6025.468293924547
 20
5406.088851807739
 30
0.0
 10
6021.273407420755
 20
5406.088851807739
 30
0.0
 10
6015.597351517753
 20
5406.088851807739
 30
0.0
 10
6013.808239818943
 20
5406.088851807739
 30
0.0
 10
6011.282736505544
 20
5406.088851807739
 30
0.0
 10
6010.46727676182
 20
5406.088851807739
 30
0.0
 10
6008.889918528518
 20
5406.088851807739
 30
0.0
 10
6008.127598137648
 20
5406.088851807739
 30
0.0
 10
6004.456851138081
 20
5406.088851807739
 30
0.0
 10
6001.993590152864
 20
5406.088851807739
 30
0.0
 10
5999.512201763539
 20
5406.088851807739
 30
0.0
 10
5999.045883228559
 20
5406.088851807739
 30
0.0
 10
5998.173619570684
 20
5406.088851807739
 30
0.0
 10
5997.767916979528
 20
5406.088851807739
 30
0.0
 10
5996.645333177667
 20
5406.088851807739
 30
0.0
 10
5996.021544337837
 20
5406.088851807739
 30
0.0
 10
5994.52256925884
 20
5406.088851807739
 30
0.0
 10
5994.0187553361
 20
5406.088851807739
 30
0.0
 10
5994.0187553361
 20
5406.088851807739
 30
0.0
  0
LINE
  5
B6
330
1F
100
AcDbEntity
  8
0
  6
Continuous
 62
     7
370
    25
100
AcDbLine
 10
6554.0187565282
 20
5389.0888519269
 30
0.0
 11
6554.0187565282
 21
5406.0888519195
 31
0.0
  0
ARC
  5
B7
330
1F
100
AcDbEntity
  8
0
  6
Continuous
 62
     7
370
    25
100
AcDbCircle
 10
5999.0187553361
 20
5406.0888518077
 30
0.0
 40
5.0
100
AcDbArc
 50
90.0
 51
180.0
  0
SPLINE
  5
B8
330
1F
100
AcDbEntity
  8
0
  6
Continuous
 62
     7
370
    25
100
AcDbSpline
210
0.0
220
0.0
230
1.0
 70
    24
 71
     3
 72
   106
 73
   102
 74
     0
 42
0.000000001
 43
0.00000001
 40
0.0
 40
0.0
 40
0.0
 40
0.0
 40
0.031250000000001
 40
0.031250000000001
 40
0.0625000000000019
 40
0.0625000000000019
 40
0.0937500000000029
 40
0.0937500000000029
 40
0.101562500000003
 40
0.101562500000003
 40
0.1093750000000032
 40
0.1093750000000032
 40
0.1250000000000034
 40
0.1250000000000034
 40
0.1562500000000039
 40
0.1562500000000039
 40
0.1875000000000044
 40
0.1875000000000044
 40
0.1953125000000045
 40
0.1953125000000045
 40
0.2031250000000046
 40
0.2031250000000046
 40
0.2187500000000047
 40
0.2187500000000047
 40
0.2500000000000049
 40
0.2500000000000049
 40
0.2812500000000052
 40
0.2812500000000052
 40
0.2890625000000052
 40
0.2890625000000052
 40
0.2968750000000051
 40
0.2968750000000051
 40
0.312500000000005
 40
0.312500000000005
 40
0.3437500000000047
 40
0.3437500000000047
 40
0.3750000000000044
 40
0.3750000000000044
 40
0.3906250000000043
 40
0.3906250000000043
 40
0.3984375000000043
 40
0.3984375000000043
 40
0.4062500000000042
 40
0.4062500000000042
 40
0.4375000000000037
 40
0.4375000000000037
 40
0.4687500000000033
 40
0.4687500000000033
 40
0.5000000000000029
 40
0.5000000000000029
 40
0.5078125000000028
 40
0.5078125000000028
 40
0.5156250000000027
 40
0.5156250000000027
 40
0.5312500000000026
 40
0.5312500000000026
 40
0.5625000000000021
 40
0.5625000000000021
 40
0.5937500000000018
 40
0.5937500000000018
 40
0.6250000000000014
 40
0.6250000000000014
 40
0.6328125000000014
 40
0.6328125000000014
 40
0.6406250000000014
 40
0.6406250000000014
 40
0.6562500000000013
 40
0.6562500000000013
 40
0.6875000000000011
 40
0.6875000000000011
 40
0.7187500000000009
 40
0.7187500000000009
 40
0.7500000000000006
 40
0.7500000000000006
 40
0.7578125000000006
 40
0.7578125000000006
 40
0.7656250000000004
 40
0.7656250000000004
 40
0.7812500000000004
 40
0.7812500000000004
 40
0.8125000000000003
 40
0.8125000000000003
 40
0.8437500000000002
 40
0.8437500000000002
 40
0.8593750000000001
 40
0.8593750000000001
 40
0.8671875
 40
0.8671875
 40
0.8749999999999999
 40
0.8749999999999999
 40
0.90625
 40
0.90625
 40
0.9375000000000001
 40
0.9375000000000001
 40
0.9687500000000001
 40
0.9687500000000001
 40
0.9765625000000001
 40
0.9765625000000001
 40
0.9843750000000002
 40
0.9843750000000002
 40
1.0
 40
1.0
 40
1.0
 40
1.0
 10
5999.0187553361
 20
5411.088851807739
 30
0.0
 10
5999.0187553361
 20
5411.088851807739
 30
0.0
 10
5999.515413140315
 20
5411.088851807739
 30
0.0
 10
6001.460509928404
 20
5411.088851807739
 30
0.0
 10
6002.909085834228
 20
5411.088851807739
 30
0.0
 10
6006.748439731736
 20
5411.088851807739
 30
0.0
 10
6009.139190438058
 20
5411.088851807739
 30
0.0
 10
6012.729109997577
 20
5411.088851807739
 30
0.0
 10
6013.47571299286
 20
5411.088851807739
 30
0.0
 10
6015.020167576833
 20
5411.088851807739
 30
0.0
 10
6015.818787463167
 20
5411.088851807739
 30
0.0
 10
6018.292606061099
 20
5411.088851807739
 30
0.0
 10
6020.045708220599
 20
5411.088851807739
 30
0.0
 10
6025.609052082217
 20
5411.088851807739
 30
0.0
 10
6029.722561299747
 20
5411.088851807739
 30
0.0
 10
6038.738153027374
 20
5411.088851807739
 30
0.0
 10
6043.640278058553
 20
5411.088851807739
 30
0.0
 10
6050.263144990566
 20
5411.088851807739
 30
0.0
 10
6051.611790439893
 20
5411.088851807739
 30
0.0
 10
6054.343751060746
 20
5411.088851807739
 30
0.0
 10
6055.728804629242
 20
5411.088851807739
 30
0.0
 10
6059.940237839167
 20
5411.088851807739
 30
0.0
 10
6062.822850733052
 20
5411.088851807739
 30
0.0
 10
6071.689588930662
 20
5411.088851807739
 30
0.0
 10
6077.89208001441
 20
5411.088851807739
 30
0.0
 10
6090.861408408387
 20
5411.088851807739
 30
0.0
 10
6097.628293585509
 20
5411.088851807739
 30
0.0
 10
6106.438634542859
 20
5411.088851807739
 30
0.0
 10
6108.21959235851
 20
5411.088851807739
 30
0.0
 10
6111.811310684799
 20
5411.088851807739
 30
0.0
 10
6113.618212023052
 20
5411.088851807739
 30
0.0
 10
6119.071500279246
 20
5411.088851807739
 30
0.0
 10
6122.750449708895
 20
5411.088851807739
 30
0.0
 10
6133.914064376053
 20
5411.088851807739
 30
0.0
 10
6141.525200875041
 20
5411.088851807739
 30
0.0
 10
6157.074017261732
 20
5411.088851807739
 30
0.0
 10
6165.011725983802
 20
5411.088851807739
 30
0.0
 10
6177.161939158542
 20
5411.088851807739
 30
0.0
 10
6181.252687183302
 20
5411.088851807739
 30
0.0
 10
6187.450284787478
 20
5411.088851807739
 30
0.0
 10
6189.528740286988
 20
5411.088851807739
 30
0.0
 10
6193.690072742668
 20
5411.088851807739
 30
0.0
 10
6195.773763739017
 20
5411.088851807739
 30
0.0
 10
6206.207150452903
 20
5411.088851807739
 30
0.0
 10
6214.601535911439
 20
5411.088851807739
 30
0.0
 10
6231.482498650371
 20
5411.088851807739
 30
0.0
 10
6239.969084340002
 20
5411.088851807739
 30
0.0
 10
6257.033823077576
 20
5411.088851807739
 30
0.0
 10
6265.611973629933
 20
5411.088851807739
 30
0.0
 10
6276.393007554991
 20
5411.088851807739
 30
0.0
 10
6278.552137751718
 20
5411.088851807739
 30
0.0
 10
6282.87629811607
 20
5411.088851807739
 30
0.0
 10
6285.043411596876
 20
5411.088851807739
 30
0.0
 10
6291.525342918793
 20
5411.088851807739
 30
0.0
 10
6295.827760684183
 20
5411.088851807739
 30
0.0
 10
6308.67930301233
 20
5411.088851807739
 30
0.0
 10
6317.172837022278
 20
5411.088851807739
 30
0.0
 10
6334.013345101763
 20
5411.088851807739
 30
0.0
 10
6342.360319976592
 20
5411.088851807739
 30
0.0
 10
6358.905586412807
 20
5411.088851807739
 30
0.0
 10
6367.10389691879
 20
5411.088851807739
 30
0.0
 10
6377.254942780681
 20
5411.088851807739
 30
0.0
 10
6379.280298694991
 20
5411.088851807739
 30
0.0
 10
6383.32115876051
 20
5411.088851807739
 30
0.0
 10
6385.335203128152
 20
5411.088851807739
 30
0.0
 10
6391.33119218833
 20
5411.088851807739
 30
0.0
 10
6395.277080312658
 20
5411.088851807739
 30
0.0
 10
6406.961795240731
 20
5411.088851807739
 30
0.0
 10
6414.548018244745
 20
5411.088851807739
 30
0.0
 10
6429.312152262419
 20
5411.088851807739
 30
0.0
 10
6436.490094862787
 20
5411.088851807739
 30
0.0
 10
6450.425092732557
 20
5411.088851807739
 30
0.0
 10
6457.182242563732
 20
5411.088851807739
 30
0.0
 10
6465.349499086294
 20
5411.088851807739
 30
0.0
 10
6466.970062145682
 20
5411.088851807739
 30
0.0
 10
6470.177869392463
 20
5411.088851807739
 30
0.0
 10
6471.760148692404
 20
5411.088851807739
 30
0.0
 10
6476.442478059887
 20
5411.088851807739
 30
0.0
 10
6479.478058873967
 20
5411.088851807739
 30
0.0
 10
6488.328360182782
 20
5411.088851807739
 30
0.0
 10
6493.887268552311
 20
5411.088851807739
 30
0.0
 10
6504.315296167148
 20
5411.088851807739
 30
0.0
 10
6509.18450384375
 20
5411.088851807739
 30
0.0
 10
6515.949728401134
 20
5411.088851807739
 30
0.0
 10
6518.11486575339
 20
5411.088851807739
 30
0.0
 10
6521.223250538704
 20
5411.088851807739
 30
0.0
 10
6522.236145467556
 20
5411.088851807739
 30
0.0
 10
6524.214563510622
 20
5411.088851807739
 30
0.0
 10
6525.181376308453
 20
5411.088851807739
 30
0.0
 10
6529.86579935497
 20
5411.088851807739
 30
0.0
 10
6533.154148642046
 20
5411.088851807739
 30
0.0
 10
6538.827872120208
 20
5411.088851807739
 30
0.0
 10
6541.213239866271
 20
5411.088851807739
 30
0.0
 10
6545.06797895782
 20
5411.088851807739
 30
0.0
 10
6546.537500113453
 20
5411.088851807739
 30
0.0
 10
6547.77489060538
 20
5411.088851807739
 30
0.0
 10
6547.99249777392
 20
5411.088851807739
 30
0.0
 10
6548.365531569977
 20
5411.088851807739
 30
0.0
 10
6548.520966196469
 20
5411.088851807739
 30
0.0
 10
6548.89412092156
 20
5411.088851807739
 30
0.0
 10
6549.0187553361
 20
5411.088851807739
 30
0.0
 10
6549.0187553361
 20
5411.088851807739
 30
0.0
  0
ARC
  5
B9
330
1F
100
AcDbEntity
  8
0
  6
Continuous
 62
     7
370
    25
100
AcDbCircle
 10
6549.0187553361
 20
5406.0888518077
 30
0.0
 40
5.0
100
AcDbArc
 50
0.0
 51
90.0
  0
SPLINE
  5
BA
330
1F
100
AcDbEntity
  8
0
  6
Continuous
 62
     7
370
    25
100
AcDbSpline
210
0.0
220
0.0
230
1.0
 70
    24
 71
     3
 72
   110
 73
   106
 74
     0
 42
0.000000001
 43
0.00000001
 40
0.0
 40
0.0
 40
0.0
 40
0.0
 40
0.0312499999999992
 40
0.0312499999999992
 40
0.0624999999999999
 40
0.0624999999999999
 40
0.0937499999999976
 40
0.0937499999999976
 40
0.1015624999999974
 40
0.1015624999999974
 40
0.1093749999999972
 40
0.1093749999999972
 40
0.125
 40
0.125
 40
0.1562499999999969
 40
0.1562499999999969
 40
0.1875000000000005
 40
0.1875000000000005
 40
0.1953124999999966
 40
0.1953124999999966
 40
0.2031249999999965
 40
0.2031249999999965
 40
0.2187499999999963
 40
0.2187499999999963
 40
0.25
 40
0.25
 40
0.2812499999999955
 40
0.2812499999999955
 40
0.2890624999999954
 40
0.2890624999999954
 40
0.2968749999999955
 40
0.2968749999999955
 40
0.3124999999999953
 40
0.3124999999999953
 40
0.3333333333333333
 40
0.3437499999999953
 40
0.3437499999999953
 40
0.3749999999999952
 40
0.3749999999999952
 40
0.3906249999999952
 40
0.3906249999999952
 40
0.3984374999999952
 40
0.3984374999999952
 40
0.4062499999999952
 40
0.4062499999999952
 40
0.4166666666666666
 40
0.4374999999999954
 40
0.4374999999999954
 40
0.4687499999999956
 40
0.4687499999999956
 40
0.5
 40
0.5
 40
0.5078124999999959
 40
0.5078124999999959
 40
0.5156249999999959
 40
0.5156249999999959
 40
0.5312499999999961
 40
0.5312499999999961
 40
0.5624999999999963
 40
0.5624999999999963
 40
0.5833333333333339
 40
0.5937499999999966
 40
0.5937499999999966
 40
0.6249999999999967
 40
0.6249999999999967
 40
0.6328124999999969
 40
0.6328124999999969
 40
0.640624999999997
 40
0.640624999999997
 40
0.6562499999999972
 40
0.6562499999999972
 40
0.6666666666666667
 40
0.6874999999999977
 40
0.6874999999999977
 40
0.7187499999999981
 40
0.7187499999999981
 40
0.7500000000000016
 40
0.7500000000000016
 40
0.7578124999999987
 40
0.7578124999999987
 40
0.7656249999999988
 40
0.7656249999999988
 40
0.781249999999999
 40
0.781249999999999
 40
0.8124999999999906
 40
0.8124999999999906
 40
0.8437499999999994
 40
0.8437499999999994
 40
0.8593749999999996
 40
0.8593749999999996
 40
0.8671874999999994
 40
0.8671874999999994
 40
0.875
 40
0.875
 40
0.9062499999999996
 40
0.9062499999999996
 40
0.9375000000000001
 40
0.9375000000000001
 40
0.96875
 40
0.96875
 40
0.9765625
 40
0.9765625
 40
0.9843750000000001
 40
0.9843750000000001
 40
1.0
 40
1.0
 40
1.0
 40
1.0
 10
6498.0187553361
 20
5224.088851807739
 30
0.0
 10
6498.0187553361
 20
5224.088851807739
 30
0.0
 10
6497.631776840802
 20
5224.088851807739
 30
0.0
 10
6496.118897887976
 20
5224.088851807739
 30
0.0
 10
6494.992860788226
 20
5224.088851807739
 30
0.0
 10
6492.00503682721
 20
5224.088851807739
 30
0.0
 10
6490.143277120618
 20
5224.088851807739
 30
0.0
 10
6487.328892645248
 20
5224.088851807739
 30
0.0
 10
6486.743174372734
 20
5224.088851807739
 30
0.0
 10
6485.531484360374
 20
5224.088851807739
 30
0.0
 10
6484.904769472701
 20
5224.088851807739
 30
0.0
 10
6482.962676227063
 20
5224.088851807739
 30
0.0
 10
6481.585404607469
 20
5224.088851807739
 30
0.0
 10
6477.209137447062
 20
5224.088851807739
 30
0.0
 10
6473.966457032613
 20
5224.08885180774
 30
0.0
 10
6466.8285649566
 20
5224.08885180774
 30
0.0
 10
6462.933310816235
 20
5224.08885180774
 30
0.0
 10
6457.639828512476
 20
5224.088851807739
 30
0.0
 10
6456.560765029695
 20
5224.088851807739
 30
0.0
 10
6454.374612785733
 20
5224.088851807739
 30
0.0
 10
6453.265820695419
 20
5224.088851807739
 30
0.0
 10
6449.892740871489
 20
5224.088851807738
 30
0.0
 10
6447.581788692364
 20
5224.088851807738
 30
0.0
 10
6440.464290210149
 20
5224.088851807737
 30
0.0
 10
6435.473633731523
 20
5224.088851807736
 30
0.0
 10
6424.997947676488
 20
5224.088851807735
 30
0.0
 10
6419.512870405732
 20
5224.088851807735
 30
0.0
 10
6412.339642083801
 20
5224.088851807735
 30
0.0
 10
6410.887715022781
 20
5224.088851807735
 30
0.0
 10
6407.958022374358
 20
5224.088851807735
 30
0.0
 10
6406.483741610681
 20
5224.088851807736
 30
0.0
 10
6402.032802906115
 20
5224.088851807736
 30
0.0
 10
6399.02807018902
 20
5224.088851807736
 30
0.0
 10
6391.930309004843
 20
5224.088851807738
 30
0.0
 10
6385.747603151387
 20
5224.088851807739
 30
0.0
 10
6379.415415562896
 20
5224.08885180774
 30
0.0
 10
6370.906253272546
 20
5224.088851807742
 30
0.0
 10
6364.375300500829
 20
5224.088851807744
 30
0.0
 10
6354.3503278567
 20
5224.088851807745
 30
0.0
 10
6350.970511382791
 20
5224.088851807746
 30
0.0
 10
6345.842312775804
 20
5224.088851807747
 30
0.0
 10
6344.120887396009
 20
5224.088851807747
 30
0.0
 10
6340.674807642655
 20
5224.088851807747
 30
0.0
 10
6338.949147804724
 20
5224.088851807747
 30
0.0
 10
6334.916433333979
 20
5224.088851807748
 30
0.0
 10
6327.98912963102
 20
5224.088851807748
 30
0.0
 10
6321.018733956624
 20
5224.088851807747
 30
0.0
 10
6309.353788151714
 20
5224.088851807745
 30
0.0
 10
6302.311954599004
 20
5224.088851807745
 30
0.0
 10
6288.140746286239
 20
5224.088851807742
 30
0.0
 10
6281.011374039987
 20
5224.08885180774
 30
0.0
 10
6272.042301765174
 20
5224.088851807739
 30
0.0
 10
6270.245613351461
 20
5224.088851807739
 30
0.0
 10
6266.646373769234
 20
5224.088851807739
 30
0.0
 10
6264.841842013136
 20
5224.088851807738
 30
0.0
 10
6259.447829256819
 20
5224.088851807738
 30
0.0
 10
6255.870504472136
 20
5224.088851807738
 30
0.0
 10
6245.19295030779
 20
5224.088851807738
 30
0.0
 10
6238.147021467951
 20
5224.088851807738
 30
0.0
 10
6226.519800351924
 20
5224.088851807739
 30
0.0
 10
6219.589864557731
 20
5224.088851807739
 30
0.0
 10
6212.728915368029
 20
5224.088851807739
 30
0.0
 10
6203.611082832484
 20
5224.08885180774
 30
0.0
 10
6196.840413907235
 20
5224.08885180774
 30
0.0
 10
6188.459571880125
 20
5224.08885180774
 30
0.0
 10
6186.787539263564
 20
5224.08885180774
 30
0.0
 10
6183.451738682612
 20
5224.08885180774
 30
0.0
 10
6181.789547210739
 20
5224.08885180774
 30
0.0
 10
6176.846304832644
 20
5224.088851807739
 30
0.0
 10
6173.598639024655
 20
5224.088851807739
 30
0.0
 10
6168.263817382379
 20
5224.088851807739
 30
0.0
 10
6161.924280503382
 20
5224.088851807739
 30
0.0
 10
6155.770069591006
 20
5224.088851807739
 30
0.0
 10
6145.715647003749
 20
5224.088851807739
 30
0.0
 10
6139.865297865473
 20
5224.088851807739
 30
0.0
 10
6128.531687013713
 20
5224.088851807739
 30
0.0
 10
6123.048330942066
 20
5224.088851807739
 30
0.0
 10
6116.433307945619
 20
5224.088851807739
 30
0.0
 10
6115.121212932035
 20
5224.088851807739
 30
0.0
 10
6112.525857044935
 20
5224.088851807739
 30
0.0
 10
6111.247587833021
 20
5224.088851807739
 30
0.0
 10
6107.470074023833
 20
5224.088851807739
 30
0.0
 10
6105.028084127463
 20
5224.088851807739
 30
0.0
 10
6097.92514802131
 20
5224.088851807739
 30
0.0
 10
6093.486608645525
 20
5224.088851807739
 30
0.0
 10
6085.185917640722
 20
5224.088851807739
 30
0.0
 10
6081.323677617599
 20
5224.088851807739
 30
0.0
 10
6075.96607243988
 20
5224.088851807739
 30
0.0
 10
6074.253002292484
 20
5224.088851807739
 30
0.0
 10
6071.794781333638
 20
5224.088851807739
 30
0.0
 10
6070.993951477144
 20
5224.088851807739
 30
0.0
 10
6069.429979324414
 20
5224.088851807739
 30
0.0
 10
6068.665526291235
 20
5224.088851807739
 30
0.0
 10
6064.967525703878
 20
5224.08885180774
 30
0.0
 10
6062.387732244814
 20
5224.088851807741
 30
0.0
 10
6057.950019052203
 20
5224.088851807742
 30
0.0
 10
6056.092105672366
 20
5224.088851807743
 30
0.0
 10
6053.091149778848
 20
5224.088851807742
 30
0.0
 10
6051.947957774475
 20
5224.088851807742
 30
0.0
 10
6050.985076210209
 20
5224.088851807741
 30
0.0
 10
6050.815701360043
 20
5224.08885180774
 30
0.0
 10
6050.525584394602
 20
5224.08885180774
 30
0.0
 10
6050.404841686469
 20
5224.08885180774
 30
0.0
 10
6050.115177053905
 20
5224.088851807739
 30
0.0
 10
6050.0187553361
 20
5224.088851807739
 30
0.0
 10
6050.0187553361
 20
5224.088851807739
 30
0.0
  0
LINE
  5
BB
330
1F
100
AcDbEntity
  8
0
  6
Continuous
 62
     7
370
    25
100
AcDbLine
 10
6050.018748422
 20
5224.0888453704
 30
0.0
 11
6000.0187663034
 21
5389.0888519269
 31
0.0
  0
LINE
  5
BC
330
1F
100
AcDbEntity
  8
0
  6
Continuous
 62
     7
370
    25
100
AcDbLine
 10
6498.0187622502
 20
5224.0888453704
 30
0.0
 11
6548.0187443688
 21
5389.0888519269
 31
0.0
  0
LINE
  5
BD
330
1F
100
AcDbEntity
  8
0
  6
Continuous
 62
     8
370
    25
100
AcDbLine
 10
6272.9559516672
 20
5217.0888460857
 30
0.0
 11
6302.0187562004
 21
5217.0888460857
 31
0.0
  0
LINE
  5
BE
330
1F
100
AcDbEntity
  8
0
  6
Continuous
 62
     8
370
    25
100
AcDbLine
 10
6246.0187544718
 20
5217.0888460857
 30
0.0
 11
6272.9559516672
 21
5217.0888460857
 31
0.0
  0
LINE
  5
BF
330
1F
100
AcDbEntity
  8
0
  6
Continuous
 62
     8
370
    25
100
AcDbLine
 10
6246.9125410214
 20
5005.3150035125
 30
0.0
 11
6301.1249696508
 21
5005.3150035125
 31
0.0
  0
LINE
  5
C0
330
1F
100
AcDbEntity
  8
0
  6
Continuous
 62
     8
370
    25
100
AcDbLine
 10
6301.3281972751
 20
5129.9683130962
 30
0.0
 11
6246.7093133971
 21
5129.9683130962
 31
0.0
  0
LINE
  5
C1
330
1F
100
AcDbEntity
  8
0
  6
Continuous
 62
     8
370
    25
100
AcDbLine
 10
6251.0187552914
 20
5146.1206651908
 30
0.0
 11
6297.0187553808
 21
5146.1206651908
 31
0.0
  0
ARC
  5
C2
330
1F
100
AcDbEntity
  8
0
  6
Continuous
 62
     7
100
AcDbCircle
 10
7212.4094458375
 20
5005.6206670479
 30
0.0
 40
3.000000000000486
100
AcDbArc
 50
270.0
 51
354.1518709246
  0
ARC
  5
C3
330
1F
100
AcDbEntity
  8
0
  6
Continuous
 62
     7
100
AcDbCircle
 10
7212.6172703088
 20
5129.6206670479
 30
0.0
 40
3.000000000000342
100
AcDbArc
 50
6.6544259672
 51
90.0
  0
ARC
  5
C4
330
1F
100
AcDbEntity
  8
0
  6
Continuous
 62
     7
100
AcDbCircle
 10
7208.287617979
 20
5146.1206670479
 30
0.0
 40
3.000000000001061
100
AcDbArc
 50
0.0035093203
 51
90.0
  0
LINE
  5
C5
330
1F
100
AcDbEntity
  8
0
  6
Continuous
 62
     7
100
AcDbLine
 10
7188.2876180165
 20
5149.1206670479
 30
0.0
 11
7188.2876180165
 21
5002.6206670479
 31
0.0
  0
LINE
  5
C6
330
1F
100
AcDbEntity
  8
0
  6
Continuous
 62
     7
100
AcDbLine
 10
7188.2876180165
 20
5002.6206670479
 30
0.0
 11
7212.4094458375
 21
5002.6206670479
 31
0.0
  0
LINE
  5
C7
330
1F
100
AcDbEntity
  8
0
  6
Continuous
 62
     7
100
AcDbLine
 10
7215.3938322458
 20
5005.3149911865
 30
0.0
 11
7222.2876179528
 21
5072.6206670479
 31
0.0
  0
LINE
  5
C8
330
1F
100
AcDbEntity
  8
0
  6
Continuous
 62
     7
100
AcDbLine
 10
7222.2876179528
 20
5072.6206670479
 30
0.0
 11
7215.5970597205
 21
5129.9683091465
 31
0.0
  0
LINE
  5
C9
330
1F
100
AcDbEntity
  8
0
  6
Continuous
 62
     7
100
AcDbLine
 10
7212.6172703088
 20
5132.6206670479
 30
0.0
 11
7204.2876179865
 21
5132.6206670479
 31
0.0
  0
LINE
  5
CA
330
1F
100
AcDbEntity
  8
0
  6
Continuous
 62
     7
100
AcDbLine
 10
7204.2876179865
 20
5132.6206670479
 30
0.0
 11
7204.2876179865
 21
5135.1206670479
 31
0.0
  0
LINE
  5
CB
330
1F
100
AcDbEntity
  8
0
  6
Continuous
 62
     7
100
AcDbLine
 10
7204.2876179865
 20
5135.1206670479
 30
0.0
 11
7213.2876179697
 21
5135.1206670479
 31
0.0
  0
LINE
  5
CC
330
1F
100
AcDbEntity
  8
0
  6
Continuous
 62
     7
100
AcDbLine
 10
7213.2876179697
 20
5135.1206670479
 30
0.0
 11
7211.2876179734
 21
5139.1206670479
 31
0.0
  0
LINE
  5
CD
330
1F
100
AcDbEntity
  8
0
  6
Continuous
 62
     7
100
AcDbLine
 10
7211.2876179734
 20
5139.1206670479
 30
0.0
 11
7211.2876179734
 21
5146.1206670479
 31
0.0
  0
LINE
  5
CE
330
1F
100
AcDbEntity
  8
0
  6
Continuous
 62
     7
100
AcDbLine
 10
7208.287617979
 20
5149.1206670479
 30
0.0
 11
7188.2876180165
 21
5149.1206670479
 31
0.0
  0
LINE
  5
CF
330
1F
100
AcDbEntity
  8
0
  6
Continuous
 62
     7
370
    25
100
AcDbLine
 10
7160.2876224273
 20
5224.0888453704
 30
0.0
 11
7160.2876224273
 21
5217.0888460857
 31
0.0
  0
LINE
  5
D0
330
1F
100
AcDbEntity
  8
0
  6
Continuous
 62
     7
370
    25
100
AcDbLine
 10
7216.2876167052
 20
5217.0888460857
 30
0.0
 11
7216.2876167052
 21
5224.0888453704
 31
0.0
  0
ARC
  5
D1
330
1F
100
AcDbEntity
  8
0
  6
Continuous
 62
     7
370
    25
100
AcDbCircle
 10
7163.2876180165
 20
5217.0888518077
 30
0.0
 40
3.0
100
AcDbArc
 50
180.0
 51
270.0
  0
ARC
  5
D2
330
1F
100
AcDbEntity
  8
0
  6
Continuous
 62
     7
370
    25
100
AcDbCircle
 10
7213.2876180165
 20
5217.0888518077
 30
0.0
 40
3.0
100
AcDbArc
 50
270.0
 51
0.0
  0
LINE
  5
D3
330
1F
100
AcDbEntity
  8
0
  6
Continuous
 62
     7
370
    25
100
AcDbLine
 10
7172.2876169437
 20
5214.0888549072
 30
0.0
 11
7172.2876169437
 21
5149.1206563694
 31
0.0
  0
LINE
  5
D4
330
1F
100
AcDbEntity
  8
0
  6
Continuous
 62
     7
370
    25
100
AcDbLine
 10
7172.2876169437
 20
5135.1206577999
 30
0.0
 11
7172.2876169437
 21
5132.6206601841
 31
0.0
  0
LINE
  5
D5
330
1F
100
AcDbEntity
  8
0
  6
Continuous
 62
     7
370
    25
100
AcDbLine
 10
7204.2876221889
 20
5132.6206601841
 30
0.0
 11
7204.2876221889
 21
5135.1206577999
 31
0.0
  0
LINE
  5
D6
330
1F
100
AcDbEntity
  8
0
  6
Continuous
 62
     7
370
    25
100
AcDbLine
 10
7204.2876221889
 20
5149.1206563694
 30
0.0
 11
7204.2876221889
 21
5214.0888549072
 31
0.0
  0
LINE
  5
D7
330
1F
100
AcDbEntity
  8
0
  6
Continuous
 62
     7
370
    25
100
AcDbLine
 10
6989.2335190156
 20
5150.6206668598
 30
0.0
 11
6974.2335191798
 21
5150.6206668598
 31
0.0
  0
LINE
  5
D8
330
1F
100
AcDbEntity
  8
0
  6
Continuous
 62
     7
370
    25
100
AcDbLine
 10
6974.2335191798
 20
5070.6206537467
 30
0.0
 11
6989.2335190156
 21
5070.6206537467
 31
0.0
  0
SPLINE
  5
D9
330
1F
100
AcDbEntity
  8
0
  6
Continuous
 62
     7
370
    25
100
AcDbSpline
210
0.0
220
0.0
230
1.0
 70
     8
 71
     3
 72
    24
 73
    20
 74
     0
 42
0.000000001
 43
0.00000001
 40
0.0
 40
0.0
 40
0.0
 40
0.0
 40
0.0024226336443365
 40
0.0132312293666847
 40
0.0354795027303451
 40
0.0929724801339785
 40
0.1597451375853633
 40
0.2238443058162008
 40
0.2952116124601949
 40
0.3583340543383181
 40
0.4273409602255548
 40
0.4989800226019619
 40
0.5723388303599373
 40
0.6467957441428855
 40
0.7219701484142389
 40
0.7976188631987831
 40
0.8735802985802447
 40
0.9581336767875922
 40
1.0
 40
1.0
 40
1.0
 40
1.0
 10
7009.232562100237
 20
5130.812195656921
 30
0.0
 10
7009.232352092795
 20
5130.833767982992
 30
0.0
 10
7009.231205135788
 20
5130.951585381786
 30
0.0
 10
7009.223100056755
 20
5131.33773287011
 30
0.0
 10
7009.179262276856
 20
5132.263396203197
 30
0.0
 10
7009.012774932081
 20
5133.792332696642
 30
0.0
 10
7008.610799815448
 20
5135.710626941116
 30
0.0
 10
7007.97095565559
 20
5137.720564636251
 30
0.0
 10
7007.137434215329
 20
5139.616438377856
 30
0.0
 10
7006.084960489074
 20
5141.458200011135
 30
0.0
 10
7004.84624549328
 20
5143.184694891867
 30
0.0
 10
7003.354192420882
 20
5144.84461259496
 30
0.0
 10
7001.641410906242
 20
5146.363095125334
 30
0.0
 10
6999.734746244061
 20
5147.695638813924
 30
0.0
 10
6997.664636308675
 20
5148.807111263239
 30
0.0
 10
6995.463430145766
 20
5149.677323850669
 30
0.0
 10
6993.080696669429
 20
5150.290893821483
 30
0.0
 10
6990.98635176101
 20
5150.609879105757
 30
0.0
 10
6989.669697101406
 20
5150.587244242732
 30
0.0
 10
6989.23366150791
 20
5150.579748271133
 30
0.0
  0
SPLINE
  5
DA
330
1F
100
AcDbEntity
  8
0
  6
Continuous
 62
     7
370
    25
100
AcDbSpline
210
0.0
220
0.0
230
1.0
 70
     8
 71
     3
 72
    26
 73
    22
 74
     0
 42
0.000000001
 43
0.00000001
 40
0.0
 40
0.0
 40
0.0
 40
0.0
 40
0.042245484583419
 40
0.1216147416239356
 40
0.1986098366733407
 40
0.2733991392233567
 40
0.3460640825287922
 40
0.4166205437126936
 40
0.4850240609322483
 40
0.5511719192122814
 40
0.6148999646079112
 40
0.6759688134559555
 40
0.7340465292240764
 40
0.7886886622645121
 40
0.8392994751987889
 40
0.8850940970173115
 40
0.9250670605496876
 40
0.957999260745587
 40
0.9825796566221526
 40
0.9972275264580385
 40
0.9999999999999999
 40
0.9999999999999999
 40
0.9999999999999999
 40
0.9999999999999999
 10
6989.23352739746
 20
5070.661482928421
 30
0.0
 10
6989.672589913267
 20
5070.654001717398
 30
0.0
 10
6990.936546876791
 20
5070.632465083256
 30
0.0
 10
6992.987572275966
 20
5070.935330052107
 30
0.0
 10
6995.319439311024
 20
5071.517594027671
 30
0.0
 10
6997.499395025158
 20
5072.360975032572
 30
0.0
 10
6999.509048407062
 20
5073.413559189734
 30
0.0
 10
7001.333553466925
 20
5074.647107273468
 30
0.0
 10
7002.962127107499
 20
5076.026356828354
 30
0.0
 10
7004.388134545216
 20
5077.516996186785
 30
0.0
 10
7005.609162144664
 20
5079.083691677019
 30
0.0
 10
7006.627216382795
 20
5080.690426781768
 30
0.0
 10
7007.448898390718
 20
5082.300178327019
 30
0.0
 10
7008.085332196602
 20
5083.874774854092
 30
0.0
 10
7008.552557010895
 20
5085.373869706542
 30
0.0
 10
7008.871618193532
 20
5086.7554252983
 30
0.0
 10
7009.068320925866
 20
5087.972072908356
 30
0.0
 10
7009.173019246487
 20
5088.982611244421
 30
0.0
 10
7009.216528275313
 20
5089.723554600799
 30
0.0
 10
7009.22940245431
 20
5090.171632045526
 30
0.0
 10
7009.231459808825
 20
5090.339984886316
 30
0.0
 10
7009.231787239855
 20
5090.366778491165
 30
0.0
  0
LINE
  5
DB
330
1F
100
AcDbEntity
  8
0
  6
Continuous
 62
     7
370
    25
100
AcDbLine
 10
6974.2355698867
 20
5130.6206561309
 30
0.0
 11
6964.2335195743
 21
5130.6206561309
 31
0.0
  0
LINE
  5
DC
330
1F
100
AcDbEntity
  8
0
  6
Continuous
 62
     7
370
    25
100
AcDbLine
 10
6964.2335195743
 20
5090.6206644756
 30
0.0
 11
6974.2355698867
 21
5090.6206644756
 31
0.0
  0
LINE
  5
DD
330
1F
100
AcDbEntity
  8
0
  6
Continuous
 62
     7
370
    25
100
AcDbLine
 10
7128.2876171821
 20
5130.6206561309
 30
0.0
 11
7009.2335194998
 21
5130.6206561309
 31
0.0
  0
LINE
  5
DE
330
1F
100
AcDbEntity
  8
0
  6
Continuous
 62
     7
370
    25
100
AcDbLine
 10
7009.2335194998
 20
5090.6206644756
 30
0.0
 11
7128.2876171821
 21
5090.6206644756
 31
0.0
  0
LINE
  5
DF
330
1F
100
AcDbEntity
  8
0
  6
Continuous
 62
     7
370
    25
100
AcDbLine
 10
7154.2876251691
 20
5072.6206577999
 30
0.0
 11
7161.1814089769
 21
5005.3150035125
 31
0.0
  0
LINE
  5
E0
330
1F
100
AcDbEntity
  8
0
  6
Continuous
 62
     7
370
    25
100
AcDbLine
 10
7215.3938301557
 20
5005.3150035125
 30
0.0
 11
7222.2876139634
 21
5072.6206577999
 31
0.0
  0
LINE
  5
E1
330
1F
100
AcDbEntity
  8
0
  6
Continuous
 62
     7
370
    25
100
AcDbLine
 10
7222.2876139634
 20
5072.6206577999
 30
0.0
 11
7215.5970670932
 21
5129.9683130962
 31
0.0
  0
LINE
  5
E2
330
1F
100
AcDbEntity
  8
0
  6
Continuous
 62
     7
370
    25
100
AcDbLine
 10
7156.1587341779
 20
5088.6587775928
 30
0.0
 11
7154.2876251691
 21
5072.6206577999
 31
0.0
  0
LINE
  5
E3
330
1F
100
AcDbEntity
  8
0
  6
Continuous
 62
     7
370
    25
100
AcDbLine
 10
7144.2876198047
 20
5138.1206787807
 30
0.0
 11
7140.2876116985
 21
5136.6206682903
 31
0.0
  0
LINE
  5
E4
330
1F
100
AcDbEntity
  8
0
  6
Continuous
 62
     7
370
    25
100
AcDbLine
 10
7140.2876116985
 20
5084.6206523162
 30
0.0
 11
7144.2876198047
 21
5083.1206716281
 31
0.0
  0
ARC
  5
E5
330
1F
100
AcDbEntity
  8
0
  6
Continuous
 62
     7
370
    25
100
AcDbCircle
 10
7212.6172703544
 20
5129.6206670479
 30
0.0
 40
3.0
100
AcDbArc
 50
6.654425046
 51
90.0
  0
ARC
  5
E6
330
1F
100
AcDbEntity
  8
0
  6
Continuous
 62
     7
370
    25
100
AcDbCircle
 10
7164.1657901504
 20
5005.6206670479
 30
0.0
 40
3.000000000000517
100
AcDbArc
 50
185.8481280262
 51
270.0
  0
ARC
  5
E7
330
1F
100
AcDbEntity
  8
0
  6
Continuous
 62
     7
370
    25
100
AcDbCircle
 10
7212.4094458827
 20
5005.6206670479
 30
0.0
 40
3.0
100
AcDbArc
 50
270.0
 51
354.1518719738
  0
SPLINE
  5
E8
330
1F
100
AcDbEntity
  8
0
  6
Continuous
 62
     7
370
    25
100
AcDbSpline
210
0.0
220
0.0
230
1.0
 70
     8
 71
     3
 72
    16
 73
    12
 74
     0
 42
0.000000001
 43
0.00000001
 40
0.0
 40
0.0
 40
0.0
 40
0.0
 40
0.0842817221504075
 40
0.2835994282508287
 40
0.4517580909010712
 40
0.5982265526370353
 40
0.7253363734856161
 40
0.8328203311536582
 40
0.919008507200511
 40
0.9817018076156038
 40
1.0
 40
1.0
 40
1.0
 40
1.0
 10
7131.290216063803
 20
5136.585888980057
 30
0.0
 10
7131.163056440305
 20
5136.594583613941
 30
0.0
 10
7130.735177232329
 20
5136.623840173197
 30
0.0
 10
7130.070148770003
 20
5136.396185161522
 30
0.0
 10
7129.405492704991
 20
5135.994986106653
 30
0.0
 10
7128.934416804337
 20
5135.51532938722
 30
0.0
 10
7128.62185014763
 20
5135.030642628513
 30
0.0
 10
7128.434471975769
 20
5134.582654514439
 30
0.0
 10
7128.34002363642
 20
5134.208146250055
 30
0.0
 10
7128.302944620013
 20
5133.957280272723
 30
0.0
 10
7128.296276296122
 20
5133.837030063887
 30
0.0
 10
7128.294769739455
 20
5133.809862254288
 30
0.0
  0
SPLINE
  5
E9
330
1F
100
AcDbEntity
  8
0
  6
Continuous
 62
     7
370
    25
100
AcDbSpline
210
0.0
220
0.0
230
1.0
 70
     8
 71
     3
 72
    13
 73
     9
 74
     0
 42
0.000000001
 43
0.00000001
 40
0.0
 40
0.0
 40
0.0
 40
0.0
 40
0.0924825575654098
 40
0.2447481647502232
 40
0.3949285215413122
 40
0.6063295020121968
 40
0.8025098330152155
 40
1.0
 40
1.0
 40
1.0
 40
1.0
 10
7128.307331418341
 20
5087.327746270324
 30
0.0
 10
7128.323867065856
 20
5087.193415555433
 30
0.0
 10
7128.367627419038
 20
5086.837919375344
 30
0.0
 10
7128.573284251292
 20
5086.290951628002
 30
0.0
 10
7128.976044380454
 20
5085.651193484771
 30
0.0
 10
7129.589732571463
 20
5085.096984506611
 30
0.0
 10
7130.399758558666
 20
5084.69779004826
 30
0.0
 10
7130.977795041004
 20
5084.651641416619
 30
0.0
 10
7131.267774915045
 20
5084.628490327026
 30
0.0
  0
LINE
  5
EA
330
1F
100
AcDbEntity
  8
0
  6
Continuous
 62
     7
370
    25
100
AcDbLine
 10
7140.2876116985
 20
5136.6206682903
 30
0.0
 11
7131.2876232618
 21
5136.6206682903
 31
0.0
  0
LINE
  5
EB
330
1F
100
AcDbEntity
  8
0
  6
Continuous
 62
     7
370
    25
100
AcDbLine
 10
7131.2876232618
 20
5084.6206523162
 30
0.0
 11
7140.2876116985
 21
5084.6206523162
 31
0.0
  0
LINE
  5
EC
330
1F
100
AcDbEntity
  8
0
  6
Continuous
 62
     7
370
    25
100
AcDbLine
 10
7213.2876106256
 20
5135.1206577999
 30
0.0
 11
7211.2876214736
 21
5139.1206659061
 31
0.0
  0
LINE
  5
ED
330
1F
100
AcDbEntity
  8
0
  6
Continuous
 62
     7
370
    25
100
AcDbLine
 10
7165.2876176589
 20
5139.1206659061
 30
0.0
 11
7163.2876136058
 21
5135.1206577999
 31
0.0
  0
LINE
  5
EE
330
1F
100
AcDbEntity
  8
0
  6
Continuous
 62
     7
370
    25
100
AcDbLine
 10
7165.2876176589
 20
5146.1206651908
 30
0.0
 11
7165.2876176589
 21
5139.1206659061
 31
0.0
  0
LINE
  5
EF
330
1F
100
AcDbEntity
  8
0
  6
Continuous
 62
     7
370
    25
100
AcDbLine
 10
7211.2876214736
 20
5139.1206659061
 30
0.0
 11
7211.2876214736
 21
5146.1206651908
 31
0.0
  0
ARC
  5
F0
330
1F
100
AcDbEntity
  8
0
  6
Continuous
 62
     7
370
    25
100
AcDbCircle
 10
7168.2876180165
 20
5146.1206670479
 30
0.0
 40
3.0
100
AcDbArc
 50
90.0
 51
180.0
  0
ARC
  5
F1
330
1F
100
AcDbEntity
  8
0
  6
Continuous
 62
     7
370
    25
100
AcDbCircle
 10
7208.2876180165
 20
5146.1206670479
 30
0.0
 40
3.0
100
AcDbArc
 50
0.0
 51
90.0
  0
LINE
  5
F2
330
1F
100
AcDbEntity
  8
0
  6
Continuous
 62
     7
370
    25
100
AcDbLine
 10
7144.2886330836
 20
5088.6206604225
 30
0.0
 11
7156.1824568265
 21
5088.6206604225
 31
0.0
  0
LINE
  5
F3
330
1F
100
AcDbEntity
  8
0
  6
Continuous
 62
     7
370
    25
100
AcDbLine
 10
7161.2876244538
 20
5132.6206601841
 30
0.0
 11
7144.2886330836
 21
5132.6206601841
 31
0.0
  0
LINE
  5
F4
330
1F
100
AcDbEntity
  8
0
  6
Continuous
 62
     7
370
    25
100
AcDbLine
 10
7172.2876169437
 20
5135.1206577999
 30
0.0
 11
7172.2876169437
 21
5132.6206601841
 31
0.0
  0
LINE
  5
F5
330
1F
100
AcDbEntity
  8
0
  6
Continuous
 62
     7
370
    25
100
AcDbLine
 10
7204.2876221889
 20
5132.6206601841
 30
0.0
 11
7204.2876221889
 21
5135.1206577999
 31
0.0
  0
SPLINE
  5
F6
330
1F
100
AcDbEntity
  8
0
  6
Continuous
 62
     7
370
    25
100
AcDbSpline
210
0.0
220
0.0
230
1.0
 70
     8
 71
     3
 72
    23
 73
    19
 74
     0
 42
0.000000001
 43
0.00000001
 40
0.0
 40
0.0
 40
0.0
 40
0.0
 40
0.0291126066558343
 40
0.0964374307778281
 40
0.1634197599487374
 40
0.230206633495497
 40
0.2969745070658353
 40
0.3639019605869513
 40
0.4311443087361325
 40
0.4988083318102016
 40
0.5669309243038233
 40
0.6354565958508921
 40
0.7042515237613328
 40
0.7731346950950244
 40
0.8419043454125418
 40
0.9103838988659596
 40
0.9784573871410404
 40
1.0
 40
1.0
 40
1.0
 40
1.0
 10
6992.327138846463
 20
5273.355809567596
 30
0.0
 10
6992.320343756748
 20
5273.143217864064
 30
0.0
 10
6992.297834573639
 20
5272.438993816536
 30
0.0
 10
6992.593410665626
 20
5271.265134814445
 30
0.0
 10
6993.185662470181
 20
5269.918230963094
 30
0.0
 10
6994.063153414172
 20
5268.731850279019
 30
0.0
 10
6995.163797842702
 20
5267.753869181158
 30
0.0
 10
6996.448216870575
 20
5267.024524861638
 30
0.0
 10
6997.862421583055
 20
5266.575936680061
 30
0.0
 10
6999.34816339849
 20
5266.431116245752
 30
0.0
 10
7000.84078799978
 20
5266.601980737842
 30
0.0
 10
7002.271445642565
 20
5267.08680493418
 30
0.0
 10
7003.571319938097
 20
5267.867739420255
 30
0.0
 10
7004.673243021972
 20
5268.909891443414
 30
0.0
 10
7005.529995870126
 20
5270.16298331074
 30
0.0
 10
7006.071599418094
 20
5271.563484008444
 30
0.0
 10
7006.312977064285
 20
5272.711413889559
 30
0.0
 10
7006.264281538481
 20
5273.364032834302
 30
0.0
 10
7006.252575730628
 20
5273.520914433624
 30
0.0
  0
SPLINE
  5
F7
330
1F
100
AcDbEntity
  8
0
  6
Continuous
 62
     7
370
    25
100
AcDbSpline
210
0.0
220
0.0
230
1.0
 70
     8
 71
     3
 72
    23
 73
    19
 74
     0
 42
0.000000001
 43
0.00000001
 40
0.0
 40
0.0
 40
0.0
 40
0.0
 40
0.0291126489579213
 40
0.0964374663918314
 40
0.1634198199187308
 40
0.2302067177504092
 40
0.2969744121580093
 40
0.3639018900151617
 40
0.4311442520174371
 40
0.4988083361505397
 40
0.56693099615173
 40
0.6354566926159761
 40
0.7042516455415008
 40
0.7731346083448426
 40
0.8419042565355482
 40
0.9103838348893739
 40
0.9784573793077554
 40
1.0
 40
1.0
 40
1.0
 40
1.0
 10
6992.327138846463
 20
5338.433464584972
 30
0.0
 10
6992.320343741749
 20
5338.220872942309
 30
0.0
 10
6992.29783453335
 20
5337.516649859615
 30
0.0
 10
6992.593410695144
 20
5336.342789057501
 30
0.0
 10
6993.185662810318
 20
5334.995886574728
 30
0.0
 10
6994.063151229389
 20
5333.809504690995
 30
0.0
 10
6995.163800338512
 20
5332.831532726181
 30
0.0
 10
6996.448216355883
 20
5332.102186057674
 30
0.0
 10
6997.862422276611
 20
5331.653602548839
 30
0.0
 10
6999.348163467982
 20
5331.508765804492
 30
0.0
 10
7000.840787357964
 20
5331.67964666923
 30
0.0
 10
7002.271446045994
 20
5332.164466094907
 30
0.0
 10
7003.571317192685
 20
5332.94540265107
 30
0.0
 10
7004.673245185844
 20
5333.987545988217
 30
0.0
 10
7005.529995680163
 20
5335.240639033085
 30
0.0
 10
7006.071599604294
 20
5336.641139360447
 30
0.0
 10
7006.3129770597
 20
5337.789068626797
 30
0.0
 10
7006.264281534285
 20
5338.441687841689
 30
0.0
 10
7006.252575730628
 20
5338.598569451
 30
0.0
  0
LINE
  5
F8
330
1F
100
AcDbEntity
  8
0
  6
Continuous
 62
     7
370
    25
100
AcDbLine
 10
7409.2876204007
 20
5389.0888519269
 30
0.0
 11
7409.2876204007
 21
5406.0888519195
 31
0.0
  0
ARC
  5
F9
330
1F
100
AcDbEntity
  8
0
  6
Continuous
 62
     7
370
    25
100
AcDbCircle
 10
7404.2876180048
 20
5406.0888518077
 30
0.0
 40
5.000000000000679
100
AcDbArc
 50
0.1699449434
 51
89.9999918452
  0
LWPOLYLINE
  5
FA
330
1F
100
AcDbEntity
  8
0
  6
Continuous
 62
     7
370
    25
100
AcDbPolyline
 90
        3
 70
   128
 43
0.0
 10
7353.2876261228
 20
5224.0888453704
 10
7378.2876320832
 20
5306.5888486487
 10
7403.2876082414
 20
5389.0888519269
  0
LINE
  5
FB
330
1F
100
AcDbEntity
  8
0
  6
Continuous
 62
     7
370
    25
100
AcDbLine
 10
7213.2695951217
 20
5214.0888549072
 30
0.0
 11
7213.2876106256
 21
5214.0888549072
 31
0.0
  0
LINE
  5
FC
330
1F
100
AcDbEntity
  8
0
  6
Continuous
 62
     7
370
    25
100
AcDbLine
 10
7163.2876136058
 20
5214.0888549072
 30
0.0
 11
7213.2695951217
 21
5214.0888549072
 31
0.0
  0
LWPOLYLINE
  5
FD
330
1F
100
AcDbEntity
  8
0
  6
Continuous
 62
     7
370
    25
100
AcDbPolyline
 90
       53
 70
   128
 43
0.0
 10
6974.2321070875
 20
5143.3081902248
 10
6974.2323007735
 20
5145.323453067
 10
6974.2325051624
 20
5147.0337487442
 10
6974.2327184644
 20
5148.4240270835
 10
6974.2329388022
 20
5149.4820989353
 10
6974.2331642404
 20
5150.1986659748
 10
6974.2333928001
 20
5150.5674101097
 10
6974.2336224657
 20
5150.5851126892
 10
6974.2338512291
 20
5150.2515948993
 10
6974.2340770712
 20
5149.5698071701
 10
6974.2342980093
 20
5148.5457099659
 10
6974.234512108
 20
5147.1883333904
 10
6974.2347174755
 20
5145.5096281749
 10
6974.2349123147
 20
5143.5242868644
 10
6974.2350949122
 20
5141.2498034221
 10
6974.2352636598
 20
5138.706145404
 10
6974.235417077
 20
5135.9156645519
 10
6974.2355538177
 20
5132.9028881771
 10
6974.2356726741
 20
5129.6943105442
 10
6974.2357726094
 20
5126.3181246501
 10
6974.2358527395
 20
5122.8039540035
 10
6974.2359123624
 20
5119.1827334148
 10
6974.235950954
 20
5115.4862619621
 10
6974.2359681762
 20
5111.7470539791
 10
6974.2359638761
 20
5107.9979218227
 10
6974.2359380901
 20
5104.2718566638
 10
6974.2358910474
 20
5100.6015516502
 10
6974.2358231628
 20
5097.0193423015
 10
6974.2357350291
 20
5093.5566402656
 10
6974.2356274213
 20
5090.2438737136
 10
6974.2355012889
 20
5087.1102191192
 10
6974.2353577343
 20
5084.1831542236
 10
6974.2351980234
 20
5081.4884282333
 10
6974.2350235605
 20
5079.0497041923
 10
6974.2348358772
 20
5076.8884397728
 10
6974.2346366214
 20
5075.023619054
 10
6974.2344275468
 20
5073.4716333133
 10
6974.2342104868
 20
5072.2461022121
 10
6974.233987355
 20
5071.3577843887
 10
6974.233760105
 20
5070.8145476562
 10
6974.2335307413
 20
5070.6211007816
 10
6974.2333012722
 20
5070.7792021019
 10
6974.2330737203
 20
5071.2874211055
 10
6974.2328500828
 20
5072.1412874443
 10
6974.2326323279
 20
5073.3333207351
 10
6974.232422362
 20
5074.8530305606
 10
6974.2322220403
 20
5076.6870654804
 10
6974.2320331128
 20
5078.8193322402
 10
6974.2318572493
 20
5081.2310553772
 10
6974.2316959886
 20
5083.9010454399
 10
6974.2315507496
 20
5086.805877803
 10
6974.2314228091
 20
5089.9199820739
 10
6974.2313974451
 20
5090.6206644756
  0
LWPOLYLINE
  5
FE
330
1F
100
AcDbEntity
  8
0
  6
Continuous
 62
     7
370
    25
100
AcDbPolyline
 90
        6
 70
   128
 43
0.0
 10
6974.2313974451
 20
5130.6206561309
 10
6974.2314717545
 20
5132.5884438736
 10
6974.2316067453
 20
5135.6221414787
 10
6974.2317585436
 20
5138.4361065609
 10
6974.2319258143
 20
5141.0056627971
 10
6974.2321070875
 20
5143.3081902248
  0
LWPOLYLINE
  5
FF
330
1F
100
AcDbEntity
  8
0
  6
Continuous
 62
     7
370
    25
100
AcDbPolyline
 90
       52
 70
   128
 43
0.0
 10
6974.2321423904
 20
5142.4910105449
 10
6974.2323341774
 20
5144.4834150058
 10
6974.2325366964
 20
5146.1691535694
 10
6974.2327481102
 20
5147.5329376441
 10
6974.232966509
 20
5148.562458871
 10
6974.2331899137
 20
5149.2483891231
 10
6974.2334163014
 20
5149.5844699127
 10
6974.2336436169
 20
5149.5677210075
 10
6974.2338698082
 20
5149.1982318145
 10
6974.2340928236
 20
5148.4793997985
 10
6974.234310644
 20
5147.4176920635
 10
6974.2345212939
 20
5146.0227645618
 10
6974.2347228706
 20
5144.3072236759
 10
6974.234913548
 20
5142.286626218
 10
6974.235091598
 20
5139.9792410118
 10
6974.2352554052
 20
5137.4059594852
 10
6974.2354034892
 20
5134.590146659
 10
6974.235534511
 20
5131.5572239143
 10
6974.235647281
 20
5128.3347285968
 10
6974.2357407771
 20
5124.951807378
 10
6974.2358141551
 20
5121.4390970451
 10
6974.2358667494
 20
5117.8283966762
 10
6974.2358980833
 20
5114.1524292213
 10
6974.2359078731
 20
5110.4444838745
 10
6974.2358960315
 20
5106.738147853
 10
6974.2358626639
 20
5103.0669487697
 10
6974.2358080761
 20
5099.4641758186
 10
6974.2357327553
 20
5095.9624327404
 10
6974.235637393
 20
5092.593429206
 10
6974.235522844
 20
5089.3876827938
 10
6974.2353901487
 20
5086.3742209655
 10
6974.2352405113
 20
5083.5803426487
 10
6974.2350752853
 20
5081.0313500148
 10
6974.2348959693
 20
5078.7503398639
 10
6974.2347041823
 20
5076.757935403
 10
6974.2345016633
 20
5075.0721968395
 10
6974.2342902495
 20
5073.7083829624
 10
6974.2340718507
 20
5072.6788617355
 10
6974.233848446
 20
5071.9929612857
 10
6974.2336220619
 20
5071.6568506938
 10
6974.2333947428
 20
5071.6736294014
 10
6974.2331685515
 20
5072.043088792
 10
6974.2329455361
 20
5072.7619506103
 10
6974.2327277157
 20
5073.823628543
 10
6974.2325170658
 20
5075.2185560447
 10
6974.2323154891
 20
5076.9340969306
 10
6974.2321248117
 20
5078.9547241909
 10
6974.2319467617
 20
5081.2621093971
 10
6974.2317829545
 20
5083.8353611213
 10
6974.2316348705
 20
5086.6512037498
 10
6974.2315038487
 20
5089.6840966922
 10
6974.2314684767
 20
5090.6206644756
  0
LWPOLYLINE
  5
100
330
1F
100
AcDbEntity
  8
0
  6
Continuous
 62
     7
370
    25
100
AcDbPolyline
 90
        6
 70
   128
 43
0.0
 10
6974.2314684767
 20
5130.6206561309
 10
6974.2315155157
 20
5131.8536676151
 10
6974.231648211
 20
5134.867099641
 10
6974.2317978483
 20
5137.6609779579
 10
6974.2319630744
 20
5140.2099705917
 10
6974.2321423904
 20
5142.4910105449
  0
LWPOLYLINE
  5
101
330
1F
100
AcDbEntity
  8
0
  6
Continuous
 62
     7
370
    25
100
AcDbPolyline
 90
       26
 70
   128
 43
0.0
 10
7009.2335269504
 20
5130.6202985031
 10
7009.2335865551
 20
5130.591360448
 10
7009.2337467426
 20
5130.2688993198
 10
7009.23390693
 20
5129.595843671
 10
7009.2340559416
 20
5128.5841442329
 10
7009.234201228
 20
5127.2519208175
 10
7009.2343278878
 20
5125.6228960735
 10
7009.2344433718
 20
5123.7261272651
 10
7009.2345439547
 20
5121.5955294353
 10
7009.2346221858
 20
5119.2690707428
 10
7009.2346855157
 20
5116.7882956249
 10
7009.2347227686
 20
5114.1974307281
 10
7009.2347413951
 20
5111.5427590591
 10
7009.2347376698
 20
5108.8716365081
 10
7009.234715318
 20
5106.2317169887
 10
7009.2346668893
 20
5103.6701179725
 10
7009.234599834
 20
5101.2325264198
 10
7009.2345141524
 20
5098.9625133258
 10
7009.2344098442
 20
5096.9005204422
 10
7009.2342906349
 20
5095.0833536369
 10
7009.2341565245
 20
5093.5434676391
 10
7009.2340112382
 20
5092.3083103878
 10
7009.2338585013
 20
5091.3999356014
 10
7009.2336983138
 20
5090.8345557434
 10
7009.233534401
 20
5090.622273801
 10
7009.2335269504
 20
5090.6210817081
  0
LWPOLYLINE
  5
102
330
1F
100
AcDbEntity
  8
0
  6
Continuous
 62
     7
370
    25
100
AcDbPolyline
 90
       48
 70
   128
 43
0.0
 10
6964.2328127005
 20
5126.9644178134
 10
6964.2329533302
 20
5128.3550537807
 10
6964.2331023418
 20
5129.4292188865
 10
6964.2332597354
 20
5130.1677204353
 10
6964.2334217855
 20
5130.5574454052
 10
6964.2335856983
 20
5130.591360448
 10
6964.2337477484
 20
5130.2688993198
 10
6964.2339060732
 20
5129.595843671
 10
6964.2340578788
 20
5128.5841442329
 10
6964.2341994398
 20
5127.2519208175
 10
6964.2343288937
 20
5125.6228960735
 10
6964.2344443777
 20
5123.7261272651
 10
6964.2345430979
 20
5121.5955294353
 10
6964.2346241229
 20
5119.2690707428
 10
6964.2346846589
 20
5116.7882956249
 10
6964.2347247058
 20
5114.1974307281
 10
6964.2347433322
 20
5111.5427590591
 10
6964.2347396069
 20
5108.8716365081
 10
6964.2347144612
 20
5106.2317169887
 10
6964.2346678951
 20
5103.6701179725
 10
6964.2346008399
 20
5101.2325264198
 10
6964.2345142269
 20
5098.9625133258
 10
6964.2344108501
 20
5096.9005204422
 10
6964.2342907094
 20
5095.0833536369
 10
6964.234156599
 20
5093.5434676391
 10
6964.2340113127
 20
5092.3083103878
 10
6964.2338576444
 20
5091.3999356014
 10
6964.233697457
 20
5090.8345557434
 10
6964.2335344755
 20
5090.622273801
 10
6964.2333714941
 20
5090.7668746692
 10
6964.2332103753
 20
5091.2657357437
 10
6964.2330557757
 20
5092.1100057346
 10
6964.2329086267
 20
5093.2845748645
 10
6964.2327726536
 20
5094.7685517055
 10
6964.2326497191
 20
5096.5353823883
 10
6964.232542617
 20
5098.553565858
 10
6964.2324522787
 20
5100.7870711071
 10
6964.2323814982
 20
5103.1960822326
 10
6964.2323312067
 20
5105.7375646812
 10
6964.2323023357
 20
5108.3662189228
 10
6964.2322948852
 20
5111.0350764972
 10
6964.232308855
 20
5113.6965430957
 10
6964.2323442453
 20
5116.3031138164
 10
6964.2324019873
 20
5118.8082970363
 10
6964.2324783557
 20
5121.1673594696
 10
6964.2325733506
 20
5123.3382202369
 10
6964.2326860406
 20
5125.2821363193
 10
6964.2328127005
 20
5126.9644178134
  0
LWPOLYLINE
  5
103
330
1F
100
AcDbEntity
  8
0
  6
Continuous
 62
     7
370
    25
100
AcDbPolyline
 90
       47
 70
   128
 43
0.0
 10
6964.2328480908
 20
5126.1472381336
 10
6964.2329840639
 20
5127.493796466
 10
6964.2331302815
 20
5128.5260297042
 10
6964.2332830184
 20
5129.2247153503
 10
6964.2334404119
 20
5129.5768595916
 10
6964.2335987368
 20
5129.575876115
 10
6964.2337561303
 20
5129.2217947227
 10
6964.2339088672
 20
5128.521201728
 10
6964.2340550848
 20
5127.4871803504
 10
6964.2341910579
 20
5126.138953088
 10
6964.2343139925
 20
5124.5016432983
 10
6964.2344220259
 20
5122.6057685596
 10
6964.2345132955
 20
5120.4866148216
 10
6964.23458687
 20
5118.1836999637
 10
6964.2346399554
 20
5115.7398797256
 10
6964.2346725517
 20
5113.2007218582
 10
6964.2346827962
 20
5110.6134928447
 10
6964.2346716204
 20
5108.0263830406
 10
6964.2346399554
 20
5105.4876126033
 10
6964.23458687
 20
5103.0444480163
 10
6964.2345132955
 20
5100.7424272281
 10
6964.2344220259
 20
5098.6244357807
 10
6964.2343130612
 20
5096.7298723442
 10
6964.2341901266
 20
5095.0940824729
 10
6964.2340541535
 20
5093.7475539428
 10
6964.2339088672
 20
5092.7152909023
 10
6964.233755199
 20
5092.0166052562
 10
6964.2335978054
 20
5091.6644610149
 10
6964.2334394806
 20
5091.6654444915
 10
6964.2332820871
 20
5092.0195258838
 10
6964.2331293502
 20
5092.7201188785
 10
6964.2329831325
 20
5093.7541700584
 10
6964.2328480908
 20
5095.1023973209
 10
6964.2327242249
 20
5096.7396773082
 10
6964.2326161915
 20
5098.6355818492
 10
6964.2325249218
 20
5100.7547057849
 10
6964.2324513474
 20
5103.0576504451
 10
6964.232398262
 20
5105.5014408809
 10
6964.232366597
 20
5108.0406285507
 10
6964.2323554211
 20
5110.6278575641
 10
6964.232366597
 20
5113.2149673683
 10
6964.2323991933
 20
5115.7537378055
 10
6964.2324522787
 20
5118.1968725902
 10
6964.2325249218
 20
5120.4988933784
 10
6964.2326171228
 20
5122.6169146282
 10
6964.2327251562
 20
5124.5114482624
 10
6964.2328480908
 20
5126.1472381336
  0
LINE
  5
104
330
1F
100
AcDbEntity
  8
0
  6
Continuous
 62
     7
370
    25
100
AcDbLine
 10
7154.2876251691
 20
5072.6206577999
 30
0.0
 11
7222.2876139634
 21
5072.6206577999
 31
0.0
  0
SPLINE
  5
105
330
1F
100
AcDbEntity
  8
0
  6
Continuous
 62
     7
370
    25
100
AcDbSpline
210
0.0
220
0.0
230
1.0
 70
     8
 71
     3
 72
    26
 73
    22
 74
     0
 42
0.000000001
 43
0.00000001
 40
0.0
 40
0.0
 40
0.0
 40
0.0
 40
0.0518132659688958
 40
0.1113771974064801
 40
0.1722761708906241
 40
0.2246817370704022
 40
0.2783503200125379
 40
0.319408083111404
 40
0.3616096918052264
 40
0.4026940234791547
 40
0.4449351711434837
 40
0.5014895323641229
 40
0.5596234166861954
 40
0.6343956986966236
 40
0.7113251063020961
 40
0.7733664221086398
 40
0.8370362305080764
 40
0.8876868803851165
 40
0.939717787148616
 40
0.9904203322371047
 40
1.0
 40
1.0
 40
1.0
 40
1.0
 10
7163.066510176009
 20
5129.968313096191
 30
0.0
 10
7163.393673309325
 20
5129.450294931006
 30
0.0
 10
7164.096939397693
 20
5128.336769073003
 30
0.0
 10
7165.356671728943
 20
5126.142670706117
 30
0.0
 10
7166.618722649645
 20
5123.606874557211
 30
0.0
 10
7167.718225514965
 20
5120.834189593506
 30
0.0
 10
7168.46053962265
 20
5118.136360456974
 30
0.0
 10
7168.836594732851
 20
5115.449468040898
 30
0.0
 10
7168.860352769651
 20
5112.918814717455
 30
0.0
 10
7168.540437195321
 20
5110.353619781561
 30
0.0
 10
7167.841001165794
 20
5107.565433383176
 30
0.0
 10
7166.705220242708
 20
5104.596601576285
 30
0.0
 10
7165.044275615086
 20
5101.282570854505
 30
0.0
 10
7163.030791183206
 20
5097.953048166231
 30
0.0
 10
7160.990441817015
 20
5094.971601020228
 30
0.0
 10
7159.217742584663
 20
5092.552596416809
 30
0.0
 10
7157.901295141584
 20
5090.83160616931
 30
0.0
 10
7156.934533376282
 20
5089.598769599811
 30
0.0
 10
7156.369958587968
 20
5088.889401316243
 30
0.0
 10
7156.117369842754
 20
5088.57443909351
 30
0.0
 10
7156.173634769693
 20
5088.644821284459
 30
0.0
 10
7156.182576035803
 20
5088.656005976822
 30
0.0
  0
LWPOLYLINE
  5
106
330
1F
100
AcDbEntity
  8
0
  6
Continuous
 62
     7
370
    25
100
AcDbPolyline
 90
       30
 70
   128
 43
0.0
 10
7144.2876198047
 20
5138.1206787807
 10
7144.2876645082
 20
5138.1094433052
 10
7144.2878582233
 20
5137.8407455665
 10
7144.2880519384
 20
5137.2171915752
 10
7144.2882307523
 20
5136.2469173652
 10
7144.2884095662
 20
5134.9425591213
 10
7144.288573479
 20
5133.3211339695
 10
7144.2887224906
 20
5131.4037717563
 10
7144.2888566011
 20
5129.2154766304
 10
7144.2889758104
 20
5126.7847694141
 10
7144.2890801185
 20
5124.1433299762
 10
7144.2891695255
 20
5121.3256098014
 10
7144.2892291301
 20
5118.3683253509
 10
7144.2892738336
 20
5115.3100408298
 10
7144.2893036359
 20
5112.1906019432
 10
7144.2893036359
 20
5109.0507186634
 10
7144.2892738336
 20
5105.931309579
 10
7144.2892291301
 20
5102.8730250579
 10
7144.2891695255
 20
5099.9157406074
 10
7144.2890801185
 20
5097.0980204326
 10
7144.2889758104
 20
5094.4565809948
 10
7144.2888566011
 20
5092.0258439762
 10
7144.2887224906
 20
5089.8375488502
 10
7144.288573479
 20
5087.9201866371
 10
7144.2884095662
 20
5086.2987614852
 10
7144.2882307523
 20
5084.9944032413
 10
7144.2880519384
 20
5084.0241290313
 10
7144.2878582233
 20
5083.40057504
 10
7144.2876645082
 20
5083.1318773014
 10
7144.2876198047
 20
5083.1206716281
  0
LWPOLYLINE
  5
107
330
1F
100
AcDbEntity
  8
0
  6
Continuous
 62
     7
370
    25
100
AcDbPolyline
 90
       29
 70
   128
 43
0.0
 10
7140.2876116985
 20
5136.6206682903
 10
7140.2877160066
 20
5136.5766800624
 10
7140.2878948205
 20
5136.2256683094
 10
7140.2880736345
 20
5135.5283833725
 10
7140.2882524484
 20
5134.4942725879
 10
7140.2884163612
 20
5133.137313245
 10
7140.2885653728
 20
5131.4758635742
 10
7140.2887143844
 20
5129.5323945266
 10
7140.2888335937
 20
5127.333132146
 10
7140.288952803
 20
5124.9079085571
 10
7140.2890422099
 20
5122.2894467098
 10
7140.2891167157
 20
5119.5131815654
 10
7140.2891614192
 20
5116.6166938526
 10
7140.2892061227
 20
5113.6390842182
 10
7140.2892061227
 20
5110.6206752044
 10
7140.2892061227
 20
5107.6022363884
 10
7140.2891614192
 20
5104.6246565563
 10
7140.2891167157
 20
5101.7281390411
 10
7140.2890422099
 20
5098.9518738967
 10
7140.288952803
 20
5096.3334418518
 10
7140.2888335937
 20
5093.9081884605
 10
7140.2887143844
 20
5091.7089558822
 10
7140.2885653728
 20
5089.7654570323
 10
7140.2884163612
 20
5088.1040073616
 10
7140.2882524484
 20
5086.7470480186
 10
7140.2880736345
 20
5085.7129372341
 10
7140.2878948205
 20
5085.0156522972
 10
7140.2877160066
 20
5084.6646405441
 10
7140.2876116985
 20
5084.6206523162
  0
ARC
  5
108
330
1F
100
AcDbEntity
  8
0
  6
Continuous
 62
     7
370
    25
100
AcDbCircle
 10
7165.9194521577
 20
5129.7620567652
 30
0.0
 40
2.860388019968187
100
AcDbArc
 50
92.0240363699
 51
175.8649378186
  0
LINE
  5
109
330
1F
100
AcDbEntity
  8
0
  6
Continuous
 62
     7
370
    25
100
AcDbLine
 10
7165.818426823
 20
5132.6206601841
 30
0.0
 11
7212.6172669881
 21
5132.6206601841
 31
0.0
  0
LINE
  5
10A
330
1F
100
AcDbEntity
  8
0
  6
Continuous
 62
     7
370
    25
100
AcDbLine
 10
7164.1657837384
 20
5002.6206649524
 30
0.0
 11
7212.4094404929
 21
5002.6206649524
 31
0.0
  0
LWPOLYLINE
  5
10B
330
1F
100
AcDbEntity
  8
0
  6
Continuous
 62
     7
370
    25
100
AcDbPolyline
 90
       35
 70
   128
 43
0.0
 10
7128.2869168275
 20
5130.6206561309
 10
7128.2870211356
 20
5131.4316965324
 10
7128.2871850484
 20
5132.4949539882
 10
7128.2873489612
 20
5133.2132793647
 10
7128.2875277751
 20
5133.5752881748
 10
7128.287706589
 20
5133.5752881748
 10
7128.287885403
 20
5133.2132793647
 10
7128.2880493158
 20
5132.4949539882
 10
7128.2882132285
 20
5131.4316965324
 10
7128.2883771413
 20
5130.0401962978
 10
7128.2885112518
 20
5128.3424772007
 10
7128.2886453622
 20
5126.3652421218
 10
7128.2887645715
 20
5124.1397238952
 10
7128.2888539785
 20
5121.7009998542
 10
7128.2889284843
 20
5119.0875447971
 10
7128.2889880889
 20
5116.3405455333
 10
7128.2890178912
 20
5113.5033346397
 10
7128.2890327924
 20
5110.6206752044
 10
7128.2890178912
 20
5107.7380157691
 10
7128.2889880889
 20
5104.9008048755
 10
7128.2889284843
 20
5102.1538056118
 10
7128.2888539785
 20
5099.5403207523
 10
7128.2887645715
 20
5097.1015967113
 10
7128.2886453622
 20
5094.8760784847
 10
7128.2885112518
 20
5092.8988732082
 10
7128.2883771413
 20
5091.2011243087
 10
7128.2882132285
 20
5089.8096538764
 10
7128.2880493158
 20
5088.7463666183
 10
7128.287885403
 20
5088.0280710441
 10
7128.287706589
 20
5087.6660622341
 10
7128.2875277751
 20
5087.6660622341
 10
7128.2873489612
 20
5088.0280710441
 10
7128.2871850484
 20
5088.7463666183
 10
7128.2870211356
 20
5089.8096538764
 10
7128.2869168275
 20
5090.6206644756
  0
LINE
  5
10C
330
1F
100
AcDbEntity
  8
0
  6
Continuous
 62
     7
370
    25
100
AcDbLine
 10
7165.2876176589
 20
5139.1206659061
 30
0.0
 11
7211.2876214736
 21
5139.1206659061
 31
0.0
  0
LINE
  5
10D
330
1F
100
AcDbEntity
  8
0
  6
Continuous
 62
     7
370
    25
100
AcDbLine
 10
7163.2876136058
 20
5135.1206577999
 30
0.0
 11
7213.2876106256
 21
5135.1206577999
 31
0.0
  0
LINE
  5
10E
330
1F
100
AcDbEntity
  8
0
  6
Continuous
 62
     7
370
    25
100
AcDbLine
 10
7168.2876237386
 20
5149.1206563694
 30
0.0
 11
7208.2876153939
 21
5149.1206563694
 31
0.0
  0
SPLINE
  5
10F
330
1F
100
AcDbEntity
  8
0
  6
Continuous
 62
     7
370
    25
100
AcDbSpline
210
0.0
220
0.0
230
1.0
 70
     8
 71
     3
 72
    11
 73
     7
 74
     0
 42
0.000000001
 43
0.00000001
 40
0.0
 40
0.0
 40
0.0
 40
0.0
 40
0.1561473791551724
 40
0.4307959178290286
 40
0.7130076987450445
 40
0.9999999999999999
 40
0.9999999999999999
 40
0.9999999999999999
 40
0.9999999999999999
 10
7161.287624453848
 20
5132.620660184051
 30
0.0
 10
7161.297122842973
 20
5132.607143782296
 30
0.0
 10
7161.323328004297
 20
5132.569853302419
 30
0.0
 10
7161.607308108349
 20
5132.1610746358
 30
0.0
 10
7162.190745961979
 20
5131.312584976802
 30
0.0
 10
7162.772958845956
 20
5130.418905609775
 30
0.0
 10
7163.066510176009
 20
5129.968313096191
 30
0.0
  0
SPLINE
  5
110
330
1F
100
AcDbEntity
  8
0
  6
Continuous
 62
     7
370
    25
100
AcDbSpline
210
0.0
220
0.0
230
1.0
 70
    24
 71
     3
 72
    12
 73
     8
 74
     0
 42
0.000000001
 43
0.00000001
 40
0.0
 40
0.0
 40
0.0
 40
0.0
 40
0.0026572249793823
 40
0.0516697974363413
 40
0.3670803519114029
 40
0.731142397339644
 40
1.0
 40
1.0
 40
1.0
 40
1.0
 10
7161.287624453848
 20
5132.620660184051
 30
0.0
 10
7161.291020518549
 20
5132.620660184051
 30
0.0
 10
7161.357057070413
 20
5132.620660184051
 30
0.0
 10
7161.837486411739
 20
5132.620660184051
 30
0.0
 10
7162.924986337911
 20
5132.620660184051
 30
0.0
 10
7164.518409643326
 20
5132.620660184051
 30
0.0
 10
7165.43083720253
 20
5132.620660184051
 30
0.0
 10
7165.818426822966
 20
5132.620660184051
 30
0.0
  0
LWPOLYLINE
  5
111
330
1F
100
AcDbEntity
  8
0
  6
Continuous
 62
     7
370
    25
100
AcDbPolyline
 90
       24
 70
   128
 43
0.0
 10
7003.7578587138
 20
5274.3011690361
 10
7004.1963961625
 20
5273.0674571973
 10
7004.2708703035
 20
5271.7662579996
 10
7003.9757602566
 20
5270.4940862638
 10
7003.332953965
 20
5269.3452812416
 10
7002.390122106
 20
5268.4050626737
 10
7001.2171902412
 20
5267.7431381923
 10
6999.9011532121
 20
5267.4086220247
 10
6998.5396117621
 20
5267.426309703
 10
6997.2335473352
 20
5267.7948899251
 10
6996.0798230671
 20
5268.4870339614
 10
6995.1640070134
 20
5269.4514073116
 10
6994.5540205293
 20
5270.6164844018
 10
6994.2951016777
 20
5271.8958533985
 10
6994.4064561927
 20
5273.1946386081
 10
6994.8798251056
 20
5274.4165040237
 10
6995.6800975555
 20
5275.4708505851
 10
6996.7479259425
 20
5276.2794471962
 10
6998.0041087323
 20
5276.7823464853
 10
6999.3554857277
 20
5276.9422657472
 10
7000.7018279933
 20
5276.7472989542
 10
7001.9432865732
 20
5276.2119598371
 10
7002.9877853298
 20
5275.3759152872
 10
7003.7578587138
 20
5274.3011690361
  0
ARC
  5
112
330
1F
100
AcDbEntity
  8
0
  6
Continuous
 62
     7
370
    25
100
AcDbCircle
 10
6999.8315623972
 20
5273.4301656711
 30
0.0
 40
6.456095418149605
100
AcDbArc
 50
0.7367523773
 51
27.7342104882
  0
ARC
  5
113
330
1F
100
AcDbEntity
  8
0
  6
Continuous
 62
     7
370
    25
100
AcDbCircle
 10
6999.324714019
 20
5273.1397595048
 30
0.0
 40
7.039893315710582
100
AcDbArc
 50
27.9065139511
 51
178.2502084242
  0
LINE
  5
114
330
1F
100
AcDbEntity
  8
0
  6
Continuous
 62
     7
370
    25
100
AcDbLine
 10
6997.9944378787
 20
5274.6275640708
 30
0.0
 11
6996.4059070402
 21
5272.3207749111
 31
0.0
  0
LINE
  5
115
330
1F
100
AcDbEntity
  8
0
  6
Continuous
 62
     7
370
    25
100
AcDbLine
 10
6996.4059070402
 20
5272.3207749111
 30
0.0
 11
6997.6990875506
 21
5269.8507882339
 31
0.0
  0
LINE
  5
116
330
1F
100
AcDbEntity
  8
0
  6
Continuous
 62
     7
370
    25
100
AcDbLine
 10
6997.6990875506
 20
5269.8507882339
 30
0.0
 11
7000.5807988995
 21
5269.6876056177
 31
0.0
  0
LINE
  5
117
330
1F
100
AcDbEntity
  8
0
  6
Continuous
 62
     7
370
    25
100
AcDbLine
 10
7000.5807988995
 20
5269.6876056177
 30
0.0
 11
7002.1693278753
 21
5271.9943798763
 31
0.0
  0
LINE
  5
118
330
1F
100
AcDbEntity
  8
0
  6
Continuous
 62
     7
370
    25
100
AcDbLine
 10
7002.1693278753
 20
5271.9943798763
 30
0.0
 11
7000.8761473649
 21
5274.4643665535
 31
0.0
  0
LINE
  5
119
330
1F
100
AcDbEntity
  8
0
  6
Continuous
 62
     7
370
    25
100
AcDbLine
 10
7000.8761473649
 20
5274.4643665535
 30
0.0
 11
6997.9944378787
 21
5274.6275640708
 31
0.0
  0
LINE
  5
11A
330
1F
100
AcDbEntity
  8
0
  6
Continuous
 62
     7
370
    25
100
AcDbLine
 10
6996.6646768802
 20
5272.6965374929
 30
0.0
 11
6997.6990875506
 21
5270.7208074314
 31
0.0
  0
LINE
  5
11B
330
1F
100
AcDbEntity
  8
0
  6
Continuous
 62
     7
370
    25
100
AcDbLine
 10
6997.6990875506
 20
5270.7208074314
 30
0.0
 11
6997.6990875506
 21
5269.8507882339
 31
0.0
  0
LINE
  5
11C
330
1F
100
AcDbEntity
  8
0
  6
Continuous
 62
     7
370
    25
100
AcDbLine
 10
7000.5807988995
 20
5270.5576248151
 30
0.0
 11
7000.5807988995
 21
5269.6876056177
 31
0.0
  0
LINE
  5
11D
330
1F
100
AcDbEntity
  8
0
  6
Continuous
 62
     7
370
    25
100
AcDbLine
 10
7000.5807988995
 20
5270.5576248151
 30
0.0
 11
7001.910559898
 21
5272.4886364919
 31
0.0
  0
LINE
  5
11E
330
1F
100
AcDbEntity
  8
0
  6
Continuous
 62
     7
370
    25
100
AcDbLine
 10
6997.6990875506
 20
5270.7208074314
 30
0.0
 11
7000.5807988995
 21
5270.5576248151
 31
0.0
  0
LWPOLYLINE
  5
11F
330
1F
100
AcDbEntity
  8
0
  6
Continuous
 62
     7
370
    25
100
AcDbPolyline
 90
       24
 70
   128
 43
0.0
 10
7003.7578587138
 20
5339.378831504
 10
7004.1963961625
 20
5338.1451196653
 10
7004.2708703035
 20
5336.8439204675
 10
7003.9757602566
 20
5335.5717412812
 10
7003.332953965
 20
5334.4229437095
 10
7002.390122106
 20
5333.4827176911
 10
7001.2171902412
 20
5332.8207932097
 10
6999.9011532121
 20
5332.4862770421
 10
6998.5396117621
 20
5332.5039647204
 10
6997.2335473352
 20
5332.8725523931
 10
6996.0798230671
 20
5333.5646964294
 10
6995.1640070134
 20
5334.5290697795
 10
6994.5540205293
 20
5335.6941468698
 10
6994.2951016777
 20
5336.9735158664
 10
6994.4064561927
 20
5338.2723010761
 10
6994.8798251056
 20
5339.4941739422
 10
6995.6800975555
 20
5340.5485056025
 10
6996.7479259425
 20
5341.3571096641
 10
6998.0041087323
 20
5341.8600164038
 10
6999.3554857277
 20
5342.0199207646
 10
7000.7018279933
 20
5341.8249688727
 10
7001.9432865732
 20
5341.2896148545
 10
7002.9877853298
 20
5340.4535703045
 10
7003.7578587138
 20
5339.378831504
  0
ARC
  5
120
330
1F
100
AcDbEntity
  8
0
  6
Continuous
 62
     7
370
    25
100
AcDbCircle
 10
6999.8315948367
 20
5338.5078363689
 30
0.0
 40
6.456062875526868
100
AcDbArc
 50
0.7366830477
 51
27.7342798178
  0
ARC
  5
121
330
1F
100
AcDbEntity
  8
0
  6
Continuous
 62
     7
370
    25
100
AcDbCircle
 10
6999.3247155493
 20
5338.2174148655
 30
0.0
 40
7.039895289807078
100
AcDbArc
 50
27.9065708977
 51
178.2500903775
  0
LINE
  5
122
330
1F
100
AcDbEntity
  8
0
  6
Continuous
 62
     7
370
    25
100
AcDbLine
 10
6997.9944378787
 20
5339.7052190882
 30
0.0
 11
6996.4059070402
 21
5337.3984299284
 31
0.0
  0
LINE
  5
123
330
1F
100
AcDbEntity
  8
0
  6
Continuous
 62
     7
370
    25
100
AcDbLine
 10
6996.4059070402
 20
5337.3984299284
 30
0.0
 11
6997.6990875506
 21
5334.9284507019
 31
0.0
  0
LINE
  5
124
330
1F
100
AcDbEntity
  8
0
  6
Continuous
 62
     7
370
    25
100
AcDbLine
 10
6997.6990875506
 20
5334.9284507019
 30
0.0
 11
7000.5807988995
 21
5334.765260635
 31
0.0
  0
LINE
  5
125
330
1F
100
AcDbEntity
  8
0
  6
Continuous
 62
     7
370
    25
100
AcDbLine
 10
7000.5807988995
 20
5334.765260635
 30
0.0
 11
7002.1693278753
 21
5337.0720423442
 31
0.0
  0
LINE
  5
126
330
1F
100
AcDbEntity
  8
0
  6
Continuous
 62
     7
370
    25
100
AcDbLine
 10
7002.1693278753
 20
5337.0720423442
 30
0.0
 11
7000.8761473649
 21
5339.5420215708
 31
0.0
  0
LINE
  5
127
330
1F
100
AcDbEntity
  8
0
  6
Continuous
 62
     7
370
    25
100
AcDbLine
 10
7000.8761473649
 20
5339.5420215708
 30
0.0
 11
6997.9944378787
 21
5339.7052190882
 31
0.0
  0
LINE
  5
128
330
1F
100
AcDbEntity
  8
0
  6
Continuous
 62
     7
370
    25
100
AcDbLine
 10
6996.6646768802
 20
5337.7741999609
 30
0.0
 11
6997.6990875506
 21
5335.7984698993
 31
0.0
  0
LINE
  5
129
330
1F
100
AcDbEntity
  8
0
  6
Continuous
 62
     7
370
    25
100
AcDbLine
 10
6997.6990875506
 20
5335.7984698993
 30
0.0
 11
6997.6990875506
 21
5334.9284507019
 31
0.0
  0
LINE
  5
12A
330
1F
100
AcDbEntity
  8
0
  6
Continuous
 62
     7
370
    25
100
AcDbLine
 10
7000.5807988995
 20
5335.6352798325
 30
0.0
 11
7000.5807988995
 21
5334.765260635
 31
0.0
  0
LINE
  5
12B
330
1F
100
AcDbEntity
  8
0
  6
Continuous
 62
     7
370
    25
100
AcDbLine
 10
7000.5807988995
 20
5335.6352798325
 30
0.0
 11
7001.910559898
 21
5337.5662915093
 31
0.0
  0
LINE
  5
12C
330
1F
100
AcDbEntity
  8
0
  6
Continuous
 62
     7
370
    25
100
AcDbLine
 10
6997.6990875506
 20
5335.7984698993
 30
0.0
 11
7000.5807988995
 21
5335.6352798325
 31
0.0
  0
LINE
  5
12D
330
1F
100
AcDbEntity
  8
0
  6
Continuous
 62
     7
370
    25
100
AcDbLine
 10
7154.2876251691
 20
5389.0888519269
 30
0.0
 11
7409.2876204007
 21
5389.0888519269
 31
0.0
  0
LINE
  5
12E
330
1F
100
AcDbEntity
  8
0
  6
Continuous
 62
     7
370
    25
100
AcDbLine
 10
7154.2876251691
 20
5389.0888519269
 30
0.0
 11
7154.2876251691
 21
5406.0888519195
 31
0.0
  0
LINE
  5
12F
330
1F
100
AcDbEntity
  8
0
  6
Continuous
 62
     7
370
    25
100
AcDbLine
 10
7154.2876251691
 20
5406.0888519195
 30
0.0
 11
7154.2876251691
 21
5411.0888518077
 31
0.0
  0
SPLINE
  5
130
330
1F
100
AcDbEntity
  8
0
  6
Continuous
 62
     7
370
    25
100
AcDbSpline
210
0.0
220
0.0
230
1.0
 70
    24
 71
     3
 72
    32
 73
    28
 74
     0
 42
0.000000001
 43
0.00000001
 40
0.0
 40
0.0
 40
0.0
 40
0.0
 40
0.0378952045964516
 40
0.0759226145692023
 40
0.1139977304488388
 40
0.1520305203326811
 40
0.1899303046383475
 40
0.2277622536574712
 40
0.2657117441059699
 40
0.3037073742386664
 40
0.3416687890940748
 40
0.3795107081669443
 40
0.4189149019278486
 40
0.4584314359654685
 40
0.4979931346544623
 40
0.5375232190182931
 40
0.5769388028950531
 40
0.6197489984370181
 40
0.6626816258448908
 40
0.705662097788916
 40
0.7486068014261186
 40
0.7914271272948521
 40
0.8379345167005748
 40
0.8845847125022182
 40
0.9312858350107059
 40
0.9779408591323991
 40
1.0
 40
1.0
 40
1.0
 40
1.0
 10
7154.287625169104
 20
5411.088851807739
 30
0.0
 10
7159.498866823857
 20
5411.088851807739
 30
0.0
 10
7169.939530643831
 20
5411.088851807739
 30
0.0
 10
7185.539882408021
 20
5411.088851807739
 30
0.0
 10
7201.012510728778
 20
5411.088851807739
 30
0.0
 10
7216.252446294616
 20
5411.088851807739
 30
0.0
 10
7231.174583985296
 20
5411.088851807739
 30
0.0
 10
7245.725724209339
 20
5411.088851807739
 30
0.0
 10
7259.878240259441
 20
5411.088851807739
 30
0.0
 10
7273.586161394514
 20
5411.088851807739
 30
0.0
 10
7286.772624956105
 20
5411.088851807739
 30
0.0
 10
7299.556007274818
 20
5411.088851807739
 30
0.0
 10
7311.870092278908
 20
5411.088851807739
 30
0.0
 10
7323.675703334461
 20
5411.088851807739
 30
0.0
 10
7334.775378212869
 20
5411.088851807739
 30
0.0
 10
7345.1195260307
 20
5411.088851807739
 30
0.0
 10
7354.947688447737
 20
5411.088851807739
 30
0.0
 10
7364.153630776251
 20
5411.088851807739
 30
0.0
 10
7372.656295661305
 20
5411.088851807739
 30
0.0
 10
7380.190941176784
 20
5411.088851807739
 30
0.0
 10
7386.728766884713
 20
5411.088851807739
 30
0.0
 10
7392.409857650749
 20
5411.088851807739
 30
0.0
 10
7397.103130366032
 20
5411.088851807739
 30
0.0
 10
7400.737979348144
 20
5411.088851807739
 30
0.0
 10
7403.100474943561
 20
5411.088851807739
 30
0.0
 10
7404.257535759395
 20
5411.088851807739
 30
0.0
 10
7404.162234231038
 20
5411.088851807739
 30
0.0
 10
7404.131639813727
 20
5411.088851807739
 30
0.0
  0
LINE
  5
131
330
1F
100
AcDbEntity
  8
0
  6
Continuous
 62
     7
370
    25
100
AcDbLine
 10
6974.2876180165
 20
5389.0888519269
 30
0.0
 11
6974.2876180165
 21
5390.0888520909
 31
0.0
  0
LINE
  5
132
330
1F
100
AcDbEntity
  8
0
  6
Continuous
 62
     7
370
    25
100
AcDbLine
 10
6974.2876180165
 20
5390.0888520909
 30
0.0
 11
6974.2876180165
 21
5397.0888513756
 31
0.0
  0
LINE
  5
133
330
1F
100
AcDbEntity
  8
0
  6
Continuous
 62
     7
370
    25
100
AcDbLine
 10
6974.2876180165
 20
5397.0888513756
 30
0.0
 11
6974.2876180165
 21
5406.0888519195
 31
0.0
  0
LINE
  5
134
330
1F
100
AcDbEntity
  8
0
  6
Continuous
 62
     7
370
    25
100
AcDbLine
 10
6975.287618064
 20
5406.0888519195
 30
0.0
 11
6974.2876180165
 21
5406.0888519195
 31
0.0
  0
LINE
  5
135
330
1F
100
AcDbEntity
  8
0
  6
Continuous
 62
     7
370
    25
100
AcDbLine
 10
6975.287618064
 20
5406.0888519195
 30
0.0
 11
6975.287618064
 21
5389.0888519269
 31
0.0
  0
LINE
  5
136
330
1F
100
AcDbEntity
  8
0
  6
Continuous
 62
     7
370
    25
100
AcDbLine
 10
6975.287618064
 20
5389.0888519269
 30
0.0
 11
6974.2876180165
 21
5389.0888519269
 31
0.0
  0
LINE
  5
137
330
1F
100
AcDbEntity
  8
0
  6
Continuous
 62
     7
370
    25
100
AcDbLine
 10
6975.287618064
 20
5389.0888519269
 30
0.0
 11
7154.2876251691
 21
5389.0888519269
 31
0.0
  0
LINE
  5
138
330
1F
100
AcDbEntity
  8
0
  6
Continuous
 62
     7
370
    25
100
AcDbLine
 10
7154.2876251691
 20
5406.0888519195
 30
0.0
 11
6975.287618064
 21
5406.0888519195
 31
0.0
  0
LINE
  5
139
330
1F
100
AcDbEntity
  8
0
  6
Continuous
 62
     7
370
    25
100
AcDbLine
 10
6975.287618064
 20
5408.5888518636
 30
0.0
 11
6975.287618064
 21
5406.0888519195
 31
0.0
  0
SPLINE
  5
13A
330
1F
100
AcDbEntity
  8
0
  6
Continuous
 62
     7
370
    25
100
AcDbSpline
210
0.0
220
0.0
230
1.0
 70
     8
 71
     3
 72
    20
 73
    16
 74
     0
 42
0.000000001
 43
0.00000001
 40
0.0
 40
0.0
 40
0.0
 40
0.0
 40
0.1249999999999891
 40
0.1249999999999891
 40
0.2499999999999784
 40
0.2499999999999784
 40
0.4999999999999771
 40
0.4999999999999771
 40
0.7499999999999758
 40
0.7499999999999758
 40
0.8749999999999751
 40
0.8749999999999751
 40
0.9374999999999876
 40
0.9374999999999876
 40
1.0
 40
1.0
 40
1.0
 40
1.0
 10
6975.287618016546
 20
5408.588851807739
 30
0.0
 10
6975.287618016546
 20
5408.795855374073
 30
0.0
 10
6975.307818209504
 20
5408.990127593228
 30
0.0
 10
6975.378177854152
 20
5409.356050227777
 30
0.0
 10
6975.428992785482
 20
5409.528885188611
 30
0.0
 10
6975.615638120131
 20
5410.005610257122
 30
0.0
 10
6975.782327851029
 20
5410.265278911035
 30
0.0
 10
6976.165498705983
 20
5410.682520742055
 30
0.0
 10
6976.375940694989
 20
5410.833518174811
 30
0.0
 10
6976.708558944822
 20
5410.986325677522
 30
0.0
 10
6976.822786562503
 20
5411.024817952339
 30
0.0
 10
6976.996189903497
 20
5411.06325694279
 30
0.0
 10
6977.054252360411
 20
5411.072850789371
 30
0.0
 10
6977.170766972812
 20
5411.085651623604
 30
0.0
 10
6977.229755076409
 20
5411.088851807739
 30
0.0
 10
6977.287618016547
 20
5411.088851807739
 30
0.0
  0
LINE
  5
13B
330
1F
100
AcDbEntity
  8
0
  6
Continuous
 62
     7
370
    25
100
AcDbLine
 10
6977.2876180426
 20
5411.0888518077
 30
0.0
 11
7154.2876251691
 21
5411.0888518077
 31
0.0
  0
LINE
  5
13C
330
1F
100
AcDbEntity
  8
0
  6
Continuous
 62
     7
370
    25
100
AcDbLine
 10
6974.2876180165
 20
5406.0888519195
 30
0.0
 11
6974.2876180165
 21
5408.0888517817
 31
0.0
  0
LWPOLYLINE
  5
13D
330
1F
100
AcDbEntity
  8
0
  6
Continuous
 62
     7
370
    25
100
AcDbPolyline
 90
        9
 70
   128
 43
0.0
 10
6975.287618064
 20
5408.5888518636
 10
6975.0925276961
 20
5408.5792443399
 10
6974.9049345913
 20
5408.550791504
 10
6974.7320477976
 20
5408.5045867284
 10
6974.5805112246
 20
5408.4424051141
 10
6974.4561484034
 20
5408.3666369003
 10
6974.3637384812
 20
5408.2801936344
 10
6974.3068327365
 20
5408.1863968783
 10
6974.2876180165
 20
5408.0888517817
  0
SPLINE
  5
13E
330
1F
100
AcDbEntity
  8
0
  6
Continuous
 62
     7
370
    25
100
AcDbSpline
210
0.0
220
0.0
230
1.0
 70
     8
 71
     3
 72
    20
 73
    16
 74
     0
 42
0.000000001
 43
0.00000001
 40
0.0
 40
0.0
 40
0.0
 40
0.0
 40
0.1250000000000008
 40
0.1250000000000008
 40
0.2500000000000016
 40
0.2500000000000016
 40
0.4999999999999883
 40
0.4999999999999883
 40
0.7499999999999751
 40
0.7499999999999751
 40
0.8749999999999779
 40
0.8749999999999779
 40
0.9374999999999889
 40
0.9374999999999889
 40
1.0
 40
1.0
 40
1.0
 40
1.0
 10
6974.287618016547
 20
5408.088851807739
 30
0.0
 10
6974.287618016547
 20
5408.320505904875
 30
0.0
 10
6974.314091400372
 20
5408.542648823717
 30
0.0
 10
6974.411293302815
 20
5408.968936127557
 30
0.0
 10
6974.483253345955
 20
5409.175030964018
 30
0.0
 10
6974.751770058636
 20
5409.746096688604
 30
0.0
 10
6974.994466787756
 20
5410.061470138655
 30
0.0
 10
6975.570136052665
 20
5410.578836012771
 30
0.0
 10
6975.888431915281
 20
5410.767303480472
 30
0.0
 10
6976.397952626176
 20
5410.959644689586
 30
0.0
 10
6976.573916530786
 20
5411.008291168954
 30
0.0
 10
6976.839959835135
 20
5411.0566331594
 30
0.0
 10
6976.929126300925
 20
5411.068711246179
 30
0.0
 10
6977.108164212876
 20
5411.084828262149
 30
0.0
 10
6977.198738226396
 20
5411.088851807739
 30
0.0
 10
6977.287618016547
 20
5411.088851807739
 30
0.0
  0
LINE
  5
13F
330
1F
100
AcDbEntity
  8
0
  6
Continuous
 62
     7
370
    25
100
AcDbLine
 10
6999.2876183891
 20
5325.5334399325
 30
0.0
 11
6974.2876180165
 21
5325.5334399325
 31
0.0
  0
LWPOLYLINE
  5
140
330
1F
100
AcDbEntity
  8
0
  6
Continuous
 62
     7
370
    25
100
AcDbPolyline
 90
       19
 70
   128
 43
0.0
 10
6999.2876183891
 20
5349.4590498191
 10
7001.4582202488
 20
5349.2773078066
 10
7003.562869569
 20
5348.7376026494
 10
7005.5376180165
 20
5347.8563405258
 10
7007.3224642032
 20
5346.6602839214
 10
7008.8631734901
 20
5345.1857842189
 10
7010.1129338794
 20
5343.4776492101
 10
7011.0337772124
 20
5341.5877647382
 10
7011.5977153831
 20
5339.5735598785
 10
7011.7876195067
 20
5337.4962411505
 10
7011.5977153831
 20
5335.4189224226
 10
7011.0337772124
 20
5333.4047250134
 10
7010.1129338794
 20
5331.5148405415
 10
7008.8631734901
 20
5329.8066980821
 10
7007.3224642032
 20
5328.3322058302
 10
7005.5376180165
 20
5327.1361492259
 10
7003.562869569
 20
5326.2548871023
 10
7001.4582202488
 20
5325.715181945
 10
6999.2876183891
 20
5325.5334399325
  0
LINE
  5
141
330
1F
100
AcDbEntity
  8
0
  6
Continuous
 62
     7
370
    25
100
AcDbLine
 10
6974.2876180165
 20
5349.4590498191
 30
0.0
 11
6999.2876183891
 21
5349.4590498191
 31
0.0
  0
LINE
  5
142
330
1F
100
AcDbEntity
  8
0
  6
Continuous
 62
     7
370
    25
100
AcDbLine
 10
7154.2876251691
 20
5224.0888453704
 30
0.0
 11
7154.2876251691
 21
5389.0888519269
 31
0.0
  0
LINE
  5
143
330
1F
100
AcDbEntity
  8
0
  6
Continuous
 62
     7
370
    25
100
AcDbLine
 10
7154.2876251691
 20
5224.0888453704
 30
0.0
 11
6974.2876180165
 21
5224.0888453704
 31
0.0
  0
LINE
  5
144
330
1F
100
AcDbEntity
  8
0
  6
Continuous
 62
     7
370
    25
100
AcDbLine
 10
6999.2876183891
 20
5260.4557849151
 30
0.0
 11
6974.2876180165
 21
5260.4557849151
 31
0.0
  0
LWPOLYLINE
  5
145
330
1F
100
AcDbEntity
  8
0
  6
Continuous
 62
     7
370
    25
100
AcDbPolyline
 90
       19
 70
   128
 43
0.0
 10
6999.2876183891
 20
5284.3813873512
 10
7001.4582202488
 20
5284.1996527893
 10
7003.562869569
 20
5283.659947632
 10
7005.5376180165
 20
5282.7786780578
 10
7007.3224642032
 20
5281.5826214534
 10
7008.8631734901
 20
5280.108121751
 10
7010.1129338794
 20
5278.3999867422
 10
7011.0337772124
 20
5276.5101022703
 10
7011.5977153831
 20
5274.4958974105
 10
7011.7876195067
 20
5272.4185861331
 10
7011.5977153831
 20
5270.3412599546
 10
7011.0337772124
 20
5268.327069996
 10
7010.1129338794
 20
5266.4371855241
 10
7008.8631734901
 20
5264.7290356142
 10
7007.3224642032
 20
5263.2545508129
 10
7005.5376180165
 20
5262.0584942085
 10
7003.562869569
 20
5261.1772246343
 10
7001.4582202488
 20
5260.637519477
 10
6999.2876183891
 20
5260.4557849151
  0
LINE
  5
146
330
1F
100
AcDbEntity
  8
0
  6
Continuous
 62
     7
370
    25
100
AcDbLine
 10
6974.2876180165
 20
5284.3813873512
 30
0.0
 11
6999.2876183891
 21
5284.3813873512
 31
0.0
  0
LINE
  5
147
330
1F
100
AcDbEntity
  8
0
  6
Continuous
 62
     7
370
    25
100
AcDbLine
 10
6974.2876180165
 20
5349.4590498191
 30
0.0
 11
6974.2876180165
 21
5389.0888519269
 31
0.0
  0
LINE
  5
148
330
1F
100
AcDbEntity
  8
0
  6
Continuous
 62
     7
370
    25
100
AcDbLine
 10
6974.2876180165
 20
5284.3813873512
 30
0.0
 11
6974.2876180165
 21
5325.5334399325
 31
0.0
  0
LINE
  5
149
330
1F
100
AcDbEntity
  8
0
  6
Continuous
 62
     7
370
    25
100
AcDbLine
 10
6974.2876180165
 20
5224.0888453704
 30
0.0
 11
6974.2876180165
 21
5260.4557849151
 31
0.0
  0
SPLINE
  5
14A
330
1F
100
AcDbEntity
  8
0
  6
Continuous
 62
     7
370
    25
100
AcDbSpline
210
0.0
220
0.0
230
1.0
 70
    24
 71
     3
 72
    30
 73
    26
 74
     0
 42
0.000000001
 43
0.00000001
 40
0.0
 40
0.0
 40
0.0
 40
0.0
 40
0.0005437941016501
 40
0.0490107415130509
 40
0.0970922596985038
 40
0.1448472408172376
 40
0.192484205784501
 40
0.2402229565621955
 40
0.2882724169504071
 40
0.3332577974153829
 40
0.377770292131916
 40
0.4220112954427113
 40
0.4661827812488899
 40
0.5104986173607127
 40
0.557546472965155
 40
0.6038467256166681
 40
0.6496520963813806
 40
0.695301501611297
 40
0.7411720462974192
 40
0.7871097552937845
 40
0.8297704041781856
 40
0.8720868612542372
 40
0.9143852817355006
 40
0.9570812657118252
 40
1.0
 40
1.0
 40
1.0
 40
1.0
 10
7353.282261704749
 20
5224.088845370437
 30
0.0
 10
7353.284048711308
 20
5224.088845370437
 30
0.0
 10
7353.445106943317
 20
5224.088845370437
 30
0.0
 10
7352.85970462853
 20
5224.088845370437
 30
0.0
 10
7351.407342991422
 20
5224.088845370437
 30
0.0
 10
7348.842930858727
 20
5224.088845370437
 30
0.0
 10
7345.320612379644
 20
5224.088845370437
 30
0.0
 10
7340.789426149433
 20
5224.088845370437
 30
0.0
 10
7335.370156284758
 20
5224.088845370437
 30
0.0
 10
7329.159046000803
 20
5224.088845370437
 30
0.0
 10
7322.271403684879
 20
5224.088845370437
 30
0.0
 10
7314.60334927342
 20
5224.088845370437
 30
0.0
 10
7306.143916755595
 20
5224.088845370437
 30
0.0
 10
7296.704446696381
 20
5224.088845370437
 30
0.0
 10
7286.299416354031
 20
5224.088845370437
 30
0.0
 10
7274.973338874341
 20
5224.088845370437
 30
0.0
 10
7263.014419377173
 20
5224.088845370437
 30
0.0
 10
7250.403766384679
 20
5224.088845370437
 30
0.0
 10
7237.147497378504
 20
5224.088845370437
 30
0.0
 10
7223.627208372503
 20
5224.088845370437
 30
0.0
 10
7210.020878758353
 20
5224.088845370437
 30
0.0
 10
7196.451264101301
 20
5224.088845370437
 30
0.0
 10
7182.615869733194
 20
5224.088845370437
 30
0.0
 10
7168.532231142461
 20
5224.088845370437
 30
0.0
 10
7159.044055862193
 20
5224.088845370437
 30
0.0
 10
7154.287625169104
 20
5224.088845370437
 30
0.0
  0
LINE
  5
14B
330
1F
100
AcDbEntity
  8
0
  6
Continuous
 62
     7
370
    25
100
AcDbLine
 10
6999.2876183891
 20
5326.1134527308
 30
0.0
 11
6999.2876183891
 21
5325.5334399325
 31
0.0
  0
ARC
  5
14C
330
1F
100
AcDbEntity
  8
0
  6
Continuous
 62
     7
370
    25
100
AcDbCircle
 10
6999.9728039936
 20
5338.1652519455
 30
0.0
 40
11.81721797111694
100
AcDbArc
 50
308.0657328564
 51
358.1620820648
  0
LINE
  5
14D
330
1F
100
AcDbEntity
  8
0
  6
Continuous
 62
     7
370
    25
100
AcDbLine
 10
6999.2876183891
 20
5349.0385390502
 30
0.0
 11
6974.2876180165
 21
5349.0385390502
 31
0.0
  0
LINE
  5
14E
330
1F
100
AcDbEntity
  8
0
  6
Continuous
 62
     7
370
    25
100
AcDbLine
 10
6974.2876180165
 20
5349.0385390502
 30
0.0
 11
6974.2876180165
 21
5349.4590498191
 31
0.0
  0
LWPOLYLINE
  5
14F
330
1F
100
AcDbEntity
  8
0
  6
Continuous
 62
     7
370
    25
100
AcDbPolyline
 90
       18
 70
   128
 43
0.0
 10
6999.2876183891
 20
5327.984002946
 10
7001.3088621848
 20
5328.163249014
 10
7003.2612756544
 20
5328.6948851925
 10
7005.0783716791
 20
5329.5608065707
 10
7006.6982694619
 20
5330.7315237504
 10
7008.0658086293
 20
5332.1671761257
 10
7009.134415602
 20
5333.8188655359
 10
7009.8677017444
 20
5335.6303475482
 10
7010.2406927102
 20
5337.5399388057
 10
7010.2406927102
 20
5339.4826031906
 10
7009.8677017444
 20
5341.3921944481
 10
7009.134415602
 20
5343.2036764604
 10
7008.0658086293
 20
5344.8553658706
 10
7006.6982694619
 20
5346.2910182458
 10
7005.0783716791
 20
5347.4617354256
 10
7003.2612756544
 20
5348.3276568038
 10
7001.3088621848
 20
5348.8592929822
 10
6999.2876183891
 20
5349.0385390502
  0
LINE
  5
150
330
1F
100
AcDbEntity
  8
0
  6
Continuous
 62
     7
370
    25
100
AcDbLine
 10
6999.2876183891
 20
5327.984002946
 30
0.0
 11
6999.2876183891
 21
5326.1134527308
 31
0.0
  0
LINE
  5
151
330
1F
100
AcDbEntity
  8
0
  6
Continuous
 62
     7
370
    25
100
AcDbLine
 10
6974.2876180165
 20
5327.984002946
 30
0.0
 11
6999.2876183891
 21
5327.984002946
 31
0.0
  0
LINE
  5
152
330
1F
100
AcDbEntity
  8
0
  6
Continuous
 62
     7
370
    25
100
AcDbLine
 10
6974.2876180165
 20
5327.984002946
 30
0.0
 11
6974.2876180165
 21
5349.0385390502
 31
0.0
  0
LINE
  5
153
330
1F
100
AcDbEntity
  8
0
  6
Continuous
 62
     7
370
    25
100
AcDbLine
 10
6999.2876183891
 20
5326.1134527308
 30
0.0
 11
6974.2876180165
 21
5326.1134527308
 31
0.0
  0
LINE
  5
154
330
1F
100
AcDbEntity
  8
0
  6
Continuous
 62
     7
370
    25
100
AcDbLine
 10
6974.2876180165
 20
5326.1134527308
 30
0.0
 11
6974.2876180165
 21
5325.5334399325
 31
0.0
  0
LINE
  5
155
330
1F
100
AcDbEntity
  8
0
  6
Continuous
 62
     7
370
    25
100
AcDbLine
 10
6974.2876180165
 20
5326.1134527308
 30
0.0
 11
6974.2876180165
 21
5327.984002946
 31
0.0
  0
LINE
  5
156
330
1F
100
AcDbEntity
  8
0
  6
Continuous
 62
     7
370
    25
100
AcDbLine
 10
6999.2876183891
 20
5261.0357977134
 30
0.0
 11
6999.2876183891
 21
5260.4557849151
 31
0.0
  0
ARC
  5
157
330
1F
100
AcDbEntity
  8
0
  6
Continuous
 62
     7
370
    25
100
AcDbCircle
 10
6999.9715585566
 20
5273.0882128593
 30
0.0
 40
11.81848253576596
100
AcDbArc
 50
308.068600865
 51
358.1592912255
  0
LINE
  5
158
330
1F
100
AcDbEntity
  8
0
  6
Continuous
 62
     7
370
    25
100
AcDbLine
 10
6999.2876183891
 20
5283.9608765823
 30
0.0
 11
6974.2876180165
 21
5283.9608765823
 31
0.0
  0
LINE
  5
159
330
1F
100
AcDbEntity
  8
0
  6
Continuous
 62
     7
370
    25
100
AcDbLine
 10
6974.2876180165
 20
5283.9608765823
 30
0.0
 11
6974.2876180165
 21
5284.3813873512
 31
0.0
  0
LWPOLYLINE
  5
15A
330
1F
100
AcDbEntity
  8
0
  6
Continuous
 62
     7
370
    25
100
AcDbPolyline
 90
       18
 70
   128
 43
0.0
 10
6999.2876183891
 20
5262.9063404781
 10
7001.3088621848
 20
5263.0855865461
 10
7003.2612756544
 20
5263.6172301752
 10
7005.0783716791
 20
5264.4831515533
 10
7006.6982694619
 20
5265.6538612825
 10
7008.0658086293
 20
5267.0895136577
 10
7009.134415602
 20
5268.7412030679
 10
7009.8677017444
 20
5270.5526925308
 10
7010.2406927102
 20
5272.4622763378
 10
7010.2406927102
 20
5274.4049407226
 10
7009.8677017444
 20
5276.3145394308
 10
7009.134415602
 20
5278.1260139925
 10
7008.0658086293
 20
5279.7777034027
 10
7006.6982694619
 20
5281.2133557779
 10
7005.0783716791
 20
5282.3840804082
 10
7003.2612756544
 20
5283.2500017864
 10
7001.3088621848
 20
5283.7816305143
 10
6999.2876183891
 20
5283.9608765823
  0
LINE
  5
15B
330
1F
100
AcDbEntity
  8
0
  6
Continuous
 62
     7
370
    25
100
AcDbLine
 10
6999.2876183891
 20
5262.9063404781
 30
0.0
 11
6999.2876183891
 21
5261.0357977134
 31
0.0
  0
LINE
  5
15C
330
1F
100
AcDbEntity
  8
0
  6
Continuous
 62
     7
370
    25
100
AcDbLine
 10
6974.2876180165
 20
5262.9063404781
 30
0.0
 11
6999.2876183891
 21
5262.9063404781
 31
0.0
  0
LINE
  5
15D
330
1F
100
AcDbEntity
  8
0
  6
Continuous
 62
     7
370
    25
100
AcDbLine
 10
6974.2876180165
 20
5262.9063404781
 30
0.0
 11
6974.2876180165
 21
5283.9608765823
 31
0.0
  0
LINE
  5
15E
330
1F
100
AcDbEntity
  8
0
  6
Continuous
 62
     7
370
    25
100
AcDbLine
 10
6999.2876183891
 20
5261.0357977134
 30
0.0
 11
6974.2876180165
 21
5261.0357977134
 31
0.0
  0
LINE
  5
15F
330
1F
100
AcDbEntity
  8
0
  6
Continuous
 62
     7
370
    25
100
AcDbLine
 10
6974.2876180165
 20
5261.0357977134
 30
0.0
 11
6974.2876180165
 21
5260.4557849151
 31
0.0
  0
LINE
  5
160
330
1F
100
AcDbEntity
  8
0
  6
Continuous
 62
     7
370
    25
100
AcDbLine
 10
6974.2876180165
 20
5261.0357977134
 30
0.0
 11
6974.2876180165
 21
5262.9063404781
 31
0.0
  0
LINE
  5
161
330
1F
100
AcDbEntity
  8
0
  6
Continuous
 62
     8
370
    25
100
AcDbLine
 10
7216.267440533
 20
5217.0888460857
 30
0.0
 11
7216.2876167052
 21
5217.0888460857
 31
0.0
  0
LINE
  5
162
330
1F
100
AcDbEntity
  8
0
  6
Continuous
 62
     8
370
    25
100
AcDbLine
 10
7160.2876224273
 20
5217.0888460857
 30
0.0
 11
7216.267440533
 21
5217.0888460857
 31
0.0
  0
LWPOLYLINE
  5
163
330
1F
100
AcDbEntity
  8
0
  6
Continuous
 62
     8
370
    25
100
AcDbPolyline
 90
       36
 70
   128
 43
0.0
 10
6989.2335190156
 20
5150.6206668598
 10
6989.2336223924
 20
5150.5851126892
 10
6989.2338514977
 20
5150.2515948993
 10
6989.2340768778
 20
5149.5698071701
 10
6989.2342976012
 20
5148.5457099659
 10
6989.2345118054
 20
5147.1883333904
 10
6989.2347176277
 20
5145.5096281749
 10
6989.2349122741
 20
5143.5242868644
 10
6989.2350948134
 20
5141.2498034221
 10
6989.2352633827
 20
5138.706145404
 10
6989.235417051
 20
5135.9156645519
 10
6989.2355539554
 20
5132.9028881771
 10
6989.2356722333
 20
5129.6943105442
 10
6989.2357728162
 20
5126.3181246501
 10
6989.2358529099
 20
5122.8039540035
 10
6989.2359125146
 20
5119.1827334148
 10
6989.2359506988
 20
5115.4862619621
 10
6989.2359683939
 20
5111.7470539791
 10
6989.2359637373
 20
5107.9979218227
 10
6989.2359376603
 20
5104.2718566638
 10
6989.2358910942
 20
5100.6015516502
 10
6989.2358231076
 20
5097.0193423015
 10
6989.235734632
 20
5093.5566402656
 10
6989.2356275299
 20
5090.2438737136
 10
6989.23550087
 20
5087.1102191192
 10
6989.2353574463
 20
5084.1831542236
 10
6989.2351981902
 20
5081.4884282333
 10
6989.2350231015
 20
5079.0497041923
 10
6989.2348359057
 20
5076.8884397728
 10
6989.2346366026
 20
5075.023619054
 10
6989.2344270551
 20
5073.4716333133
 10
6989.2342100569
 20
5072.2461022121
 10
6989.2339874708
 20
5071.3577843887
 10
6989.2337602281
 20
5070.8145476562
 10
6989.2335311227
 20
5070.6211007816
 10
6989.2335190156
 20
5070.6206537467
  0
LINE
  5
164
330
1F
100
AcDbEntity
  8
0
  6
Continuous
 62
     8
370
    25
100
AcDbLine
 10
7161.1814089769
 20
5005.3150035125
 30
0.0
 11
7215.3938301557
 21
5005.3150035125
 31
0.0
  0
LINE
  5
165
330
1F
100
AcDbEntity
  8
0
  6
Continuous
 62
     8
370
    25
100
AcDbLine
 10
7215.5970670932
 20
5129.9683130962
 30
0.0
 11
7163.066510176
 21
5129.9683130962
 31
0.0
  0
LWPOLYLINE
  5
166
330
1F
100
AcDbEntity
  8
0
  6
Continuous
 62
     8
370
    25
100
AcDbPolyline
 90
       29
 70
   128
 43
0.0
 10
7131.2876232618
 20
5136.6206682903
 10
7131.2877126687
 20
5136.5766800624
 10
7131.2878914827
 20
5136.2256683094
 10
7131.2880702966
 20
5135.5283833725
 10
7131.2882491105
 20
5134.4942725879
 10
7131.2884130233
 20
5133.137313245
 10
7131.2885620349
 20
5131.4758635742
 10
7131.2887110465
 20
5129.5323945266
 10
7131.288845157
 20
5127.333132146
 10
7131.2889494651
 20
5124.9079085571
 10
7131.2890388721
 20
5122.2894467098
 10
7131.2891133779
 20
5119.5131815654
 10
7131.2891729825
 20
5116.6166938526
 10
7131.2892027848
 20
5113.6390842182
 10
7131.289217686
 20
5110.6206752044
 10
7131.2892027848
 20
5107.6022363884
 10
7131.2891729825
 20
5104.6246565563
 10
7131.2891133779
 20
5101.7281390411
 10
7131.2890388721
 20
5098.9518738967
 10
7131.2889494651
 20
5096.3334418518
 10
7131.288845157
 20
5093.9081884605
 10
7131.2887110465
 20
5091.7089558822
 10
7131.2885620349
 20
5089.7654570323
 10
7131.2884130233
 20
5088.1040073616
 10
7131.2882491105
 20
5086.7470480186
 10
7131.2880702966
 20
5085.7129372341
 10
7131.2878914827
 20
5085.0156522972
 10
7131.2877126687
 20
5084.6646405441
 10
7131.2876232618
 20
5084.6206523162
  0
LINE
  5
167
330
1F
100
AcDbEntity
  8
0
  6
Continuous
 62
     8
370
    25
100
AcDbLine
 10
7165.2876176589
 20
5146.1206651908
 30
0.0
 11
7211.2876214736
 21
5146.1206651908
 31
0.0
  0
SPLINE
  5
168
330
1F
100
AcDbEntity
  8
0
  6
Continuous
 62
     8
370
    25
100
AcDbSpline
210
0.0
220
0.0
230
1.0
 70
    24
 71
     3
 72
    37
 73
    33
 74
     0
 42
0.000000001
 43
0.00000001
 40
0.0
 40
0.0
 40
0.0
 40
0.0
 40
0.0138549294761509
 40
0.0521213293753773
 40
0.0903613671910744
 40
0.1295960038336712
 40
0.1688592637029551
 40
0.2080929799464445
 40
0.2433535704540002
 40
0.2786358412720726
 40
0.3138953869147042
 40
0.3500079799711744
 40
0.3861453513275074
 40
0.4222563250113717
 40
0.4547617478986744
 40
0.4872867464504976
 40
0.5197907871540649
 40
0.5530786437235198
 40
0.5863894266414175
 40
0.6196756312756496
 40
0.6509045893955123
 40
0.6821541653915932
 40
0.7133818152076814
 40
0.7454323606044498
 40
0.7775070425048634
 40
0.8095563505801111
 40
0.8516103307117902
 40
0.8939008494596291
 40
0.9203039702789305
 40
0.9467070419661184
 40
0.9733535245991597
 40
1.0
 40
1.0
 40
1.0
 40
1.0
 10
7409.189928387946
 20
5406.088851919498
 30
0.0
 10
7409.215593648364
 20
5406.088851919498
 30
0.0
 10
7409.312144662505
 20
5406.088851919498
 30
0.0
 10
7408.611189125183
 20
5406.088851919498
 30
0.0
 10
7407.07810845811
 20
5406.088851919498
 30
0.0
 10
7404.60685358939
 20
5406.088851919498
 30
0.0
 10
7401.252187853603
 20
5406.088851919498
 30
0.0
 10
7397.162228609654
 20
5406.088851919498
 30
0.0
 10
7392.442871211265
 20
5406.088851919498
 30
0.0
 10
7387.197663612254
 20
5406.088851919498
 30
0.0
 10
7381.214549220247
 20
5406.088851919498
 30
0.0
 10
7374.476816735982
 20
5406.088851919498
 30
0.0
 10
7366.979666932825
 20
5406.088851919498
 30
0.0
 10
7359.060671841632
 20
5406.088851919498
 30
0.0
 10
7350.807528642711
 20
5406.088851919498
 30
0.0
 10
7342.309264153621
 20
5406.088851919498
 30
0.0
 10
7333.212920944567
 20
5406.088851919498
 30
0.0
 10
7323.515467425024
 20
5406.088851919498
 30
0.0
 10
7313.225955160062
 20
5406.088851919498
 30
0.0
 10
7302.664642181841
 20
5406.088851919498
 30
0.0
 10
7291.886457320497
 20
5406.088851919498
 30
0.0
 10
7280.949306646356
 20
5406.088851919498
 30
0.0
 10
7269.547154612774
 20
5406.088851919498
 30
0.0
 10
7257.692971338848
 20
5406.088851919498
 30
0.0
 10
7245.411832448126
 20
5406.088851919498
 30
0.0
 10
7231.53253157127
 20
5406.088851919498
 30
0.0
 10
7215.958252141263
 20
5406.088851919498
 30
0.0
 10
7200.83152190807
 20
5406.088851919498
 30
0.0
 10
7187.689047854565
 20
5406.088851919498
 30
0.0
 10
7176.632181913602
 20
5406.088851919498
 30
0.0
 10
7165.489933950782
 20
5406.088851919498
 30
0.0
 10
7158.021727758502
 20
5406.088851919498
 30
0.0
 10
7154.287625169104
 20
5406.088851919498
 30
0.0
  0
ARC
  5
169
330
1F
100
AcDbEntity
  8
0
  6
Continuous
 62
     8
370
    25
100
AcDbCircle
 10
6999.319769659
 20
5338.955323363
 30
0.0
 40
12.84191087955869
100
AcDbArc
 50
269.8565529683
 51
308.1862236131
  0
LINE
  5
16A
330
1F
100
AcDbEntity
  8
0
  6
Continuous
 62
     8
370
    25
100
AcDbLine
 10
6999.2876183891
 20
5349.0385390502
 30
0.0
 11
6999.2876183891
 21
5349.4590498191
 31
0.0
  0
ARC
  5
16B
330
1F
100
AcDbEntity
  8
0
  6
Continuous
 62
     8
370
    25
100
AcDbCircle
 10
6999.319776453
 20
5273.8777033715
 30
0.0
 40
12.84194592232474
100
AcDbArc
 50
269.8565230473
 51
308.1860620759
  0
LINE
  5
16C
330
1F
100
AcDbEntity
  8
0
  6
Continuous
 62
     8
370
    25
100
AcDbLine
 10
6999.2876183891
 20
5283.9608765823
 30
0.0
 11
6999.2876183891
 21
5284.3813873512
 31
0.0
  0
LINE
  5
16D
330
1F
100
AcDbEntity
  8
0
  6
Continuous
 62
     7
370
    25
100
AcDbLine
 10
6279.2687552653
 20
4486.0581366083
 30
0.0
 11
6279.1095256478
 21
4486.1500693222
 31
0.0
  0
LINE
  5
16E
330
1F
100
AcDbEntity
  8
0
  6
Continuous
 62
     7
370
    25
100
AcDbLine
 10
6268.9279850244
 20
4486.1500693222
 30
0.0
 11
6268.7687554069
 21
4486.0581366083
 31
0.0
  0
LINE
  5
16F
330
1F
100
AcDbEntity
  8
0
  6
Continuous
 62
     7
370
    25
100
AcDbLine
 10
6279.2687552653
 20
4485.3581322094
 30
0.0
 11
6279.2687552653
 21
4486.0581366083
 31
0.0
  0
LINE
  5
170
330
1F
100
AcDbEntity
  8
0
  6
Continuous
 62
     7
370
    25
100
AcDbLine
 10
6268.7687554069
 20
4486.0581366083
 30
0.0
 11
6268.7687554069
 21
4485.3581322094
 31
0.0
  0
LINE
  5
171
330
1F
100
AcDbEntity
  8
0
  6
Continuous
 62
     7
370
    25
100
AcDbLine
 10
6314.0056488708
 20
4602.6500669977
 30
0.0
 11
6314.0056451455
 21
4602.7066158021
 31
0.0
  0
LINE
  5
172
330
1F
100
AcDbEntity
  8
0
  6
Continuous
 62
     7
370
    25
100
AcDbLine
 10
6234.0056432083
 20
4602.7017158666
 30
0.0
 11
6234.0056469336
 21
4602.6500669977
 31
0.0
  0
LINE
  5
173
330
1F
100
AcDbEntity
  8
0
  6
Continuous
 62
     7
370
    25
100
AcDbLine
 10
6294.0056437299
 20
4602.7053908182
 30
0.0
 11
6294.0050327823
 21
4612.7053910604
 31
0.0
  0
LINE
  5
174
330
1F
100
AcDbEntity
  8
0
  6
Continuous
 62
     7
370
    25
100
AcDbLine
 10
6254.0050318137
 20
4612.7029407507
 30
0.0
 11
6254.0056446239
 21
4602.7029408505
 31
0.0
  0
ARC
  5
175
330
1F
100
AcDbEntity
  8
0
  6
Continuous
 62
     7
370
    25
100
AcDbCircle
 10
6290.5187553361
 20
4487.6500669977
 30
0.0
 40
1.500000000000056
100
AcDbArc
 50
270.0
 51
356.2615129474
  0
ARC
  5
176
330
1F
100
AcDbEntity
  8
0
  6
Continuous
 62
     7
370
    25
100
AcDbCircle
 10
6257.5187553361
 20
4487.6500669977
 30
0.0
 40
1.500000000000056
100
AcDbArc
 50
183.7384870526
 51
270.0
  0
LWPOLYLINE
  5
177
330
1F
100
AcDbEntity
  8
0
  6
Continuous
 62
     7
370
    25
100
AcDbPolyline
 90
        3
 70
   128
 43
0.0
 10
6273.4493962278
 20
4373.6608830949
 10
6275.7441581132
 20
4373.749634411
 10
6277.7110630784
 20
4374.1115985176
  0
ARC
  5
178
330
1F
100
AcDbEntity
  8
0
  6
Continuous
 62
     7
370
    25
100
AcDbCircle
 10
6274.0187553361
 20
4388.6500669977
 30
0.0
 40
15.00000000000078
100
AcDbArc
 50
315.7499672968
 51
344.2500327029
  0
ARC
  5
179
330
1F
100
AcDbEntity
  8
0
  6
Continuous
 62
     7
370
    25
100
AcDbCircle
 10
6274.0187553361
 20
4388.6500669977
 30
0.0
 40
14.99999999999995
100
AcDbArc
 50
15.7499673002
 51
44.2500326997
  0
ARC
  5
17A
330
1F
100
AcDbEntity
  8
0
  6
Continuous
 62
     7
370
    25
100
AcDbCircle
 10
6274.0187553361
 20
4388.6500669977
 30
0.0
 40
14.99999999999899
100
AcDbArc
 50
75.7499673022
 51
104.2500326978
  0
ARC
  5
17B
330
1F
100
AcDbEntity
  8
0
  6
Continuous
 62
     7
370
    25
100
AcDbCircle
 10
6274.0187553361
 20
4388.6500669977
 30
0.0
 40
14.99999999999967
100
AcDbArc
 50
135.7499672991
 51
164.2500327011
  0
ARC
  5
17C
330
1F
100
AcDbEntity
  8
0
  6
Continuous
 62
     7
370
    25
100
AcDbCircle
 10
6274.0187553361
 20
4388.6500669977
 30
0.0
 40
15.00000000000078
100
AcDbArc
 50
195.7499672971
 51
224.2500327032
  0
LWPOLYLINE
  5
17D
330
1F
100
AcDbEntity
  8
0
  6
Continuous
 62
     7
370
    25
100
AcDbPolyline
 90
        3
 70
   128
 43
0.0
 10
6270.3264475938
 20
4374.1115985176
 10
6271.1679797292
 20
4373.9234564563
 10
6273.4493962278
 20
4373.6608830949
  0
LINE
  5
17E
330
1F
100
AcDbEntity
  8
0
  6
Continuous
 62
     7
370
    25
100
AcDbLine
 10
6279.2687552653
 20
4486.0581366083
 30
0.0
 11
6268.7687554069
 21
4486.0581366083
 31
0.0
  0
LINE
  5
17F
330
1F
100
AcDbEntity
  8
0
  6
Continuous
 62
     7
370
    25
100
AcDbLine
 10
6279.2020893328
 20
4485.3581322094
 30
0.0
 11
6268.8111454852
 21
4485.3581322094
 31
0.0
  0
LINE
  5
180
330
1F
100
AcDbEntity
  8
0
  6
Continuous
 62
     7
370
    25
100
AcDbLine
 10
6268.8111454852
 20
4485.3581322094
 30
0.0
 11
6268.7687554069
 21
4485.3581322094
 31
0.0
  0
LINE
  5
181
330
1F
100
AcDbEntity
  8
0
  6
Continuous
 62
     7
370
    25
100
AcDbLine
 10
6279.2687552653
 20
4485.3581322094
 30
0.0
 11
6279.2020893328
 21
4485.3581322094
 31
0.0
  0
ARC
  5
182
330
1F
100
AcDbEntity
  8
0
  6
Continuous
 62
     7
370
    25
100
AcDbCircle
 10
6274.006617409
 20
4492.1078854483
 30
0.0
 40
8.51775189214157
100
AcDbArc
 50
232.4135252292
 51
307.5864747708
  0
ARC
  5
183
330
1F
100
AcDbEntity
  8
0
  6
Continuous
 62
     7
370
    25
100
AcDbCircle
 10
6274.0305478813
 20
4492.1088525506
 30
0.0
 40
8.518728930997364
100
AcDbArc
 50
269.9206674046
 51
307.584348056
  0
ARC
  5
184
330
1F
100
AcDbEntity
  8
0
  6
Continuous
 62
     7
370
    25
100
AcDbCircle
 10
6274.0187553361
 20
4388.6500669977
 30
0.0
 40
5.250000000000043
100
AcDbArc
 50
46.553845122
 51
210.1274237185
  0
LWPOLYLINE
  5
185
330
1F
100
AcDbEntity
  8
0
  6
Continuous
 62
     7
370
    25
100
AcDbPolyline
 90
        9
 70
   128
 43
0.0
 10
6277.629036377
 20
4392.4616781732
 10
6276.7098610427
 20
4391.734695222
 10
6275.7059996154
 20
4390.9407315513
 10
6274.6443860021
 20
4390.1010958215
 10
6273.5535037434
 20
4389.2383185884
 10
6272.4626214847
 20
4388.3755413553
 10
6271.4010078132
 20
4387.5359056255
 10
6270.3971463859
 20
4386.7419419547
 10
6269.4779710516
 20
4386.0149590036
  0
ARC
  5
186
330
1F
100
AcDbEntity
  8
0
  6
Continuous
 62
     7
370
    25
100
AcDbCircle
 10
6274.0187553361
 20
4388.6500669977
 30
0.0
 40
5.250000000000343
100
AcDbArc
 50
226.553845122
 51
30.1274237185
  0
LWPOLYLINE
  5
187
330
1F
100
AcDbEntity
  8
0
  6
Continuous
 62
     7
370
    25
100
AcDbPolyline
 90
        9
 70
   128
 43
0.0
 10
6270.4084742952
 20
4384.8384527227
 10
6271.3276496295
 20
4385.5654356738
 10
6272.3315110568
 20
4386.3593993446
 10
6273.3931246701
 20
4387.1990350744
 10
6274.4840069288
 20
4388.0618123075
 10
6275.5748891875
 20
4388.9246044418
 10
6276.636502859
 20
4389.7642401716
 10
6277.6403642863
 20
4390.5581889411
 10
6278.5595396206
 20
4391.2851718923
  0
ARC
  5
188
330
1F
100
AcDbEntity
  8
0
  6
Continuous
 62
     7
370
    25
100
AcDbCircle
 10
6274.0187553361
 20
4388.6500669977
 30
0.0
 40
5.249999999999682
100
AcDbArc
 50
30.1274237185
 51
46.553845122
  0
ARC
  5
189
330
1F
100
AcDbEntity
  8
0
  6
Continuous
 62
     7
370
    25
100
AcDbCircle
 10
6274.0187553361
 20
4388.6500669977
 30
0.0
 40
5.250000000000343
100
AcDbArc
 50
210.1274237185
 51
226.553845122
  0
LINE
  5
18A
330
1F
100
AcDbEntity
  8
0
  6
Continuous
 62
     7
370
    25
100
AcDbLine
 10
6297.060495396
 20
4602.7055779268
 30
0.0
 11
6234.0056432083
 21
4602.7017158666
 31
0.0
  0
LINE
  5
18B
330
1F
100
AcDbEntity
  8
0
  6
Continuous
 62
     7
370
    25
100
AcDbLine
 10
6314.0056451455
 20
4602.7066158021
 30
0.0
 11
6297.060495396
 21
4602.7055779268
 31
0.0
  0
LWPOLYLINE
  5
18C
330
1F
100
AcDbEntity
  8
0
  6
Continuous
 62
     7
370
    25
100
AcDbPolyline
 90
       18
 70
   128
 43
0.0
 10
6285.5324569762
 20
4612.7048723137
 10
6283.2511935055
 20
4612.704731684
 10
6280.8049322709
 20
4612.7045826724
 10
6278.2373262241
 20
4612.7044252789
 10
6275.5941950388
 20
4612.7042632287
 10
6272.9227050811
 20
4612.704099316
 10
6270.2705293566
 20
4612.7039372658
 10
6267.6849958159
 20
4612.703778941
 10
6265.2122435763
 20
4612.7036271354
 10
6262.8963991672
 20
4612.7034855744
 10
6260.7787876993
 20
4612.7033561205
 10
6258.8971994489
 20
4612.7032406365
 10
6257.2852113888
 20
4612.7031419164
 10
6255.9715883478
 20
4612.7030608913
 10
6254.9797726467
 20
4612.7030003553
 10
6254.3274631396
 20
4612.7029603084
 10
6254.026299496
 20
4612.702941682
 10
6254.0050318137
 20
4612.7029407507
  0
LWPOLYLINE
  5
18D
330
1F
100
AcDbEntity
  8
0
  6
Continuous
 62
     7
370
    25
100
AcDbPolyline
 90
        9
 70
   128
 43
0.0
 10
6294.0050327823
 20
4612.7053910604
 10
6294.0007393852
 20
4612.705390129
 10
6293.767092903
 20
4612.7053761592
 10
6293.1807918146
 20
4612.7053407689
 10
6292.252298598
 20
4612.7052830269
 10
6290.9981833443
 20
4612.7052066585
 10
6289.4408238724
 20
4612.7051116636
 10
6287.6080136418
 20
4612.7049989736
 10
6285.5324569762
 20
4612.7048723137
  0
CIRCLE
  5
18E
330
1F
100
AcDbEntity
  8
0
  6
Continuous
 62
     7
370
    25
100
AcDbCircle
 10
6274.0187553361
 20
4388.6500669977
 30
0.0
 40
35.00000000000091
  0
CIRCLE
  5
18F
330
1F
100
AcDbEntity
  8
0
  6
Continuous
 62
     7
370
    25
100
AcDbCircle
 10
6274.0187553361
 20
4388.6500669977
 30
0.0
 40
35.16921944985916
  0
CIRCLE
  5
190
330
1F
100
AcDbEntity
  8
0
  6
Continuous
 62
     7
370
    25
100
AcDbCircle
 10
6274.0187553361
 20
4388.6500669977
 30
0.0
 40
24.9651254443952
  0
CIRCLE
  5
191
330
1F
100
AcDbEntity
  8
0
  6
Continuous
 62
     7
370
    25
100
AcDbCircle
 10
6274.0187553361
 20
4388.6500669977
 30
0.0
 40
22.00000000000091
  0
CIRCLE
  5
192
330
1F
100
AcDbEntity
  8
0
  6
Continuous
 62
     7
370
    25
100
AcDbCircle
 10
6274.0187553361
 20
4388.6500669977
 30
0.0
 40
20.50000000000091
  0
CIRCLE
  5
193
330
1F
100
AcDbEntity
  8
0
  6
Continuous
 62
     7
370
    25
100
AcDbCircle
 10
6274.0187553361
 20
4388.6500669977
 30
0.0
 40
19.48700763430497
  0
CIRCLE
  5
194
330
1F
100
AcDbEntity
  8
0
  6
Continuous
 62
     7
370
    25
100
AcDbCircle
 10
6274.0187553361
 20
4388.6500669977
 30
0.0
 40
5.700000000000728
  0
CIRCLE
  5
195
330
1F
100
AcDbEntity
  8
0
  6
Continuous
 62
     7
370
    25
100
AcDbCircle
 10
6274.0187553361
 20
4401.6500669977
 30
0.0
 40
4.0
  0
CIRCLE
  5
196
330
1F
100
AcDbEntity
  8
0
  6
Continuous
 62
     7
370
    25
100
AcDbCircle
 10
6262.7604250869
 20
4395.1500669977
 30
0.0
 40
4.0
  0
CIRCLE
  5
197
330
1F
100
AcDbEntity
  8
0
  6
Continuous
 62
     7
370
    25
100
AcDbCircle
 10
6262.7604250869
 20
4382.1500669977
 30
0.0
 40
4.000000000000909
  0
CIRCLE
  5
198
330
1F
100
AcDbEntity
  8
0
  6
Continuous
 62
     7
370
    25
100
AcDbCircle
 10
6274.0187553361
 20
4375.6500669977
 30
0.0
 40
4.000000000000909
  0
CIRCLE
  5
199
330
1F
100
AcDbEntity
  8
0
  6
Continuous
 62
     7
370
    25
100
AcDbCircle
 10
6285.2770855853
 20
4382.1500669977
 30
0.0
 40
4.000000000000909
  0
CIRCLE
  5
19A
330
1F
100
AcDbEntity
  8
0
  6
Continuous
 62
     7
370
    25
100
AcDbCircle
 10
6285.2770855853
 20
4395.1500669977
 30
0.0
 40
4.0
  0
LINE
  5
19B
330
1F
100
AcDbEntity
  8
0
  6
Continuous
 62
     7
370
    25
100
AcDbLine
 10
6290.5187552467
 20
4486.1500693222
 30
0.0
 11
6257.5187554255
 21
4486.1500693222
 31
0.0
  0
LINE
  5
19C
330
1F
100
AcDbEntity
  8
0
  6
Continuous
 62
     7
370
    25
100
AcDbLine
 10
5994.018754144
 20
4422.6500598451
 30
0.0
 11
5999.0187493756
 21
4422.6500598451
 31
0.0
  0
SPLINE
  5
19D
330
1F
100
AcDbEntity
  8
0
  6
Continuous
 62
     7
370
    25
100
AcDbSpline
210
0.0
220
0.0
230
1.0
 70
     8
 71
     3
 72
   106
 73
   102
 74
     0
 42
0.000000001
 43
0.00000001
 40
0.0
 40
0.0
 40
0.0
 40
0.0
 40
0.031250000000001
 40
0.031250000000001
 40
0.0625000000000019
 40
0.0625000000000019
 40
0.0937500000000029
 40
0.0937500000000029
 40
0.101562500000003
 40
0.101562500000003
 40
0.1093750000000032
 40
0.1093750000000032
 40
0.1250000000000034
 40
0.1250000000000034
 40
0.1562500000000039
 40
0.1562500000000039
 40
0.1875000000000044
 40
0.1875000000000044
 40
0.1953125000000045
 40
0.1953125000000045
 40
0.2031250000000046
 40
0.2031250000000046
 40
0.2187500000000047
 40
0.2187500000000047
 40
0.2500000000000049
 40
0.2500000000000049
 40
0.2812500000000052
 40
0.2812500000000052
 40
0.2890625000000052
 40
0.2890625000000052
 40
0.2968750000000051
 40
0.2968750000000051
 40
0.312500000000005
 40
0.312500000000005
 40
0.3437500000000047
 40
0.3437500000000047
 40
0.3750000000000044
 40
0.3750000000000044
 40
0.3906250000000043
 40
0.3906250000000043
 40
0.3984375000000043
 40
0.3984375000000043
 40
0.4062500000000042
 40
0.4062500000000042
 40
0.4375000000000037
 40
0.4375000000000037
 40
0.4687500000000033
 40
0.4687500000000033
 40
0.5000000000000029
 40
0.5000000000000029
 40
0.5078125000000028
 40
0.5078125000000028
 40
0.5156250000000027
 40
0.5156250000000027
 40
0.5312500000000026
 40
0.5312500000000026
 40
0.5625000000000021
 40
0.5625000000000021
 40
0.5937500000000018
 40
0.5937500000000018
 40
0.6250000000000014
 40
0.6250000000000014
 40
0.6328125000000014
 40
0.6328125000000014
 40
0.6406250000000014
 40
0.6406250000000014
 40
0.6562500000000013
 40
0.6562500000000013
 40
0.6875000000000011
 40
0.6875000000000011
 40
0.7187500000000009
 40
0.7187500000000009
 40
0.7500000000000006
 40
0.7500000000000006
 40
0.7578125000000006
 40
0.7578125000000006
 40
0.7656250000000004
 40
0.7656250000000004
 40
0.7812500000000004
 40
0.7812500000000004
 40
0.8125000000000003
 40
0.8125000000000003
 40
0.8437500000000002
 40
0.8437500000000002
 40
0.8593750000000001
 40
0.8593750000000001
 40
0.8671875
 40
0.8671875
 40
0.8749999999999999
 40
0.8749999999999999
 40
0.90625
 40
0.90625
 40
0.9375000000000001
 40
0.9375000000000001
 40
0.9687500000000001
 40
0.9687500000000001
 40
0.9765625000000001
 40
0.9765625000000001
 40
0.9843750000000002
 40
0.9843750000000002
 40
1.0
 40
1.0
 40
1.0
 40
1.0
 10
5999.0187553361
 20
4422.650066997663
 30
0.0
 10
5999.0187553361
 20
4413.963410183592
 30
0.0
 10
5999.515413140315
 20
4405.362804042164
 30
0.0
 10
6001.460509928404
 20
4388.326496871089
 30
0.0
 10
6002.909085834228
 20
4379.890819564467
 30
0.0
 10
6006.748439731736
 20
4363.182710394198
 30
0.0
 10
6009.139190438058
 20
4354.910273803103
 30
0.0
 10
6012.729109997577
 20
4344.673940379819
 30
0.0
 10
6013.47571299286
 20
4342.636475251205
 30
0.0
 10
6015.020167576833
 20
4338.595134844169
 30
0.0
 10
6015.818787463167
 20
4336.589051247523
 30
0.0
 10
6018.292606061099
 20
4330.61388664985
 30
0.0
 10
6020.045708220599
 20
4326.687861172411
 30
0.0
 10
6025.609052082217
 20
4315.07781951999
 30
0.0
 10
6029.722561299747
 20
4307.561412635941
 30
0.0
 10
6038.738153027374
 20
4292.964425996363
 30
0.0
 10
6043.640278058553
 20
4285.883869741303
 30
0.0
 10
6050.263144990566
 20
4277.306866461763
 30
0.0
 10
6051.611790439893
 20
4275.60629660599
 30
0.0
 10
6054.343751060746
 20
4272.250715262053
 30
0.0
 10
6055.728804629242
 20
4270.593426166932
 30
0.0
 10
6059.940237839167
 20
4265.682045405152
 30
0.0
 10
6062.822850733052
 20
4262.488398070683
 30
0.0
 10
6071.689588930662
 20
4253.142748078307
 30
0.0
 10
6077.89208001441
 20
4247.225463726194
 30
0.0
 10
6090.861408408387
 20
4235.997502843695
 30
0.0
 10
6097.628293585509
 20
4230.686877764756
 30
0.0
 10
6106.438634542859
 20
4224.426670868141
 30
0.0
 10
6108.21959235851
 20
4223.192724946068
 30
0.0
 10
6111.811310684799
 20
4220.766624524304
 30
0.0
 10
6113.618212023052
 20
4219.577029214235
 30
0.0
 10
6119.071500279246
 20
4216.0774561106
 30
0.0
 10
6122.750449708895
 20
4213.836644987081
 30
0.0
 10
6133.914064376053
 20
4207.383478567808
 30
0.0
 10
6141.525200875041
 20
4203.439763360107
 30
0.0
 10
6157.074017261732
 20
4196.245950163898
 30
0.0
 10
6165.011725983802
 20
4192.995913423042
 30
0.0
 10
6177.161939158542
 20
4188.638400252151
 30
0.0
 10
6181.252687183302
 20
4187.272298604561
 30
0.0
 10
6187.450284787478
 20
4185.353727591357
 30
0.0
 10
6189.528740286988
 20
4184.735335853532
 30
0.0
 10
6193.690072742668
 20
4183.546894964238
 30
0.0
 10
6195.773763739017
 20
4182.976530329911
 30
0.0
 10
6206.207150452903
 20
4180.242471069234
 30
0.0
 10
6214.601535911439
 20
4178.431236467781
 30
0.0
 10
6231.482498650371
 20
4175.535867738094
 30
0.0
 10
6239.969084340002
 20
4174.451799931994
 30
0.0
 10
6257.033823077576
 20
4173.005839760244
 30
0.0
 10
6265.611973629933
 20
4172.643927712365
 30
0.0
 10
6276.393007554991
 20
4172.65170006594
 30
0.0
 10
6278.552137751718
 20
4172.676310963994
 30
0.0
 10
6282.87629811607
 20
4172.772064779362
 30
0.0
 10
6285.043411596876
 20
4172.843336457618
 30
0.0
 10
6291.525342918793
 20
4173.126240400265
 30
0.0
 10
6295.827760684183
 20
4173.406895884766
 30
0.0
 10
6308.67930301233
 20
4174.520638322233
 30
0.0
 10
6317.172837022278
 20
4175.624913835092
 30
0.0
 10
6334.013345101763
 20
4178.548431292535
 30
0.0
 10
6342.360319976592
 20
4180.367669308635
 30
0.0
 10
6358.905586412807
 20
4184.731470267763
 30
0.0
 10
6367.10389691879
 20
4187.275940792955
 30
0.0
 10
6377.254942780681
 20
4190.928956629534
 30
0.0
 10
6379.280298694991
 20
4191.683235547487
 30
0.0
 10
6383.32115876051
 20
4193.239853445997
 30
0.0
 10
6385.335203128152
 20
4194.041708353275
 30
0.0
 10
6391.33119218833
 20
4196.507085233028
 30
0.0
 10
6395.277080312658
 20
4198.234207947899
 30
0.0
 10
6406.961795240731
 20
4203.663974772109
 30
0.0
 10
6414.548018244745
 20
4207.614456213422
 30
0.0
 10
6429.312152262419
 20
4216.178541210186
 30
0.0
 10
6436.490094862787
 20
4220.792093467009
 30
0.0
 10
6450.425092732557
 20
4230.702743169916
 30
0.0
 10
6457.182242563732
 20
4235.999687042251
 30
0.0
 10
6465.349499086294
 20
4243.074272475503
 30
0.0
 10
6466.970062145682
 20
4244.512930918258
 30
0.0
 10
6470.177869392463
 20
4247.432281949108
 30
0.0
 10
6471.760148692404
 20
4248.908405443116
 30
0.0
 10
6476.442478059887
 20
4253.385842660607
 30
0.0
 10
6479.478058873967
 20
4256.436193243102
 30
0.0
 10
6488.328360182782
 20
4265.782300261579
 30
0.0
 10
6493.887268552311
 20
4272.272633529826
 30
0.0
 10
6504.315296167148
 20
4285.777970203104
 30
0.0
 10
6509.18450384375
 20
4292.792906345175
 30
0.0
 10
6515.949728401134
 20
4303.724972703923
 30
0.0
 10
6518.11486575339
 20
4307.437403441268
 30
0.0
 10
6521.223250538704
 20
4313.112020623215
 30
0.0
 10
6522.236145467556
 20
4315.021231513605
 30
0.0
 10
6524.214563510622
 20
4318.875685431734
 30
0.0
 10
6525.181376308453
 20
4320.823770943958
 30
0.0
 10
6529.86579935497
 20
4330.594969712383
 30
0.0
 10
6533.154148642046
 20
4338.543171353476
 30
0.0
 10
6538.827872120208
 20
4354.697657438998
 30
0.0
 10
6541.213239866271
 20
4362.903943725504
 30
0.0
 10
6545.06797895782
 20
4379.57832077126
 30
0.0
 10
6546.537500113453
 20
4388.046368712694
 30
0.0
 10
6547.77489060538
 20
4398.802777182728
 30
0.0
 10
6547.99249777392
 20
4400.965005772299
 30
0.0
 10
6548.365531569977
 20
4405.29412809216
 30
0.0
 10
6548.520966196469
 20
4407.460150889114
 30
0.0
 10
6548.89412092156
 20
4413.962599598603
 30
0.0
 10
6549.0187553361
 20
4418.303402845083
 30
0.0
 10
6549.0187553361
 20
4422.650066997663
 30
0.0
  0
LINE
  5
19E
330
1F
100
AcDbEntity
  8
0
  6
Continuous
 62
     7
370
    25
100
AcDbLine
 10
6554.0187565282
 20
4422.6500598451
 30
0.0
 11
6549.0187612966
 21
4422.6500598451
 31
0.0
  0
SPLINE
  5
19F
330
1F
100
AcDbEntity
  8
0
  6
Continuous
 62
     7
370
    25
100
AcDbSpline
210
0.0
220
0.0
230
1.0
 70
     8
 71
     3
 72
   110
 73
   106
 74
     0
 42
0.000000001
 43
0.00000001
 40
0.0
 40
0.0
 40
0.0
 40
0.0
 40
0.0156249999999998
 40
0.0156249999999998
 40
0.0234374999999998
 40
0.0234374999999998
 40
0.0312499999999998
 40
0.0312499999999998
 40
0.0624999999999994
 40
0.0624999999999994
 40
0.093749999999999
 40
0.093749999999999
 40
0.1249999999999988
 40
0.1249999999999988
 40
0.1328124999999986
 40
0.1328124999999986
 40
0.1406249999999985
 40
0.1406249999999985
 40
0.1562499999999983
 40
0.1562499999999983
 40
0.187499999999998
 40
0.187499999999998
 40
0.2187499999999976
 40
0.2187499999999976
 40
0.2343749999999975
 40
0.2343749999999975
 40
0.2421874999999974
 40
0.2421874999999974
 40
0.2499999999999974
 40
0.2499999999999974
 40
0.2812499999999972
 40
0.2812499999999972
 40
0.3124999999999969
 40
0.3124999999999969
 40
0.3437499999999967
 40
0.3437499999999967
 40
0.3593749999999966
 40
0.3593749999999966
 40
0.3671874999999965
 40
0.3671874999999965
 40
0.3749999999999965
 40
0.3749999999999965
 40
0.4062499999999966
 40
0.4062499999999966
 40
0.4374999999999966
 40
0.4374999999999966
 40
0.4687499999999967
 40
0.4687499999999967
 40
0.4843749999999967
 40
0.4843749999999967
 40
0.4921874999999967
 40
0.4921874999999967
 40
0.4999999999999967
 40
0.4999999999999967
 40
0.5312499999999967
 40
0.5312499999999967
 40
0.5624999999999967
 40
0.5624999999999967
 40
0.5937499999999967
 40
0.5937499999999967
 40
0.6015624999999967
 40
0.6015624999999967
 40
0.6093749999999967
 40
0.6093749999999967
 40
0.6249999999999968
 40
0.6249999999999968
 40
0.6562499999999969
 40
0.6562499999999969
 40
0.6874999999999971
 40
0.6874999999999971
 40
0.7031249999999971
 40
0.7031249999999971
 40
0.7109374999999973
 40
0.7109374999999973
 40
0.7187499999999974
 40
0.7187499999999974
 40
0.7499999999999977
 40
0.7499999999999977
 40
0.7812499999999979
 40
0.7812499999999979
 40
0.796874999999998
 40
0.796874999999998
 40
0.8046874999999981
 40
0.8046874999999981
 40
0.8124999999999981
 40
0.8124999999999981
 40
0.8437499999999987
 40
0.8437499999999987
 40
0.8749999999999992
 40
0.8749999999999992
 40
0.8906249999999994
 40
0.8906249999999994
 40
0.8984374999999996
 40
0.8984374999999996
 40
0.9062499999999996
 40
0.9062499999999996
 40
0.9374999999999998
 40
0.9374999999999998
 40
0.9453124999999998
 40
0.9453124999999998
 40
0.9531249999999998
 40
0.9531249999999998
 40
0.9687499999999999
 40
0.9687499999999999
 40
1.0
 40
1.0
 40
1.0
 40
1.0
 10
6554.0187553361
 20
4422.650066997663
 30
0.0
 10
6554.0187553361
 20
4418.223817665978
 30
0.0
 10
6553.892297485932
 20
4413.803514937858
 30
0.0
 10
6553.513679957306
 20
4407.181945199558
 30
0.0
 10
6553.355969599446
 20
4404.976236767466
 30
0.0
 10
6552.977473740058
 20
4400.567785973587
 30
0.0
 10
6552.756660899201
 20
4398.365728287637
 30
0.0
 10
6551.501010877427
 20
4387.411110894393
 30
0.0
 10
6550.009712743735
 20
4378.786527801306
 30
0.0
 10
6546.097540052662
 20
4361.803014765158
 30
0.0
 10
6543.676514405979
 20
4353.444128000206
 30
0.0
 10
6537.917684270209
 20
4336.988350344072
 30
0.0
 10
6534.579886354988
 20
4328.891457574223
 30
0.0
 10
6529.824871311679
 20
4318.936884198212
 30
0.0
 10
6528.843215054858
 20
4316.951649622378
 30
0.0
 10
6526.833809939011
 20
4313.022569184418
 30
0.0
 10
6525.805018858729
 20
4311.076348968229
 30
0.0
 10
6522.647757184025
 20
4305.291600979257
 30
0.0
 10
6520.448451409628
 20
4301.506945364986
 30
0.0
 10
6513.576096584498
 20
4290.361696007064
 30
0.0
 10
6508.629312210232
 20
4283.209285721758
 30
0.0
 10
6498.034224223928
 20
4269.437990379563
 30
0.0
 10
6492.385831072985
 20
4262.819173419545
 30
0.0
 10
6483.392439660579
 20
4253.287032396765
 30
0.0
 10
6480.307682651523
 20
4250.175787498539
 30
0.0
 10
6475.549357305575
 20
4245.608693730466
 30
0.0
 10
6473.941373918491
 20
4244.102965650697
 30
0.0
 10
6470.681410443603
 20
4241.124970226853
 30
0.0
 10
6469.032604896935
 20
4239.655693239183
 30
0.0
 10
6460.72642242901
 20
4232.433592571463
 30
0.0
 10
6453.853791718085
 20
4227.025642928219
 30
0.0
 10
6439.679688859099
 20
4216.906127286055
 30
0.0
 10
6432.378120259519
 20
4212.194717912065
 30
0.0
 10
6417.358870930354
 20
4203.447612041731
 30
0.0
 10
6409.641157901096
 20
4199.411967995925
 30
0.0
 10
6397.753360831829
 20
4193.863895621876
 30
0.0
 10
6393.738802537838
 20
4192.098913374121
 30
0.0
 10
6387.638335955518
 20
4189.579123671206
 30
0.0
 10
6385.589574022159
 20
4188.759653567295
 30
0.0
 10
6381.475922285372
 20
4187.167542423484
 30
0.0
 10
6379.414068321372
 20
4186.396013111447
 30
0.0
 10
6369.080030424304
 20
4182.65918133731
 30
0.0
 10
6360.73372456615
 20
4180.055433972673
 30
0.0
 10
6343.889433972507
 20
4175.587804960811
 30
0.0
 10
6335.391429737102
 20
4173.724018431104
 30
0.0
 10
6318.245907112563
 20
4170.725751907679
 30
0.0
 10
6309.598387766461
 20
4169.591276581901
 30
0.0
 10
6296.513648748281
 20
4168.44300363084
 30
0.0
 10
6292.133128357806
 20
4168.152635823894
 30
0.0
 10
6285.53348164521
 20
4167.857888542211
 30
0.0
 10
6283.326639348244
 20
4167.783105760446
 30
0.0
 10
6278.922494235801
 20
4167.68128430191
 30
0.0
 10
6276.723432908321
 20
4167.654120535397
 30
0.0
 10
6265.743045428449
 20
4167.63595622473
 30
0.0
 10
6257.006376558177
 20
4167.997129130708
 30
0.0
 10
6239.626461410458
 20
4169.456218319542
 30
0.0
 10
6230.983217822269
 20
4170.55415581027
 30
0.0
 10
6213.790783089245
 20
4173.491741256267
 30
0.0
 10
6205.241583508862
 20
4175.331322687643
 30
0.0
 10
6194.615851952385
 20
4178.110023618462
 30
0.0
 10
6192.493750751731
 20
4178.689777964682
 30
0.0
 10
6188.255716434063
 20
4179.897929010465
 30
0.0
 10
6186.138708832813
 20
4180.526718132664
 30
0.0
 10
6179.826001557019
 20
4182.477811518937
 30
0.0
 10
6175.659330847363
 20
4183.867323017853
 30
0.0
 10
6163.283755679835
 20
4188.300154653309
 30
0.0
 10
6155.19900858136
 20
4191.607178069477
 30
0.0
 10
6139.362411529612
 20
4198.928279798884
 30
0.0
 10
6131.61053296199
 20
4202.942297336839
 30
0.0
 10
6120.240567177705
 20
4209.510986996924
 30
0.0
 10
6116.493628950238
 20
4211.791986786643
 30
0.0
 10
6110.939566302583
 20
4215.35439888558
 30
0.0
 10
6109.099275049634
 20
4216.565366699075
 30
0.0
 10
6105.441183739745
 20
4219.035072367073
 30
0.0
 10
6103.627100915286
 20
4220.291352448563
 30
0.0
 10
6094.653304239644
 20
4226.664614181472
 30
0.0
 10
6087.760858564574
 20
4232.071250793717
 30
0.0
 10
6074.550516313865
 20
4243.502046390941
 30
0.0
 10
6068.232572880045
 20
4249.526155012993
 30
0.0
 10
6059.200196531907
 20
4259.040105930462
 30
0.0
 10
6056.263629470195
 20
4262.29119960387
 30
0.0
 10
6051.973163696826
 20
4267.290780320533
 30
0.0
 10
6050.562082498443
 20
4268.977807925565
 30
0.0
 10
6047.778702862782
 20
4272.393546644805
 30
0.0
 10
6046.404679740001
 20
4274.124512291803
 30
0.0
 10
6039.655723098764
 20
4282.856304295525
 30
0.0
 10
6034.659431664276
 20
4290.064376318522
 30
0.0
 10
6025.468293924547
 20
4304.923419462291
 30
0.0
 10
6021.273407420755
 20
4312.574368368317
 30
0.0
 10
6015.597351517753
 20
4324.391360436777
 30
0.0
 10
6013.808239818943
 20
4328.387226800221
 30
0.0
 10
6011.282736505544
 20
4334.468431951018
 30
0.0
 10
6010.46727676182
 20
4336.510075665833
 30
0.0
 10
6008.889918528518
 20
4340.62296241583
 30
0.0
 10
6008.127598137648
 20
4342.695408959163
 30
0.0
 10
6004.456851138081
 20
4353.119811775327
 30
0.0
 10
6001.993590152864
 20
4361.588647659579
 30
0.0
 10
5999.512201763539
 20
4372.337978394147
 30
0.0
 10
5999.045883228559
 20
4374.496029256629
 30
0.0
 10
5998.173619570684
 20
4378.828624751387
 30
0.0
 10
5997.767916979528
 20
4381.002256480881
 30
0.0
 10
5996.645333177667
 20
4387.527192598636
 30
0.0
 10
5996.021544337837
 20
4391.889134027781
 30
0.0
 10
5994.52256925884
 20
4405.01077478812
 30
0.0
 10
5994.0187553361
 20
4413.806192573239
 30
0.0
 10
5994.0187553361
 20
4422.650066997663
 30
0.0
  0
SPLINE
  5
1A0
330
1F
100
AcDbEntity
  8
0
  6
Continuous
 62
     7
370
    25
100
AcDbSpline
210
0.0
220
0.0
230
1.0
 70
     8
 71
     3
 72
    10
 73
     6
 74
     0
 42
0.000000001
 43
0.00000001
 40
0.0
 40
0.0
 40
0.0
 40
0.0
 40
0.5
 40
0.5
 40
1.0
 40
1.0
 40
1.0
 40
1.0
 10
6538.957646023973
 20
4417.503155273316
 30
0.0
 10
6538.626412465328
 20
4417.384948598477
 30
0.0
 10
6538.290207219548
 20
4417.297719762008
 30
0.0
 10
6537.608964416915
 20
4417.181269884414
 30
0.0
 10
6537.261604238079
 20
4417.152221065038
 30
0.0
 10
6536.917230272517
 20
4417.152665437842
 30
0.0
  0
SPLINE
  5
1A1
330
1F
100
AcDbEntity
  8
0
  6
Continuous
 62
     7
370
    25
100
AcDbSpline
210
0.0
220
0.0
230
1.0
 70
     8
 71
     3
 72
    55
 73
    51
 74
     0
 42
0.000000001
 43
0.00000001
 40
0.0
 40
0.0
 40
0.0
 40
0.0
 40
0.0177175828756097
 40
0.0354882790483572
 40
0.0532781392233062
 40
0.0710510713781128
 40
0.0887705585023824
 40
0.1077600616581918
 40
0.1268080085298927
 40
0.1458788945574308
 40
0.164932889313374
 40
0.1839274759541744
 40
0.203805166973879
 40
0.2237391174384913
 40
0.2436957616146505
 40
0.2636366620694883
 40
0.2835201693494825
 40
0.3051884176726126
 40
0.3269182854316809
 40
0.3486723262271473
 40
0.3704084910685316
 40
0.3920820529310546
 40
0.4156909526701896
 40
0.4393719907691905
 40
0.4630788313484099
 40
0.4867624826233255
 40
0.510373591127639
 40
0.5352978797298498
 40
0.560308889693386
 40
0.5853467543902183
 40
0.6103528690588227
 40
0.6352730505713267
 40
0.6559448406839102
 40
0.6766942877360622
 40
0.6974789372390621
 40
0.7182582480105887
 40
0.7389954096444173
 40
0.759658986894324
 40
0.778928914176251
 40
0.7982765674555976
 40
0.8176592792876964
 40
0.8370364075356832
 40
0.856371191605421
 40
0.8756325086747051
 40
0.8964454464422951
 40
0.917343215547941
 40
0.9382667171537503
 40
0.9591585105866106
 40
0.9799663892310758
 40
1.0
 40
1.0
 40
1.0
 40
1.0
 10
6538.957646270091
 20
4417.503154065267
 30
0.0
 10
6538.760143714369
 20
4412.880073251424
 30
0.0
 10
6538.364546535036
 20
4403.620052675442
 30
0.0
 10
6536.640707125692
 20
4389.803006836361
 30
0.0
 10
6534.115522569871
 20
4376.102611499486
 30
0.0
 10
6530.726025894553
 20
4362.60078448981
 30
0.0
 10
6526.406656357941
 20
4349.038752343781
 30
0.0
 10
6521.079674560524
 20
4335.47943565737
 30
0.0
 10
6514.72482977608
 20
4321.980315426701
 30
0.0
 10
6507.510574031315
 20
4308.901336018545
 30
0.0
 10
6499.493928300201
 20
4296.315018535454
 30
0.0
 10
6490.578287262269
 20
4284.086776833632
 30
0.0
 10
6480.745131638942
 20
4272.281714877908
 30
0.0
 10
6470.01315185231
 20
4260.940117377413
 30
0.0
 10
6458.590790366534
 20
4250.270460182511
 30
0.0
 10
6446.55437689351
 20
4240.31974143816
 30
0.0
 10
6433.58141942682
 20
4230.845784555682
 30
0.0
 10
6419.644029296875
 20
4221.952305907812
 30
0.0
 10
6404.746689415754
 20
4213.719621058916
 30
0.0
 10
6389.354727576771
 20
4206.412845401942
 30
0.0
 10
6373.561647548959
 20
4200.059007608262
 30
0.0
 10
6356.954364607684
 20
4194.516408845642
 30
0.0
 10
6339.535658266857
 20
4189.908090828649
 30
0.0
 10
6321.336295193385
 20
4186.327323244965
 30
0.0
 10
6302.927424595106
 20
4183.904121287023
 30
0.0
 10
6284.420723343928
 20
4182.646989013191
 30
0.0
 10
6265.553220963916
 20
4182.562194104345
 30
0.0
 10
6246.373690138692
 20
4183.75041084687
 30
0.0
 10
6226.947888327199
 20
4186.269388225908
 30
0.0
 10
6207.712459580933
 20
4190.084197443734
 30
0.0
 10
6188.800530497096
 20
4195.180127173899
 30
0.0
 10
6171.359952628839
 20
4201.19085643517
 30
0.0
 10
6155.378383653172
 20
4207.893385436823
 30
0.0
 10
6140.788546388701
 20
4215.049012807381
 30
0.0
 10
6126.621184161866
 20
4223.065670956874
 30
0.0
 10
6112.959575886409
 20
4231.911557823786
 30
0.0
 10
6099.887550980407
 20
4241.554944847307
 30
0.0
 10
6087.746498336601
 20
4251.745461062315
 30
0.0
 10
6076.538854289827
 20
4262.433110271499
 30
0.0
 10
6066.230201293081
 20
4273.537877413392
 30
0.0
 10
6056.599185446064
 20
4285.27161408439
 30
0.0
 10
6047.712345657263
 20
4297.57486285307
 30
0.0
 10
6039.636121491663
 20
4310.38792071748
 30
0.0
 10
6032.230729271555
 20
4324.029319193396
 30
0.0
 10
6025.638615766287
 20
4338.534775645998
 30
0.0
 10
6019.963604857956
 20
4353.885516814831
 30
0.0
 10
6015.397040977073
 20
4369.625053573262
 30
0.0
 10
6012.014637920745
 20
4385.632670656111
 30
0.0
 10
6009.786509842001
 20
4401.618595985001
 30
0.0
 10
6009.312416950722
 20
4412.275646383746
 30
0.0
 10
6009.07986440211
 20
4417.503154065267
 30
0.0
  0
SPLINE
  5
1A2
330
1F
100
AcDbEntity
  8
0
  6
Continuous
 62
     7
370
    25
100
AcDbSpline
210
0.0
220
0.0
230
1.0
 70
     8
 71
     3
 72
    10
 73
     6
 74
     0
 42
0.000000001
 43
0.00000001
 40
0.0
 40
0.0
 40
0.0
 40
0.0
 40
0.5
 40
0.5
 40
1.0
 40
1.0
 40
1.0
 40
1.0
 10
6011.120280399683
 20
4417.152665437841
 30
0.0
 10
6010.775943748456
 20
4417.152221113188
 30
0.0
 10
6010.433319058827
 20
4417.18073476284
 30
0.0
 10
6009.752025659684
 20
4417.296635716773
 30
0.0
 10
6009.411125946057
 20
4417.384938707735
 30
0.0
 10
6009.079864775911
 20
4417.50315522775
 30
0.0
  0
SPLINE
  5
1A3
330
1F
100
AcDbEntity
  8
0
  6
Continuous
 62
     7
370
    25
100
AcDbSpline
210
0.0
220
0.0
230
1.0
 70
     8
 71
     3
 72
     8
 73
     4
 74
     0
 42
0.000000001
 43
0.00000001
 40
0.0
 40
0.0
 40
0.0
 40
0.0
 40
1.0
 40
1.0
 40
1.0
 40
1.0
 10
6013.55577600034
 20
4417.155842293634
 30
0.0
 10
6012.783577510756
 20
4417.154824096113
 30
0.0
 10
6011.965294590229
 20
4417.15375582609
 30
0.0
 10
6011.120280399683
 20
4417.152665437841
 30
0.0
  0
SPLINE
  5
1A4
330
1F
100
AcDbEntity
  8
0
  6
Continuous
 62
     7
370
    25
100
AcDbSpline
210
0.0
220
0.0
230
1.0
 70
     8
 71
     3
 72
    12
 73
     8
 74
     0
 42
0.000000001
 43
0.00000001
 40
0.0
 40
0.0
 40
0.0
 40
0.0
 40
0.0995846576889704
 40
0.1998950022344967
 40
0.3471623273670544
 40
0.5848591816418186
 40
1.0
 40
1.0
 40
1.0
 40
1.0
 10
6015.204539676005
 20
4418.156614687101
 30
0.0
 10
6015.198374479412
 20
4418.076276536812
 30
0.0
 10
6015.185999159606
 20
4417.915014801276
 30
0.0
 10
6015.06223806679
 20
4417.676365433778
 30
0.0
 10
6014.817059444626
 20
4417.430619851534
 30
0.0
 10
6014.314042419059
 20
4417.196333911697
 30
0.0
 10
6013.85053262539
 20
4417.171579305281
 30
0.0
 10
6013.555785794551
 20
4417.155837800161
 30
0.0
  0
SPLINE
  5
1A5
330
1F
100
AcDbEntity
  8
0
  6
Continuous
 62
     7
370
    25
100
AcDbSpline
210
0.0
220
0.0
230
1.0
 70
     8
 71
     3
 72
     9
 73
     5
 74
     0
 42
0.000000001
 43
0.00000001
 40
0.0
 40
0.0
 40
0.0
 40
0.0
 40
0.2225292998992809
 40
1.0
 40
1.0
 40
1.0
 40
1.0
 10
6015.156587739283
 20
4422.650059845106
 30
0.0
 10
6015.156987170104
 20
4422.316727754076
 30
0.0
 10
6015.158782128436
 20
4420.818803250735
 30
0.0
 10
6015.184525195574
 20
4419.321063477313
 30
0.0
 10
6015.204539676005
 20
4418.156614687101
 30
0.0
  0
LINE
  5
1A6
330
1F
100
AcDbEntity
  8
0
  6
Continuous
 62
     7
370
    25
100
AcDbLine
 10
6019.0187601045
 20
4422.6500598451
 30
0.0
 11
6015.1565877393
 21
4422.6500598451
 31
0.0
  0
LINE
  5
1A7
330
1F
100
AcDbEntity
  8
0
  6
Continuous
 62
     7
370
    25
100
AcDbLine
 10
6529.0187505677
 20
4422.6500598451
 30
0.0
 11
6532.8809229329
 21
4422.6500598451
 31
0.0
  0
SPLINE
  5
1A8
330
1F
100
AcDbEntity
  8
0
  6
Continuous
 62
     7
370
    25
100
AcDbSpline
210
0.0
220
0.0
230
1.0
 70
     8
 71
     3
 72
     9
 73
     5
 74
     0
 42
0.000000001
 43
0.00000001
 40
0.0
 40
0.0
 40
0.0
 40
0.0
 40
0.2225321703668541
 40
1.0
 40
1.0
 40
1.0
 40
1.0
 10
6532.832970996195
 20
4418.156614687101
 30
0.0
 10
6532.839684245153
 20
4418.489883705912
 30
0.0
 10
6532.86985178878
 20
4419.987505457686
 30
0.0
 10
6532.876080393288
 20
4421.485453461601
 30
0.0
 10
6532.880922932917
 20
4422.650059845106
 30
0.0
  0
SPLINE
  5
1A9
330
1F
100
AcDbEntity
  8
0
  6
Continuous
 62
     7
370
    25
100
AcDbSpline
210
0.0
220
0.0
230
1.0
 70
     8
 71
     3
 72
    14
 73
    10
 74
     0
 42
0.000000001
 43
0.00000001
 40
0.0
 40
0.0
 40
0.0
 40
0.0
 40
0.4421157403203434
 40
0.6065784957388721
 40
0.7702724949175707
 40
0.8771750853166278
 40
0.8964223188860225
 40
0.98365329241374
 40
0.9999999999999999
 40
0.9999999999999999
 40
0.9999999999999999
 40
0.9999999999999999
 10
6534.48172487765
 20
4417.155837800161
 30
0.0
 10
6534.166668014821
 20
4417.173005672877
 30
0.0
 10
6533.734413063236
 20
4417.196559827269
 30
0.0
 10
6533.254299351492
 20
4417.419690081988
 30
0.0
 10
6533.018148535424
 20
4417.618016792733
 30
0.0
 10
6532.905905130498
 20
4417.806946336322
 30
0.0
 10
6532.850841399858
 20
4417.962301963205
 30
0.0
 10
6532.832515933876
 20
4418.060552408037
 30
0.0
 10
6532.832908967355
 20
4418.143520586702
 30
0.0
 10
6532.832970996195
 20
4418.156614687101
 30
0.0
  0
SPLINE
  5
1AA
330
1F
100
AcDbEntity
  8
0
  6
Continuous
 62
     7
370
    25
100
AcDbSpline
210
0.0
220
0.0
230
1.0
 70
     8
 71
     3
 72
     8
 73
     4
 74
     0
 42
0.000000001
 43
0.00000001
 40
0.0
 40
0.0
 40
0.0
 40
0.0
 40
1.0
 40
1.0
 40
1.0
 40
1.0
 10
6536.917230272517
 20
4417.152665437842
 30
0.0
 10
6536.072215997934
 20
4417.153755826198
 30
0.0
 10
6535.253933261954
 20
4417.154824095981
 30
0.0
 10
6534.48173467186
 20
4417.155842293634
 30
0.0
  0
SPLINE
  5
1AB
330
1F
100
AcDbEntity
  8
0
  6
Continuous
 62
     7
370
    25
100
AcDbSpline
210
0.0
220
0.0
230
1.0
 70
     8
 71
     3
 72
   104
 73
   100
 74
     0
 42
0.000000001
 43
0.00000001
 40
0.0
 40
0.0
 40
0.0
 40
0.0
 40
0.0156249999999996
 40
0.0156249999999996
 40
0.0234374999999995
 40
0.0234374999999995
 40
0.0312499999999994
 40
0.0312499999999994
 40
0.0624999999999989
 40
0.0624999999999989
 40
0.0937499999999984
 40
0.0937499999999984
 40
0.1249999999999979
 40
0.1249999999999979
 40
0.1328124999999978
 40
0.1328124999999978
 40
0.1406249999999977
 40
0.1406249999999977
 40
0.1562499999999975
 40
0.1562499999999975
 40
0.1874999999999974
 40
0.1874999999999974
 40
0.2187499999999973
 40
0.2187499999999973
 40
0.2343749999999973
 40
0.2343749999999973
 40
0.2421874999999973
 40
0.2421874999999973
 40
0.2499999999999972
 40
0.2499999999999972
 40
0.2812499999999969
 40
0.2812499999999969
 40
0.3124999999999965
 40
0.3124999999999965
 40
0.3437499999999962
 40
0.3437499999999962
 40
0.3593749999999961
 40
0.3593749999999961
 40
0.3671874999999961
 40
0.3671874999999961
 40
0.374999999999996
 40
0.374999999999996
 40
0.406249999999996
 40
0.406249999999996
 40
0.437499999999996
 40
0.437499999999996
 40
0.4687499999999959
 40
0.4687499999999959
 40
0.484374999999996
 40
0.484374999999996
 40
0.4921874999999959
 40
0.4921874999999959
 40
0.499999999999996
 40
0.499999999999996
 40
0.531249999999996
 40
0.531249999999996
 40
0.5624999999999961
 40
0.5624999999999961
 40
0.5937499999999961
 40
0.5937499999999961
 40
0.6015624999999961
 40
0.6015624999999961
 40
0.6093749999999962
 40
0.6093749999999962
 40
0.6249999999999962
 40
0.6249999999999962
 40
0.6562499999999963
 40
0.6562499999999963
 40
0.6874999999999963
 40
0.6874999999999963
 40
0.7031249999999963
 40
0.7031249999999963
 40
0.7109374999999963
 40
0.7109374999999963
 40
0.7187499999999963
 40
0.7187499999999963
 40
0.7499999999999963
 40
0.7499999999999963
 40
0.7812499999999964
 40
0.7812499999999964
 40
0.8124999999999964
 40
0.8124999999999964
 40
0.8203124999999966
 40
0.8203124999999966
 40
0.8281249999999968
 40
0.8281249999999968
 40
0.8437499999999969
 40
0.8437499999999969
 40
0.8749999999999976
 40
0.8749999999999976
 40
0.9062499999999981
 40
0.9062499999999981
 40
0.9218749999999984
 40
0.9218749999999984
 40
0.9374999999999987
 40
0.9374999999999987
 40
0.9687499999999993
 40
0.9687499999999993
 40
1.0
 40
1.0
 40
1.0
 40
1.0
 10
6019.0187553361
 20
4422.650066997663
 30
0.0
 10
6019.0187553361
 20
4418.63371796373
 30
0.0
 10
6019.135708983418
 20
4414.62298577242
 30
0.0
 10
6019.485302953977
 20
4408.615251901532
 30
0.0
 10
6019.630880554596
 20
4406.61406892772
 30
0.0
 10
6019.980144027693
 20
4402.614493701252
 30
0.0
 10
6020.183873328792
 20
4400.616556439005
 30
0.0
 10
6021.342010618565
 20
4390.678752882014
 30
0.0
 10
6022.716340167011
 20
4382.857914649662
 30
0.0
 10
6026.321964854721
 20
4367.463871990979
 30
0.0
 10
6028.552697842788
 20
4359.890505122139
 30
0.0
 10
6033.854071740854
 20
4344.986476106381
 30
0.0
 10
6036.924983006249
 20
4337.655892082943
 30
0.0
 10
6041.299210138395
 20
4328.647428719662
 30
0.0
 10
6042.201614797167
 20
4326.852236346094
 30
0.0
 10
6044.047497557232
 20
4323.301475043866
 30
0.0
 10
6044.992364477315
 20
4321.542935113965
 30
0.0
 10
6047.891388021268
 20
4316.316797623787
 30
0.0
 10
6049.909905961011
 20
4312.8986351504
 30
0.0
 10
6056.21453241716
 20
4302.83545717258
 30
0.0
 10
6060.749245025975
 20
4296.38139122756
 30
0.0
 10
6070.45634827539
 20
4283.963051512847
 30
0.0
 10
6075.627927603
 20
4277.998154584235
 30
0.0
 10
6083.855486480912
 20
4269.411955907758
 30
0.0
 10
6086.676566051072
 20
4266.61023055029
 30
0.0
 10
6091.02690411882
 20
4262.498828808038
 30
0.0
 10
6092.496833217333
 20
4261.143582285997
 30
0.0
 10
6095.476488921313
 20
4258.4636571877
 30
0.0
 10
6096.980965453397
 20
4257.143702638422
 30
0.0
 10
6104.563354325141
 20
4250.652399986458
 30
0.0
 10
6110.83295817141
 20
4245.79450019683
 30
0.0
 10
6123.755436608548
 20
4236.709308490561
 30
0.0
 10
6130.408227804045
 20
4232.481879360794
 30
0.0
 10
6144.08508753762
 20
4224.637895838224
 30
0.0
 10
6151.109000180963
 20
4221.021084946721
 30
0.0
 10
6161.922095646415
 20
4216.05199842433
 30
0.0
 10
6165.572705334715
 20
4214.47172389085
 30
0.0
 10
6171.118529918714
 20
4212.216337381574
 30
0.0
 10
6172.980536342693
 20
4211.48306544082
 30
0.0
 10
6176.720036023366
 20
4210.058203439587
 30
0.0
 10
6178.594177948509
 20
4209.367847877554
 30
0.0
 10
6187.986497436053
 20
4206.024685269087
 30
0.0
 10
6195.569306698028
 20
4203.696729216341
 30
0.0
 10
6210.867199159847
 20
4199.705650628111
 30
0.0
 10
6218.582228489726
 20
4198.042257332128
 30
0.0
 10
6234.142507349134
 20
4195.369981785549
 30
0.0
 10
6241.987702255179
 20
4194.36082498712
 30
0.0
 10
6253.854153140214
 20
4193.342965967982
 30
0.0
 10
6257.826109250586
 20
4193.086473399595
 30
0.0
 10
6263.809098035445
 20
4192.82766374321
 30
0.0
 10
6265.809869441465
 20
4192.762355337146
 30
0.0
 10
6269.807689503798
 20
4192.674402383367
 30
0.0
 10
6271.80378867067
 20
4192.651719699159
 30
0.0
 10
6281.770346848338
 20
4192.643891443646
 30
0.0
 10
6289.699115595547
 20
4192.974571802116
 30
0.0
 10
6305.469533726698
 20
4194.295908051388
 30
0.0
 10
6313.311153053728
 20
4195.286791639294
 30
0.0
 10
6328.906791179948
 20
4197.932179425133
 30
0.0
 10
6336.660774648049
 20
4199.586951274834
 30
0.0
 10
6346.296732638525
 20
4202.083595347319
 30
0.0
 10
6348.221089941071
 20
4202.6043954587
 30
0.0
 10
6352.064061543768
 20
4203.689501980439
 30
0.0
 10
6353.984709386132
 20
4204.254431601597
 30
0.0
 10
6359.72225824421
 20
4206.010478683124
 30
0.0
 10
6363.509342647671
 20
4207.260911938658
 30
0.0
 10
6374.757627540947
 20
4211.249576295616
 30
0.0
 10
6382.105994298283
 20
4214.22488920345
 30
0.0
 10
6396.500764102751
 20
4220.809989305431
 30
0.0
 10
6403.547030876098
 20
4224.420062832702
 30
0.0
 10
6413.882674855385
 20
4230.326332428286
 30
0.0
 10
6417.288840352945
 20
4232.377137525863
 30
0.0
 10
6422.337901858506
 20
4235.579807187726
 30
0.0
 10
6424.010891993395
 20
4236.668439154741
 30
0.0
 10
6427.336493809603
 20
4238.888521494914
 30
0.0
 10
6428.990658546799
 20
4240.021112832344
 30
0.0
 10
6437.172524061309
 20
4245.766552800077
 30
0.0
 10
6443.457338144829
 20
4250.641308781398
 30
0.0
 10
6455.504749639585
 20
4260.948547254038
 30
0.0
 10
6461.266976411185
 20
4266.381425587855
 30
0.0
 10
6472.252393961398
 20
4277.822871771137
 30
0.0
 10
6477.476223062818
 20
4283.830757892943
 30
0.0
 10
6483.647603469482
 20
4291.723392506336
 30
0.0
 10
6484.86026608115
 20
4293.31654019049
 30
0.0
 10
6487.238065307106
 20
4296.526427478967
 30
0.0
 10
6488.40389248202
 20
4298.144066686269
 30
0.0
 10
6491.83243585848
 20
4303.034917386878
 30
0.0
 10
6494.026273502963
 20
4306.346029168939
 30
0.0
 10
6500.332457748175
 20
4316.430863577116
 30
0.0
 10
6504.170444699296
 20
4323.355552053652
 30
0.0
 10
6511.09310436484
 20
4337.619438664169
 30
0.0
 10
6514.177018429438
 20
4344.959054243704
 30
0.0
 10
6518.205060834236
 20
4356.29743165941
 30
0.0
 10
6519.436158483504
 20
4360.099095144485
 30
0.0
 10
6521.675442601349
 20
4367.738047711263
 30
0.0
 10
6522.684109103737
 20
4371.576695744963
 30
0.0
 10
6525.378489550173
 20
4383.149929199043
 30
0.0
 10
6526.733054622191
 20
4390.941722744244
 30
0.0
 10
6528.553065889609
 20
4406.678910912496
 30
0.0
 10
6529.0187553361
 20
4414.624263512337
 30
0.0
 10
6529.0187553361
 20
4422.650066997663
 30
0.0
  0
SPLINE
  5
1AC
330
1F
100
AcDbEntity
  8
0
  6
Continuous
 62
     7
370
    25
100
AcDbSpline
210
0.0
220
0.0
230
1.0
 70
     8
 71
     3
 72
    16
 73
    12
 74
     0
 42
0.000000001
 43
0.00000001
 40
0.0
 40
0.0
 40
0.0
 40
0.0
 40
0.2499999999999997
 40
0.2499999999999997
 40
0.4999999999999994
 40
0.4999999999999994
 40
0.6249999999999997
 40
0.6249999999999997
 40
0.7499999999999998
 40
0.7499999999999998
 40
1.0
 40
1.0
 40
1.0
 40
1.0
 10
6034.779221996278
 20
4425.667614571628
 30
0.0
 10
6032.191725889411
 20
4425.482186803762
 30
0.0
 10
6029.929701068049
 20
4425.182343187796
 30
0.0
 10
6026.025319129932
 20
4424.516087847543
 30
0.0
 10
6024.383094146708
 20
4424.148815278404
 30
0.0
 10
6022.388692913275
 20
4423.64747257492
 30
0.0
 10
6021.802164913058
 20
4423.488447214477
 30
0.0
 10
6020.790692709558
 20
4423.201965974854
 30
0.0
 10
6020.369779985511
 20
4423.075732243383
 30
0.0
 10
6019.358585170276
 20
4422.764817291675
 30
0.0
 10
6019.0187553361
 20
4422.650066997675
 30
0.0
 10
6019.0187553361
 20
4422.650066997675
 30
0.0
  0
SPLINE
  5
1AD
330
1F
100
AcDbEntity
  8
0
  6
Continuous
 62
     7
370
    25
100
AcDbSpline
210
0.0
220
0.0
230
1.0
 70
     8
 71
     3
 72
    30
 73
    26
 74
     0
 42
0.000000001
 43
0.00000001
 40
0.0
 40
0.0
 40
0.0
 40
0.0
 40
0.1249999999999995
 40
0.1249999999999995
 40
0.2499999999999991
 40
0.2499999999999991
 40
0.3124999999999988
 40
0.3124999999999988
 40
0.3437499999999987
 40
0.3437499999999987
 40
0.3749999999999986
 40
0.3749999999999986
 40
0.4999999999999988
 40
0.4999999999999988
 40
0.6249999999999991
 40
0.6249999999999991
 40
0.6562499999999991
 40
0.6562499999999991
 40
0.6874999999999991
 40
0.6874999999999991
 40
0.7499999999999991
 40
0.7499999999999991
 40
0.8749999999999996
 40
0.8749999999999996
 40
1.0
 40
1.0
 40
1.0
 40
1.0
 10
6139.0187553361
 20
4431.965393166791
 30
0.0
 10
6133.701070721432
 20
4431.703688240336
 30
0.0
 10
6128.443877018798
 20
4431.435879921362
 30
0.0
 10
6118.0455336075
 20
4430.888980377919
 30
0.0
 10
6112.904399428969
 20
4430.609886506811
 30
0.0
 10
6105.280643099408
 20
4430.183676762124
 30
0.0
 10
6102.754094312336
 20
4430.040347694836
 30
0.0
 10
6098.986877147458
 20
4429.823603250787
 30
0.0
 10
6097.735579580036
 20
4429.751099785956
 30
0.0
 10
6095.259203155424
 20
4429.60662860026
 30
0.0
 10
6094.031780278241
 20
4429.534526496712
 30
0.0
 10
6087.947800576239
 20
4429.174768895851
 30
0.0
 10
6083.249958222122
 20
4428.889342202746
 30
0.0
 10
6074.186641754909
 20
4428.325897344464
 30
0.0
 10
6069.821145632525
 20
4428.047869447169
 30
0.0
 10
6064.578998443134
 20
4427.707176152343
 30
0.0
 10
6063.539472325066
 20
4427.639258242636
 30
0.0
 10
6061.496315479731
 20
4427.505099416103
 30
0.0
 10
6060.491685889103
 20
4427.43879501205
 30
0.0
 10
6057.527855958525
 20
4427.242253018867
 30
0.0
 10
6055.618658734811
 20
4427.114384336422
 30
0.0
 10
6050.086956668057
 20
4426.740709298397
 30
0.0
 10
6046.659521618144
 20
4426.504792964829
 30
0.0
 10
6040.32370961064
 20
4426.062705351169
 30
0.0
 10
6037.415227709319
 20
4425.856518684045
 30
0.0
 10
6034.779221996278
 20
4425.667614571628
 30
0.0
  0
SPLINE
  5
1AE
330
1F
100
AcDbEntity
  8
0
  6
Continuous
 62
     7
370
    25
100
AcDbSpline
210
0.0
220
0.0
230
1.0
 70
     8
 71
     3
 72
   104
 73
   100
 74
     0
 42
0.000000001
 43
0.00000001
 40
0.0
 40
0.0
 40
0.0
 40
0.0
 40
0.0156249999999997
 40
0.0195312499999996
 40
0.0195312499999996
 40
0.0234374999999995
 40
0.0234374999999995
 40
0.0312499999999995
 40
0.0312499999999995
 40
0.0390624999999994
 40
0.0390624999999994
 40
0.0468749999999994
 40
0.0468749999999994
 40
0.0624999999999993
 40
0.0624999999999993
 40
0.0937499999999992
 40
0.0937499999999992
 40
0.1093749999999991
 40
0.1093749999999991
 40
0.124999999999999
 40
0.124999999999999
 40
0.1562499999999987
 40
0.1562499999999987
 40
0.1874999999999984
 40
0.1874999999999984
 40
0.2031249999999983
 40
0.2031249999999983
 40
0.2109374999999981
 40
0.2109374999999981
 40
0.218749999999998
 40
0.218749999999998
 40
0.2499999999999978
 40
0.2499999999999978
 40
0.2812499999999977
 40
0.2812499999999977
 40
0.3124999999999974
 40
0.3124999999999974
 40
0.3437499999999973
 40
0.3437499999999973
 40
0.3593749999999972
 40
0.3593749999999972
 40
0.3749999999999972
 40
0.3749999999999972
 40
0.4062499999999969
 40
0.4062499999999969
 40
0.4374999999999967
 40
0.4374999999999967
 40
0.4687499999999964
 40
0.4687499999999964
 40
0.4843749999999964
 40
0.4843749999999964
 40
0.4999999999999962
 40
0.4999999999999962
 40
0.531249999999996
 40
0.531249999999996
 40
0.5624999999999959
 40
0.5624999999999959
 40
0.5781249999999958
 40
0.5781249999999958
 40
0.5937499999999957
 40
0.5937499999999957
 40
0.6249999999999954
 40
0.6249999999999954
 40
0.6562499999999953
 40
0.6562499999999953
 40
0.6874999999999952
 40
0.6874999999999952
 40
0.7031249999999952
 40
0.7031249999999952
 40
0.7187499999999951
 40
0.7187499999999951
 40
0.749999999999995
 40
0.749999999999995
 40
0.781249999999995
 40
0.781249999999995
 40
0.7890624999999951
 40
0.7890624999999951
 40
0.7968749999999951
 40
0.7968749999999951
 40
0.8124999999999954
 40
0.8124999999999954
 40
0.8437499999999959
 40
0.8437499999999959
 40
0.8749999999999964
 40
0.8749999999999964
 40
0.8828124999999966
 40
0.8828124999999966
 40
0.8906249999999966
 40
0.8906249999999966
 40
0.906249999999997
 40
0.906249999999997
 40
0.9374999999999978
 40
0.9374999999999978
 40
0.9687499999999987
 40
0.9687499999999987
 40
0.976562499999999
 40
0.976562499999999
 40
0.9843749999999992
 40
1.0
 40
1.0
 40
1.0
 40
1.0
 10
6139.0187553361
 20
4431.965393166791
 30
0.0
 10
6139.0187553361
 20
4429.827535139153
 30
0.0
 10
6139.0187553361
 20
4427.155212604606
 30
0.0
 10
6139.0187553361
 20
4424.482890070059
 30
0.0
 10
6139.0187553361
 20
4423.41396105624
 30
0.0
 10
6139.017412154552
 20
4422.879493242622
 30
0.0
 10
6139.023050981401
 20
4421.276113603824
 30
0.0
 10
6139.046557363928
 20
4420.207242459133
 30
0.0
 10
6139.132913022481
 20
4418.069597025946
 30
0.0
 10
6139.195914133777
 20
4416.999354945155
 30
0.0
 10
6139.360185809592
 20
4414.871122103396
 30
0.0
 10
6139.461441947687
 20
4413.812103733761
 30
0.0
 10
6139.821238022051
 20
4410.649987296283
 30
0.0
 10
6140.13572295161
 20
4408.5618058584
 30
0.0
 10
6141.295635210035
 20
4402.35497566336
 30
0.0
 10
6142.35805407285
 20
4398.294183422504
 30
0.0
 10
6144.36134036788
 20
4392.312222294052
 30
0.0
 10
6145.097581017862
 20
4390.33649370753
 30
0.0
 10
6146.706243282559
 20
4386.421346505032
 30
0.0
 10
6147.579741322974
 20
4384.480101796123
 30
0.0
 10
6150.399722394011
 20
4378.722684051872
 30
0.0
 10
6152.506093866891
 20
4375.046635462021
 30
0.0
 10
6157.124332087932
 20
4367.985121688091
 30
0.0
 10
6159.637681146554
 20
4364.600718747763
 30
0.0
 10
6163.69455104229
 20
4359.729672286121
 30
0.0
 10
6165.094620027357
 20
4358.140229224901
 30
0.0
 10
6167.265080806953
 20
4355.80648362851
 30
0.0
 10
6168.000305740747
 20
4355.036980044682
 30
0.0
 10
6169.494147721379
 20
4353.514735982024
 30
0.0
 10
6170.251215892845
 20
4352.763626255448
 30
0.0
 10
6174.071122577862
 20
4349.07176190176
 30
0.0
 10
6177.251878390603
 20
4346.306908077513
 30
0.0
 10
6183.837697430075
 20
4341.11616276083
 30
0.0
 10
6187.243203837809
 20
4338.690940981733
 30
0.0
 10
6194.265088573056
 20
4334.159156697297
 30
0.0
 10
6197.881720449684
 20
4332.052977342911
 30
0.0
 10
6205.319460294195
 20
4328.149612846411
 30
0.0
 10
6209.140758534902
 20
4326.352715235226
 30
0.0
 10
6215.025876782304
 20
4323.888833128422
 30
0.0
 10
6217.001327318343
 20
4323.111240346521
 30
0.0
 10
6220.96501416499
 20
4321.64595719303
 30
0.0
 10
6222.955485271455
 20
4320.957282394294
 30
0.0
 10
6228.951908851338
 20
4319.018710589166
 30
0.0
 10
6232.982849408727
 20
4317.896153162023
 30
0.0
 10
6241.108559814365
 20
4315.976313148746
 30
0.0
 10
6245.203307426479
 20
4315.178917247022
 30
0.0
 10
6253.455610907277
 20
4313.904197081473
 30
0.0
 10
6257.613104940367
 20
4313.426557702715
 30
0.0
 10
6263.896859247793
 20
4312.952226773042
 30
0.0
 10
6265.999366447152
 20
4312.834489263707
 30
0.0
 10
6270.220427377304
 20
4312.680787564013
 30
0.0
 10
6272.340598954881
 20
4312.644829522826
 30
0.0
 10
6278.715457628675
 20
4312.662387964716
 30
0.0
 10
6282.946676106696
 20
4312.840474202763
 30
0.0
 10
6291.372227281783
 20
4313.525055665673
 30
0.0
 10
6295.566533845548
 20
4314.031783565851
 30
0.0
 10
6301.829985622798
 20
4315.041242546959
 30
0.0
 10
6303.91311896143
 20
4315.419431707161
 30
0.0
 10
6308.069864557414
 20
4316.260580054828
 30
0.0
 10
6310.146984900774
 20
4316.72441549674
 30
0.0
 10
6316.329159978514
 20
4318.237008220221
 30
0.0
 10
6320.388564161251
 20
4319.40684393223
 30
0.0
 10
6328.382906398295
 20
4322.070370628921
 30
0.0
 10
6332.317805435205
 20
4323.564163135113
 30
0.0
 10
6340.059059504051
 20
4326.886213871649
 30
0.0
 10
6343.865455853456
 20
4328.714364595801
 30
0.0
 10
6349.472498691788
 20
4331.723425559745
 30
0.0
 10
6351.327293324987
 20
4332.772863461585
 30
0.0
 10
6354.970417847352
 20
4334.945743351676
 30
0.0
 10
6356.762008251415
 20
4336.070826724149
 30
0.0
 10
6362.046071679875
 20
4339.563028542065
 30
0.0
 10
6365.448085905135
 20
4342.046777666264
 30
0.0
 10
6371.998849907818
 20
4347.340815784055
 30
0.0
 10
6375.147899209841
 20
4350.150718593467
 30
0.0
 10
6378.911848132474
 20
4353.885328435465
 30
0.0
 10
6379.656016767121
 20
4354.643365857215
 30
0.0
 10
6381.126675628173
 20
4356.182233892453
 30
0.0
 10
6381.852111541938
 20
4356.962022926032
 30
0.0
 10
6383.989005677826
 20
4359.322462241982
 30
0.0
 10
6385.364847506238
 20
4360.92804399811
 30
0.0
 10
6389.343844260859
 20
4365.842141095775
 30
0.0
 10
6391.798066120374
 20
4369.248273285067
 30
0.0
 10
6396.288846967784
 20
4376.334291060761
 30
0.0
 10
6398.326624979592
 20
4380.013377648834
 30
0.0
 10
6400.58635019541
 20
4384.800673419544
 30
0.0
 10
6401.023800145422
 20
4385.76763325297
 30
0.0
 10
6401.868833682716
 20
4387.721128560395
 30
0.0
 10
6402.277372773525
 20
4388.710212280424
 30
0.0
 10
6403.445072421613
 20
4391.676800250347
 30
0.0
 10
6404.149541748109
 20
4393.659959958653
 30
0.0
 10
6406.047416817983
 20
4399.62526795907
 30
0.0
 10
6407.02550435084
 20
4403.623229359044
 30
0.0
 10
6408.418669928343
 20
4411.660499937899
 30
0.0
 10
6408.835609442643
 20
4415.699672409251
 30
0.0
 10
6409.004412423032
 20
4420.774516381603
 30
0.0
 10
6409.0187553361
 20
4421.790911223202
 30
0.0
 10
6409.0187553361
 20
4423.825807611919
 30
0.0
 10
6409.0187553361
 20
4426.878152194997
 30
0.0
 10
6409.0187553361
 20
4429.930496778073
 30
0.0
 10
6409.0187553361
 20
4431.965393166791
 30
0.0
  0
SPLINE
  5
1AF
330
1F
100
AcDbEntity
  8
0
  6
Continuous
 62
     7
370
    25
100
AcDbSpline
210
0.0
220
0.0
230
1.0
 70
     8
 71
     3
 72
    30
 73
    26
 74
     0
 42
0.000000001
 43
0.00000001
 40
0.0
 40
0.0
 40
0.0
 40
0.0
 40
0.1250000000000002
 40
0.1250000000000002
 40
0.2500000000000005
 40
0.2500000000000005
 40
0.3125000000000006
 40
0.3125000000000006
 40
0.3437500000000006
 40
0.3437500000000006
 40
0.3750000000000005
 40
0.3750000000000005
 40
0.5000000000000017
 40
0.5000000000000017
 40
0.6250000000000028
 40
0.6250000000000028
 40
0.6562500000000027
 40
0.6562500000000027
 40
0.6875000000000024
 40
0.6875000000000024
 40
0.7500000000000018
 40
0.7500000000000018
 40
0.8750000000000009
 40
0.8750000000000009
 40
1.0
 40
1.0
 40
1.0
 40
1.0
 10
6513.258288675926
 20
4425.667614571628
 30
0.0
 10
6510.622265605152
 20
4425.856519927953
 30
0.0
 10
6507.710383911245
 20
4426.062952021662
 30
0.0
 10
6501.357406680771
 20
4426.506220853908
 30
0.0
 10
6497.916238851245
 20
4426.743071278697
 30
0.0
 10
6492.353186325116
 20
4427.118797686584
 30
0.0
 10
6490.431740891239
 20
4427.247458511041
 30
0.0
 10
6487.446369420154
 20
4427.445369491465
 30
0.0
 10
6486.434849756548
 20
4427.512104483989
 30
0.0
 10
6484.392418472315
 20
4427.64616892563
 30
0.0
 10
6483.359723952115
 20
4427.713616827969
 30
0.0
 10
6478.139582661781
 20
4428.052773577812
 30
0.0
 10
6473.782865987149
 20
4428.330193243248
 30
0.0
 10
6464.714635141255
 20
4428.893805910538
 30
0.0
 10
6460.003145150627
 20
4429.180006750622
 30
0.0
 10
6453.884355788436
 20
4429.541672078607
 30
0.0
 10
6452.647102055681
 20
4429.614316596232
 30
0.0
 10
6450.167640807506
 20
4429.758896955608
 30
0.0
 10
6448.923721689064
 20
4429.830935503885
 30
0.0
 10
6445.179589734123
 20
4430.046255787498
 30
0.0
 10
6442.667015953863
 20
4430.188741322471
 30
0.0
 10
6435.080844175738
 20
4430.612723870368
 30
0.0
 10
6429.958996758113
 20
4430.890737062417
 30
0.0
 10
6419.586821254388
 20
4431.436216044224
 30
0.0
 10
6414.336518976883
 20
4431.703684351139
 30
0.0
 10
6409.018755336099
 20
4431.965393166791
 30
0.0
  0
SPLINE
  5
1B0
330
1F
100
AcDbEntity
  8
0
  6
Continuous
 62
     7
370
    25
100
AcDbSpline
210
0.0
220
0.0
230
1.0
 70
     8
 71
     3
 72
    18
 73
    14
 74
     0
 42
0.000000001
 43
0.00000001
 40
0.0
 40
0.0
 40
0.0
 40
0.0
 40
0.2499999999999999
 40
0.2499999999999999
 40
0.4999999999999998
 40
0.4999999999999998
 40
0.5624999999999994
 40
0.5624999999999994
 40
0.6249999999999996
 40
0.6249999999999996
 40
0.7499999999999994
 40
0.7499999999999994
 40
1.0
 40
1.0
 40
1.0
 40
1.0
 10
6529.0187553361
 20
4422.650066997663
 30
0.0
 10
6529.0187553361
 20
4422.650066997663
 30
0.0
 10
6528.67905294049
 20
4422.764676978628
 30
0.0
 10
6527.34586843549
 20
4423.174796120043
 30
0.0
 10
6526.352365659041
 20
4423.469597861606
 30
0.0
 10
6524.695737265784
 20
4423.887287933481
 30
0.0
 10
6524.343586398937
 20
4423.973184268173
 30
0.0
 10
6523.597118875816
 20
4424.147733457009
 30
0.0
 10
6523.202713228115
 20
4424.236389825315
 30
0.0
 10
6521.962723993161
 20
4424.501823704701
 30
0.0
 10
6521.058401865448
 20
4424.678586000461
 30
0.0
 10
6518.114204013052
 20
4425.181764051113
 30
0.0
 10
6515.844253552683
 20
4425.482296536326
 30
0.0
 10
6513.258288675926
 20
4425.667614571628
 30
0.0
  0
SPLINE
  5
1B1
330
1F
100
AcDbEntity
  8
0
  6
Continuous
 62
     7
370
    25
100
AcDbSpline
210
0.0
220
0.0
230
1.0
 70
     8
 71
     3
 72
    10
 73
     6
 74
     0
 42
0.000000001
 43
0.00000001
 40
0.0
 40
0.0
 40
0.0
 40
0.0
 40
0.5
 40
0.5
 40
1.0
 40
1.0
 40
1.0
 40
1.0
 10
6009.256115855491
 20
4417.971060472621
 30
0.0
 10
6009.541740606584
 20
4417.86346210527
 30
0.0
 10
6009.83647524903
 20
4417.782658487832
 30
0.0
 10
6010.425136989501
 20
4417.676429589846
 30
0.0
 10
6010.721205640255
 20
4417.650067638368
 30
0.0
 10
6011.01874456954
 20
4417.650066997675
 30
0.0
  0
ARC
  5
1B2
330
1F
100
AcDbEntity
  8
0
  6
Continuous
 62
     7
370
    25
100
AcDbCircle
 10
6010.4329170407
 20
4417.2714133925
 30
0.0
 40
0.6975455876751281
100
AcDbArc
 50
350.1982783299
 51
32.8767471689
  0
LWPOLYLINE
  5
1B3
330
1F
100
AcDbEntity
  8
0
  6
Continuous
 62
     7
370
    25
100
AcDbPolyline
 90
        9
 70
   128
 43
0.0
 10
6009.2561153367
 20
4417.9710654279
 10
6009.252717872
 20
4417.9620651266
 10
6009.2427042916
 20
4417.9354367515
 10
6009.2264024213
 20
4417.8922084829
 10
6009.2044977143
 20
4417.8340194484
 10
6009.1777650312
 20
4417.7631048223
 10
6009.1473070577
 20
4417.6822213193
 10
6009.1142264798
 20
4417.5944385787
 10
6009.0798644021
 20
4417.5031540653
  0
ARC
  5
1B4
330
1F
100
AcDbEntity
  8
0
  6
Continuous
 62
     7
370
    25
100
AcDbCircle
 10
6537.6045936315
 20
4417.2714133925
 30
0.0
 40
0.6975455876743867
100
AcDbArc
 50
147.1232528312
 51
189.8017216702
  0
SPLINE
  5
1B5
330
1F
100
AcDbEntity
  8
0
  6
Continuous
 62
     7
370
    25
100
AcDbSpline
210
0.0
220
0.0
230
1.0
 70
     8
 71
     3
 72
    10
 73
     6
 74
     0
 42
0.000000001
 43
0.00000001
 40
0.0
 40
0.0
 40
0.0
 40
0.0
 40
0.5
 40
0.5
 40
1.0
 40
1.0
 40
1.0
 40
1.0
 10
6537.018766193792
 20
4417.650066997675
 30
0.0
 10
6537.316341593913
 20
4417.650067643872
 30
0.0
 10
6537.617028578074
 20
4417.676986034347
 30
0.0
 10
6538.205634027667
 20
4417.783776407156
 30
0.0
 10
6538.495824167765
 20
4417.863482486217
 30
0.0
 10
6538.78139481671
 20
4417.971060472621
 30
0.0
  0
LWPOLYLINE
  5
1B6
330
1F
100
AcDbEntity
  8
0
  6
Continuous
 62
     7
370
    25
100
AcDbPolyline
 90
        9
 70
   128
 43
0.0
 10
6538.9576462701
 20
4417.5031540653
 10
6538.9232841924
 20
4417.5944385787
 10
6538.8902036145
 20
4417.6822213193
 10
6538.859745641
 20
4417.7631048223
 10
6538.8330129579
 20
4417.8340194484
 10
6538.8111082509
 20
4417.8922084829
 10
6538.7948063806
 20
4417.9354367515
 10
6538.7847928002
 20
4417.9620651266
 10
6538.7813953355
 20
4417.9710654279
  0
ARC
  5
1B7
330
1F
100
AcDbEntity
  8
0
  6
Continuous
 62
     7
370
    25
100
AcDbCircle
 10
6552.4106929658
 20
4601.7125647446
 30
0.0
 40
0.9402760970816371
100
AcDbArc
 50
356.1888834797
 51
85.597921622
  0
SPLINE
  5
1B8
330
1F
100
AcDbEntity
  8
0
  6
Continuous
 62
     7
370
    25
100
AcDbSpline
210
0.0
220
0.0
230
1.0
 70
     8
 71
     3
 72
    20
 73
    16
 74
     0
 42
0.000000001
 43
0.00000001
 40
0.0
 40
0.0
 40
0.0
 40
0.0
 40
0.1249999999999891
 40
0.1249999999999891
 40
0.2499999999999784
 40
0.2499999999999784
 40
0.4999999999999772
 40
0.4999999999999772
 40
0.7499999999999759
 40
0.7499999999999759
 40
0.8749999999999754
 40
0.8749999999999754
 40
0.9374999999999877
 40
0.9374999999999877
 40
1.0
 40
1.0
 40
1.0
 40
1.0
 10
6553.348882355022
 20
4601.650066997664
 30
0.0
 10
6553.229368790277
 20
4601.650066997664
 30
0.0
 10
6553.097558364096
 20
4601.629866804706
 30
0.0
 10
6552.81077983612
 20
4601.559507160057
 30
0.0
 10
6552.654490537943
 20
4601.508692228728
 30
0.0
 10
6552.160188723407
 20
4601.322046894079
 30
0.0
 10
6551.801916412829
 20
4601.155357163181
 30
0.0
 10
6551.040322710705
 20
4600.772186308227
 30
0.0
 10
6550.649656312734
 20
4600.56174431922
 30
0.0
 10
6550.047188089076
 20
4600.229126069389
 30
0.0
 10
6549.842859473988
 20
4600.114898451707
 30
0.0
 10
6549.53452748062
 20
4599.941495110713
 30
0.0
 10
6549.431589190411
 20
4599.883432653799
 30
0.0
 10
6549.225320677696
 20
4599.766918041398
 30
0.0
 10
6549.121043607154
 20
4599.7079299378
 30
0.0
 10
6549.0187553361
 20
4599.650066997664
 30
0.0
  0
SPLINE
  5
1B9
330
1F
100
AcDbEntity
  8
0
  6
Continuous
 62
     7
370
    25
100
AcDbSpline
210
0.0
220
0.0
230
1.0
 70
     8
 71
     3
 72
    20
 73
    16
 74
     0
 42
0.000000001
 43
0.00000001
 40
0.0
 40
0.0
 40
0.0
 40
0.0
 40
0.1250000000000008
 40
0.1250000000000008
 40
0.2500000000000016
 40
0.2500000000000016
 40
0.4999999999999883
 40
0.4999999999999883
 40
0.749999999999975
 40
0.749999999999975
 40
0.874999999999978
 40
0.874999999999978
 40
0.937499999999989
 40
0.937499999999989
 40
1.0
 40
1.0
 40
1.0
 40
1.0
 10
6552.482856951238
 20
4602.650066997663
 30
0.0
 10
6552.393693247677
 20
4602.650066997663
 30
0.0
 10
6552.294511529952
 20
4602.623593613838
 30
0.0
 10
6552.075075668511
 20
4602.526391711396
 30
0.0
 10
6551.953360486186
 20
4602.454431668255
 30
0.0
 10
6551.566493068171
 20
4602.185914955574
 30
0.0
 10
6551.284647118388
 20
4601.943218226454
 30
0.0
 10
6550.670569695296
 20
4601.367548961544
 30
0.0
 10
6550.354506452009
 20
4601.049253098929
 30
0.0
 10
6549.861666758996
 20
4600.539732388035
 30
0.0
 10
6549.693692966112
 20
4600.363768483424
 30
0.0
 10
6549.441323163151
 20
4600.097725179075
 30
0.0
 10
6549.357000466486
 20
4600.008558713284
 30
0.0
 10
6549.18794587981
 20
4599.829520801334
 30
0.0
 10
6549.102552055664
 20
4599.738946787814
 30
0.0
 10
6549.0187553361
 20
4599.650066997664
 30
0.0
  0
ARC
  5
1BA
330
1F
100
AcDbEntity
  8
0
  6
Continuous
 62
     7
370
    25
100
AcDbCircle
 10
5995.6268177064
 20
4601.7125647446
 30
0.0
 40
0.9402760970809357
100
AcDbArc
 50
94.4020783779
 51
183.8111165203
  0
SPLINE
  5
1BB
330
1F
100
AcDbEntity
  8
0
  6
Continuous
 62
     7
370
    25
100
AcDbSpline
210
0.0
220
0.0
230
1.0
 70
     8
 71
     3
 72
    20
 73
    16
 74
     0
 42
0.000000001
 43
0.00000001
 40
0.0
 40
0.0
 40
0.0
 40
0.0
 40
0.1250000000000008
 40
0.1250000000000008
 40
0.2500000000000016
 40
0.2500000000000016
 40
0.4999999999999883
 40
0.4999999999999883
 40
0.7499999999999751
 40
0.7499999999999751
 40
0.8749999999999779
 40
0.8749999999999779
 40
0.9374999999999889
 40
0.9374999999999889
 40
1.0
 40
1.0
 40
1.0
 40
1.0
 10
5995.554653720962
 20
4602.650066997663
 30
0.0
 10
5995.643817424523
 20
4602.650066997663
 30
0.0
 10
5995.742999142249
 20
4602.623593613838
 30
0.0
 10
5995.962435003689
 20
4602.526391711396
 30
0.0
 10
5996.084150186014
 20
4602.454431668255
 30
0.0
 10
5996.471017604029
 20
4602.185914955574
 30
0.0
 10
5996.752863553812
 20
4601.943218226454
 30
0.0
 10
5997.366940976905
 20
4601.367548961544
 30
0.0
 10
5997.683004220191
 20
4601.049253098929
 30
0.0
 10
5998.175843913205
 20
4600.539732388035
 30
0.0
 10
5998.343817706088
 20
4600.363768483424
 30
0.0
 10
5998.59618750905
 20
4600.097725179075
 30
0.0
 10
5998.680510205714
 20
4600.008558713284
 30
0.0
 10
5998.849564792389
 20
4599.829520801334
 30
0.0
 10
5998.934958616536
 20
4599.738946787814
 30
0.0
 10
5999.0187553361
 20
4599.650066997664
 30
0.0
  0
SPLINE
  5
1BC
330
1F
100
AcDbEntity
  8
0
  6
Continuous
 62
     7
370
    25
100
AcDbSpline
210
0.0
220
0.0
230
1.0
 70
     8
 71
     3
 72
    20
 73
    16
 74
     0
 42
0.000000001
 43
0.00000001
 40
0.0
 40
0.0
 40
0.0
 40
0.0
 40
0.1249999999999891
 40
0.1249999999999891
 40
0.2499999999999784
 40
0.2499999999999784
 40
0.4999999999999771
 40
0.4999999999999771
 40
0.7499999999999758
 40
0.7499999999999758
 40
0.8749999999999751
 40
0.8749999999999751
 40
0.9374999999999876
 40
0.9374999999999876
 40
1.0
 40
1.0
 40
1.0
 40
1.0
 10
5994.688628317178
 20
4601.650066997664
 30
0.0
 10
5994.808141881924
 20
4601.650066997664
 30
0.0
 10
5994.939952308105
 20
4601.629866804706
 30
0.0
 10
5995.226730836081
 20
4601.559507160057
 30
0.0
 10
5995.383020134257
 20
4601.508692228728
 30
0.0
 10
5995.877321948793
 20
4601.322046894079
 30
0.0
 10
5996.235594259371
 20
4601.155357163181
 30
0.0
 10
5996.997187961495
 20
4600.772186308227
 30
0.0
 10
5997.387854359466
 20
4600.56174431922
 30
0.0
 10
5997.990322583123
 20
4600.229126069389
 30
0.0
 10
5998.194651198211
 20
4600.114898451707
 30
0.0
 10
5998.502983191581
 20
4599.941495110713
 30
0.0
 10
5998.60592148179
 20
4599.883432653799
 30
0.0
 10
5998.812189994504
 20
4599.766918041398
 30
0.0
 10
5998.916467065046
 20
4599.707929937801
 30
0.0
 10
5999.0187553361
 20
4599.650066997664
 30
0.0
  0
LINE
  5
1BD
330
1F
100
AcDbEntity
  8
0
  6
Continuous
 62
     7
370
    25
100
AcDbLine
 10
6549.0187612966
 20
4599.6500669716
 30
0.0
 11
5999.0187493756
 21
4599.6500669716
 31
0.0
  0
LINE
  5
1BE
330
1F
100
AcDbEntity
  8
0
  6
Continuous
 62
     7
370
    25
100
AcDbLine
 10
5995.5546466306
 20
4602.6500669977
 30
0.0
 11
6552.4828640416
 21
4602.6500669977
 31
0.0
  0
LINE
  5
1BF
330
1F
100
AcDbEntity
  8
0
  6
Continuous
 62
     7
370
    25
100
AcDbLine
 10
6549.0187612966
 20
4422.6500598451
 30
0.0
 11
6549.0187612966
 21
4599.6500669716
 31
0.0
  0
LINE
  5
1C0
330
1F
100
AcDbEntity
  8
0
  6
Continuous
 62
     7
370
    25
100
AcDbLine
 10
6554.0187565282
 20
4601.6500669502
 30
0.0
 11
6553.3488897279
 21
4601.6500669502
 31
0.0
  0
LINE
  5
1C1
330
1F
100
AcDbEntity
  8
0
  6
Continuous
 62
     7
370
    25
100
AcDbLine
 10
6554.0187565282
 20
4601.6500669502
 30
0.0
 11
6554.0187565282
 21
4422.6500598451
 31
0.0
  0
LINE
  5
1C2
330
1F
100
AcDbEntity
  8
0
  6
Continuous
 62
     7
370
    25
100
AcDbLine
 10
5999.0187493756
 20
4599.6500669716
 30
0.0
 11
5999.0187493756
 21
4422.6500598451
 31
0.0
  0
LINE
  5
1C3
330
1F
100
AcDbEntity
  8
0
  6
Continuous
 62
     7
370
    25
100
AcDbLine
 10
5994.018754144
 20
4422.6500598451
 30
0.0
 11
5994.018754144
 21
4601.6500669502
 31
0.0
  0
LINE
  5
1C4
330
1F
100
AcDbEntity
  8
0
  6
Continuous
 62
     7
370
    25
100
AcDbLine
 10
5994.6886209443
 20
4601.6500669502
 30
0.0
 11
5994.018754144
 21
4601.6500669502
 31
0.0
  0
ARC
  5
1C5
330
1F
100
AcDbEntity
  8
0
  6
Continuous
 62
     7
370
    25
100
AcDbCircle
 10
6501.9095614246
 20
4507.4770880847
 30
0.0
 40
40.60919391153209
100
AcDbArc
 50
0.0
 51
76.9744802481
  0
ARC
  5
1C6
330
1F
100
AcDbEntity
  8
0
  6
Continuous
 62
     7
370
    25
100
AcDbCircle
 10
6262.2427267198
 20
3471.4714437661
 30
0.0
 40
1103.975493319844
100
AcDbArc
 50
76.9744802481
 51
87.5127264814
  0
ARC
  5
1C7
330
1F
100
AcDbEntity
  8
0
  6
Continuous
 62
     7
370
    25
100
AcDbCircle
 10
6310.7817431137
 20
4588.8932052531
 30
0.0
 40
14.50000000000066
100
AcDbArc
 50
228.9678869335
 51
267.5127264814
  0
ARC
  5
1C8
330
1F
100
AcDbEntity
  8
0
  6
Continuous
 62
     7
370
    25
100
AcDbCircle
 10
6274.0187553361
 20
4546.6500669977
 30
0.0
 40
41.50000000000427
100
AcDbArc
 50
48.9678869335
 51
129.777084838
  0
ARC
  5
1C9
330
1F
100
AcDbEntity
  8
0
  6
Continuous
 62
     7
370
    25
100
AcDbCircle
 10
6238.1898222171
 20
4589.6882773642
 30
0.0
 40
14.50000000000101
100
AcDbArc
 50
271.2322452901
 51
309.777084838
  0
ARC
  5
1CA
330
1F
100
AcDbEntity
  8
0
  6
Continuous
 62
     7
370
    25
100
AcDbCircle
 10
6262.2427267198
 20
3471.4714437661
 30
0.0
 40
1103.975493319845
100
AcDbArc
 50
91.2322452901
 51
101.7262811686
  0
ARC
  5
1CB
330
1F
100
AcDbEntity
  8
0
  6
Continuous
 62
     7
370
    25
100
AcDbCircle
 10
6046.1279492476
 20
4512.6449594087
 30
0.0
 40
40.60919391153151
100
AcDbArc
 50
101.7262811686
 51
180.0
  0
LINE
  5
1CC
330
1F
100
AcDbEntity
  8
0
  6
Continuous
 62
     7
370
    25
100
AcDbLine
 10
6005.5187550977
 20
4422.6500598451
 30
0.0
 11
6005.5187550977
 21
4512.6449597737
 31
0.0
  0
ARC
  5
1CD
330
1F
100
AcDbEntity
  8
0
  6
Continuous
 62
     7
370
    25
100
AcDbCircle
 10
6011.0187553361
 20
4422.6500669977
 30
0.0
 40
5.500000000000683
100
AcDbArc
 50
180.0
 51
249.3579892957
  0
ARC
  5
1CE
330
1F
100
AcDbEntity
  8
0
  6
Continuous
 62
     7
370
    25
100
AcDbCircle
 10
6537.0187553361
 20
4422.6500669977
 30
0.0
 40
5.5
100
AcDbArc
 50
290.6420107043
 51
0.0
  0
LINE
  5
1CF
330
1F
100
AcDbEntity
  8
0
  6
Continuous
 62
     7
370
    25
100
AcDbLine
 10
6542.5187555745
 20
4507.47708806
 30
0.0
 11
6542.5187555745
 21
4422.6500598451
 31
0.0
  0
ARC
  5
1D0
330
1F
100
AcDbEntity
  8
0
  6
Continuous
 62
     7
370
    25
100
AcDbCircle
 10
6274.0187553361
 20
4546.6500669977
 30
0.0
 40
41.00000000000528
100
AcDbArc
 50
48.9678869335
 51
129.777084838
  0
LWPOLYLINE
  5
1D1
330
1F
100
AcDbEntity
  8
0
  6
Continuous
 62
     7
370
    25
100
AcDbPolyline
 90
        9
 70
   128
 43
0.0
 10
6247.7868573412
 20
4578.1601855269
 10
6247.7807106122
 20
4578.1675690522
 10
6247.7625069812
 20
4578.1894365063
 10
6247.73294494
 20
4578.2249459734
 10
6247.6931607023
 20
4578.27273586
 10
6247.6446834996
 20
4578.3309658727
 10
6247.5893778399
 20
4578.3974008372
 10
6247.5293671384
 20
4578.4694870671
 10
6247.4669573501
 20
4578.5444548091
  0
LWPOLYLINE
  5
1D2
330
1F
100
AcDbEntity
  8
0
  6
Continuous
 62
     7
370
    25
100
AcDbPolyline
 90
        9
 70
   128
 43
0.0
 10
6301.2627551004
 20
4577.955249857
 10
6301.1987192228
 20
4577.881667923
 10
6301.1371420368
 20
4577.8109134844
 10
6301.0803946897
 20
4577.7457041403
 10
6301.0306546137
 20
4577.6885488739
 10
6300.9898328826
 20
4577.6416437438
 10
6300.9594997063
 20
4577.6067899277
 10
6300.9408211008
 20
4577.5853266677
 10
6300.9345141843
 20
4577.5780791154
  0
ARC
  5
1D3
330
1F
100
AcDbEntity
  8
0
  6
Continuous
 62
     7
370
    25
100
AcDbCircle
 10
6238.1898222171
 20
4589.6882773642
 30
0.0
 40
15.00000000000025
100
AcDbArc
 50
271.2322452901
 51
309.777084838
  0
LWPOLYLINE
  5
1D4
330
1F
100
AcDbEntity
  8
0
  6
Continuous
 62
     7
370
    25
100
AcDbPolyline
 90
        9
 70
   128
 43
0.0
 10
6238.5123988286
 20
4574.6917465439
 10
6238.5121902123
 20
4574.7013522049
 10
6238.5115792647
 20
4574.7297985217
 10
6238.5105846122
 20
4574.7759921214
 10
6238.509247233
 20
4574.8381597659
 10
6238.5076192811
 20
4574.9139098188
 10
6238.5057603612
 20
4575.0003328284
 10
6238.5037449792
 20
4575.0941076985
 10
6238.5016476408
 20
4575.1916302105
  0
LWPOLYLINE
  5
1D5
330
1F
100
AcDbEntity
  8
0
  6
Continuous
 62
     7
370
    25
100
AcDbPolyline
 90
        9
 70
   128
 43
0.0
 10
6310.1524805322
 20
4574.4068661442
 10
6310.1482448772
 20
4574.30941255
 10
6310.1441768601
 20
4574.2157047352
 10
6310.1404254928
 20
4574.1293431928
 10
6310.1371360615
 20
4574.053645294
 10
6310.1344389513
 20
4573.9915223529
 10
6310.1324310198
 20
4573.9453604182
 10
6310.1311979487
 20
4573.9169345906
 10
6310.1307807162
 20
4573.9073363801
  0
ARC
  5
1D6
330
1F
100
AcDbEntity
  8
0
  6
Continuous
 62
     7
370
    25
100
AcDbCircle
 10
6310.7817431137
 20
4588.8932052531
 30
0.0
 40
14.99999999999974
100
AcDbArc
 50
228.9678869335
 51
267.5127264814
  0
ARC
  5
1D7
330
1F
100
AcDbEntity
  8
0
  6
Continuous
 62
     7
370
    25
100
AcDbCircle
 10
6262.2427267198
 20
3471.4714437661
 30
0.0
 40
1103.475493319844
100
AcDbArc
 50
91.2322452901
 51
101.7262811686
  0
LWPOLYLINE
  5
1D8
330
1F
100
AcDbEntity
  8
0
  6
Continuous
 62
     7
370
    25
100
AcDbPolyline
 90
        9
 70
   128
 43
0.0
 10
6037.9763004973
 20
4551.9170632323
 10
6037.9743484452
 20
4551.9264695903
 10
6037.9685667947
 20
4551.9543273112
 10
6037.9591790631
 20
4551.9995672366
 10
6037.9465428784
 20
4552.0604533812
 10
6037.9311350778
 20
4552.1346388122
 10
6037.9135666087
 20
4552.2192774078
 10
6037.8945080236
 20
4552.3111169895
 10
6037.874674578
 20
4552.4066259822
  0
LWPOLYLINE
  5
1D9
330
1F
100
AcDbEntity
  8
0
  6
Continuous
 62
     7
370
    25
100
AcDbPolyline
 90
        9
 70
   128
 43
0.0
 10
6511.0622701839
 20
4547.0413995644
 10
6511.0402760699
 20
4546.9463636836
 10
6511.0191462234
 20
4546.8549785873
 10
6510.9996555045
 20
4546.7707609495
 10
6510.9825787738
 20
4546.696940597
 10
6510.9685716823
 20
4546.6363599261
 10
6510.9581557706
 20
4546.5913435182
 10
6510.9517333701
 20
4546.563623633
 10
6510.9495727017
 20
4546.5542619785
  0
ARC
  5
1DA
330
1F
100
AcDbEntity
  8
0
  6
Continuous
 62
     7
370
    25
100
AcDbCircle
 10
6262.2427267198
 20
3471.4714437661
 30
0.0
 40
1103.475493319845
100
AcDbArc
 50
76.9744802481
 51
87.5127264814
  0
ARC
  5
1DB
330
1F
100
AcDbEntity
  8
0
  6
Continuous
 62
     7
370
    25
100
AcDbCircle
 10
6046.1279492476
 20
4512.6449594087
 30
0.0
 40
40.1091939115317
100
AcDbArc
 50
101.7262811686
 51
180.0
  0
LINE
  5
1DC
330
1F
100
AcDbEntity
  8
0
  6
Continuous
 62
     7
370
    25
100
AcDbLine
 10
6006.0187486604
 20
4512.6449597737
 30
0.0
 11
6005.5187550977
 21
4512.6449597737
 31
0.0
  0
LINE
  5
1DD
330
1F
100
AcDbEntity
  8
0
  6
Continuous
 62
     7
370
    25
100
AcDbLine
 10
6542.5187555745
 20
4507.47708806
 30
0.0
 11
6542.0187620118
 21
4507.47708806
 31
0.0
  0
ARC
  5
1DE
330
1F
100
AcDbEntity
  8
0
  6
Continuous
 62
     7
370
    25
100
AcDbCircle
 10
6501.9095614246
 20
4507.4770880847
 30
0.0
 40
40.10919391153309
100
AcDbArc
 50
0.0
 51
76.9744802481
  0
LINE
  5
1DF
330
1F
100
AcDbEntity
  8
0
  6
Continuous
 62
     7
370
    25
100
AcDbLine
 10
6006.0187486604
 20
4512.6449597737
 30
0.0
 11
6006.0187486604
 21
4422.6500598451
 31
0.0
  0
LINE
  5
1E0
330
1F
100
AcDbEntity
  8
0
  6
Continuous
 62
     7
370
    25
100
AcDbLine
 10
6006.0187486604
 20
4422.6500598451
 30
0.0
 11
6005.5187550977
 21
4422.6500598451
 31
0.0
  0
LINE
  5
1E1
330
1F
100
AcDbEntity
  8
0
  6
Continuous
 62
     7
370
    25
100
AcDbLine
 10
6542.5187555745
 20
4422.6500598451
 30
0.0
 11
6542.0187620118
 21
4422.6500598451
 31
0.0
  0
LINE
  5
1E2
330
1F
100
AcDbEntity
  8
0
  6
Continuous
 62
     7
370
    25
100
AcDbLine
 10
6542.0187620118
 20
4422.6500598451
 30
0.0
 11
6542.0187620118
 21
4507.47708806
 31
0.0
  0
ARC
  5
1E3
330
1F
100
AcDbEntity
  8
0
  6
Continuous
 62
     7
370
    25
100
AcDbCircle
 10
6011.0187553361
 20
4422.6500669977
 30
0.0
 40
5.0
100
AcDbArc
 50
180.0
 51
249.3579892957
  0
ARC
  5
1E4
330
1F
100
AcDbEntity
  8
0
  6
Continuous
 62
     7
370
    25
100
AcDbCircle
 10
6537.0187553361
 20
4422.6500669977
 30
0.0
 40
5.0
100
AcDbArc
 50
290.6420107043
 51
0.0
  0
LINE
  5
1E5
330
1F
100
AcDbEntity
  8
0
  6
Continuous
 62
     7
370
    25
100
AcDbLine
 10
6011.018743892
 20
4417.6500646135
 30
0.0
 11
6013.3325663999
 21
4417.6500646135
 31
0.0
  0
LWPOLYLINE
  5
1E6
330
1F
100
AcDbEntity
  8
0
  6
Continuous
 62
     7
370
    25
100
AcDbPolyline
 90
        9
 70
   128
 43
0.0
 10
6013.3325663999
 20
4417.6500646135
 10
6013.3757797673
 20
4417.6406023761
 10
6013.4173838094
 20
4417.6125583908
 10
6013.4557692006
 20
4417.567005541
 10
6013.4895054296
 20
4417.5056574603
 10
6013.517281194
 20
4417.43083873
 10
6013.5380534127
 20
4417.3454103729
 10
6013.5510472253
 20
4417.2525612375
 10
6013.5557857946
 20
4417.1558378002
  0
LWPOLYLINE
  5
1E7
330
1F
100
AcDbEntity
  8
0
  6
Continuous
 62
     7
370
    25
100
AcDbPolyline
 90
        9
 70
   128
 43
0.0
 10
6534.4817248776
 20
4417.1558378002
 10
6534.4864634469
 20
4417.2525612375
 10
6534.4994572595
 20
4417.3454103729
 10
6534.5202294782
 20
4417.43083873
 10
6534.5480052426
 20
4417.5056574603
 10
6534.5817414716
 20
4417.567005541
 10
6534.6201268628
 20
4417.6125583908
 10
6534.6617309049
 20
4417.6406023761
 10
6534.7049442723
 20
4417.6500646135
  0
LINE
  5
1E8
330
1F
100
AcDbEntity
  8
0
  6
Continuous
 62
     7
370
    25
100
AcDbLine
 10
6534.7049442723
 20
4417.6500646135
 30
0.0
 11
6537.0187667802
 21
4417.6500646135
 31
0.0
  0
LWPOLYLINE
  5
1E9
330
1F
100
AcDbEntity
  8
0
  6
Continuous
 62
     7
370
    25
100
AcDbPolyline
 90
        9
 70
   128
 43
0.0
 10
6532.8329709962
 20
4418.1566146871
 10
6532.8665880158
 20
4418.1558994314
 10
6532.9020527795
 20
4418.1551394721
 10
6532.9391566709
 20
4418.1543497106
 10
6532.9776314691
 20
4418.1535301467
 10
6533.0171791509
 20
4418.1526807805
 10
6533.0575911
 20
4418.1518165132
 10
6533.0985692933
 20
4418.1509522458
 10
6533.1398157075
 20
4418.1500730773
  0
SPLINE
  5
1EA
330
1F
100
AcDbEntity
  8
0
  6
Continuous
 62
     7
370
    25
100
AcDbSpline
210
0.0
220
0.0
230
1.0
 70
     8
 71
     3
 72
    16
 73
    12
 74
     0
 42
0.000000001
 43
0.00000001
 40
0.0
 40
0.0
 40
0.0
 40
0.0
 40
0.4999999999999676
 40
0.4999999999999676
 40
0.7499999999999514
 40
0.7499999999999514
 40
0.8749999999999433
 40
0.8749999999999433
 40
0.9374999999999716
 40
0.9374999999999716
 40
1.0
 40
1.0
 40
1.0
 40
1.0
 10
6534.704945270531
 20
4417.650066997671
 30
0.0
 10
6534.410116949991
 20
4417.650067422738
 30
0.0
 10
6534.118781321119
 20
4417.663311607578
 30
0.0
 10
6533.690449069119
 20
4417.74226717504
 30
0.0
 10
6533.549188669433
 20
4417.777986095815
 30
0.0
 10
6533.353168656599
 20
4417.867922589067
 30
0.0
 10
6533.289251033581
 20
4417.904494040802
 30
0.0
 10
6533.209023843528
 20
4417.978539259559
 30
0.0
 10
6533.184441042428
 20
4418.00714508508
 30
0.0
 10
6533.148777789173
 20
4418.073173640218
 30
0.0
 10
6533.138156271622
 20
4418.111346643208
 30
0.0
 10
6533.139807974488
 20
4418.150066997663
 30
0.0
  0
SPLINE
  5
1EB
330
1F
100
AcDbEntity
  8
0
  6
Continuous
 62
     7
370
    25
100
AcDbSpline
210
0.0
220
0.0
230
1.0
 70
     8
 71
     3
 72
    16
 73
    12
 74
     0
 42
0.000000001
 43
0.00000001
 40
0.0
 40
0.0
 40
0.0
 40
0.0
 40
0.0625000000000135
 40
0.0625000000000135
 40
0.1250000000000269
 40
0.1250000000000269
 40
0.2500000000000242
 40
0.2500000000000242
 40
0.5000000000000188
 40
0.5000000000000188
 40
1.0
 40
1.0
 40
1.0
 40
1.0
 10
6014.897702697713
 20
4418.150066997663
 30
0.0
 10
6014.899356614033
 20
4418.111294753877
 30
0.0
 10
6014.88890055608
 20
4418.073503018372
 30
0.0
 10
6014.852960477062
 20
4418.006924084936
 30
0.0
 10
6014.828819873889
 20
4417.978887726892
 30
0.0
 10
6014.748407170818
 20
4417.90454865439
 30
0.0
 10
6014.684811494455
 20
4417.868164675735
 30
0.0
 10
6014.488350796834
 20
4417.777946136021
 30
0.0
 10
6014.347732439507
 20
4417.742448002596
 30
0.0
 10
6013.920606117542
 20
4417.663543859063
 30
0.0
 10
6013.62746028026
 20
4417.650067430412
 30
0.0
 10
6013.332565608061
 20
4417.650066997672
 30
0.0
  0
LWPOLYLINE
  5
1EC
330
1F
100
AcDbEntity
  8
0
  6
Continuous
 62
     7
370
    25
100
AcDbPolyline
 90
        9
 70
   128
 43
0.0
 10
6014.8976949647
 20
4418.1500730773
 10
6014.9389413789
 20
4418.1509522458
 10
6014.9799195722
 20
4418.1518165132
 10
6015.0203315213
 20
4418.1526807805
 10
6015.0598792031
 20
4418.1535301467
 10
6015.0983540013
 20
4418.1543497106
 10
6015.1354578927
 20
4418.1551394721
 10
6015.1709226564
 20
4418.1558994314
 10
6015.204539676
 20
4418.1566146871
  0
LINE
  5
1ED
330
1F
100
AcDbEntity
  8
0
  6
Continuous
 62
     7
370
    25
100
AcDbLine
 10
6533.1398157075
 20
4418.1500730773
 30
0.0
 11
6537.0187667802
 21
4418.1500730773
 31
0.0
  0
LINE
  5
1EE
330
1F
100
AcDbEntity
  8
0
  6
Continuous
 62
     7
370
    25
100
AcDbLine
 10
6537.0187667802
 20
4417.6500646135
 30
0.0
 11
6537.0187667802
 21
4418.1500730773
 31
0.0
  0
LINE
  5
1EF
330
1F
100
AcDbEntity
  8
0
  6
Continuous
 62
     7
370
    25
100
AcDbLine
 10
6011.018743892
 20
4418.1500730773
 30
0.0
 11
6014.8976949647
 21
4418.1500730773
 31
0.0
  0
LINE
  5
1F0
330
1F
100
AcDbEntity
  8
0
  6
Continuous
 62
     7
370
    25
100
AcDbLine
 10
6011.018743892
 20
4418.1500730773
 30
0.0
 11
6011.018743892
 21
4417.6500646135
 31
0.0
  0
ARC
  5
1F1
330
1F
100
AcDbEntity
  8
0
  6
Continuous
 62
     7
370
    25
100
AcDbCircle
 10
6274.0187553361
 20
4546.6500669977
 30
0.0
 40
40.50000000000465
100
AcDbArc
 50
48.9678869335
 51
129.777084838
  0
LWPOLYLINE
  5
1F2
330
1F
100
AcDbEntity
  8
0
  6
Continuous
 62
     7
370
    25
100
AcDbPolyline
 90
        9
 70
   128
 43
0.0
 10
6248.106759195
 20
4577.7759162446
 10
6248.0443494067
 20
4577.850882124
 10
6247.9843387052
 20
4577.9229683539
 10
6247.9290311828
 20
4577.9894051811
 10
6247.8805539802
 20
4578.0476351937
 10
6247.8407716051
 20
4578.0954250803
 10
6247.8112095639
 20
4578.1309345474
 10
6247.7930040702
 20
4578.1528020015
 10
6247.7868573412
 20
4578.1601855269
  0
LWPOLYLINE
  5
1F3
330
1F
100
AcDbEntity
  8
0
  6
Continuous
 62
     7
370
    25
100
AcDbPolyline
 90
        9
 70
   128
 43
0.0
 10
6300.9345141843
 20
4577.5780791154
 10
6300.9282072678
 20
4577.5708315631
 10
6300.9095286623
 20
4577.5493683031
 10
6300.879195486
 20
4577.514514487
 10
6300.8383756176
 20
4577.4676074943
 10
6300.7886336788
 20
4577.4104522278
 10
6300.7318863317
 20
4577.3452447465
 10
6300.6703091457
 20
4577.2744903078
 10
6300.6062732682
 20
4577.2009083738
  0
ARC
  5
1F4
330
1F
100
AcDbEntity
  8
0
  6
Continuous
 62
     7
370
    25
100
AcDbCircle
 10
6238.1898222171
 20
4589.6882773642
 30
0.0
 40
15.50000000000085
100
AcDbArc
 50
271.2322452901
 51
309.777084838
  0
LWPOLYLINE
  5
1F5
330
1F
100
AcDbEntity
  8
0
  6
Continuous
 62
     7
370
    25
100
AcDbPolyline
 90
        9
 70
   128
 43
0.0
 10
6238.5231500164
 20
4574.1918610146
 10
6238.5210526779
 20
4574.2893853893
 10
6238.5190372959
 20
4574.3831602594
 10
6238.517178376
 20
4574.469583269
 10
6238.5155466989
 20
4574.5453333219
 10
6238.5142093196
 20
4574.6075009664
 10
6238.5132183924
 20
4574.6536945661
 10
6238.5126037195
 20
4574.6821408829
 10
6238.5123988286
 20
4574.6917465439
  0
LWPOLYLINE
  5
1F6
330
1F
100
AcDbEntity
  8
0
  6
Continuous
 62
     7
370
    25
100
AcDbPolyline
 90
        9
 70
   128
 43
0.0
 10
6310.1307807162
 20
4573.9073363801
 10
6310.1303634837
 20
4573.8977381697
 10
6310.1291304126
 20
4573.8693123421
 10
6310.1271224812
 20
4573.8231504073
 10
6310.124425371
 20
4573.7610274663
 10
6310.1211359397
 20
4573.6853314301
 10
6310.1173845723
 20
4573.5989698877
 10
6310.1133165553
 20
4573.5052620729
 10
6310.1090809002
 20
4573.4078084787
  0
ARC
  5
1F7
330
1F
100
AcDbEntity
  8
0
  6
Continuous
 62
     7
370
    25
100
AcDbCircle
 10
6310.7817431137
 20
4588.8932052531
 30
0.0
 40
15.50000000000064
100
AcDbArc
 50
228.9678869335
 51
267.5127264814
  0
ARC
  5
1F8
330
1F
100
AcDbEntity
  8
0
  6
Continuous
 62
     7
370
    25
100
AcDbCircle
 10
6262.2427267198
 20
3471.4714437661
 30
0.0
 40
1102.975493319844
100
AcDbArc
 50
91.2322452901
 51
101.7262811686
  0
LWPOLYLINE
  5
1F9
330
1F
100
AcDbEntity
  8
0
  6
Continuous
 62
     7
370
    25
100
AcDbPolyline
 90
        9
 70
   128
 43
0.0
 10
6038.0779115155
 20
4551.4274967572
 10
6038.0580929711
 20
4551.5230057498
 10
6038.039034386
 20
4551.6148453316
 10
6038.0214659169
 20
4551.6994839271
 10
6038.0060581163
 20
4551.7736730834
 10
6037.9934219316
 20
4551.8345555028
 10
6037.9840342
 20
4551.8797954282
 10
6037.9782525495
 20
4551.9076568743
 10
6037.9763004973
 20
4551.9170632323
  0
LWPOLYLINE
  5
1FA
330
1F
100
AcDbEntity
  8
0
  6
Continuous
 62
     7
370
    25
100
AcDbPolyline
 90
        9
 70
   128
 43
0.0
 10
6510.9495727017
 20
4546.5542619785
 10
6510.9474120334
 20
4546.5449040493
 10
6510.9409896329
 20
4546.5171841642
 10
6510.9305737212
 20
4546.4721677562
 10
6510.9165666297
 20
4546.4115833601
 10
6510.899489899
 20
4546.3377667328
 10
6510.8799991801
 20
4546.2535453698
 10
6510.8588693336
 20
4546.1621639987
 10
6510.8368752196
 20
4546.0671281179
  0
ARC
  5
1FB
330
1F
100
AcDbEntity
  8
0
  6
Continuous
 62
     7
370
    25
100
AcDbCircle
 10
6262.2427267198
 20
3471.4714437661
 30
0.0
 40
1102.975493319844
100
AcDbArc
 50
76.9744802481
 51
87.5127264814
  0
ARC
  5
1FC
330
1F
100
AcDbEntity
  8
0
  6
Continuous
 62
     7
370
    25
100
AcDbCircle
 10
6046.1279492476
 20
4512.6449594087
 30
0.0
 40
39.6091939115321
100
AcDbArc
 50
101.7262811686
 51
180.0
  0
LINE
  5
1FD
330
1F
100
AcDbEntity
  8
0
  6
Continuous
 62
     7
370
    25
100
AcDbLine
 10
6006.5187422231
 20
4512.6449597737
 30
0.0
 11
6006.0187486604
 21
4512.6449597737
 31
0.0
  0
LINE
  5
1FE
330
1F
100
AcDbEntity
  8
0
  6
Continuous
 62
     7
370
    25
100
AcDbLine
 10
6542.0187620118
 20
4507.47708806
 30
0.0
 11
6541.5187684491
 21
4507.47708806
 31
0.0
  0
ARC
  5
1FF
330
1F
100
AcDbEntity
  8
0
  6
Continuous
 62
     7
370
    25
100
AcDbCircle
 10
6501.9095614246
 20
4507.4770880847
 30
0.0
 40
39.60919391153253
100
AcDbArc
 50
0.0
 51
76.9744802481
  0
LINE
  5
200
330
1F
100
AcDbEntity
  8
0
  6
Continuous
 62
     7
370
    25
100
AcDbLine
 10
6006.5187422231
 20
4512.6449597737
 30
0.0
 11
6006.5187422231
 21
4422.6500598451
 31
0.0
  0
LINE
  5
201
330
1F
100
AcDbEntity
  8
0
  6
Continuous
 62
     7
370
    25
100
AcDbLine
 10
6006.5187422231
 20
4422.6500598451
 30
0.0
 11
6006.0187486604
 21
4422.6500598451
 31
0.0
  0
LINE
  5
202
330
1F
100
AcDbEntity
  8
0
  6
Continuous
 62
     7
370
    25
100
AcDbLine
 10
6542.0187620118
 20
4422.6500598451
 30
0.0
 11
6541.5187684491
 21
4422.6500598451
 31
0.0
  0
LINE
  5
203
330
1F
100
AcDbEntity
  8
0
  6
Continuous
 62
     7
370
    25
100
AcDbLine
 10
6541.5187684491
 20
4422.6500598451
 30
0.0
 11
6541.5187684491
 21
4507.47708806
 31
0.0
  0
ARC
  5
204
330
1F
100
AcDbEntity
  8
0
  6
Continuous
 62
     7
370
    25
100
AcDbCircle
 10
6537.0187553361
 20
4422.6500669977
 30
0.0
 40
4.5
100
AcDbArc
 50
270.0
 51
0.0
  0
ARC
  5
205
330
1F
100
AcDbEntity
  8
0
  6
Continuous
 62
     7
370
    25
100
AcDbCircle
 10
6011.0187553361
 20
4422.6500669977
 30
0.0
 40
4.5
100
AcDbArc
 50
180.0
 51
270.0
  0
ARC
  5
206
330
1F
100
AcDbEntity
  8
0
  6
Continuous
 62
     7
370
    25
100
AcDbCircle
 10
6069.0187553361
 20
4422.6500669977
 30
0.0
 40
54.16904810515462
100
AcDbArc
 50
119.3382490931
 51
180.0
  0
SPLINE
  5
207
330
1F
100
AcDbEntity
  8
0
  6
Continuous
 62
     7
370
    25
100
AcDbSpline
210
0.0
220
0.0
230
1.0
 70
     8
 71
     3
 72
     8
 73
     4
 74
     0
 42
0.000000001
 43
0.00000001
 40
0.0
 40
0.0
 40
0.0
 40
0.0
 40
1.0
 40
1.0
 40
1.0
 40
1.0
 10
6014.897702697713
 20
4418.150066997663
 30
0.0
 10
6014.865713416744
 20
4419.649896445324
 30
0.0
 10
6014.849707230946
 20
4421.149896363231
 30
0.0
 10
6014.849707230946
 20
4422.650066997663
 30
0.0
  0
SPLINE
  5
208
330
1F
100
AcDbEntity
  8
0
  6
Continuous
 62
     7
370
    25
100
AcDbSpline
210
0.0
220
0.0
230
1.0
 70
     8
 71
     3
 72
     8
 73
     4
 74
     0
 42
0.000000001
 43
0.00000001
 40
0.0
 40
0.0
 40
0.0
 40
0.0
 40
1.0
 40
1.0
 40
1.0
 40
1.0
 10
6533.187803441255
 20
4422.650066997663
 30
0.0
 10
6533.187803441255
 20
4421.149896363231
 30
0.0
 10
6533.171797255457
 20
4419.649896445324
 30
0.0
 10
6533.139807974488
 20
4418.150066997663
 30
0.0
  0
ARC
  5
209
330
1F
100
AcDbEntity
  8
0
  6
Continuous
 62
     7
370
    25
100
AcDbCircle
 10
6479.0187553361
 20
4422.6500669977
 30
0.0
 40
54.16904810515475
100
AcDbArc
 50
0.0
 51
60.6617509069
  0
ARC
  5
20A
330
1F
100
AcDbEntity
  8
0
  6
Continuous
 62
     7
370
    25
100
AcDbCircle
 10
6466.7791647818
 20
4400.8734494433
 30
0.0
 40
79.1496135320818
100
AcDbArc
 50
60.6617509069
 51
82.9962566661
  0
ARC
  5
20B
330
1F
100
AcDbEntity
  8
0
  6
Continuous
 62
     7
370
    25
100
AcDbCircle
 10
6274.0187553361
 20
2831.8133857962
 30
0.0
 40
1660.005729306582
100
AcDbArc
 50
82.9962566661
 51
97.0037433339
  0
ARC
  5
20C
330
1F
100
AcDbEntity
  8
0
  6
Continuous
 62
     7
370
    25
100
AcDbCircle
 10
6081.2583458904
 20
4400.8734494432
 30
0.0
 40
79.14961353209027
100
AcDbArc
 50
97.0037433339
 51
119.3382490931
  0
CIRCLE
  5
20D
330
1F
100
AcDbEntity
  8
0
  6
Continuous
 62
     7
370
    25
100
AcDbCircle
 10
6274.0187553361
 20
4546.6500669977
 30
0.0
 40
17.49999999999909
  0
LWPOLYLINE
  5
20E
330
1F
100
AcDbEntity
  8
0
  6
Continuous
 62
     7
370
    25
100
AcDbPolyline
 90
        9
 70
   128
 43
0.0
 10
6476.3927815154
 20
4479.1278598567
 10
6476.3968942359
 20
4479.1612235567
 10
6476.4012155726
 20
4479.1964424511
 10
6476.4057306245
 20
4479.233270671
 10
6476.4104244903
 20
4479.2714548966
 10
6476.4152524665
 20
4479.3107343575
 10
6476.4201847508
 20
4479.3508482834
 10
6476.4251766398
 20
4479.3915135523
 10
6476.4302132323
 20
4479.4324619433
  0
ARC
  5
20F
330
1F
100
AcDbEntity
  8
0
  6
Continuous
 62
     7
370
    25
100
AcDbCircle
 10
6274.0187553361
 20
2831.8133857962
 30
0.0
 40
1659.69883710159
100
AcDbArc
 50
82.9962566661
 51
97.0037433339
  0
LWPOLYLINE
  5
210
330
1F
100
AcDbEntity
  8
0
  6
Continuous
 62
     7
370
    25
100
AcDbPolyline
 90
        9
 70
   128
 43
0.0
 10
6071.6072974399
 20
4479.4324619433
 10
6071.6123340324
 20
4479.3915135523
 10
6071.6173259214
 20
4479.3508482834
 10
6071.6222582057
 20
4479.3107343575
 10
6071.6270861819
 20
4479.2714548966
 10
6071.6317800477
 20
4479.233270671
 10
6071.6362950996
 20
4479.1964424511
 10
6071.6406164363
 20
4479.1612235567
 10
6071.6447291568
 20
4479.1278598567
  0
ARC
  5
211
330
1F
100
AcDbEntity
  8
0
  6
Continuous
 62
     7
370
    25
100
AcDbCircle
 10
6466.7791647818
 20
4400.8734494433
 30
0.0
 40
78.84272132709003
100
AcDbArc
 50
60.6617509069
 51
82.9962566661
  0
LWPOLYLINE
  5
212
330
1F
100
AcDbEntity
  8
0
  6
Continuous
 62
     7
370
    25
100
AcDbPolyline
 90
        9
 70
   128
 43
0.0
 10
6505.4093060687
 20
4469.6039912959
 10
6505.4257718518
 20
4469.63330188
 10
6505.4431615069
 20
4469.6642217895
 10
6505.4613409236
 20
4469.6965722104
 10
6505.4801908925
 20
4469.7300998231
 10
6505.4995773032
 20
4469.7646109125
 10
6505.5193809465
 20
4469.7998372575
 10
6505.5394528106
 20
4469.8355553409
 10
6505.5596736863
 20
4469.871526744
  0
ARC
  5
213
330
1F
100
AcDbEntity
  8
0
  6
Continuous
 62
     7
370
    25
100
AcDbCircle
 10
6081.2583458904
 20
4400.8734494432
 30
0.0
 40
78.8427213270993
100
AcDbArc
 50
97.0037433339
 51
119.3382490931
  0
LWPOLYLINE
  5
214
330
1F
100
AcDbEntity
  8
0
  6
Continuous
 62
     7
370
    25
100
AcDbPolyline
 90
        9
 70
   128
 43
0.0
 10
6042.4778369859
 20
4469.871526744
 10
6042.4980578616
 20
4469.8355553409
 10
6042.5181297257
 20
4469.7998372575
 10
6042.537933369
 20
4469.7646109125
 10
6042.5573197797
 20
4469.7300998231
 10
6042.5761697486
 20
4469.6965722104
 10
6042.5943491653
 20
4469.6642217895
 10
6042.6117388204
 20
4469.63330188
 10
6042.6282046035
 20
4469.6039912959
  0
ARC
  5
215
330
1F
100
AcDbEntity
  8
0
  6
Continuous
 62
     7
370
    25
100
AcDbCircle
 10
6479.0187553361
 20
4422.6500669977
 30
0.0
 40
53.86215590016309
100
AcDbArc
 50
0.0
 51
60.6617509069
  0
LINE
  5
216
330
1F
100
AcDbEntity
  8
0
  6
Continuous
 62
     7
370
    25
100
AcDbLine
 10
6532.8809229329
 20
4422.6500598451
 30
0.0
 11
6533.1877974465
 21
4422.6500598451
 31
0.0
  0
ARC
  5
217
330
1F
100
AcDbEntity
  8
0
  6
Continuous
 62
     7
370
    25
100
AcDbCircle
 10
6069.0187553361
 20
4422.6500669977
 30
0.0
 40
53.86215590016333
100
AcDbArc
 50
119.3382490931
 51
180.0
  0
LINE
  5
218
330
1F
100
AcDbEntity
  8
0
  6
Continuous
 62
     7
370
    25
100
AcDbLine
 10
6014.8497132257
 20
4422.6500598451
 30
0.0
 11
6015.1565877393
 21
4422.6500598451
 31
0.0
  0
ARC
  5
219
330
1F
100
AcDbEntity
  8
0
  6
Continuous
 62
     7
370
    25
100
AcDbCircle
 10
6069.0187553361
 20
4422.6500669977
 30
0.0
 40
50.0
100
AcDbArc
 50
119.3382490931
 51
180.0
  0
LWPOLYLINE
  5
21A
330
1F
100
AcDbEntity
  8
0
  6
Continuous
 62
     7
370
    25
100
AcDbPolyline
 90
        9
 70
   128
 43
0.0
 10
6042.6282046035
 20
4469.6039912959
 10
6043.0478064015
 20
4468.8574431201
 10
6043.4231070474
 20
4468.1897071859
 10
6043.7492785647
 20
4467.6093814632
 10
6044.022103925
 20
4467.1239910385
 10
6044.2380366519
 20
4466.7398093006
 10
6044.3942902282
 20
4466.461783435
 10
6044.4888678983
 20
4466.2935195228
 10
6044.5205328658
 20
4466.2371931335
  0
ARC
  5
21B
330
1F
100
AcDbEntity
  8
0
  6
Continuous
 62
     7
370
    25
100
AcDbCircle
 10
6274.0187553361
 20
2831.8133857962
 30
0.0
 40
1655.836681201427
100
AcDbArc
 50
82.9962566661
 51
97.0037433339
  0
LWPOLYLINE
  5
21C
330
1F
100
AcDbEntity
  8
0
  6
Continuous
 62
     7
370
    25
100
AcDbPolyline
 90
        9
 70
   128
 43
0.0
 10
6071.6447291568
 20
4479.1278598567
 10
6071.7491415933
 20
4478.2778678199
 10
6071.8425420716
 20
4477.5175956746
 10
6071.9237235978
 20
4476.8568632862
 10
6071.9916132882
 20
4476.3042090198
 10
6072.0453468755
 20
4475.866785433
 10
6072.0842389062
 20
4475.5502400657
 10
6072.1077678397
 20
4475.3586558362
 10
6072.115650554
 20
4475.2945212385
  0
LWPOLYLINE
  5
21D
330
1F
100
AcDbEntity
  8
0
  6
Continuous
 62
     7
370
    25
100
AcDbPolyline
 90
        9
 70
   128
 43
0.0
 10
6476.3927815154
 20
4479.1278598567
 10
6476.2883690789
 20
4478.2778678199
 10
6476.1949686006
 20
4477.5175956746
 10
6476.1137870744
 20
4476.8568632862
 10
6476.045897384
 20
4476.3042090198
 10
6475.9921637967
 20
4475.866785433
 10
6475.953271766
 20
4475.5502400657
 10
6475.9297428325
 20
4475.3586558362
 10
6475.9218601182
 20
4475.2945212385
  0
ARC
  5
21E
330
1F
100
AcDbEntity
  8
0
  6
Continuous
 62
     7
370
    25
100
AcDbCircle
 10
6466.7791647818
 20
4400.8734494433
 30
0.0
 40
74.98056542692733
100
AcDbArc
 50
60.6617509069
 51
82.9962566661
  0
LWPOLYLINE
  5
21F
330
1F
100
AcDbEntity
  8
0
  6
Continuous
 62
     7
370
    25
100
AcDbPolyline
 90
        9
 70
   128
 43
0.0
 10
6503.5169778064
 20
4466.2371931335
 10
6503.5486427739
 20
4466.2935195228
 10
6503.643220444
 20
4466.461783435
 10
6503.7994740203
 20
4466.7398093006
 10
6504.0154067472
 20
4467.1239910385
 10
6504.2882321075
 20
4467.6093814632
 10
6504.6144036248
 20
4468.1897071859
 10
6504.9897042707
 20
4468.8574431201
 10
6505.4093060687
 20
4469.6039912959
  0
ARC
  5
220
330
1F
100
AcDbEntity
  8
0
  6
Continuous
 62
     7
370
    25
100
AcDbCircle
 10
6081.2583458904
 20
4400.8734494432
 30
0.0
 40
74.98056542693583
100
AcDbArc
 50
97.0037433339
 51
119.3382490931
  0
ARC
  5
221
330
1F
100
AcDbEntity
  8
0
  6
Continuous
 62
     7
370
    25
100
AcDbCircle
 10
6479.0187553361
 20
4422.6500669977
 30
0.0
 40
50.00000000000028
100
AcDbArc
 50
0.0
 51
60.6617509069
  0
LINE
  5
222
330
1F
100
AcDbEntity
  8
0
  6
Continuous
 62
     7
370
    25
100
AcDbLine
 10
6552.4828640416
 20
4602.6500669977
 30
0.0
 11
6553.0187694028
 21
4602.6500669977
 31
0.0
  0
ARC
  5
223
330
1F
100
AcDbEntity
  8
0
  6
Continuous
 62
     7
370
    25
100
AcDbCircle
 10
6553.0187553361
 20
4601.6500669977
 30
0.0
 40
1.0
100
AcDbArc
 50
0.0
 51
90.0
  0
ARC
  5
224
330
1F
100
AcDbEntity
  8
0
  6
Continuous
 62
     7
370
    25
100
AcDbCircle
 10
5995.0187553361
 20
4601.6500669977
 30
0.0
 40
1.0
100
AcDbArc
 50
90.0
 51
180.0
  0
LINE
  5
225
330
1F
100
AcDbEntity
  8
0
  6
Continuous
 62
     7
370
    25
100
AcDbLine
 10
5995.0187412694
 20
4602.6500669977
 30
0.0
 11
5995.5546466306
 21
4602.6500669977
 31
0.0
  0
LWPOLYLINE
  5
226
330
1F
100
AcDbEntity
  8
0
  6
Continuous
 62
     7
370
    25
100
AcDbPolyline
 90
       18
 70
   128
 43
0.0
 10
6475.9218601182
 20
4475.2945212385
 10
6479.6019700959
 20
4474.6555594465
 10
6483.209541221
 20
4473.6531881353
 10
6486.7178408101
 20
4472.294813182
 10
6490.1008067325
 20
4470.5905524751
 10
6493.3333603337
 20
4468.5530272981
 10
6496.3915107444
 20
4466.1973474285
 10
6499.2525932983
 20
4463.5409919282
 10
6501.8953589395
 20
4460.6036899349
 10
6504.3001977399
 20
4457.4071971437
 10
6506.4493028119
 20
4453.9752511045
 10
6508.3267001107
 20
4450.3333030006
 10
6509.9184719518
 20
4446.5083835384
 10
6511.2128166154
 20
4442.5288347265
 10
6512.2001228526
 20
4438.4242204687
 10
6512.8730741933
 20
4434.2249540349
 10
6513.2266638473
 20
4429.9622086545
 10
6513.2582841113
 20
4425.6676194927
  0
LWPOLYLINE
  5
227
330
1F
100
AcDbEntity
  8
0
  6
Continuous
 62
     7
370
    25
100
AcDbPolyline
 90
       18
 70
   128
 43
0.0
 10
6072.115650554
 20
4475.2945212385
 10
6068.4355405763
 20
4474.6555594465
 10
6064.8279694512
 20
4473.6531881353
 10
6061.3196698621
 20
4472.294813182
 10
6057.9367039397
 20
4470.5905524751
 10
6054.7041503385
 20
4468.5530272981
 10
6051.6459999278
 20
4466.1973474285
 10
6048.7849173739
 20
4463.5409919282
 10
6046.1421517327
 20
4460.6036899349
 10
6043.7373129323
 20
4457.4071971437
 10
6041.5882078603
 20
4453.9752511045
 10
6039.7108105615
 20
4450.3333030006
 10
6038.1190387204
 20
4446.5083835384
 10
6036.8246940568
 20
4442.5288347265
 10
6035.8373878196
 20
4438.4242204687
 10
6035.1644364789
 20
4434.2249540349
 10
6034.8108468249
 20
4429.9622086545
 10
6034.7792265609
 20
4425.6676194927
  0
LWPOLYLINE
  5
228
330
1F
100
AcDbEntity
  8
0
  6
Continuous
 62
     7
370
    25
100
AcDbPolyline
 90
       19
 70
   128
 43
0.0
 10
6134.8153410152
 20
4481.7883951327
 10
6134.8313299611
 20
4481.5988002082
 10
6134.8791924909
 20
4481.0314682981
 10
6134.9585709765
 20
4480.0907132884
 10
6135.0688395694
 20
4478.7836951872
 10
6135.2091638043
 20
4477.1203605195
 10
6135.378485699
 20
4475.113382723
 10
6135.5755237535
 20
4472.7779982349
 10
6135.7987580493
 20
4470.132028844
 10
6136.0464898542
 20
4467.1955762168
 10
6136.3168565229
 20
4463.9910069963
 10
6136.6077718928
 20
4460.5426845809
 10
6136.9170454934
 20
4456.8768946191
 10
6137.24230804
 20
4453.0215022823
 10
6137.5811008409
 20
4449.005862858
 10
6137.9308310941
 20
4444.8605386278
 10
6138.2888463929
 20
4440.6170604488
 10
6138.6524049237
 20
4436.3077489396
 10
6139.0187499717
 20
4431.965386655
  0
LWPOLYLINE
  5
229
330
1F
100
AcDbEntity
  8
0
  6
Continuous
 62
     7
370
    25
100
AcDbPolyline
 90
       19
 70
   128
 43
0.0
 10
6413.222169657
 20
4481.7883951327
 10
6413.2061807111
 20
4481.5988002082
 10
6413.1583181813
 20
4481.0314682981
 10
6413.0789396957
 20
4480.0907132884
 10
6412.9686711028
 20
4478.7836951872
 10
6412.8283468679
 20
4477.1203605195
 10
6412.6590249732
 20
4475.113382723
 10
6412.4619869187
 20
4472.7779982349
 10
6412.2387526229
 20
4470.132028844
 10
6411.991020818
 20
4467.1955762168
 10
6411.7206541493
 20
4463.9910069963
 10
6411.4297387794
 20
4460.5426845809
 10
6411.1204651788
 20
4456.8768946191
 10
6410.7952026322
 20
4453.0215022823
 10
6410.4564098313
 20
4449.005862858
 10
6410.1066795781
 20
4444.8605386278
 10
6409.7486642793
 20
4440.6170604488
 10
6409.3851057485
 20
4436.3077489396
 10
6409.0187607005
 20
4431.965386655
  0
ARC
  5
22A
330
1F
100
AcDbEntity
  8
0
  6
Continuous
 62
     7
370
    25
100
AcDbCircle
 10
6274.0187553361
 20
2831.8133857962
 30
0.0
 40
1605.836681201428
100
AcDbArc
 50
85.1775479377
 51
94.8224520623
  0
CIRCLE
  5
22B
330
1F
100
AcDbEntity
  8
0
  6
Continuous
 62
     7
370
    25
100
AcDbCircle
 10
6274.0187553361
 20
4388.6500669977
 30
0.0
 40
37.95321333469838
  0
CIRCLE
  5
22C
330
1F
100
AcDbEntity
  8
0
  6
Continuous
 62
     7
370
    25
100
AcDbCircle
 10
6274.0187553361
 20
4388.6500669977
 30
0.0
 40
36.9061615312612
  0
ENDSEC
  0
SECTION
  2
OBJECTS
  0
DICTIONARY
  5
C
330
0
100
AcDbDictionary
281
     1
  3
ACAD_GROUP
350
D
  3
ACAD_LAYOUT
350
1A
  3
ACAD_MLINESTYLE
350
17
  3
ACAD_PLOTSETTINGS
350
19
  3
ACAD_PLOTSTYLENAME
350
E
  3
ACAD_SCALELIST
350
47
  0
DICTIONARY
  5
D
102
{ACAD_REACTORS
330
C
102
}
330
C
100
AcDbDictionary
281
     1
  0
DICTIONARY
  5
1A
102
{ACAD_REACTORS
330
C
102
}
330
C
100
AcDbDictionary
281
     1
  3
Layout1
350
1E
  3
Layout2
350
26
  3
Model
350
22
  0
DICTIONARY
  5
17
102
{ACAD_REACTORS
330
C
102
}
330
C
100
AcDbDictionary
281
     1
  3
Standard
350
18
  0
DICTIONARY
  5
19
102
{ACAD_REACTORS
330
C
102
}
330
C
100
AcDbDictionary
281
     1
  0
ACDBDICTIONARYWDFLT
  5
E
102
{ACAD_REACTORS
330
C
102
}
330
C
100
AcDbDictionary
281
     1
  3
Normal
350
F
100
AcDbDictionaryWithDefault
340
F
  0
DICTIONARY
  5
47
102
{ACAD_REACTORS
330
C
102
}
330
C
100
AcDbDictionary
281
     1
  3
A0
350
48
  3
A1
350
49
  3
A2
350
4A
  3
A3
350
4B
  3
A4
350
4C
  3
A5
350
4D
  3
A6
350
4E
  3
A7
350
4F
  3
A8
350
50
  3
A9
350
51
  3
B0
350
52
  3
B1
350
53
  3
B2
350
54
  3
B3
350
55
  3
B4
350
56
  3
B5
350
57
  3
B6
350
58
  3
B7
350
59
  3
B8
350
5A
  3
B9
350
5B
  3
C0
350
5C
  3
C1
350
5D
  3
C2
350
5E
  3
C3
350
5F
  3
C4
350
60
  3
C5
350
61
  3
C6
350
62
  3
C7
350
63
  3
C8
350
64
  3
C9
350
65
  3
D0
350
66
  3
D1
350
67
  3
D2
350
68
  0
LAYOUT
  5
1E
102
{ACAD_REACTORS
330
1A
102
}
330
1A
100
AcDbPlotSettings
  1

  2
none_device
  4

  6

 40
0.0
 41
0.0
 42
0.0
 43
0.0
 44
0.0
 45
0.0
 46
0.0
 47
0.0
 48
0.0
 49
0.0
140
0.0
141
0.0
142
1.0
143
1.0
 70
   688
 72
     1
 73
     0
 74
     5
  7

 75
    16
147
1.0
148
0.0
149
0.0
100
AcDbLayout
  1
Layout1
 70
     1
 71
     1
 10
0.0
 20
0.0
 11
420.0
 21
297.0
 12
0.0
 22
0.0
 32
0.0
 14
1.0000000000E+20
 24
1.0000000000E+20
 34
1.0000000000E+20
 15
-1.0000000000E+20
 25
-1.0000000000E+20
 35
-1.0000000000E+20
146
0.0
 13
0.0
 23
0.0
 33
0.0
 16
1.0
 26
0.0
 36
0.0
 17
0.0
 27
1.0
 37
0.0
 76
     0
330
1B
  0
LAYOUT
  5
26
102
{ACAD_REACTORS
330
1A
102
}
330
1A
100
AcDbPlotSettings
  1

  2
none_device
  4

  6

 40
0.0
 41
0.0
 42
0.0
 43
0.0
 44
0.0
 45
0.0
 46
0.0
 47
0.0
 48
0.0
 49
0.0
140
0.0
141
0.0
142
1.0
143
1.0
 70
   688
 72
     1
 73
     0
 74
     5
  7

 75
    16
147
1.0
148
0.0
149
0.0
100
AcDbLayout
  1
Layout2
 70
     1
 71
     2
 10
0.0
 20
0.0
 11
0.0
 21
0.0
 12
0.0
 22
0.0
 32
0.0
 14
0.0
 24
0.0
 34
0.0
 15
0.0
 25
0.0
 35
0.0
146
0.0
 13
0.0
 23
0.0
 33
0.0
 16
1.0
 26
0.0
 36
0.0
 17
0.0
 27
1.0
 37
0.0
 76
     0
330
23
  0
LAYOUT
  5
22
102
{ACAD_REACTORS
330
1A
102
}
330
1A
100
AcDbPlotSettings
  1

  2
none_device
  4
Letter_(8.50_x_11.00_Inches)
  6

 40
6.35
 41
6.35
 42
6.35000508
 43
6.35000508
 44
215.9
 45
279.4
 46
0.0
 47
0.0
 48
0.0
 49
0.0
140
0.0
141
0.0
142
1.0
143
1.0
 70
  1712
 72
     1
 73
     0
 74
     0
  7

 75
     0
147
1.0
148
0.0
149
0.0
100
AcDbLayout
  1
Model
 70
     1
 71
     0
 10
0.0
 20
0.0
 11
20000.0
 21
10000.0
 12
0.0
 22
0.0
 32
0.0
 14
0.0
 24
0.0
 34
0.0
 15
20000.0
 25
10000.0
 35
0.0
146
0.0
 13
0.0
 23
0.0
 33
0.0
 16
1.0
 26
0.0
 36
0.0
 17
0.0
 27
1.0
 37
0.0
 76
     0
330
1F
331
29
  0
MLINESTYLE
  5
18
102
{ACAD_REACTORS
330
17
102
}
330
17
100
AcDbMlineStyle
  2
Standard
 70
     0
  3

 62
   256
 51
90.0
 52
90.0
 71
     2
 49
0.5
 62
   256
  6
BYLAYER
 49
-0.5
 62
   256
  6
BYLAYER
  0
ACDBPLACEHOLDER
  5
F
102
{ACAD_REACTORS
330
E
102
}
330
E
  0
SCALE
  5
48
102
{ACAD_REACTORS
330
47
102
}
330
47
100
AcDbScale
 70
     0
300
1:1
140
1.0
141
1.0
290
     1
  0
SCALE
  5
49
102
{ACAD_REACTORS
330
47
102
}
330
47
100
AcDbScale
 70
     0
300
1:2
140
1.0
141
2.0
290
     0
  0
SCALE
  5
4A
102
{ACAD_REACTORS
330
47
102
}
330
47
100
AcDbScale
 70
     0
300
1:4
140
1.0
141
4.0
290
     0
  0
SCALE
  5
4B
102
{ACAD_REACTORS
330
47
102
}
330
47
100
AcDbScale
 70
     0
300
1:5
140
1.0
141
5.0
290
     0
  0
SCALE
  5
4C
102
{ACAD_REACTORS
330
47
102
}
330
47
100
AcDbScale
 70
     0
300
1:8
140
1.0
141
8.0
290
     0
  0
SCALE
  5
4D
102
{ACAD_REACTORS
330
47
102
}
330
47
100
AcDbScale
 70
     0
300
1:10
140
1.0
141
10.0
290
     0
  0
SCALE
  5
4E
102
{ACAD_REACTORS
330
47
102
}
330
47
100
AcDbScale
 70
     0
300
1:16
140
1.0
141
16.0
290
     0
  0
SCALE
  5
4F
102
{ACAD_REACTORS
330
47
102
}
330
47
100
AcDbScale
 70
     0
300
1:20
140
1.0
141
20.0
290
     0
  0
SCALE
  5
50
102
{ACAD_REACTORS
330
47
102
}
330
47
100
AcDbScale
 70
     0
300
1:30
140
1.0
141
30.0
290
     0
  0
SCALE
  5
51
102
{ACAD_REACTORS
330
47
102
}
330
47
100
AcDbScale
 70
     0
300
1:40
140
1.0
141
40.0
290
     0
  0
SCALE
  5
52
102
{ACAD_REACTORS
330
47
102
}
330
47
100
AcDbScale
 70
     0
300
1:50
140
1.0
141
50.0
290
     0
  0
SCALE
  5
53
102
{ACAD_REACTORS
330
47
102
}
330
47
100
AcDbScale
 70
     0
300
1:100
140
1.0
141
100.0
290
     0
  0
SCALE
  5
54
102
{ACAD_REACTORS
330
47
102
}
330
47
100
AcDbScale
 70
     0
300
2:1
140
2.0
141
1.0
290
     0
  0
SCALE
  5
55
102
{ACAD_REACTORS
330
47
102
}
330
47
100
AcDbScale
 70
     0
300
4:1
140
4.0
141
1.0
290
     0
  0
SCALE
  5
56
102
{ACAD_REACTORS
330
47
102
}
330
47
100
AcDbScale
 70
     0
300
8:1
140
8.0
141
1.0
290
     0
  0
SCALE
  5
57
102
{ACAD_REACTORS
330
47
102
}
330
47
100
AcDbScale
 70
     0
300
10:1
140
10.0
141
1.0
290
     0
  0
SCALE
  5
58
102
{ACAD_REACTORS
330
47
102
}
330
47
100
AcDbScale
 70
     0
300
100:1
140
100.0
141
1.0
290
     0
  0
SCALE
  5
59
102
{ACAD_REACTORS
330
47
102
}
330
47
100
AcDbScale
 70
     0
300
1/128" = 1'-0"
140
0.0078125
141
12.0
290
     0
  0
SCALE
  5
5A
102
{ACAD_REACTORS
330
47
102
}
330
47
100
AcDbScale
 70
     0
300
1/64" = 1'-0"
140
0.015625
141
12.0
290
     0
  0
SCALE
  5
5B
102
{ACAD_REACTORS
330
47
102
}
330
47
100
AcDbScale
 70
     0
300
1/32" = 1'-0"
140
0.03125
141
12.0
290
     0
  0
SCALE
  5
5C
102
{ACAD_REACTORS
330
47
102
}
330
47
100
AcDbScale
 70
     0
300
1/16" = 1'-0"
140
0.0625
141
12.0
290
     0
  0
SCALE
  5
5D
102
{ACAD_REACTORS
330
47
102
}
330
47
100
AcDbScale
 70
     0
300
3/32" = 1'-0"
140
0.09375
141
12.0
290
     0
  0
SCALE
  5
5E
102
{ACAD_REACTORS
330
47
102
}
330
47
100
AcDbScale
 70
     0
300
1/8" = 1'-0"
140
0.125
141
12.0
290
     0
  0
SCALE
  5
5F
102
{ACAD_REACTORS
330
47
102
}
330
47
100
AcDbScale
 70
     0
300
3/16" = 1'-0"
140
0.1875
141
12.0
290
     0
  0
SCALE
  5
60
102
{ACAD_REACTORS
330
47
102
}
330
47
100
AcDbScale
 70
     0
300
1/4" = 1'-0"
140
0.25
141
12.0
290
     0
  0
SCALE
  5
61
102
{ACAD_REACTORS
330
47
102
}
330
47
100
AcDbScale
 70
     0
300
3/8" = 1'-0"
140
0.375
141
12.0
290
     0
  0
SCALE
  5
62
102
{ACAD_REACTORS
330
47
102
}
330
47
100
AcDbScale
 70
     0
300
1/2" = 1'-0"
140
0.5
141
12.0
290
     0
  0
SCALE
  5
63
102
{ACAD_REACTORS
330
47
102
}
330
47
100
AcDbScale
 70
     0
300
3/4" = 1'-0"
140
0.75
141
12.0
290
     0
  0
SCALE
  5
64
102
{ACAD_REACTORS
330
47
102
}
330
47
100
AcDbScale
 70
     0
300
1" = 1'-0"
140
1.0
141
12.0
290
     0
  0
SCALE
  5
65
102
{ACAD_REACTORS
330
47
102
}
330
47
100
AcDbScale
 70
     0
300
1-1/2" = 1'-0"
140
1.5
141
12.0
290
     0
  0
SCALE
  5
66
102
{ACAD_REACTORS
330
47
102
}
330
47
100
AcDbScale
 70
     0
300
3" = 1'-0"
140
3.0
141
12.0
290
     0
  0
SCALE
  5
67
102
{ACAD_REACTORS
330
47
102
}
330
47
100
AcDbScale
 70
     0
300
6" = 1'-0"
140
6.0
141
12.0
290
     0
  0
SCALE
  5
68
102
{ACAD_REACTORS
330
47
102
}
330
47
100
AcDbScale
 70
     0
300
1'-0" = 1'-0"
140
12.0
141
12.0
290
     0
  0
ENDSEC
  0
EOF
