  0
SECTION
  2
HEADER
  9
$ACADVER
  1
AC1015
  9
$ACADMAINTVER
 70
     6
  9
$DWGCODEPAGE
  3
ANSI_1250
  9
$INSBASE
 10
0.0
 20
0.0
 30
0.0
  9
$EXTMIN
 10
4774.0187553361
 20
4120.5147837068
 30
0.0
  9
$EXTMAX
 10
8663.5682350384
 20
5412.7431966076
 30
0.0
  9
$LIMMIN
 10
0.0
 20
0.0
  9
$LIMMAX
 10
420.0
 20
297.0
  9
$ORTHOMODE
 70
     0
  9
$REGENMODE
 70
     1
  9
$FILLMODE
 70
     1
  9
$QTEXTMODE
 70
     0
  9
$MIRRTEXT
 70
     1
  9
$LTSCALE
 40
1.0
  9
$ATTMODE
 70
     1
  9
$TEXTSIZE
 40
3.5
  9
$TRACEWID
 40
1.0
  9
$TEXTSTYLE
  7
Standard
  9
$CLAYER
  8
0
  9
$CELTYPE
  6
ByLayer
  9
$CECOLOR
 62
   256
  9
$CELTSCALE
 40
1.0
  9
$DISPSILH
 70
     0
  9
$DIMSCALE
 40
1.0
  9
$DIMASZ
 40
3.302
  9
$DIMEXO
 40
0.0
  9
$DIMDLI
 40
3.75
  9
$DIMRND
 40
0.0
  9
$DIMDLE
 40
0.0
  9
$DIMEXE
 40
1.0
  9
$DIMTP
 40
0.0
  9
$DIMTM
 40
0.0
  9
$DIMTXT
 40
3.5
  9
$DIMCEN
 40
2.5
  9
$DIMTSZ
 40
0.0
  9
$DIMTOL
 70
     0
  9
$DIMLIM
 70
     0
  9
$DIMTIH
 70
     1
  9
$DIMTOH
 70
     1
  9
$DIMSE1
 70
     0
  9
$DIMSE2
 70
     0
  9
$DIMTAD
 70
     1
  9
$DIMZIN
 70
     0
  9
$DIMBLK
  1

  9
$DIMASO
 70
     1
  9
$DIMSHO
 70
     1
  9
$DIMPOST
  1

  9
$DIMAPOST
  1

  9
$DIMALT
 70
     0
  9
$DIMALTD
 70
     3
  9
$DIMALTF
 40
0.0393700787
  9
$DIMLFAC
 40
1.0
  9
$DIMTOFL
 70
     1
  9
$DIMTVP
 40
0.0
  9
$DIMTIX
 70
     0
  9
$DIMSOXD
 70
     0
  9
$DIMSAH
 70
     0
  9
$DIMBLK1
  1

  9
$DIMBLK2
  1

  9
$DIMSTYLE
  2
ISO-25
  9
$DIMCLRD
 70
     0
  9
$DIMCLRE
 70
     0
  9
$DIMCLRT
 70
     0
  9
$DIMTFAC
 40
1.0
  9
$DIMGAP
 40
1.524
  9
$DIMJUST
 70
     0
  9
$DIMSD1
 70
     0
  9
$DIMSD2
 70
     0
  9
$DIMTOLJ
 70
     0
  9
$DIMTZIN
 70
     0
  9
$DIMALTZ
 70
     0
  9
$DIMALTTZ
 70
     0
  9
$DIMUPT
 70
     0
  9
$DIMDEC
 70
     2
  9
$DIMTDEC
 70
     2
  9
$DIMALTU
 70
     2
  9
$DIMALTTD
 70
     3
  9
$DIMTXSTY
  7
Standard
  9
$DIMAUNIT
 70
     0
  9
$DIMADEC
 70
     2
  9
$DIMALTRND
 40
0.0
  9
$DIMAZIN
 70
     0
  9
$DIMDSEP
 70
    44
  9
$DIMATFIT
 70
     3
  9
$DIMFRAC
 70
     0
  9
$DIMLDRBLK
  1

  9
$DIMLUNIT
 70
     2
  9
$DIMLWD
 70
    -2
  9
$DIMLWE
 70
    -2
  9
$DIMTMOVE
 70
     0
  9
$LUNITS
 70
     2
  9
$LUPREC
 70
     2
  9
$SKETCHINC
 40
1.0
  9
$FILLETRAD
 40
10.0
  9
$AUNITS
 70
     0
  9
$AUPREC
 70
     2
  9
$MENU
  1
.
  9
$ELEVATION
 40
0.0
  9
$PELEVATION
 40
0.0
  9
$THICKNESS
 40
0.0
  9
$LIMCHECK
 70
     0
  9
$CHAMFERA
 40
0.0
  9
$CHAMFERB
 40
0.0
  9
$CHAMFERC
 40
0.0
  9
$CHAMFERD
 40
0.0
  9
$SKPOLY
 70
     0
  9
$TDCREATE
 40
2459096.414960787
  9
$TDUCREATE
 40
2459096.331627454
  9
$TDUPDATE
 40
2459096.414990231
  9
$TDUUPDATE
 40
2459096.331656898
  9
$TDINDWG
 40
0.0000000116
  9
$TDUSRTIMER
 40
0.0000000116
  9
$USRTIMER
 70
     1
  9
$ANGBASE
 50
0.0
  9
$ANGDIR
 70
     0
  9
$PDMODE
 70
     0
  9
$PDSIZE
 40
-1.0
  9
$PLINEWID
 40
0.0
  9
$SPLFRAME
 70
     0
  9
$SPLINETYPE
 70
     6
  9
$SPLINESEGS
 70
     8
  9
$HANDSEED
  5
683
  9
$SURFTAB1
 70
     6
  9
$SURFTAB2
 70
     6
  9
$SURFTYPE
 70
     6
  9
$SURFU
 70
     6
  9
$SURFV
 70
     6
  9
$UCSBASE
  2

  9
$UCSNAME
  2

  9
$UCSORG
 10
0.0
 20
0.0
 30
0.0
  9
$UCSXDIR
 10
1.0
 20
0.0
 30
0.0
  9
$UCSYDIR
 10
0.0
 20
1.0
 30
0.0
  9
$UCSORTHOREF
  2

  9
$UCSORTHOVIEW
 70
     0
  9
$UCSORGTOP
 10
0.0
 20
0.0
 30
0.0
  9
$UCSORGBOTTOM
 10
0.0
 20
0.0
 30
0.0
  9
$UCSORGLEFT
 10
0.0
 20
0.0
 30
0.0
  9
$UCSORGRIGHT
 10
0.0
 20
0.0
 30
0.0
  9
$UCSORGFRONT
 10
0.0
 20
0.0
 30
0.0
  9
$UCSORGBACK
 10
0.0
 20
0.0
 30
0.0
  9
$PUCSBASE
  2

  9
$PUCSNAME
  2

  9
$PUCSORG
 10
0.0
 20
0.0
 30
0.0
  9
$PUCSXDIR
 10
1.0
 20
0.0
 30
0.0
  9
$PUCSYDIR
 10
0.0
 20
1.0
 30
0.0
  9
$PUCSORTHOREF
  2

  9
$PUCSORTHOVIEW
 70
     0
  9
$PUCSORGTOP
 10
0.0
 20
0.0
 30
0.0
  9
$PUCSORGBOTTOM
 10
0.0
 20
0.0
 30
0.0
  9
$PUCSORGLEFT
 10
0.0
 20
0.0
 30
0.0
  9
$PUCSORGRIGHT
 10
0.0
 20
0.0
 30
0.0
  9
$PUCSORGFRONT
 10
0.0
 20
0.0
 30
0.0
  9
$PUCSORGBACK
 10
0.0
 20
0.0
 30
0.0
  9
$USERI1
 70
     0
  9
$USERI2
 70
     0
  9
$USERI3
 70
     0
  9
$USERI4
 70
     0
  9
$USERI5
 70
     0
  9
$USERR1
 40
0.0
  9
$USERR2
 40
0.0
  9
$USERR3
 40
0.0
  9
$USERR4
 40
0.0
  9
$USERR5
 40
0.0
  9
$WORLDVIEW
 70
     1
  9
$SHADEDGE
 70
     3
  9
$SHADEDIF
 70
    70
  9
$TILEMODE
 70
     1
  9
$MAXACTVP
 70
    64
  9
$PINSBASE
 10
0.0
 20
0.0
 30
0.0
  9
$PLIMCHECK
 70
     0
  9
$PEXTMIN
 10
1.0000000000E+20
 20
1.0000000000E+20
 30
1.0000000000E+20
  9
$PEXTMAX
 10
-1.0000000000E+20
 20
-1.0000000000E+20
 30
-1.0000000000E+20
  9
$PLIMMIN
 10
0.0
 20
0.0
  9
$PLIMMAX
 10
420.0
 20
297.0
  9
$UNITMODE
 70
     0
  9
$VISRETAIN
 70
     1
  9
$PLINEGEN
 70
     0
  9
$PSLTSCALE
 70
     1
  9
$TREEDEPTH
 70
  3020
  9
$CMLSTYLE
  2
Standard
  9
$CMLJUST
 70
     0
  9
$CMLSCALE
 40
20.0
  9
$PROXYGRAPHICS
 70
     1
  9
$MEASUREMENT
 70
     1
  9
$CELWEIGHT
370
    -1
  9
$ENDCAPS
280
     0
  9
$JOINSTYLE
280
     0
  9
$LWDISPLAY
290
     1
  9
$INSUNITS
 70
     4
  9
$HYPERLINKBASE
  1

  9
$STYLESHEET
  1

  9
$XEDIT
290
     1
  9
$CEPSNTYPE
380
     0
  9
$PSTYLEMODE
290
     1
  9
$FINGERPRINTGUID
  2
{237362fb-6472-47f7-8ed7-b72dc3de8968}
  9
$VERSIONGUID
  2
{FAEB1C32-E019-11D5-929B-00C0DF256EC4}
  9
$EXTNAMES
290
     1
  9
$PSVPSCALE
 40
0.0
  9
$OLESTARTUP
290
     0
  0
ENDSEC
  0
SECTION
  2
CLASSES
  0
CLASS
  1
ACDBDICTIONARYWDFLT
  2
AcDbDictionaryWithDefault
  3
ObjectDBX Classes
 90
        0
280
     0
281
     0
  0
CLASS
  1
VISUALSTYLE
  2
AcDbVisualStyle
  3
ObjectDBX Classes
 90
     4095
280
     0
281
     0
  0
CLASS
  1
MATERIAL
  2
AcDbMaterial
  3
ObjectDBX Classes
 90
     1153
280
     0
281
     0
  0
CLASS
  1
SCALE
  2
AcDbScale
  3
ObjectDBX Classes
 90
     1153
280
     0
281
     0
  0
CLASS
  1
TABLESTYLE
  2
AcDbTableStyle
  3
ObjectDBX Classes
 90
     4095
280
     0
281
     0
  0
CLASS
  1
MLEADERSTYLE
  2
AcDbMLeaderStyle
  3
ACDB_MLEADERSTYLE_CLASS
 90
     4095
280
     0
281
     0
  0
CLASS
  1
SUN
  2
AcDbSun
  3
SCENEOE
 90
     1153
280
     0
281
     0
  0
CLASS
  1
ACDBPLACEHOLDER
  2
AcDbPlaceHolder
  3
ObjectDBX Classes
 90
        0
280
     0
281
     0
  0
CLASS
  1
LAYOUT
  2
AcDbLayout
  3
ObjectDBX Classes
 90
        0
280
     0
281
     0
  0
ENDSEC
  0
SECTION
  2
TABLES
  0
TABLE
  2
VPORT
  5
8
330
0
100
AcDbSymbolTable
 70
     1
  0
VPORT
  5
29
330
8
100
AcDbSymbolTableRecord
100
AcDbViewportTableRecord
  2
*Active
 70
     0
 10
0.0
 20
0.0
 11
1.0
 21
1.0
 12
6718.7934951873
 22
4766.6289901572
 13
0.0
 23
0.0
 14
10.0
 24
10.0
 15
10.0
 25
10.0
 16
0.0
 26
0.0
 36
1.0
 17
0.0
 27
0.0
 37
0.0
 40
1318.0729811588
 41
3.0099550829
 42
50.0
 43
0.0
 44
0.0
 50
0.0
 51
0.0
 71
     0
 72
   100
 73
     1
 74
     3
 75
     0
 76
     0
 77
     0
 78
     0
281
     0
 65
     1
110
0.0
120
0.0
130
0.0
111
1.0
121
0.0
131
0.0
112
0.0
122
1.0
132
0.0
 79
     0
146
0.0
  0
ENDTAB
  0
TABLE
  2
LTYPE
  5
5
330
0
100
AcDbSymbolTable
 70
     6
  0
LTYPE
  5
14
330
5
100
AcDbSymbolTableRecord
100
AcDbLinetypeTableRecord
  2
ByBlock
 70
     0
  3

 72
    65
 73
     0
 40
0.0
  0
LTYPE
  5
15
330
5
100
AcDbSymbolTableRecord
100
AcDbLinetypeTableRecord
  2
ByLayer
 70
     0
  3

 72
    65
 73
     0
 40
0.0
  0
LTYPE
  5
16
330
5
100
AcDbSymbolTableRecord
100
AcDbLinetypeTableRecord
  2
Continuous
 70
     0
  3
Solid line
 72
    65
 73
     0
 40
0.0
  0
LTYPE
  5
6E
330
5
100
AcDbSymbolTableRecord
100
AcDbLinetypeTableRecord
  2
HIDDEN
 70
     0
  3
Hidden __ __ __ __ __ __ __ __ __ __ __ __ __ __
 72
    65
 73
     2
 40
1.905
 49
1.27
 74
     0
 49
-0.635
 74
     0
  0
LTYPE
  5
6F
330
5
100
AcDbSymbolTableRecord
100
AcDbLinetypeTableRecord
  2
PHANTOM
 70
     0
  3
Phantom ______  __  __  ______  __  __  ______
 72
    65
 73
     6
 40
12.7
 49
6.35
 74
     0
 49
-1.27
 74
     0
 49
1.27
 74
     0
 49
-1.27
 74
     0
 49
1.27
 74
     0
 49
-1.27
 74
     0
  0
LTYPE
  5
70
330
5
100
AcDbSymbolTableRecord
100
AcDbLinetypeTableRecord
  2
CENTER
 70
     0
  3
Center ____ _ ____ _ ____ _ ____ _ ____ _ ____
 72
    65
 73
     4
 40
10.16
 49
6.35
 74
     0
 49
-1.27
 74
     0
 49
1.27
 74
     0
 49
-1.27
 74
     0
  0
LTYPE
  5
71
330
5
100
AcDbSymbolTableRecord
100
AcDbLinetypeTableRecord
  2
CENTERX2
 70
     0
  3
Center (2x) ________  __  ________  __  _____
 72
    65
 73
     4
 40
20.32
 49
12.7
 74
     0
 49
-2.54
 74
     0
 49
2.54
 74
     0
 49
-2.54
 74
     0
  0
LTYPE
  5
72
330
5
100
AcDbSymbolTableRecord
100
AcDbLinetypeTableRecord
  2
DOT2
 70
     0
  3
Dot (.5x) ........................................
 72
    65
 73
     2
 40
0.635
 49
0.0
 74
     0
 49
-0.635
 74
     0
  0
ENDTAB
  0
TABLE
  2
LAYER
  5
2
330
0
100
AcDbSymbolTable
 70
     1
  0
LAYER
  5
10
330
2
100
AcDbSymbolTableRecord
100
AcDbLayerTableRecord
  2
0
 70
     0
 62
     7
  6
Continuous
370
    -3
390
F
  0
ENDTAB
  0
TABLE
  2
STYLE
  5
3
330
0
100
AcDbSymbolTable
 70
     1
  0
STYLE
  5
11
330
3
100
AcDbSymbolTableRecord
100
AcDbTextStyleTableRecord
  2
Standard
 70
     0
 40
0.0
 41
1.0
 50
0.0
 71
     0
 42
3.5
  3
txt
  4

  0
ENDTAB
  0
TABLE
  2
VIEW
  5
6
330
0
100
AcDbSymbolTable
 70
     0
  0
ENDTAB
  0
TABLE
  2
UCS
  5
7
330
0
100
AcDbSymbolTable
 70
     0
  0
ENDTAB
  0
TABLE
  2
APPID
  5
9
330
0
100
AcDbSymbolTable
 70
     1
  0
APPID
  5
12
330
9
100
AcDbSymbolTableRecord
100
AcDbRegAppTableRecord
  2
ACAD
 70
     0
  0
ENDTAB
  0
TABLE
  2
DIMSTYLE
  5
A
330
0
100
AcDbSymbolTable
 70
     1
100
AcDbDimStyleTable
  0
DIMSTYLE
105
27
330
A
100
AcDbSymbolTableRecord
100
AcDbDimStyleTableRecord
  2
ISO-25
 70
     0
 41
2.5
 42
0.625
 43
3.75
 44
1.25
 73
     0
 74
     0
 77
     1
 78
     8
140
2.5
141
2.5
143
0.0393700787
147
0.625
171
     3
172
     1
178
     0
271
     2
272
     2
274
     3
278
    44
283
     0
284
     8
340
11
  0
ENDTAB
  0
TABLE
  2
BLOCK_RECORD
  5
1
330
0
100
AcDbSymbolTable
 70
     1
  0
BLOCK_RECORD
  5
1F
330
1
100
AcDbSymbolTableRecord
100
AcDbBlockTableRecord
  2
*Model_Space
340
22
  0
BLOCK_RECORD
  5
1B
330
1
100
AcDbSymbolTableRecord
100
AcDbBlockTableRecord
  2
*Paper_Space
340
1E
  0
BLOCK_RECORD
  5
23
330
1
100
AcDbSymbolTableRecord
100
AcDbBlockTableRecord
  2
*Paper_Space0
340
26
  0
ENDTAB
  0
ENDSEC
  0
SECTION
  2
BLOCKS
  0
BLOCK
  5
20
330
1F
100
AcDbEntity
  8
0
100
AcDbBlockBegin
  2
*Model_Space
 70
     0
 10
0.0
 20
0.0
 30
0.0
  3
*Model_Space
  1

  0
ENDBLK
  5
21
330
1F
100
AcDbEntity
  8
0
100
AcDbBlockEnd
  0
BLOCK
  5
1C
330
1B
100
AcDbEntity
 67
     1
  8
0
100
AcDbBlockBegin
  2
*Paper_Space
 70
     0
 10
0.0
 20
0.0
 30
0.0
  3
*Paper_Space
  1

  0
ENDBLK
  5
1D
330
1B
100
AcDbEntity
 67
     1
  8
0
100
AcDbBlockEnd
  0
BLOCK
  5
24
330
23
100
AcDbEntity
  8
0
100
AcDbBlockBegin
  2
*Paper_Space0
 70
     0
 10
0.0
 20
0.0
 30
0.0
  3
*Paper_Space0
  1

  0
ENDBLK
  5
25
330
23
100
AcDbEntity
  8
0
100
AcDbBlockEnd
  0
ENDSEC
  0
SECTION
  2
ENTITIES
  0
ARC
  5
73
330
1F
100
AcDbEntity
  8
0
  6
Continuous
 62
     7
100
AcDbCircle
 10
7447.9719183146
 20
5428.3926043574
 30
0.0
 40
201.1999999999989
100
AcDbArc
 50
288.2898993817
 51
309.2240685987
  0
ARC
  5
74
330
1F
100
AcDbEntity
  8
0
  6
Continuous
 62
     7
100
AcDbCircle
 10
7500.0655923576
 20
5428.3926043574
 30
0.0
 40
201.199999999999
100
AcDbArc
 50
230.7759314013
 51
251.7101006183
  0
ARC
  5
75
330
1F
100
AcDbEntity
  8
0
  6
Continuous
 62
     7
100
AcDbCircle
 10
6847.9719183146
 20
5428.3926043574
 30
0.0
 40
201.1999999999989
100
AcDbArc
 50
288.2898993817
 51
309.2240685987
  0
ARC
  5
76
330
1F
100
AcDbEntity
  8
0
  6
Continuous
 62
     7
100
AcDbCircle
 10
6900.0655923576
 20
5428.3926043574
 30
0.0
 40
201.1999999999989
100
AcDbArc
 50
230.7759314013
 51
251.7101006183
  0
ARC
  5
77
330
1F
100
AcDbEntity
  8
0
  6
Continuous
 62
     7
100
AcDbCircle
 10
6247.9719183146
 20
5428.3926043574
 30
0.0
 40
201.1999999999995
100
AcDbArc
 50
288.2898993817
 51
309.2240685987
  0
ARC
  5
78
330
1F
100
AcDbEntity
  8
0
  6
Continuous
 62
     7
100
AcDbCircle
 10
6300.0655923576
 20
5428.3926043574
 30
0.0
 40
201.1999999999995
100
AcDbArc
 50
230.7759314013
 51
251.7101006183
  0
ARC
  5
79
330
1F
100
AcDbEntity
  8
0
  6
Continuous
 62
     7
100
AcDbCircle
 10
5047.9719183146
 20
5428.3926043574
 30
0.0
 40
201.1999999999989
100
AcDbArc
 50
288.2898993817
 51
309.2240685987
  0
ARC
  5
7A
330
1F
100
AcDbEntity
  8
0
  6
Continuous
 62
     7
100
AcDbCircle
 10
5100.0655923576
 20
5428.3926043574
 30
0.0
 40
201.1999999999995
100
AcDbArc
 50
230.7759314013
 51
251.7101006183
  0
ARC
  5
7B
330
1F
100
AcDbEntity
  8
0
  6
Continuous
 62
     7
100
AcDbCircle
 10
5647.9719183146
 20
5428.3926043574
 30
0.0
 40
201.1999999999989
100
AcDbArc
 50
288.2898993817
 51
309.2240685987
  0
ARC
  5
7C
330
1F
100
AcDbEntity
  8
0
  6
Continuous
 62
     7
100
AcDbCircle
 10
5700.0655923576
 20
5428.3926043574
 30
0.0
 40
201.1999999999996
100
AcDbArc
 50
230.7759314013
 51
251.7101006183
  0
ARC
  5
7D
330
1F
100
AcDbEntity
  8
0
  6
Continuous
 62
     7
100
AcDbCircle
 10
7434.1622780167
 20
5229.0016487982
 30
0.0
 40
8.800000000000132
100
AcDbArc
 50
60.9451896587
 51
71.7097714149
  0
ARC
  5
7E
330
1F
100
AcDbEntity
  8
0
  6
Continuous
 62
     7
100
AcDbCircle
 10
7513.8751783578
 20
5229.0016308514
 30
0.0
 40
8.800000000000006
100
AcDbArc
 50
108.2898562489
 51
119.0545697345
  0
ARC
  5
7F
330
1F
100
AcDbEntity
  8
0
  6
Continuous
 62
     7
100
AcDbCircle
 10
5634.162322162
 20
5229.001634207
 30
0.0
 40
8.79999999999987
100
AcDbArc
 50
60.9453852782
 51
71.7100741334
  0
ARC
  5
80
330
1F
100
AcDbEntity
  8
0
  6
Continuous
 62
     7
100
AcDbCircle
 10
5713.8751857153
 20
5229.0016332832
 30
0.0
 40
8.800000000000537
100
AcDbArc
 50
108.2899067011
 51
119.054602337
  0
ARC
  5
81
330
1F
100
AcDbEntity
  8
0
  6
Continuous
 62
     7
100
AcDbCircle
 10
6234.162307447
 20
5229.0016390706
 30
0.0
 40
8.800000000000498
100
AcDbArc
 50
60.9453200726
 51
71.7099732283
  0
ARC
  5
82
330
1F
100
AcDbEntity
  8
0
  6
Continuous
 62
     7
100
AcDbCircle
 10
6313.875207788
 20
5229.0016405788
 30
0.0
 40
8.799999999999542
100
AcDbArc
 50
108.2900580605
 51
119.0547001465
  0
ARC
  5
83
330
1F
100
AcDbEntity
  8
0
  6
Continuous
 62
     7
100
AcDbCircle
 10
5034.1623368771
 20
5229.0016293433
 30
0.0
 40
8.800000000000802
100
AcDbArc
 50
60.9454504842
 51
71.7101750395
  0
ARC
  5
84
330
1F
100
AcDbEntity
  8
0
  6
Continuous
 62
     7
100
AcDbCircle
 10
5113.8751636428
 20
5229.0016259878
 30
0.0
 40
8.799999999998919
100
AcDbArc
 50
108.289755343
 51
119.0545045288
  0
ARC
  5
85
330
1F
100
AcDbEntity
  8
0
  6
Continuous
 62
     7
100
AcDbCircle
 10
6834.1622191549
 20
5229.0016682539
 30
0.0
 40
8.80000000000078
100
AcDbArc
 50
60.944928823
 51
71.7093677799
  0
ARC
  5
86
330
1F
100
AcDbEntity
  8
0
  6
Continuous
 62
     7
100
AcDbCircle
 10
6913.8751194982
 20
5229.0016113972
 30
0.0
 40
8.79999999999902
100
AcDbArc
 50
108.2894526304
 51
119.0543089161
  0
ARC
  5
87
330
1F
100
AcDbEntity
  8
0
  6
Continuous
 62
     7
100
AcDbCircle
 10
5649.0187501805
 20
5185.3557026396
 30
0.0
 40
2.999999999999794
100
AcDbArc
 50
179.9999550342
 51
270.0001161138
  0
ARC
  5
88
330
1F
100
AcDbEntity
  8
0
  6
Continuous
 62
     7
100
AcDbCircle
 10
5699.0187593596
 20
5185.3557026396
 30
0.0
 40
2.999999999999794
100
AcDbArc
 50
269.9998838882
 51
0.0000449658
  0
ARC
  5
89
330
1F
100
AcDbEntity
  8
0
  6
Continuous
 62
     7
100
AcDbCircle
 10
6849.0187233584
 20
5185.3557026395
 30
0.0
 40
3.000000000000015
100
AcDbArc
 50
179.9999550329
 51
270.0004007057
  0
ARC
  5
8A
330
1F
100
AcDbEntity
  8
0
  6
Continuous
 62
     7
100
AcDbCircle
 10
6899.0187176364
 20
5185.3557026395
 30
0.0
 40
3.000000000000015
100
AcDbArc
 50
269.9995992962
 51
0.0000449671
  0
ARC
  5
8B
330
1F
100
AcDbEntity
  8
0
  6
Continuous
 62
     7
100
AcDbCircle
 10
6249.0187591212
 20
5185.3557026395
 30
0.0
 40
3.000000000000924
100
AcDbArc
 50
179.9999550329
 51
270.0004007057
  0
ARC
  5
8C
330
1F
100
AcDbEntity
  8
0
  6
Continuous
 62
     7
100
AcDbCircle
 10
6299.0187533992
 20
5185.3557026395
 30
0.0
 40
3.000000000000924
100
AcDbArc
 50
269.9995992943
 51
0.0000449671
  0
ARC
  5
8D
330
1F
100
AcDbEntity
  8
0
  6
Continuous
 62
     7
100
AcDbCircle
 10
5049.0187412398
 20
5185.3557026395
 30
0.0
 40
3.000000000000015
100
AcDbArc
 50
179.9999550329
 51
270.0004007057
  0
ARC
  5
8E
330
1F
100
AcDbEntity
  8
0
  6
Continuous
 62
     7
100
AcDbCircle
 10
5099.0187653201
 20
5185.3557026395
 30
0.0
 40
2.999999999999697
100
AcDbArc
 50
269.9995992962
 51
0.0000449671
  0
ARC
  5
8F
330
1F
100
AcDbEntity
  8
0
  6
Continuous
 62
     7
100
AcDbCircle
 10
7449.0187472003
 20
5185.3557026395
 30
0.0
 40
3.000000000000015
100
AcDbArc
 50
179.9999550329
 51
270.0004007038
  0
ARC
  5
90
330
1F
100
AcDbEntity
  8
0
  6
Continuous
 62
     7
100
AcDbCircle
 10
7499.0188606875
 20
5185.3557026395
 30
0.0
 40
3.000000000000924
100
AcDbArc
 50
269.9995992962
 51
0.0000449671
  0
ARC
  5
91
330
1F
100
AcDbEntity
  8
0
  6
Continuous
 62
     7
100
AcDbCircle
 10
6249.6891278865
 20
5141.6557033521
 30
0.0
 40
3.000000000000967
100
AcDbArc
 50
90.0006483841
 51
173.3455640184
  0
ARC
  5
92
330
1F
100
AcDbEntity
  8
0
  6
Continuous
 62
     7
100
AcDbCircle
 10
6298.3483846339
 20
5141.6557033521
 30
0.0
 40
2.999999999999958
100
AcDbArc
 50
6.6544359815
 51
89.9993516159
  0
ARC
  5
93
330
1F
100
AcDbEntity
  8
0
  6
Continuous
 62
     7
100
AcDbCircle
 10
6249.8969171344
 20
5017.6557025322
 30
0.0
 40
3.000000000001597
100
AcDbArc
 50
185.8481372336
 51
270.0003475766
  0
ARC
  5
94
330
1F
100
AcDbEntity
  8
0
  6
Continuous
 62
     7
100
AcDbCircle
 10
6298.140595386
 20
5017.6557025322
 30
0.0
 40
2.999999999999722
100
AcDbArc
 50
269.9996524234
 51
354.1518627664
  0
ARC
  5
95
330
1F
100
AcDbEntity
  8
0
  6
Continuous
 62
     7
100
AcDbCircle
 10
6254.0187543528
 20
5158.1557032626
 30
0.0
 40
3.00000000000004
100
AcDbArc
 50
89.9995992943
 51
180.0000093922
  0
ARC
  5
96
330
1F
100
AcDbEntity
  8
0
  6
Continuous
 62
     7
100
AcDbCircle
 10
6294.0187581675
 20
5158.1557032626
 30
0.0
 40
2.999999999998787
100
AcDbArc
 50
359.9999906078
 51
90.0004007038
  0
ARC
  5
97
330
1F
100
AcDbEntity
  8
0
  6
Continuous
 62
     7
100
AcDbCircle
 10
5649.6891040446
 20
5141.6557033519
 30
0.0
 40
3.000000000000304
100
AcDbArc
 50
90.0000791998
 51
173.3455640148
  0
ARC
  5
98
330
1F
100
AcDbEntity
  8
0
  6
Continuous
 62
     7
100
AcDbCircle
 10
5698.3484054955
 20
5141.6557033519
 30
0.0
 40
3.000000000000304
100
AcDbArc
 50
6.6544359852
 51
89.9999207984
  0
ARC
  5
99
330
1F
100
AcDbEntity
  8
0
  6
Continuous
 62
     7
100
AcDbCircle
 10
5649.8969230949
 20
5017.6557025323
 30
0.0
 40
3.000000000000903
100
AcDbArc
 50
185.8481372346
 51
270.0000629848
  0
ARC
  5
9A
330
1F
100
AcDbEntity
  8
0
  6
Continuous
 62
     7
100
AcDbCircle
 10
5698.1405864453
 20
5017.6557025323
 30
0.0
 40
2.999999999999994
100
AcDbArc
 50
269.9999370133
 51
354.1518627654
  0
ARC
  5
9B
330
1F
100
AcDbEntity
  8
0
  6
Continuous
 62
     7
100
AcDbCircle
 10
5654.0187603133
 20
5158.1557032625
 30
0.0
 40
3.00000000000004
100
AcDbArc
 50
90.0001684782
 51
180.000009391
  0
ARC
  5
9C
330
1F
100
AcDbEntity
  8
0
  6
Continuous
 62
     7
100
AcDbCircle
 10
5694.0187492268
 20
5158.1557032625
 30
0.0
 40
3.00000000000004
100
AcDbArc
 50
359.999990609
 51
89.9998315218
  0
ARC
  5
9D
330
1F
100
AcDbEntity
  8
0
  6
Continuous
 62
     7
100
AcDbCircle
 10
5049.6891100051
 20
5141.6557033519
 30
0.0
 40
3.000000000000304
100
AcDbArc
 50
90.0000792017
 51
173.3455640148
  0
ARC
  5
9E
330
1F
100
AcDbEntity
  8
0
  6
Continuous
 62
     7
100
AcDbCircle
 10
5098.3483965548
 20
5141.6557033519
 30
0.0
 40
2.999999999999296
100
AcDbArc
 50
6.6544359852
 51
89.9999207984
  0
ARC
  5
9F
330
1F
100
AcDbEntity
  8
0
  6
Continuous
 62
     7
100
AcDbCircle
 10
5049.8969290554
 20
5017.6557025323
 30
0.0
 40
3.000000000000612
100
AcDbArc
 50
185.8481372342
 51
269.9997783927
  0
ARC
  5
A0
330
1F
100
AcDbEntity
  8
0
  6
Continuous
 62
     7
100
AcDbCircle
 10
5098.1405775046
 20
5017.6557025323
 30
0.0
 40
3.000000000000612
100
AcDbArc
 50
270.0002216053
 51
354.1518627658
  0
ARC
  5
A1
330
1F
100
AcDbEntity
  8
0
  6
Continuous
 62
     7
100
AcDbCircle
 10
5054.0187662738
 20
5158.1557032625
 30
0.0
 40
3.00000000000004
100
AcDbArc
 50
90.0001684782
 51
180.000009391
  0
ARC
  5
A2
330
1F
100
AcDbEntity
  8
0
  6
Continuous
 62
     7
100
AcDbCircle
 10
5094.0187700885
 20
5158.1557032626
 30
0.0
 40
2.999999999999698
100
AcDbArc
 50
359.9999906078
 51
90.0004007057
  0
ARC
  5
A3
330
1F
100
AcDbEntity
  8
0
  6
Continuous
 62
     7
100
AcDbCircle
 10
7449.6891159656
 20
5141.6557033521
 30
0.0
 40
3.000000000000064
100
AcDbArc
 50
90.0006483841
 51
173.3455640184
  0
ARC
  5
A4
330
1F
100
AcDbEntity
  8
0
  6
Continuous
 62
     7
100
AcDbCircle
 10
7498.348372713
 20
5141.6557033521
 30
0.0
 40
3.000000000000064
100
AcDbArc
 50
6.6544359816
 51
89.9993516159
  0
ARC
  5
A5
330
1F
100
AcDbEntity
  8
0
  6
Continuous
 62
     7
100
AcDbCircle
 10
7449.8969648181
 20
5017.6557025322
 30
0.0
 40
3.000000000001541
100
AcDbArc
 50
185.8481372336
 51
270.0003475766
  0
ARC
  5
A6
330
1F
100
AcDbEntity
  8
0
  6
Continuous
 62
     7
100
AcDbCircle
 10
7498.1406430694
 20
5017.6557025292
 30
0.0
 40
2.999999999999977
100
AcDbArc
 50
269.9973756995
 51
354.1518628258
  0
ARC
  5
A7
330
1F
100
AcDbEntity
  8
0
  6
Continuous
 62
     7
100
AcDbCircle
 10
7454.0187424319
 20
5158.1557032626
 30
0.0
 40
2.999999999999698
100
AcDbArc
 50
89.9995992943
 51
180.0000093922
  0
ARC
  5
A8
330
1F
100
AcDbEntity
  8
0
  6
Continuous
 62
     7
100
AcDbCircle
 10
7494.0187462466
 20
5158.1557032626
 30
0.0
 40
3.00000000000004
100
AcDbArc
 50
359.9999906078
 51
90.0004007038
  0
ARC
  5
A9
330
1F
100
AcDbEntity
  8
0
  6
Continuous
 62
     7
100
AcDbCircle
 10
6849.6890921237
 20
5141.6557033521
 30
0.0
 40
3.000000000000189
100
AcDbArc
 50
90.0006483841
 51
173.3455640184
  0
ARC
  5
AA
330
1F
100
AcDbEntity
  8
0
  6
Continuous
 62
     7
100
AcDbCircle
 10
6898.3483488711
 20
5141.6557033521
 30
0.0
 40
3.000000000000064
100
AcDbArc
 50
6.6544359816
 51
89.9993516159
  0
ARC
  5
AB
330
1F
100
AcDbEntity
  8
0
  6
Continuous
 62
     7
100
AcDbCircle
 10
6849.8969409763
 20
5017.6557025322
 30
0.0
 40
3.000000000000692
100
AcDbArc
 50
185.8481372336
 51
270.0003475766
  0
ARC
  5
AC
330
1F
100
AcDbEntity
  8
0
  6
Continuous
 62
     7
100
AcDbCircle
 10
6898.1406192278
 20
5017.6557025322
 30
0.0
 40
3.000000000000631
100
AcDbArc
 50
269.9996524234
 51
354.1518627664
  0
ARC
  5
AD
330
1F
100
AcDbEntity
  8
0
  6
Continuous
 62
     7
100
AcDbCircle
 10
6854.0187185901
 20
5158.1557032626
 30
0.0
 40
3.00000000000004
100
AcDbArc
 50
89.9995992962
 51
180.0000093922
  0
ARC
  5
AE
330
1F
100
AcDbEntity
  8
0
  6
Continuous
 62
     7
100
AcDbCircle
 10
6894.0187224048
 20
5158.1557032626
 30
0.0
 40
3.00000000000095
100
AcDbArc
 50
359.9999906078
 51
90.0004007057
  0
CIRCLE
  5
AF
330
1F
100
AcDbEntity
  8
0
  6
Continuous
 62
     7
100
AcDbCircle
 10
4792.0187553361
 20
5224.7432056916
 30
0.0
 40
3.999999999999091
  0
CIRCLE
  5
B0
330
1F
100
AcDbEntity
  8
0
  6
Continuous
 62
     7
100
AcDbCircle
 10
7756.0187553361
 20
5224.7432056916
 30
0.0
 40
4.0
  0
ARC
  5
B1
330
1F
100
AcDbEntity
  8
0
  6
Continuous
 62
     7
100
AcDbCircle
 10
7474.0187553366
 20
5122.6557034939
 30
0.0
 40
40.00000000000037
100
AcDbArc
 50
0.0
 51
54.9003678056
  0
ARC
  5
B2
330
1F
100
AcDbEntity
  8
0
  6
Continuous
 62
     7
100
AcDbCircle
 10
7474.0187553366
 20
5122.6557034939
 30
0.0
 40
40.00000000000057
100
AcDbArc
 50
125.0996321963
 51
216.1070114046
  0
ARC
  5
B3
330
1F
100
AcDbEntity
  8
0
  6
Continuous
 62
     7
100
AcDbCircle
 10
7474.0187553366
 20
5122.6557034939
 30
0.0
 40
40.0
100
AcDbArc
 50
323.8929885931
 51
0.0
  0
ARC
  5
B4
330
1F
100
AcDbEntity
  8
0
  6
Continuous
 62
     7
100
AcDbCircle
 10
6274.0187553366
 20
5122.6557034939
 30
0.0
 40
40.00000000000007
100
AcDbArc
 50
0.0
 51
54.9003678056
  0
ARC
  5
B5
330
1F
100
AcDbEntity
  8
0
  6
Continuous
 62
     7
100
AcDbCircle
 10
6274.0187553366
 20
5122.6557034939
 30
0.0
 40
40.00000000000144
100
AcDbArc
 50
125.0996321963
 51
216.1070114046
  0
ARC
  5
B6
330
1F
100
AcDbEntity
  8
0
  6
Continuous
 62
     7
100
AcDbCircle
 10
6274.0187553366
 20
5122.6557034939
 30
0.0
 40
40.0
100
AcDbArc
 50
323.8929885931
 51
0.0
  0
ARC
  5
B7
330
1F
100
AcDbEntity
  8
0
  6
Continuous
 62
     7
100
AcDbCircle
 10
5674.0187553366
 20
5122.6557034939
 30
0.0
 40
39.99999999999932
100
AcDbArc
 50
0.0
 51
54.9003678056
  0
ARC
  5
B8
330
1F
100
AcDbEntity
  8
0
  6
Continuous
 62
     7
100
AcDbCircle
 10
5674.0187553366
 20
5122.6557034939
 30
0.0
 40
40.00000000000131
100
AcDbArc
 50
125.0996321963
 51
216.1070114046
  0
ARC
  5
B9
330
1F
100
AcDbEntity
  8
0
  6
Continuous
 62
     7
100
AcDbCircle
 10
5674.0187553366
 20
5122.6557034939
 30
0.0
 40
39.99999999999919
100
AcDbArc
 50
323.8929885931
 51
0.0
  0
ARC
  5
BA
330
1F
100
AcDbEntity
  8
0
  6
Continuous
 62
     7
100
AcDbCircle
 10
5074.0187553366
 20
5122.6557034939
 30
0.0
 40
40.00000000000007
100
AcDbArc
 50
0.0
 51
54.9003678056
  0
ARC
  5
BB
330
1F
100
AcDbEntity
  8
0
  6
Continuous
 62
     7
100
AcDbCircle
 10
5074.0187553366
 20
5122.6557034939
 30
0.0
 40
40.00000000000144
100
AcDbArc
 50
125.0996321963
 51
216.1070114046
  0
ARC
  5
BC
330
1F
100
AcDbEntity
  8
0
  6
Continuous
 62
     7
100
AcDbCircle
 10
5074.0187553366
 20
5122.6557034939
 30
0.0
 40
40.0
100
AcDbArc
 50
323.8929885931
 51
0.0
  0
ARC
  5
BD
330
1F
100
AcDbEntity
  8
0
  6
Continuous
 62
     7
100
AcDbCircle
 10
6874.0187553366
 20
5122.6557034939
 30
0.0
 40
40.00000000000081
100
AcDbArc
 50
0.0
 51
54.9003678056
  0
ARC
  5
BE
330
1F
100
AcDbEntity
  8
0
  6
Continuous
 62
     7
100
AcDbCircle
 10
6874.0187553366
 20
5122.6557034939
 30
0.0
 40
40.00000000000144
100
AcDbArc
 50
125.0996321963
 51
216.1070114046
  0
ARC
  5
BF
330
1F
100
AcDbEntity
  8
0
  6
Continuous
 62
     7
100
AcDbCircle
 10
6874.0187553366
 20
5122.6557034939
 30
0.0
 40
40.0
100
AcDbArc
 50
323.8929885931
 51
0.0
  0
ARC
  5
C0
330
1F
100
AcDbEntity
  8
0
  6
Continuous
 62
     7
100
AcDbCircle
 10
8483.4247468806
 20
5229.0016899822
 30
0.0
 40
8.800000000001146
100
AcDbArc
 50
108.2910480579
 51
119.0553624768
  0
ARC
  5
C1
330
1F
100
AcDbEntity
  8
0
  6
Continuous
 62
     7
100
AcDbCircle
 10
8418.5682092892
 20
5185.3557026395
 30
0.0
 40
2.999999999999105
100
AcDbArc
 50
179.9999550328
 51
270.0004007038
  0
ARC
  5
C2
330
1F
100
AcDbEntity
  8
0
  6
Continuous
 62
     7
100
AcDbCircle
 10
8468.5682035671
 20
5185.3557026395
 30
0.0
 40
3.000000000000924
100
AcDbArc
 50
269.9995992962
 51
0.0000449671
  0
ARC
  5
C3
330
1F
100
AcDbEntity
  8
0
  6
Continuous
 62
     7
100
AcDbCircle
 10
8178.4736090885
 20
5142.655702577
 30
0.0
 40
20.00000000000277
100
AcDbArc
 50
0.0000039488
 51
89.9999453584
  0
ARC
  5
C4
330
1F
100
AcDbEntity
  8
0
  6
Continuous
 62
     7
100
AcDbCircle
 10
8178.4736090885
 20
5102.6557025025
 30
0.0
 40
20.00000000000278
100
AcDbArc
 50
270.0000546416
 51
0.0000040554
  0
ARC
  5
C5
330
1F
100
AcDbEntity
  8
0
  6
Continuous
 62
     7
100
AcDbCircle
 10
8467.8978348018
 20
5141.6557033521
 30
0.0
 40
2.99999999999928
100
AcDbArc
 50
6.6544359816
 51
89.9993516159
  0
ARC
  5
C6
330
1F
100
AcDbEntity
  8
0
  6
Continuous
 62
     7
100
AcDbCircle
 10
8419.4463076977
 20
5017.6557025322
 30
0.0
 40
3.000000000002502
100
AcDbArc
 50
185.8481372336
 51
270.0003475766
  0
ARC
  5
C7
330
1F
100
AcDbEntity
  8
0
  6
Continuous
 62
     7
100
AcDbCircle
 10
8467.6899859493
 20
5017.6557025322
 30
0.0
 40
3.000000000000692
100
AcDbArc
 50
269.9996524234
 51
354.1518627664
  0
ARC
  5
C8
330
1F
100
AcDbEntity
  8
0
  6
Continuous
 62
     7
100
AcDbCircle
 10
8386.5681444393
 20
5145.6557040077
 30
0.0
 40
3.00000000000004
100
AcDbArc
 50
89.9995992962
 51
180.0000093941
  0
ARC
  5
C9
330
1F
100
AcDbEntity
  8
0
  6
Continuous
 62
     7
100
AcDbCircle
 10
8386.5681444393
 20
5099.6557047972
 30
0.0
 40
3.000000000000313
100
AcDbArc
 50
180.0000261809
 51
270.0004007038
  0
ARC
  5
CA
330
1F
100
AcDbEntity
  8
0
  6
Continuous
 62
     7
100
AcDbCircle
 10
8423.5682045208
 20
5158.1557032626
 30
0.0
 40
3.00000000000004
100
AcDbArc
 50
89.9995992962
 51
180.0000093922
  0
ARC
  5
CB
330
1F
100
AcDbEntity
  8
0
  6
Continuous
 62
     7
100
AcDbCircle
 10
8463.5682083355
 20
5158.1557032626
 30
0.0
 40
2.999999999998221
100
AcDbArc
 50
359.9999906078
 51
90.0004007038
  0
ARC
  5
CC
330
1F
100
AcDbEntity
  8
0
  6
Continuous
 62
     7
100
AcDbCircle
 10
8349.5681902327
 20
5242.3557008515
 30
0.0
 40
42.50000000000286
100
AcDbArc
 50
227.444102089
 51
270.0000462615
  0
ARC
  5
CD
330
1F
100
AcDbEntity
  8
0
  6
Continuous
 62
     7
100
AcDbCircle
 10
8166.768195747
 20
5374.7432049521
 30
0.0
 40
2.000000000001378
100
AcDbArc
 50
179.9998838825
 51
269.9992623398
  0
ARC
  5
CE
330
1F
100
AcDbEntity
  8
0
  6
Continuous
 62
     7
100
AcDbCircle
 10
8421.1994978897
 20
5141.7969143864
 30
0.0
 40
2.860574337891169
100
AcDbArc
 50
92.0244078236
 51
175.8616872384
  0
ARC
  5
CF
330
1F
100
AcDbEntity
  8
0
  6
Continuous
 62
     7
100
AcDbCircle
 10
5674.0188308413
 20
4499.6077665402
 30
0.0
 40
8.552641741590651
100
AcDbArc
 50
275.0303286577
 51
299.7665501833
  0
ARC
  5
D0
330
1F
100
AcDbEntity
  8
0
  6
Continuous
 62
     7
100
AcDbCircle
 10
5674.0186786988
 20
4499.6077665402
 30
0.0
 40
8.552641741589344
100
AcDbArc
 50
240.2334498169
 51
264.9696713431
  0
ARC
  5
D1
330
1F
100
AcDbEntity
  8
0
  6
Continuous
 62
     7
100
AcDbCircle
 10
5074.0186670477
 20
4499.6077680904
 30
0.0
 40
8.552641741589182
100
AcDbArc
 50
240.2334707347
 51
264.9697897824
  0
ARC
  5
D2
330
1F
100
AcDbEntity
  8
0
  6
Continuous
 62
     7
100
AcDbCircle
 10
5074.0188395122
 20
4499.6077680904
 30
0.0
 40
8.552641741591074
100
AcDbArc
 50
275.0302102176
 51
299.7665292653
  0
ARC
  5
D3
330
1F
100
AcDbEntity
  8
0
  6
Continuous
 62
     7
100
AcDbCircle
 10
7474.0186188246
 20
4499.60776499
 30
0.0
 40
8.552641741589747
100
AcDbArc
 50
240.2334288982
 51
264.9695529018
  0
ARC
  5
D4
330
1F
100
AcDbEntity
  8
0
  6
Continuous
 62
     7
100
AcDbCircle
 10
7474.018869854
 20
4499.60776499
 30
0.0
 40
8.552641741591238
100
AcDbArc
 50
275.0304470975
 51
299.7665711016
  0
ARC
  5
D5
330
1F
100
AcDbEntity
  8
0
  6
Continuous
 62
     7
100
AcDbCircle
 10
6274.0188221702
 20
4499.60776499
 30
0.0
 40
8.552641741590733
100
AcDbArc
 50
275.0304470982
 51
299.7665711018
  0
ARC
  5
D6
330
1F
100
AcDbEntity
  8
0
  6
Continuous
 62
     7
100
AcDbCircle
 10
6274.0186903501
 20
4499.60776499
 30
0.0
 40
8.552641741589426
100
AcDbArc
 50
240.2334288984
 51
264.9695529025
  0
ARC
  5
D7
330
1F
100
AcDbEntity
  8
0
  6
Continuous
 62
     7
100
AcDbCircle
 10
6874.0188460121
 20
4499.60776499
 30
0.0
 40
8.552641741590811
100
AcDbArc
 50
275.0304470983
 51
299.7665711018
  0
ARC
  5
D8
330
1F
100
AcDbEntity
  8
0
  6
Continuous
 62
     7
100
AcDbCircle
 10
6874.018714192
 20
4499.60776499
 30
0.0
 40
8.552641741589747
100
AcDbArc
 50
240.2334288982
 51
264.9695529018
  0
CIRCLE
  5
D9
330
1F
100
AcDbEntity
  8
0
  6
Continuous
 62
     7
100
AcDbCircle
 10
5074.0187553361
 20
4340.5148313906
 30
0.0
 40
169.776170925541
  0
CIRCLE
  5
DA
330
1F
100
AcDbEntity
  8
0
  6
Continuous
 62
     7
100
AcDbCircle
 10
5674.0187553361
 20
4340.5148313906
 30
0.0
 40
169.776170925541
  0
CIRCLE
  5
DB
330
1F
100
AcDbEntity
  8
0
  6
Continuous
 62
     7
100
AcDbCircle
 10
6274.0187553361
 20
4340.5148313906
 30
0.0
 40
169.776170925541
  0
CIRCLE
  5
DC
330
1F
100
AcDbEntity
  8
0
  6
Continuous
 62
     7
100
AcDbCircle
 10
6874.0187553361
 20
4340.5148313906
 30
0.0
 40
169.776170925541
  0
CIRCLE
  5
DD
330
1F
100
AcDbEntity
  8
0
  6
Continuous
 62
     7
100
AcDbCircle
 10
7474.0187553361
 20
4340.5148313906
 30
0.0
 40
169.776170925541
  0
CIRCLE
  5
DE
330
1F
100
AcDbEntity
  8
0
  6
Continuous
 62
     7
100
AcDbCircle
 10
5674.0187553361
 20
4340.5148313906
 30
0.0
 40
165.0
  0
CIRCLE
  5
DF
330
1F
100
AcDbEntity
  8
0
  6
Continuous
 62
     7
100
AcDbCircle
 10
7474.0187553361
 20
4340.5148313906
 30
0.0
 40
165.0
  0
CIRCLE
  5
E0
330
1F
100
AcDbEntity
  8
0
  6
Continuous
 62
     7
100
AcDbCircle
 10
6874.0187553361
 20
4340.5148313906
 30
0.0
 40
165.0
  0
CIRCLE
  5
E1
330
1F
100
AcDbEntity
  8
0
  6
Continuous
 62
     7
100
AcDbCircle
 10
5074.0187553361
 20
4340.5148313906
 30
0.0
 40
165.0
  0
CIRCLE
  5
E2
330
1F
100
AcDbEntity
  8
0
  6
Continuous
 62
     7
100
AcDbCircle
 10
6274.0187553361
 20
4340.5148313906
 30
0.0
 40
165.0
  0
CIRCLE
  5
E3
330
1F
100
AcDbEntity
  8
0
  6
Continuous
 62
     7
100
AcDbCircle
 10
6274.0187553361
 20
4340.5148313906
 30
0.0
 40
36.71817853400353
  0
CIRCLE
  5
E4
330
1F
100
AcDbEntity
  8
0
  6
Continuous
 62
     7
100
AcDbCircle
 10
5074.0187553361
 20
4340.5148313906
 30
0.0
 40
36.71817853400262
  0
CIRCLE
  5
E5
330
1F
100
AcDbEntity
  8
0
  6
Continuous
 62
     7
100
AcDbCircle
 10
6874.0187553361
 20
4340.5148313906
 30
0.0
 40
36.71817853400262
  0
CIRCLE
  5
E6
330
1F
100
AcDbEntity
  8
0
  6
Continuous
 62
     7
100
AcDbCircle
 10
5674.0187553361
 20
4340.5148313906
 30
0.0
 40
36.71817853400353
  0
CIRCLE
  5
E7
330
1F
100
AcDbEntity
  8
0
  6
Continuous
 62
     7
100
AcDbCircle
 10
7474.0187553361
 20
4340.5148313906
 30
0.0
 40
36.71817853400353
  0
ARC
  5
E8
330
1F
100
AcDbEntity
  8
0
  6
Continuous
 62
     7
100
AcDbCircle
 10
5674.0187553361
 20
4340.5148313906
 30
0.0
 40
15.0
100
AcDbArc
 50
270.0
 51
289.4629509606
  0
ARC
  5
E9
330
1F
100
AcDbEntity
  8
0
  6
Continuous
 62
     7
100
AcDbCircle
 10
5674.0187553361
 20
4340.5148313906
 30
0.0
 40
15.00000000000185
100
AcDbArc
 50
310.5370510532
 51
349.4629489746
  0
ARC
  5
EA
330
1F
100
AcDbEntity
  8
0
  6
Continuous
 62
     7
100
AcDbCircle
 10
5674.0187553361
 20
4340.5148313906
 30
0.0
 40
15.00000000000076
100
AcDbArc
 50
10.5370495964
 51
49.4629504113
  0
ARC
  5
EB
330
1F
100
AcDbEntity
  8
0
  6
Continuous
 62
     7
100
AcDbCircle
 10
5674.0187553361
 20
4340.5148313906
 30
0.0
 40
15.00000000000074
100
AcDbArc
 50
70.5370490849
 51
109.4629509179
  0
ARC
  5
EC
330
1F
100
AcDbEntity
  8
0
  6
Continuous
 62
     7
100
AcDbCircle
 10
5674.0187553361
 20
4340.5148313906
 30
0.0
 40
15.0000000000004
100
AcDbArc
 50
130.5370509089
 51
169.4629490646
  0
ARC
  5
ED
330
1F
100
AcDbEntity
  8
0
  6
Continuous
 62
     7
100
AcDbCircle
 10
5674.0187553361
 20
4340.5148313906
 30
0.0
 40
14.99999999999894
100
AcDbArc
 50
190.5370486873
 51
229.4629513178
  0
ARC
  5
EE
330
1F
100
AcDbEntity
  8
0
  6
Continuous
 62
     7
100
AcDbCircle
 10
5674.0187553361
 20
4340.5148313906
 30
0.0
 40
15.00000000000012
100
AcDbArc
 50
250.5370490407
 51
270.0
  0
ARC
  5
EF
330
1F
100
AcDbEntity
  8
0
  6
Continuous
 62
     7
100
AcDbCircle
 10
6874.0187553361
 20
4340.5148313906
 30
0.0
 40
15.00000000000091
100
AcDbArc
 50
270.0
 51
289.462952404
  0
ARC
  5
F0
330
1F
100
AcDbEntity
  8
0
  6
Continuous
 62
     7
100
AcDbCircle
 10
6874.0187553361
 20
4340.5148313906
 30
0.0
 40
14.99999999999857
100
AcDbArc
 50
310.537049662
 51
349.4629503465
  0
ARC
  5
F1
330
1F
100
AcDbEntity
  8
0
  6
Continuous
 62
     7
100
AcDbCircle
 10
6874.0187553361
 20
4340.5148313906
 30
0.0
 40
14.99999999999959
100
AcDbArc
 50
10.5370504017
 51
49.4629496172
  0
ARC
  5
F2
330
1F
100
AcDbEntity
  8
0
  6
Continuous
 62
     7
100
AcDbCircle
 10
6874.0187553361
 20
4340.5148313906
 30
0.0
 40
15.00000000000007
100
AcDbArc
 50
70.5370496989
 51
109.4629503102
  0
ARC
  5
F3
330
1F
100
AcDbEntity
  8
0
  6
Continuous
 62
     7
100
AcDbCircle
 10
6874.0187553361
 20
4340.5148313906
 30
0.0
 40
15.00000000000104
100
AcDbArc
 50
130.5370501459
 51
169.4629498385
  0
ARC
  5
F4
330
1F
100
AcDbEntity
  8
0
  6
Continuous
 62
     7
100
AcDbCircle
 10
6874.0187553361
 20
4340.5148313906
 30
0.0
 40
15.00000000000137
100
AcDbArc
 50
190.537050049
 51
229.462949937
  0
ARC
  5
F5
330
1F
100
AcDbEntity
  8
0
  6
Continuous
 62
     7
100
AcDbCircle
 10
6874.0187553361
 20
4340.5148313906
 30
0.0
 40
15.00000000000124
100
AcDbArc
 50
250.5370476165
 51
270.0
  0
ARC
  5
F6
330
1F
100
AcDbEntity
  8
0
  6
Continuous
 62
     7
100
AcDbCircle
 10
6274.0187553361
 20
4340.5148313906
 30
0.0
 40
15.0
100
AcDbArc
 50
270.0
 51
289.4629512915
  0
ARC
  5
F7
330
1F
100
AcDbEntity
  8
0
  6
Continuous
 62
     7
100
AcDbCircle
 10
6274.0187553361
 20
4340.5148313906
 30
0.0
 40
15.00000000000079
100
AcDbArc
 50
310.5370516524
 51
349.4629483837
  0
ARC
  5
F8
330
1F
100
AcDbEntity
  8
0
  6
Continuous
 62
     7
100
AcDbCircle
 10
6274.0187553361
 20
4340.5148313906
 30
0.0
 40
15.00000000000101
100
AcDbArc
 50
10.537049408
 51
49.462950597
  0
ARC
  5
F9
330
1F
100
AcDbEntity
  8
0
  6
Continuous
 62
     7
100
AcDbCircle
 10
6274.0187553361
 20
4340.5148313906
 30
0.0
 40
15.00000000000009
100
AcDbArc
 50
70.5370494438
 51
109.4629505657
  0
ARC
  5
FA
330
1F
100
AcDbEntity
  8
0
  6
Continuous
 62
     7
100
AcDbCircle
 10
6274.0187553361
 20
4340.5148313906
 30
0.0
 40
15.00000000000035
100
AcDbArc
 50
130.5370487745
 51
169.4629512294
  0
ARC
  5
FB
330
1F
100
AcDbEntity
  8
0
  6
Continuous
 62
     7
100
AcDbCircle
 10
6274.0187553361
 20
4340.5148313906
 30
0.0
 40
15.00000000000009
100
AcDbArc
 50
190.5370486874
 51
229.4629513177
  0
ARC
  5
FC
330
1F
100
AcDbEntity
  8
0
  6
Continuous
 62
     7
100
AcDbCircle
 10
6274.0187553361
 20
4340.5148313906
 30
0.0
 40
15.00000000000012
100
AcDbArc
 50
250.5370487169
 51
270.0
  0
ARC
  5
FD
330
1F
100
AcDbEntity
  8
0
  6
Continuous
 62
     7
100
AcDbCircle
 10
5074.0187553361
 20
4340.5148313906
 30
0.0
 40
15.00000000000041
100
AcDbArc
 50
270.0
 51
289.4629509206
  0
ARC
  5
FE
330
1F
100
AcDbEntity
  8
0
  6
Continuous
 62
     7
100
AcDbCircle
 10
5074.0187553361
 20
4340.5148313906
 30
0.0
 40
14.99999999999993
100
AcDbArc
 50
310.5370510344
 51
349.4629489932
  0
ARC
  5
FF
330
1F
100
AcDbEntity
  8
0
  6
Continuous
 62
     7
100
AcDbCircle
 10
5074.0187553361
 20
4340.5148313906
 30
0.0
 40
14.99999999999991
100
AcDbArc
 50
10.5370493896
 51
49.4629506151
  0
ARC
  5
100
330
1F
100
AcDbEntity
  8
0
  6
Continuous
 62
     7
100
AcDbCircle
 10
5074.0187553361
 20
4340.5148313906
 30
0.0
 40
15.00000000000203
100
AcDbArc
 50
70.5370491101
 51
109.4629508869
  0
ARC
  5
101
330
1F
100
AcDbEntity
  8
0
  6
Continuous
 62
     7
100
AcDbCircle
 10
5074.0187553361
 20
4340.5148313906
 30
0.0
 40
15.00000000000122
100
AcDbArc
 50
130.537049571
 51
169.4629504216
  0
ARC
  5
102
330
1F
100
AcDbEntity
  8
0
  6
Continuous
 62
     7
100
AcDbCircle
 10
5074.0187553361
 20
4340.5148313906
 30
0.0
 40
15.00000000000098
100
AcDbArc
 50
190.5370479087
 51
229.4629521074
  0
ARC
  5
103
330
1F
100
AcDbEntity
  8
0
  6
Continuous
 62
     7
100
AcDbCircle
 10
5074.0187553361
 20
4340.5148313906
 30
0.0
 40
15.0
100
AcDbArc
 50
250.5370490808
 51
270.0
  0
ARC
  5
104
330
1F
100
AcDbEntity
  8
0
  6
Continuous
 62
     7
100
AcDbCircle
 10
7474.0187553361
 20
4340.5148313906
 30
0.0
 40
15.0
100
AcDbArc
 50
270.0
 51
289.4629495953
  0
ARC
  5
105
330
1F
100
AcDbEntity
  8
0
  6
Continuous
 62
     7
100
AcDbCircle
 10
7474.0187553361
 20
4340.5148313906
 30
0.0
 40
15.00000000000059
100
AcDbArc
 50
310.5370504731
 51
349.4629495467
  0
ARC
  5
106
330
1F
100
AcDbEntity
  8
0
  6
Continuous
 62
     7
100
AcDbCircle
 10
7474.0187553361
 20
4340.5148313906
 30
0.0
 40
15.00000000000064
100
AcDbArc
 50
10.5370492596
 51
49.4629507433
  0
ARC
  5
107
330
1F
100
AcDbEntity
  8
0
  6
Continuous
 62
     7
100
AcDbCircle
 10
7474.0187553361
 20
4340.5148313906
 30
0.0
 40
14.99999999999983
100
AcDbArc
 50
70.537050062
 51
109.462949948
  0
ARC
  5
108
330
1F
100
AcDbEntity
  8
0
  6
Continuous
 62
     7
100
AcDbCircle
 10
7474.0187553361
 20
4340.5148313906
 30
0.0
 40
15.00000000000012
100
AcDbArc
 50
130.5370486794
 51
169.4629513259
  0
ARC
  5
109
330
1F
100
AcDbEntity
  8
0
  6
Continuous
 62
     7
100
AcDbCircle
 10
7474.0187553361
 20
4340.5148313906
 30
0.0
 40
15.00000000000004
100
AcDbArc
 50
190.5370478725
 51
229.4629521442
  0
ARC
  5
10A
330
1F
100
AcDbEntity
  8
0
  6
Continuous
 62
     7
100
AcDbCircle
 10
7474.0187553361
 20
4340.5148313906
 30
0.0
 40
15.0
100
AcDbArc
 50
250.5370503913
 51
270.0
  0
ARC
  5
10B
330
1F
100
AcDbEntity
  8
0
  6
Continuous
 62
     7
100
AcDbCircle
 10
7474.0187443393
 20
4452.7033360621
 30
0.0
 40
44.11688505316704
100
AcDbArc
 50
75.2882434895
 51
104.7117565105
  0
ARC
  5
10C
330
1F
100
AcDbEntity
  8
0
  6
Continuous
 62
     7
100
AcDbCircle
 10
7474.567875527
 20
4532.4260198719
 30
0.0
 40
41.01153183906896
100
AcDbArc
 50
272.8973454945
 51
285.0579618418
  0
ARC
  5
10D
330
1F
100
AcDbEntity
  8
0
  6
Continuous
 62
     7
100
AcDbCircle
 10
7473.4696131515
 20
4532.4260198719
 30
0.0
 40
41.01153183906943
100
AcDbArc
 50
254.9420381582
 51
267.1026545055
  0
ARC
  5
10E
330
1F
100
AcDbEntity
  8
0
  6
Continuous
 62
     7
100
AcDbCircle
 10
6874.0187204974
 20
4452.7035551541
 30
0.0
 40
44.11667314400536
100
AcDbArc
 50
75.2881712283
 51
104.7118287717
  0
ARC
  5
10F
330
1F
100
AcDbEntity
  8
0
  6
Continuous
 62
     7
100
AcDbCircle
 10
6874.5677393091
 20
4532.4265488934
 30
0.0
 40
41.01207189067738
100
AcDbArc
 50
272.8976312589
 51
285.0579214388
  0
ARC
  5
110
330
1F
100
AcDbEntity
  8
0
  6
Continuous
 62
     7
100
AcDbCircle
 10
6873.4695893097
 20
4532.4260198719
 30
0.0
 40
41.01153183906943
100
AcDbArc
 50
254.9420381582
 51
267.1026545055
  0
ARC
  5
111
330
1F
100
AcDbEntity
  8
0
  6
Continuous
 62
     7
100
AcDbCircle
 10
5074.01875328
 20
4452.703247112
 30
0.0
 40
44.11697487139899
100
AcDbArc
 50
75.2882541089
 51
104.7117458911
  0
ARC
  5
112
330
1F
100
AcDbEntity
  8
0
  6
Continuous
 62
     7
100
AcDbCircle
 10
5074.5677075647
 20
4532.4271427936
 30
0.0
 40
41.01266603366947
100
AcDbArc
 50
272.897616975
 51
285.0578130412
  0
ARC
  5
113
330
1F
100
AcDbEntity
  8
0
  6
Continuous
 62
     7
100
AcDbCircle
 10
5073.4698581432
 20
4532.4275171798
 30
0.0
 40
41.01304293127105
100
AcDbArc
 50
254.9422430434
 51
267.1023269396
  0
ARC
  5
114
330
1F
100
AcDbEntity
  8
0
  6
Continuous
 62
     7
100
AcDbCircle
 10
5674.0187547701
 20
4452.7033463596
 30
0.0
 40
44.1168769853865
100
AcDbArc
 50
75.2882307341
 51
104.7117692659
  0
ARC
  5
115
330
1F
100
AcDbEntity
  8
0
  6
Continuous
 62
     7
100
AcDbCircle
 10
5674.5677536886
 20
4532.4268131156
 30
0.0
 40
41.01233414426743
100
AcDbArc
 50
272.8975675869
 51
285.0578624296
  0
ARC
  5
116
330
1F
100
AcDbEntity
  8
0
  6
Continuous
 62
     7
100
AcDbCircle
 10
5673.4697558516
 20
4532.4268131156
 30
0.0
 40
41.01233414426719
100
AcDbArc
 50
254.9421375704
 51
267.1024324131
  0
ARC
  5
117
330
1F
100
AcDbEntity
  8
0
  6
Continuous
 62
     7
100
AcDbCircle
 10
6274.0187562602
 20
4452.7033360621
 30
0.0
 40
44.11688505316642
100
AcDbArc
 50
75.2882434895
 51
104.7117565105
  0
ARC
  5
118
330
1F
100
AcDbEntity
  8
0
  6
Continuous
 62
     7
100
AcDbCircle
 10
6274.5676364958
 20
4532.4275171798
 30
0.0
 40
41.01304293127223
100
AcDbArc
 50
272.8976730604
 51
285.0577569566
  0
ARC
  5
119
330
1F
100
AcDbEntity
  8
0
  6
Continuous
 62
     7
100
AcDbCircle
 10
6273.4698760246
 20
4532.4275171798
 30
0.0
 40
41.01304293127105
100
AcDbArc
 50
254.9422430434
 51
267.1023269396
  0
ARC
  5
11A
330
1F
100
AcDbEntity
  8
0
  6
Continuous
 62
     7
100
AcDbCircle
 10
7474.0187553361
 20
4340.5148313906
 30
0.0
 40
5.250000000000043
100
AcDbArc
 50
98.2132107017
 51
261.7867892983
  0
ARC
  5
11B
330
1F
100
AcDbEntity
  8
0
  6
Continuous
 62
     7
100
AcDbCircle
 10
7474.0187553361
 20
4340.5148313906
 30
0.0
 40
5.250000000000043
100
AcDbArc
 50
278.2132107017
 51
81.7867892983
  0
ARC
  5
11C
330
1F
100
AcDbEntity
  8
0
  6
Continuous
 62
     7
100
AcDbCircle
 10
7474.0187553361
 20
4340.5148313906
 30
0.0
 40
5.250000000000043
100
AcDbArc
 50
81.7867892983
 51
98.2132107017
  0
ARC
  5
11D
330
1F
100
AcDbEntity
  8
0
  6
Continuous
 62
     7
100
AcDbCircle
 10
7474.0187553361
 20
4340.5148313906
 30
0.0
 40
5.249999999999143
100
AcDbArc
 50
261.7867892983
 51
278.2132107017
  0
ARC
  5
11E
330
1F
100
AcDbEntity
  8
0
  6
Continuous
 62
     7
100
AcDbCircle
 10
6274.0187553361
 20
4340.5148313906
 30
0.0
 40
5.250000000000043
100
AcDbArc
 50
98.2132107017
 51
261.7867892983
  0
ARC
  5
11F
330
1F
100
AcDbEntity
  8
0
  6
Continuous
 62
     7
100
AcDbCircle
 10
6274.0187553361
 20
4340.5148313906
 30
0.0
 40
5.250000000000043
100
AcDbArc
 50
278.2132107017
 51
81.7867892983
  0
ARC
  5
120
330
1F
100
AcDbEntity
  8
0
  6
Continuous
 62
     7
100
AcDbCircle
 10
6274.0187553361
 20
4340.5148313906
 30
0.0
 40
5.250000000000043
100
AcDbArc
 50
81.7867892983
 51
98.2132107017
  0
ARC
  5
121
330
1F
100
AcDbEntity
  8
0
  6
Continuous
 62
     7
100
AcDbCircle
 10
6274.0187553361
 20
4340.5148313906
 30
0.0
 40
5.249999999999143
100
AcDbArc
 50
261.7867892983
 51
278.2132107017
  0
ARC
  5
122
330
1F
100
AcDbEntity
  8
0
  6
Continuous
 62
     7
100
AcDbCircle
 10
5674.0187547701
 20
4483.1028434651
 30
0.0
 40
12.5480995784767
100
AcDbArc
 50
86.5733986398
 51
93.4266013602
  0
ARC
  5
123
330
1F
100
AcDbEntity
  8
0
  6
Continuous
 62
     7
100
AcDbCircle
 10
5674.0187547701
 20
4503.8323616897
 30
0.0
 40
12.54809957847657
100
AcDbArc
 50
266.5733986397
 51
273.4266013603
  0
ARC
  5
124
330
1F
100
AcDbEntity
  8
0
  6
Continuous
 62
     7
100
AcDbCircle
 10
5074.01875328
 20
4483.1032593083
 30
0.0
 40
12.54768403338464
100
AcDbArc
 50
86.5733191066
 51
93.4266808934
  0
ARC
  5
125
330
1F
100
AcDbEntity
  8
0
  6
Continuous
 62
     7
100
AcDbCircle
 10
5074.01875328
 20
4503.8319458465
 30
0.0
 40
12.54768403338368
100
AcDbArc
 50
266.5733191066
 51
273.4266808934
  0
ARC
  5
126
330
1F
100
AcDbEntity
  8
0
  6
Continuous
 62
     7
100
AcDbCircle
 10
7474.0187443392
 20
4483.100433975
 30
0.0
 40
12.55050876889498
100
AcDbArc
 50
86.5737505241
 51
93.4262494759
  0
ARC
  5
127
330
1F
100
AcDbEntity
  8
0
  6
Continuous
 62
     7
100
AcDbCircle
 10
7474.0187443393
 20
4503.8347711798
 30
0.0
 40
12.55050876889525
100
AcDbArc
 50
266.5737505241
 51
273.4262494759
  0
ARC
  5
128
330
1F
100
AcDbEntity
  8
0
  6
Continuous
 62
     7
100
AcDbCircle
 10
6874.0187553361
 20
4340.5148313906
 30
0.0
 40
5.250000000000173
100
AcDbArc
 50
98.2132107017
 51
261.7867892983
  0
ARC
  5
129
330
1F
100
AcDbEntity
  8
0
  6
Continuous
 62
     7
100
AcDbCircle
 10
6874.0187553361
 20
4340.5148313906
 30
0.0
 40
5.249999999999913
100
AcDbArc
 50
278.2132107017
 51
81.7867892983
  0
ARC
  5
12A
330
1F
100
AcDbEntity
  8
0
  6
Continuous
 62
     7
100
AcDbCircle
 10
6874.0187553361
 20
4340.5148313906
 30
0.0
 40
5.250000000000173
100
AcDbArc
 50
81.7867892983
 51
98.2132107017
  0
ARC
  5
12B
330
1F
100
AcDbEntity
  8
0
  6
Continuous
 62
     7
100
AcDbCircle
 10
6874.0187553361
 20
4340.5148313906
 30
0.0
 40
5.249999999999273
100
AcDbArc
 50
261.7867892983
 51
278.2132107017
  0
ARC
  5
12C
330
1F
100
AcDbEntity
  8
0
  6
Continuous
 62
     7
100
AcDbCircle
 10
5674.0187553361
 20
4340.5148313906
 30
0.0
 40
5.250000000000173
100
AcDbArc
 50
278.2132107017
 51
81.7867892983
  0
ARC
  5
12D
330
1F
100
AcDbEntity
  8
0
  6
Continuous
 62
     7
100
AcDbCircle
 10
5674.0187553361
 20
4340.5148313906
 30
0.0
 40
5.250000000000043
100
AcDbArc
 50
98.2132107017
 51
261.7867892983
  0
ARC
  5
12E
330
1F
100
AcDbEntity
  8
0
  6
Continuous
 62
     7
100
AcDbCircle
 10
5674.0187553361
 20
4340.5148313906
 30
0.0
 40
5.250000000000173
100
AcDbArc
 50
81.7867892983
 51
98.2132107017
  0
ARC
  5
12F
330
1F
100
AcDbEntity
  8
0
  6
Continuous
 62
     7
100
AcDbCircle
 10
5674.0187553361
 20
4340.5148313906
 30
0.0
 40
5.249999999999273
100
AcDbArc
 50
261.7867892983
 51
278.2132107017
  0
ARC
  5
130
330
1F
100
AcDbEntity
  8
0
  6
Continuous
 62
     7
100
AcDbCircle
 10
6274.0187562602
 20
4483.1028720322
 30
0.0
 40
12.54807150770905
100
AcDbArc
 50
86.573356884
 51
93.426643116
  0
ARC
  5
131
330
1F
100
AcDbEntity
  8
0
  6
Continuous
 62
     7
100
AcDbCircle
 10
6274.0187562602
 20
4503.8323331226
 30
0.0
 40
12.54807150770949
100
AcDbArc
 50
266.573356884
 51
273.426643116
  0
ARC
  5
132
330
1F
100
AcDbEntity
  8
0
  6
Continuous
 62
     7
100
AcDbCircle
 10
6874.0187801021
 20
4483.1028721291
 30
0.0
 40
12.54807141100769
100
AcDbArc
 50
86.5733568574
 51
93.4266431426
  0
ARC
  5
133
330
1F
100
AcDbEntity
  8
0
  6
Continuous
 62
     7
100
AcDbCircle
 10
6874.0187801021
 20
4503.8323330257
 30
0.0
 40
12.54807141100827
100
AcDbArc
 50
266.5733568576
 51
273.4266431424
  0
ARC
  5
134
330
1F
100
AcDbEntity
  8
0
  6
Continuous
 62
     7
100
AcDbCircle
 10
5074.0187553361
 20
4340.5148313906
 30
0.0
 40
5.250000000000043
100
AcDbArc
 50
278.2132107017
 51
81.7867892983
  0
ARC
  5
135
330
1F
100
AcDbEntity
  8
0
  6
Continuous
 62
     7
100
AcDbCircle
 10
5074.0187553361
 20
4340.5148313906
 30
0.0
 40
5.250000000000043
100
AcDbArc
 50
98.2132107017
 51
261.7867892983
  0
ARC
  5
136
330
1F
100
AcDbEntity
  8
0
  6
Continuous
 62
     7
100
AcDbCircle
 10
5074.0187553361
 20
4340.5148313906
 30
0.0
 40
5.250000000000043
100
AcDbArc
 50
81.7867892983
 51
98.2132107017
  0
ARC
  5
137
330
1F
100
AcDbEntity
  8
0
  6
Continuous
 62
     7
100
AcDbCircle
 10
5074.0187553361
 20
4340.5148313906
 30
0.0
 40
5.249999999999143
100
AcDbArc
 50
261.7867892983
 51
278.2132107017
  0
CIRCLE
  5
138
330
1F
100
AcDbEntity
  8
0
  6
Continuous
 62
     7
100
AcDbCircle
 10
6274.0187553361
 20
4340.5148313906
 30
0.0
 40
24.96512544439429
  0
CIRCLE
  5
139
330
1F
100
AcDbEntity
  8
0
  6
Continuous
 62
     7
100
AcDbCircle
 10
6274.0187553361
 20
4340.5148313906
 30
0.0
 40
35.0
  0
CIRCLE
  5
13A
330
1F
100
AcDbEntity
  8
0
  6
Continuous
 62
     7
100
AcDbCircle
 10
6274.0187553361
 20
4340.5148313906
 30
0.0
 40
35.16921944985825
  0
CIRCLE
  5
13B
330
1F
100
AcDbEntity
  8
0
  6
Continuous
 62
     7
100
AcDbCircle
 10
6274.0187553361
 20
4340.5148313906
 30
0.0
 40
22.0
  0
CIRCLE
  5
13C
330
1F
100
AcDbEntity
  8
0
  6
Continuous
 62
     7
100
AcDbCircle
 10
6274.0187553361
 20
4340.5148313906
 30
0.0
 40
20.5
  0
CIRCLE
  5
13D
330
1F
100
AcDbEntity
  8
0
  6
Continuous
 62
     7
100
AcDbCircle
 10
6274.0187553361
 20
4340.5148313906
 30
0.0
 40
19.48700763430406
  0
CIRCLE
  5
13E
330
1F
100
AcDbEntity
  8
0
  6
Continuous
 62
     7
100
AcDbCircle
 10
6274.0187553361
 20
4340.5148313906
 30
0.0
 40
5.699999999999818
  0
CIRCLE
  5
13F
330
1F
100
AcDbEntity
  8
0
  6
Continuous
 62
     7
100
AcDbCircle
 10
6274.0187553361
 20
4354.5148313906
 30
0.0
 40
5.000000000000909
  0
CIRCLE
  5
140
330
1F
100
AcDbEntity
  8
0
  6
Continuous
 62
     7
100
AcDbCircle
 10
6286.1431109891
 20
4347.5148313906
 30
0.0
 40
5.0
  0
CIRCLE
  5
141
330
1F
100
AcDbEntity
  8
0
  6
Continuous
 62
     7
100
AcDbCircle
 10
6286.1431109891
 20
4333.5148313906
 30
0.0
 40
4.999999999999091
  0
CIRCLE
  5
142
330
1F
100
AcDbEntity
  8
0
  6
Continuous
 62
     7
100
AcDbCircle
 10
6274.0187553361
 20
4326.5148313906
 30
0.0
 40
5.000000000000909
  0
CIRCLE
  5
143
330
1F
100
AcDbEntity
  8
0
  6
Continuous
 62
     7
100
AcDbCircle
 10
6261.8943996831
 20
4333.5148313906
 30
0.0
 40
5.0
  0
CIRCLE
  5
144
330
1F
100
AcDbEntity
  8
0
  6
Continuous
 62
     7
100
AcDbCircle
 10
6261.8943996831
 20
4347.5148313906
 30
0.0
 40
5.000000000000909
  0
CIRCLE
  5
145
330
1F
100
AcDbEntity
  8
0
  6
Continuous
 62
     7
100
AcDbCircle
 10
7474.0187553361
 20
4340.5148313906
 30
0.0
 40
24.96512544439429
  0
CIRCLE
  5
146
330
1F
100
AcDbEntity
  8
0
  6
Continuous
 62
     7
100
AcDbCircle
 10
7474.0187553361
 20
4340.5148313906
 30
0.0
 40
35.0
  0
CIRCLE
  5
147
330
1F
100
AcDbEntity
  8
0
  6
Continuous
 62
     7
100
AcDbCircle
 10
7474.0187553361
 20
4340.5148313906
 30
0.0
 40
35.16921944985825
  0
CIRCLE
  5
148
330
1F
100
AcDbEntity
  8
0
  6
Continuous
 62
     7
100
AcDbCircle
 10
7474.0187553361
 20
4340.5148313906
 30
0.0
 40
22.0
  0
CIRCLE
  5
149
330
1F
100
AcDbEntity
  8
0
  6
Continuous
 62
     7
100
AcDbCircle
 10
7474.0187553361
 20
4340.5148313906
 30
0.0
 40
20.5
  0
CIRCLE
  5
14A
330
1F
100
AcDbEntity
  8
0
  6
Continuous
 62
     7
100
AcDbCircle
 10
7474.0187553361
 20
4340.5148313906
 30
0.0
 40
19.48700763430406
  0
CIRCLE
  5
14B
330
1F
100
AcDbEntity
  8
0
  6
Continuous
 62
     7
100
AcDbCircle
 10
7474.0187553361
 20
4340.5148313906
 30
0.0
 40
5.699999999999818
  0
CIRCLE
  5
14C
330
1F
100
AcDbEntity
  8
0
  6
Continuous
 62
     7
100
AcDbCircle
 10
7474.0187553361
 20
4354.5148313906
 30
0.0
 40
5.000000000000909
  0
CIRCLE
  5
14D
330
1F
100
AcDbEntity
  8
0
  6
Continuous
 62
     7
100
AcDbCircle
 10
7486.1431109891
 20
4347.5148313906
 30
0.0
 40
5.0
  0
CIRCLE
  5
14E
330
1F
100
AcDbEntity
  8
0
  6
Continuous
 62
     7
100
AcDbCircle
 10
7486.1431109891
 20
4333.5148313906
 30
0.0
 40
4.999999999999091
  0
CIRCLE
  5
14F
330
1F
100
AcDbEntity
  8
0
  6
Continuous
 62
     7
100
AcDbCircle
 10
7474.0187553361
 20
4326.5148313906
 30
0.0
 40
5.000000000000909
  0
CIRCLE
  5
150
330
1F
100
AcDbEntity
  8
0
  6
Continuous
 62
     7
100
AcDbCircle
 10
7461.8943996831
 20
4333.5148313906
 30
0.0
 40
4.999999999999091
  0
CIRCLE
  5
151
330
1F
100
AcDbEntity
  8
0
  6
Continuous
 62
     7
100
AcDbCircle
 10
7461.8943996831
 20
4347.5148313906
 30
0.0
 40
5.0
  0
CIRCLE
  5
152
330
1F
100
AcDbEntity
  8
0
  6
Continuous
 62
     7
100
AcDbCircle
 10
5074.0187553361
 20
4340.5148313906
 30
0.0
 40
24.96512544439429
  0
CIRCLE
  5
153
330
1F
100
AcDbEntity
  8
0
  6
Continuous
 62
     7
100
AcDbCircle
 10
5074.0187553361
 20
4340.5148313906
 30
0.0
 40
35.0
  0
CIRCLE
  5
154
330
1F
100
AcDbEntity
  8
0
  6
Continuous
 62
     7
100
AcDbCircle
 10
5074.0187553361
 20
4340.5148313906
 30
0.0
 40
35.16921944985825
  0
CIRCLE
  5
155
330
1F
100
AcDbEntity
  8
0
  6
Continuous
 62
     7
100
AcDbCircle
 10
5074.0187553361
 20
4340.5148313906
 30
0.0
 40
22.0
  0
CIRCLE
  5
156
330
1F
100
AcDbEntity
  8
0
  6
Continuous
 62
     7
100
AcDbCircle
 10
5074.0187553361
 20
4340.5148313906
 30
0.0
 40
20.5
  0
CIRCLE
  5
157
330
1F
100
AcDbEntity
  8
0
  6
Continuous
 62
     7
100
AcDbCircle
 10
5074.0187553361
 20
4340.5148313906
 30
0.0
 40
19.48700763430315
  0
CIRCLE
  5
158
330
1F
100
AcDbEntity
  8
0
  6
Continuous
 62
     7
100
AcDbCircle
 10
5074.0187553361
 20
4340.5148313906
 30
0.0
 40
5.699999999999818
  0
CIRCLE
  5
159
330
1F
100
AcDbEntity
  8
0
  6
Continuous
 62
     7
100
AcDbCircle
 10
5074.0187553361
 20
4354.5148313906
 30
0.0
 40
5.000000000000909
  0
CIRCLE
  5
15A
330
1F
100
AcDbEntity
  8
0
  6
Continuous
 62
     7
100
AcDbCircle
 10
5086.1431109891
 20
4347.5148313906
 30
0.0
 40
5.0
  0
CIRCLE
  5
15B
330
1F
100
AcDbEntity
  8
0
  6
Continuous
 62
     7
100
AcDbCircle
 10
5086.1431109891
 20
4333.5148313906
 30
0.0
 40
4.999999999999091
  0
CIRCLE
  5
15C
330
1F
100
AcDbEntity
  8
0
  6
Continuous
 62
     7
100
AcDbCircle
 10
5074.0187553361
 20
4326.5148313906
 30
0.0
 40
5.000000000000909
  0
CIRCLE
  5
15D
330
1F
100
AcDbEntity
  8
0
  6
Continuous
 62
     7
100
AcDbCircle
 10
5061.8943996831
 20
4333.5148313906
 30
0.0
 40
5.0
  0
CIRCLE
  5
15E
330
1F
100
AcDbEntity
  8
0
  6
Continuous
 62
     7
100
AcDbCircle
 10
5061.8943996831
 20
4347.5148313906
 30
0.0
 40
5.000000000000909
  0
CIRCLE
  5
15F
330
1F
100
AcDbEntity
  8
0
  6
Continuous
 62
     7
100
AcDbCircle
 10
5674.0187553361
 20
4340.5148313906
 30
0.0
 40
24.96512544439429
  0
CIRCLE
  5
160
330
1F
100
AcDbEntity
  8
0
  6
Continuous
 62
     7
100
AcDbCircle
 10
5674.0187553361
 20
4340.5148313906
 30
0.0
 40
35.00000000000091
  0
CIRCLE
  5
161
330
1F
100
AcDbEntity
  8
0
  6
Continuous
 62
     7
100
AcDbCircle
 10
5674.0187553361
 20
4340.5148313906
 30
0.0
 40
35.16921944985825
  0
CIRCLE
  5
162
330
1F
100
AcDbEntity
  8
0
  6
Continuous
 62
     7
100
AcDbCircle
 10
5674.0187553361
 20
4340.5148313906
 30
0.0
 40
22.00000000000091
  0
CIRCLE
  5
163
330
1F
100
AcDbEntity
  8
0
  6
Continuous
 62
     7
100
AcDbCircle
 10
5674.0187553361
 20
4340.5148313906
 30
0.0
 40
20.50000000000091
  0
CIRCLE
  5
164
330
1F
100
AcDbEntity
  8
0
  6
Continuous
 62
     7
100
AcDbCircle
 10
5674.0187553361
 20
4340.5148313906
 30
0.0
 40
19.48700763430406
  0
CIRCLE
  5
165
330
1F
100
AcDbEntity
  8
0
  6
Continuous
 62
     7
100
AcDbCircle
 10
5674.0187553361
 20
4340.5148313906
 30
0.0
 40
5.700000000000728
  0
CIRCLE
  5
166
330
1F
100
AcDbEntity
  8
0
  6
Continuous
 62
     7
100
AcDbCircle
 10
5674.0187553361
 20
4354.5148313906
 30
0.0
 40
5.000000000000909
  0
CIRCLE
  5
167
330
1F
100
AcDbEntity
  8
0
  6
Continuous
 62
     7
100
AcDbCircle
 10
5686.1431109891
 20
4347.5148313906
 30
0.0
 40
5.0
  0
CIRCLE
  5
168
330
1F
100
AcDbEntity
  8
0
  6
Continuous
 62
     7
100
AcDbCircle
 10
5686.1431109891
 20
4333.5148313906
 30
0.0
 40
4.999999999999091
  0
CIRCLE
  5
169
330
1F
100
AcDbEntity
  8
0
  6
Continuous
 62
     7
100
AcDbCircle
 10
5674.0187553361
 20
4326.5148313906
 30
0.0
 40
5.000000000000909
  0
CIRCLE
  5
16A
330
1F
100
AcDbEntity
  8
0
  6
Continuous
 62
     7
100
AcDbCircle
 10
5661.8943996831
 20
4333.5148313906
 30
0.0
 40
5.0
  0
CIRCLE
  5
16B
330
1F
100
AcDbEntity
  8
0
  6
Continuous
 62
     7
100
AcDbCircle
 10
5661.8943996831
 20
4347.5148313906
 30
0.0
 40
5.000000000000909
  0
CIRCLE
  5
16C
330
1F
100
AcDbEntity
  8
0
  6
Continuous
 62
     7
100
AcDbCircle
 10
6874.0187553361
 20
4340.5148313906
 30
0.0
 40
35.0
  0
CIRCLE
  5
16D
330
1F
100
AcDbEntity
  8
0
  6
Continuous
 62
     7
100
AcDbCircle
 10
6874.0187553361
 20
4340.5148313906
 30
0.0
 40
35.16921944985734
  0
CIRCLE
  5
16E
330
1F
100
AcDbEntity
  8
0
  6
Continuous
 62
     7
100
AcDbCircle
 10
6874.0187553361
 20
4340.5148313906
 30
0.0
 40
24.96512544439429
  0
CIRCLE
  5
16F
330
1F
100
AcDbEntity
  8
0
  6
Continuous
 62
     7
100
AcDbCircle
 10
6874.0187553361
 20
4340.5148313906
 30
0.0
 40
22.0
  0
CIRCLE
  5
170
330
1F
100
AcDbEntity
  8
0
  6
Continuous
 62
     7
100
AcDbCircle
 10
6874.0187553361
 20
4340.5148313906
 30
0.0
 40
20.5
  0
CIRCLE
  5
171
330
1F
100
AcDbEntity
  8
0
  6
Continuous
 62
     7
100
AcDbCircle
 10
6874.0187553361
 20
4340.5148313906
 30
0.0
 40
19.48700763430315
  0
CIRCLE
  5
172
330
1F
100
AcDbEntity
  8
0
  6
Continuous
 62
     7
100
AcDbCircle
 10
6874.0187553361
 20
4340.5148313906
 30
0.0
 40
5.699999999999818
  0
CIRCLE
  5
173
330
1F
100
AcDbEntity
  8
0
  6
Continuous
 62
     7
100
AcDbCircle
 10
6874.0187553361
 20
4354.5148313906
 30
0.0
 40
5.0
  0
CIRCLE
  5
174
330
1F
100
AcDbEntity
  8
0
  6
Continuous
 62
     7
100
AcDbCircle
 10
6886.1431109891
 20
4347.5148313906
 30
0.0
 40
5.0
  0
CIRCLE
  5
175
330
1F
100
AcDbEntity
  8
0
  6
Continuous
 62
     7
100
AcDbCircle
 10
6886.1431109891
 20
4333.5148313906
 30
0.0
 40
4.999999999999091
  0
CIRCLE
  5
176
330
1F
100
AcDbEntity
  8
0
  6
Continuous
 62
     7
100
AcDbCircle
 10
6874.0187553361
 20
4326.5148313906
 30
0.0
 40
5.0
  0
CIRCLE
  5
177
330
1F
100
AcDbEntity
  8
0
  6
Continuous
 62
     7
100
AcDbCircle
 10
6861.8943996831
 20
4333.5148313906
 30
0.0
 40
5.0
  0
CIRCLE
  5
178
330
1F
100
AcDbEntity
  8
0
  6
Continuous
 62
     7
100
AcDbCircle
 10
6861.8943996831
 20
4347.5148313906
 30
0.0
 40
5.000000000000909
  0
LINE
  5
179
330
1F
100
AcDbEntity
  8
0
  6
Continuous
 62
     7
100
AcDbLine
 10
7438.4359635013
 20
5236.6942174445
 30
0.0
 11
7439.0453613894
 21
5236.355700315
 31
0.0
  0
LINE
  5
17A
330
1F
100
AcDbEntity
  8
0
  6
Continuous
 62
     7
100
AcDbLine
 10
7508.9921272891
 20
5236.355700315
 30
0.0
 11
7509.6015251773
 21
5236.6942174445
 31
0.0
  0
LINE
  5
17B
330
1F
100
AcDbEntity
  8
0
  6
Continuous
 62
     7
100
AcDbLine
 10
5638.4359813826
 20
5236.6942174445
 30
0.0
 11
5639.045304765
 21
5236.355700315
 31
0.0
  0
LINE
  5
17C
330
1F
100
AcDbEntity
  8
0
  6
Continuous
 62
     7
100
AcDbLine
 10
5708.9922047751
 20
5236.355700315
 30
0.0
 11
5709.6015281575
 21
5236.6942174445
 31
0.0
  0
LINE
  5
17D
330
1F
100
AcDbEntity
  8
0
  6
Continuous
 62
     7
100
AcDbLine
 10
6238.4359754222
 20
5236.6942174445
 30
0.0
 11
6239.0453137057
 21
5236.355700315
 31
0.0
  0
LINE
  5
17E
330
1F
100
AcDbEntity
  8
0
  6
Continuous
 62
     7
100
AcDbLine
 10
6308.9921988147
 20
5236.355700315
 30
0.0
 11
6309.6015370982
 21
5236.6942174445
 31
0.0
  0
LINE
  5
17F
330
1F
100
AcDbEntity
  8
0
  6
Continuous
 62
     7
100
AcDbLine
 10
5038.4359873431
 20
5236.6942174445
 30
0.0
 11
5039.0452958243
 21
5236.355700315
 31
0.0
  0
LINE
  5
180
330
1F
100
AcDbEntity
  8
0
  6
Continuous
 62
     7
100
AcDbLine
 10
5108.9922107356
 20
5236.355700315
 30
0.0
 11
5109.6015192168
 21
5236.6942174445
 31
0.0
  0
LINE
  5
181
330
1F
100
AcDbEntity
  8
0
  6
Continuous
 62
     7
100
AcDbLine
 10
6838.4359396594
 20
5236.6942174445
 30
0.0
 11
6839.0453375476
 21
5236.355700315
 31
0.0
  0
LINE
  5
182
330
1F
100
AcDbEntity
  8
0
  6
Continuous
 62
     7
100
AcDbLine
 10
6908.9922226565
 20
5236.355700315
 30
0.0
 11
6909.6015013354
 21
5236.6942174445
 31
0.0
  0
LINE
  5
183
330
1F
100
AcDbEntity
  8
0
  6
Continuous
 62
     7
100
AcDbLine
 10
5644.0187610286
 20
5196.3557012091
 30
0.0
 11
5646.0187501805
 21
5192.3557042788
 31
0.0
  0
LINE
  5
184
330
1F
100
AcDbEntity
  8
0
  6
Continuous
 62
     7
100
AcDbLine
 10
5702.0187593596
 20
5192.3557042788
 30
0.0
 11
5704.0187485116
 21
5196.3557012091
 31
0.0
  0
LINE
  5
185
330
1F
100
AcDbEntity
  8
0
  6
Continuous
 62
     7
100
AcDbLine
 10
5646.0187501805
 20
5192.3557042788
 30
0.0
 11
5646.0187501805
 21
5185.355704994
 31
0.0
  0
LINE
  5
186
330
1F
100
AcDbEntity
  8
0
  6
Continuous
 62
     7
100
AcDbLine
 10
5702.0187593596
 20
5185.355704994
 30
0.0
 11
5702.0187593596
 21
5192.3557042788
 31
0.0
  0
LINE
  5
187
330
1F
100
AcDbEntity
  8
0
  6
Continuous
 62
     7
100
AcDbLine
 10
5658.0187595981
 20
5182.3557026396
 30
0.0
 11
5658.0187595981
 21
5161.1557032625
 31
0.0
  0
LINE
  5
188
330
1F
100
AcDbEntity
  8
0
  6
Continuous
 62
     7
100
AcDbLine
 10
5658.0187595981
 20
5147.1557037617
 30
0.0
 11
5658.0187595981
 21
5144.6557033519
 31
0.0
  0
LINE
  5
189
330
1F
100
AcDbEntity
  8
0
  6
Continuous
 62
     7
100
AcDbLine
 10
5690.0187499421
 20
5144.6557033519
 30
0.0
 11
5690.0187499421
 21
5147.1557037617
 31
0.0
  0
LINE
  5
18A
330
1F
100
AcDbEntity
  8
0
  6
Continuous
 62
     7
100
AcDbLine
 10
5690.0187499421
 20
5161.1557032625
 30
0.0
 11
5690.0187499421
 21
5182.3557026396
 31
0.0
  0
LINE
  5
18B
330
1F
100
AcDbEntity
  8
0
  6
Continuous
 62
     7
100
AcDbLine
 10
6844.0187491076
 20
5196.3557012091
 30
0.0
 11
6846.0187233584
 21
5192.3557042788
 31
0.0
  0
LINE
  5
18C
330
1F
100
AcDbEntity
  8
0
  6
Continuous
 62
     7
100
AcDbLine
 10
6902.0187176364
 20
5192.3557042788
 30
0.0
 11
6904.0188110965
 21
5196.3557012091
 31
0.0
  0
LINE
  5
18D
330
1F
100
AcDbEntity
  8
0
  6
Continuous
 62
     7
100
AcDbLine
 10
6846.0187233584
 20
5192.3557042788
 30
0.0
 11
6846.0187233584
 21
5185.355704994
 31
0.0
  0
LINE
  5
18E
330
1F
100
AcDbEntity
  8
0
  6
Continuous
 62
     7
100
AcDbLine
 10
6902.0187176364
 20
5185.355704994
 30
0.0
 11
6902.0187176364
 21
5192.3557042788
 31
0.0
  0
LINE
  5
18F
330
1F
100
AcDbEntity
  8
0
  6
Continuous
 62
     7
100
AcDbLine
 10
6858.0188072818
 20
5182.3557026396
 30
0.0
 11
6858.0188072818
 21
5161.1557032625
 31
0.0
  0
LINE
  5
190
330
1F
100
AcDbEntity
  8
0
  6
Continuous
 62
     7
100
AcDbLine
 10
6858.0188072818
 20
5147.1557037617
 30
0.0
 11
6858.0188072818
 21
5144.6557033519
 31
0.0
  0
LINE
  5
191
330
1F
100
AcDbEntity
  8
0
  6
Continuous
 62
     7
100
AcDbLine
 10
6890.0187529223
 20
5144.6557033519
 30
0.0
 11
6890.0187529223
 21
5147.1557037617
 31
0.0
  0
LINE
  5
192
330
1F
100
AcDbEntity
  8
0
  6
Continuous
 62
     7
100
AcDbLine
 10
6890.0187529223
 20
5161.1557032625
 30
0.0
 11
6890.0187529223
 21
5182.3557026396
 31
0.0
  0
LINE
  5
193
330
1F
100
AcDbEntity
  8
0
  6
Continuous
 62
     7
100
AcDbLine
 10
6244.0187848704
 20
5196.3557012091
 30
0.0
 11
6246.0187591212
 21
5192.3557042788
 31
0.0
  0
LINE
  5
194
330
1F
100
AcDbEntity
  8
0
  6
Continuous
 62
     7
100
AcDbLine
 10
6302.0187533992
 20
5192.3557042788
 30
0.0
 11
6304.01872765
 21
5196.3557012091
 31
0.0
  0
LINE
  5
195
330
1F
100
AcDbEntity
  8
0
  6
Continuous
 62
     7
100
AcDbLine
 10
6246.0187591212
 20
5192.3557042788
 30
0.0
 11
6246.0187591212
 21
5185.355704994
 31
0.0
  0
LINE
  5
196
330
1F
100
AcDbEntity
  8
0
  6
Continuous
 62
     7
100
AcDbLine
 10
6302.0187533992
 20
5185.355704994
 30
0.0
 11
6302.0187533992
 21
5192.3557042788
 31
0.0
  0
LINE
  5
197
330
1F
100
AcDbEntity
  8
0
  6
Continuous
 62
     7
100
AcDbLine
 10
6258.0187834399
 20
5182.3557026396
 30
0.0
 11
6258.0187834399
 21
5161.1557032625
 31
0.0
  0
LINE
  5
198
330
1F
100
AcDbEntity
  8
0
  6
Continuous
 62
     7
100
AcDbLine
 10
6258.0187834399
 20
5147.1557037617
 30
0.0
 11
6258.0187834399
 21
5144.6557033519
 31
0.0
  0
LINE
  5
199
330
1F
100
AcDbEntity
  8
0
  6
Continuous
 62
     7
100
AcDbLine
 10
6290.0187290805
 20
5144.6557033519
 30
0.0
 11
6290.0187290805
 21
5147.1557037617
 31
0.0
  0
LINE
  5
19A
330
1F
100
AcDbEntity
  8
0
  6
Continuous
 62
     7
100
AcDbLine
 10
6290.0187290805
 20
5161.1557032625
 30
0.0
 11
6290.0187290805
 21
5182.3557026396
 31
0.0
  0
LINE
  5
19B
330
1F
100
AcDbEntity
  8
0
  6
Continuous
 62
     7
100
AcDbLine
 10
5044.018766989
 20
5196.3557012091
 30
0.0
 11
5046.0187412398
 21
5192.3557042788
 31
0.0
  0
LINE
  5
19C
330
1F
100
AcDbEntity
  8
0
  6
Continuous
 62
     7
100
AcDbLine
 10
5102.0187653201
 20
5192.3557042788
 30
0.0
 11
5104.0187693732
 21
5196.3557012091
 31
0.0
  0
LINE
  5
19D
330
1F
100
AcDbEntity
  8
0
  6
Continuous
 62
     7
100
AcDbLine
 10
5046.0187412398
 20
5192.3557042788
 30
0.0
 11
5046.0187412398
 21
5185.355704994
 31
0.0
  0
LINE
  5
19E
330
1F
100
AcDbEntity
  8
0
  6
Continuous
 62
     7
100
AcDbLine
 10
5102.0187653201
 20
5185.355704994
 30
0.0
 11
5102.0187653201
 21
5192.3557042788
 31
0.0
  0
LINE
  5
19F
330
1F
100
AcDbEntity
  8
0
  6
Continuous
 62
     7
100
AcDbLine
 10
5058.0187655585
 20
5182.3557026396
 30
0.0
 11
5058.0187655585
 21
5161.1557032625
 31
0.0
  0
LINE
  5
1A0
330
1F
100
AcDbEntity
  8
0
  6
Continuous
 62
     7
100
AcDbLine
 10
5058.0187655585
 20
5147.1557037617
 30
0.0
 11
5058.0187655585
 21
5144.6557033519
 31
0.0
  0
LINE
  5
1A1
330
1F
100
AcDbEntity
  8
0
  6
Continuous
 62
     7
100
AcDbLine
 10
5090.0187410014
 20
5144.6557033519
 30
0.0
 11
5090.0187410014
 21
5147.1557037617
 31
0.0
  0
LINE
  5
1A2
330
1F
100
AcDbEntity
  8
0
  6
Continuous
 62
     7
100
AcDbLine
 10
5090.0187410014
 20
5161.1557032625
 30
0.0
 11
5090.0187410014
 21
5182.3557026396
 31
0.0
  0
LINE
  5
1A3
330
1F
100
AcDbEntity
  8
0
  6
Continuous
 62
     7
100
AcDbLine
 10
7444.0187729495
 20
5196.3557012091
 30
0.0
 11
7446.0187472003
 21
5192.3557042788
 31
0.0
  0
LINE
  5
1A4
330
1F
100
AcDbEntity
  8
0
  6
Continuous
 62
     7
100
AcDbLine
 10
7502.0188606875
 20
5192.3557042788
 30
0.0
 11
7504.018715729
 21
5196.3557012091
 31
0.0
  0
LINE
  5
1A5
330
1F
100
AcDbEntity
  8
0
  6
Continuous
 62
     7
100
AcDbLine
 10
7446.0187472003
 20
5192.3557042788
 30
0.0
 11
7446.0187472003
 21
5185.355704994
 31
0.0
  0
LINE
  5
1A6
330
1F
100
AcDbEntity
  8
0
  6
Continuous
 62
     7
100
AcDbLine
 10
7502.0188606875
 20
5185.355704994
 30
0.0
 11
7502.0188606875
 21
5192.3557042788
 31
0.0
  0
LINE
  5
1A7
330
1F
100
AcDbEntity
  8
0
  6
Continuous
 62
     7
100
AcDbLine
 10
7458.0187119143
 20
5182.3557026396
 30
0.0
 11
7458.0187119143
 21
5161.1557032625
 31
0.0
  0
LINE
  5
1A8
330
1F
100
AcDbEntity
  8
0
  6
Continuous
 62
     7
100
AcDbLine
 10
7458.0187119143
 20
5147.1557037617
 30
0.0
 11
7458.0187119143
 21
5144.6557033519
 31
0.0
  0
LINE
  5
1A9
330
1F
100
AcDbEntity
  8
0
  6
Continuous
 62
     7
100
AcDbLine
 10
7490.0187767642
 20
5144.6557033519
 30
0.0
 11
7490.0187767642
 21
5147.1557037617
 31
0.0
  0
LINE
  5
1AA
330
1F
100
AcDbEntity
  8
0
  6
Continuous
 62
     7
100
AcDbLine
 10
7490.0187767642
 20
5161.1557032625
 30
0.0
 11
7490.0187767642
 21
5182.3557026396
 31
0.0
  0
LINE
  5
1AB
330
1F
100
AcDbEntity
  8
0
  6
Continuous
 62
     7
100
AcDbLine
 10
6308.0187357562
 20
5084.6557028304
 30
0.0
 11
6301.3281739848
 21
5142.0033460195
 31
0.0
  0
LINE
  5
1AC
330
1F
100
AcDbEntity
  8
0
  6
Continuous
 62
     7
100
AcDbLine
 10
6246.7093385356
 20
5142.0033460195
 30
0.0
 11
6240.0187767642
 21
5084.6557028304
 31
0.0
  0
LINE
  5
1AD
330
1F
100
AcDbEntity
  8
0
  6
Continuous
 62
     7
100
AcDbLine
 10
6240.0187767642
 20
5084.6557028304
 30
0.0
 11
6246.9125307696
 21
5017.3500261913
 31
0.0
  0
LINE
  5
1AE
330
1F
100
AcDbEntity
  8
0
  6
Continuous
 62
     7
100
AcDbLine
 10
6301.1249817508
 20
5017.3500261913
 30
0.0
 11
6308.0187357562
 21
5084.6557028304
 31
0.0
  0
LINE
  5
1AF
330
1F
100
AcDbEntity
  8
0
  6
Continuous
 62
     7
100
AcDbLine
 10
6299.0187324183
 20
5147.1557037617
 30
0.0
 11
6297.0187581675
 21
5151.155703486
 31
0.0
  0
LINE
  5
1B0
330
1F
100
AcDbEntity
  8
0
  6
Continuous
 62
     7
100
AcDbLine
 10
6251.0187543528
 20
5151.155703486
 30
0.0
 11
6249.0187801021
 21
5147.1557037617
 31
0.0
  0
LINE
  5
1B1
330
1F
100
AcDbEntity
  8
0
  6
Continuous
 62
     7
100
AcDbLine
 10
6251.0187543528
 20
5158.1557027708
 30
0.0
 11
6251.0187543528
 21
5151.155703486
 31
0.0
  0
LINE
  5
1B2
330
1F
100
AcDbEntity
  8
0
  6
Continuous
 62
     7
100
AcDbLine
 10
6297.0187581675
 20
5151.155703486
 30
0.0
 11
6297.0187581675
 21
5158.1557027708
 31
0.0
  0
LINE
  5
1B3
330
1F
100
AcDbEntity
  8
0
  6
Continuous
 62
     7
100
AcDbLine
 10
6258.0187834399
 20
5147.1557037617
 30
0.0
 11
6258.0187834399
 21
5144.6557033519
 31
0.0
  0
LINE
  5
1B4
330
1F
100
AcDbEntity
  8
0
  6
Continuous
 62
     7
100
AcDbLine
 10
6290.0187290805
 20
5144.6557033519
 30
0.0
 11
6290.0187290805
 21
5147.1557037617
 31
0.0
  0
LINE
  5
1B5
330
1F
100
AcDbEntity
  8
0
  6
Continuous
 62
     7
100
AcDbLine
 10
5640.0187529223
 20
5084.6557028304
 30
0.0
 11
5646.9125367301
 21
5017.3500261913
 31
0.0
  0
LINE
  5
1B6
330
1F
100
AcDbEntity
  8
0
  6
Continuous
 62
     7
100
AcDbLine
 10
5701.1249728101
 20
5017.3500261913
 30
0.0
 11
5708.0187566178
 21
5084.6557028304
 31
0.0
  0
LINE
  5
1B7
330
1F
100
AcDbEntity
  8
0
  6
Continuous
 62
     7
100
AcDbLine
 10
5708.0187566178
 20
5084.6557028304
 30
0.0
 11
5701.3281948464
 21
5142.0033460195
 31
0.0
  0
LINE
  5
1B8
330
1F
100
AcDbEntity
  8
0
  6
Continuous
 62
     7
100
AcDbLine
 10
5646.7093146937
 20
5142.0033460195
 30
0.0
 11
5640.0187529223
 21
5084.6557028304
 31
0.0
  0
LINE
  5
1B9
330
1F
100
AcDbEntity
  8
0
  6
Continuous
 62
     7
100
AcDbLine
 10
5699.01875328
 20
5147.1557037617
 30
0.0
 11
5697.0187492268
 21
5151.155703486
 31
0.0
  0
LINE
  5
1BA
330
1F
100
AcDbEntity
  8
0
  6
Continuous
 62
     7
100
AcDbLine
 10
5651.0187603133
 20
5151.155703486
 30
0.0
 11
5649.0187562602
 21
5147.1557037617
 31
0.0
  0
LINE
  5
1BB
330
1F
100
AcDbEntity
  8
0
  6
Continuous
 62
     7
100
AcDbLine
 10
5651.0187603133
 20
5158.1557027708
 30
0.0
 11
5651.0187603133
 21
5151.155703486
 31
0.0
  0
LINE
  5
1BC
330
1F
100
AcDbEntity
  8
0
  6
Continuous
 62
     7
100
AcDbLine
 10
5697.0187492268
 20
5151.155703486
 30
0.0
 11
5697.0187492268
 21
5158.1557027708
 31
0.0
  0
LINE
  5
1BD
330
1F
100
AcDbEntity
  8
0
  6
Continuous
 62
     7
100
AcDbLine
 10
5658.0187595981
 20
5147.1557037617
 30
0.0
 11
5658.0187595981
 21
5144.6557033519
 31
0.0
  0
LINE
  5
1BE
330
1F
100
AcDbEntity
  8
0
  6
Continuous
 62
     7
100
AcDbLine
 10
5690.0187499421
 20
5144.6557033519
 30
0.0
 11
5690.0187499421
 21
5147.1557037617
 31
0.0
  0
LINE
  5
1BF
330
1F
100
AcDbEntity
  8
0
  6
Continuous
 62
     7
100
AcDbLine
 10
5108.0187476771
 20
5084.6557028304
 30
0.0
 11
5101.3281859057
 21
5142.0033460195
 31
0.0
  0
LINE
  5
1C0
330
1F
100
AcDbEntity
  8
0
  6
Continuous
 62
     7
100
AcDbLine
 10
5046.7093206542
 20
5142.0033460195
 30
0.0
 11
5040.0187588828
 21
5084.6557028304
 31
0.0
  0
LINE
  5
1C1
330
1F
100
AcDbEntity
  8
0
  6
Continuous
 62
     7
100
AcDbLine
 10
5040.0187588828
 20
5084.6557028304
 30
0.0
 11
5046.9125426906
 21
5017.3500261913
 31
0.0
  0
LINE
  5
1C2
330
1F
100
AcDbEntity
  8
0
  6
Continuous
 62
     7
100
AcDbLine
 10
5101.1249638694
 20
5017.3500261913
 30
0.0
 11
5108.0187476771
 21
5084.6557028304
 31
0.0
  0
LINE
  5
1C3
330
1F
100
AcDbEntity
  8
0
  6
Continuous
 62
     7
100
AcDbLine
 10
5099.0187443393
 20
5147.1557037617
 30
0.0
 11
5097.0187700885
 21
5151.155703486
 31
0.0
  0
LINE
  5
1C4
330
1F
100
AcDbEntity
  8
0
  6
Continuous
 62
     7
100
AcDbLine
 10
5051.0187662738
 20
5151.155703486
 30
0.0
 11
5049.0187622207
 21
5147.1557037617
 31
0.0
  0
LINE
  5
1C5
330
1F
100
AcDbEntity
  8
0
  6
Continuous
 62
     7
100
AcDbLine
 10
5051.0187662738
 20
5158.1557027708
 30
0.0
 11
5051.0187662738
 21
5151.155703486
 31
0.0
  0
LINE
  5
1C6
330
1F
100
AcDbEntity
  8
0
  6
Continuous
 62
     7
100
AcDbLine
 10
5097.0187700885
 20
5151.155703486
 30
0.0
 11
5097.0187700885
 21
5158.1557027708
 31
0.0
  0
LINE
  5
1C7
330
1F
100
AcDbEntity
  8
0
  6
Continuous
 62
     7
100
AcDbLine
 10
5058.0187655585
 20
5147.1557037617
 30
0.0
 11
5058.0187655585
 21
5144.6557033519
 31
0.0
  0
LINE
  5
1C8
330
1F
100
AcDbEntity
  8
0
  6
Continuous
 62
     7
100
AcDbLine
 10
5090.0187410014
 20
5144.6557033519
 30
0.0
 11
5090.0187410014
 21
5147.1557037617
 31
0.0
  0
LINE
  5
1C9
330
1F
100
AcDbEntity
  8
0
  6
Continuous
 62
     7
100
AcDbLine
 10
7508.0186642306
 20
5084.6557028304
 30
0.0
 11
7501.3281620639
 21
5142.0033460195
 31
0.0
  0
LINE
  5
1CA
330
1F
100
AcDbEntity
  8
0
  6
Continuous
 62
     7
100
AcDbLine
 10
7446.7093266147
 20
5142.0033460195
 30
0.0
 11
7440.0187052386
 21
5084.6557028304
 31
0.0
  0
LINE
  5
1CB
330
1F
100
AcDbEntity
  8
0
  6
Continuous
 62
     7
100
AcDbLine
 10
7440.0187052386
 20
5084.6557028304
 30
0.0
 11
7446.9125784533
 21
5017.3500261913
 31
0.0
  0
LINE
  5
1CC
330
1F
100
AcDbEntity
  8
0
  6
Continuous
 62
     7
100
AcDbLine
 10
7501.1250294345
 20
5017.3500261913
 30
0.0
 11
7508.0186642306
 21
5084.6557028304
 31
0.0
  0
LINE
  5
1CD
330
1F
100
AcDbEntity
  8
0
  6
Continuous
 62
     7
100
AcDbLine
 10
7499.0188397067
 20
5147.1557037617
 30
0.0
 11
7497.0187462466
 21
5151.155703486
 31
0.0
  0
LINE
  5
1CE
330
1F
100
AcDbEntity
  8
0
  6
Continuous
 62
     7
100
AcDbLine
 10
7451.0187424319
 20
5151.155703486
 30
0.0
 11
7449.0187681811
 21
5147.1557037617
 31
0.0
  0
LINE
  5
1CF
330
1F
100
AcDbEntity
  8
0
  6
Continuous
 62
     7
100
AcDbLine
 10
7451.0187424319
 20
5158.1557027708
 30
0.0
 11
7451.0187424319
 21
5151.155703486
 31
0.0
  0
LINE
  5
1D0
330
1F
100
AcDbEntity
  8
0
  6
Continuous
 62
     7
100
AcDbLine
 10
7497.0187462466
 20
5151.155703486
 30
0.0
 11
7497.0187462466
 21
5158.1557027708
 31
0.0
  0
LINE
  5
1D1
330
1F
100
AcDbEntity
  8
0
  6
Continuous
 62
     7
100
AcDbLine
 10
7458.0187119143
 20
5147.1557037617
 30
0.0
 11
7458.0187119143
 21
5144.6557033519
 31
0.0
  0
LINE
  5
1D2
330
1F
100
AcDbEntity
  8
0
  6
Continuous
 62
     7
100
AcDbLine
 10
7490.0187767642
 20
5144.6557033519
 30
0.0
 11
7490.0187767642
 21
5147.1557037617
 31
0.0
  0
LINE
  5
1D3
330
1F
100
AcDbEntity
  8
0
  6
Continuous
 62
     7
100
AcDbLine
 10
6908.0187595981
 20
5084.6557028304
 30
0.0
 11
6901.328138222
 21
5142.0033460195
 31
0.0
  0
LINE
  5
1D4
330
1F
100
AcDbEntity
  8
0
  6
Continuous
 62
     7
100
AcDbLine
 10
6846.7093027728
 20
5142.0033460195
 30
0.0
 11
6840.0188006061
 21
5084.6557028304
 31
0.0
  0
LINE
  5
1D5
330
1F
100
AcDbEntity
  8
0
  6
Continuous
 62
     7
100
AcDbLine
 10
6840.0188006061
 20
5084.6557028304
 30
0.0
 11
6846.9125546115
 21
5017.3500261913
 31
0.0
  0
LINE
  5
1D6
330
1F
100
AcDbEntity
  8
0
  6
Continuous
 62
     7
100
AcDbLine
 10
6901.1250055926
 20
5017.3500261913
 30
0.0
 11
6908.0187595981
 21
5084.6557028304
 31
0.0
  0
LINE
  5
1D7
330
1F
100
AcDbEntity
  8
0
  6
Continuous
 62
     7
100
AcDbLine
 10
6899.0186966556
 20
5147.1557037617
 30
0.0
 11
6897.0187224048
 21
5151.155703486
 31
0.0
  0
LINE
  5
1D8
330
1F
100
AcDbEntity
  8
0
  6
Continuous
 62
     7
100
AcDbLine
 10
6851.0187185901
 20
5151.155703486
 30
0.0
 11
6849.0187443393
 21
5147.1557037617
 31
0.0
  0
LINE
  5
1D9
330
1F
100
AcDbEntity
  8
0
  6
Continuous
 62
     7
100
AcDbLine
 10
6851.0187185901
 20
5158.1557027708
 30
0.0
 11
6851.0187185901
 21
5151.155703486
 31
0.0
  0
LINE
  5
1DA
330
1F
100
AcDbEntity
  8
0
  6
Continuous
 62
     7
100
AcDbLine
 10
6897.0187224048
 20
5151.155703486
 30
0.0
 11
6897.0187224048
 21
5158.1557027708
 31
0.0
  0
LINE
  5
1DB
330
1F
100
AcDbEntity
  8
0
  6
Continuous
 62
     7
100
AcDbLine
 10
6858.0188072818
 20
5147.1557037617
 30
0.0
 11
6858.0188072818
 21
5144.6557033519
 31
0.0
  0
LINE
  5
1DC
330
1F
100
AcDbEntity
  8
0
  6
Continuous
 62
     7
100
AcDbLine
 10
6890.0187529223
 20
5144.6557033519
 30
0.0
 11
6890.0187529223
 21
5147.1557037617
 31
0.0
  0
LINE
  5
1DD
330
1F
100
AcDbEntity
  8
0
  6
Continuous
 62
     7
100
AcDbLine
 10
5639.0187508958
 20
5236.355700315
 30
0.0
 11
5642.0187569755
 21
5229.3557010303
 31
0.0
  0
LINE
  5
1DE
330
1F
100
AcDbEntity
  8
0
  6
Continuous
 62
     7
100
AcDbLine
 10
5706.0187525647
 20
5229.3557010303
 30
0.0
 11
5709.0187586444
 21
5236.355700315
 31
0.0
  0
LINE
  5
1DF
330
1F
100
AcDbEntity
  8
0
  6
Continuous
 62
     7
100
AcDbLine
 10
5642.0187569755
 20
5229.3557010303
 30
0.0
 11
5647.5187606709
 21
5223.8557047854
 31
0.0
  0
LINE
  5
1E0
330
1F
100
AcDbEntity
  8
0
  6
Continuous
 62
     7
100
AcDbLine
 10
5700.5187488692
 20
5223.8557047854
 30
0.0
 11
5706.0187525647
 21
5229.3557010303
 31
0.0
  0
LINE
  5
1E1
330
1F
100
AcDbEntity
  8
0
  6
Continuous
 62
     7
100
AcDbLine
 10
5644.5187545913
 20
5199.3556998382
 30
0.0
 11
5644.5187545913
 21
5196.3557012091
 31
0.0
  0
LINE
  5
1E2
330
1F
100
AcDbEntity
  8
0
  6
Continuous
 62
     7
100
AcDbLine
 10
5703.5187549489
 20
5196.3557012091
 30
0.0
 11
5703.5187549489
 21
5199.3556998382
 31
0.0
  0
LINE
  5
1E3
330
1F
100
AcDbEntity
  8
0
  6
Continuous
 62
     7
100
AcDbLine
 10
5647.5187606709
 20
5223.8557047854
 30
0.0
 11
5647.5187606709
 21
5199.3556998382
 31
0.0
  0
LINE
  5
1E4
330
1F
100
AcDbEntity
  8
0
  6
Continuous
 62
     7
100
AcDbLine
 10
5700.5187488692
 20
5199.3556998382
 30
0.0
 11
5700.5187488692
 21
5223.8557047854
 31
0.0
  0
LINE
  5
1E5
330
1F
100
AcDbEntity
  8
0
  6
Continuous
 62
     7
100
AcDbLine
 10
5039.0187419551
 20
5236.355700315
 30
0.0
 11
5042.0187629359
 21
5229.3557010303
 31
0.0
  0
LINE
  5
1E6
330
1F
100
AcDbEntity
  8
0
  6
Continuous
 62
     7
100
AcDbLine
 10
5106.018743624
 20
5229.3557010303
 30
0.0
 11
5109.0187646048
 21
5236.355700315
 31
0.0
  0
LINE
  5
1E7
330
1F
100
AcDbEntity
  8
0
  6
Continuous
 62
     7
100
AcDbLine
 10
5042.0187629359
 20
5229.3557010303
 30
0.0
 11
5047.5187517302
 21
5223.8557047854
 31
0.0
  0
LINE
  5
1E8
330
1F
100
AcDbEntity
  8
0
  6
Continuous
 62
     7
100
AcDbLine
 10
5100.5187548297
 20
5223.8557047854
 30
0.0
 11
5106.018743624
 21
5229.3557010303
 31
0.0
  0
LINE
  5
1E9
330
1F
100
AcDbEntity
  8
0
  6
Continuous
 62
     7
100
AcDbLine
 10
5044.5187605517
 20
5199.3556998382
 30
0.0
 11
5044.5187605517
 21
5196.3557012091
 31
0.0
  0
LINE
  5
1EA
330
1F
100
AcDbEntity
  8
0
  6
Continuous
 62
     7
100
AcDbLine
 10
5103.5187460082
 20
5196.3557012091
 30
0.0
 11
5103.5187460082
 21
5199.3556998382
 31
0.0
  0
LINE
  5
1EB
330
1F
100
AcDbEntity
  8
0
  6
Continuous
 62
     7
100
AcDbLine
 10
5047.5187517302
 20
5223.8557047854
 30
0.0
 11
5047.5187517302
 21
5199.3556998382
 31
0.0
  0
LINE
  5
1EC
330
1F
100
AcDbEntity
  8
0
  6
Continuous
 62
     7
100
AcDbLine
 10
5100.5187548297
 20
5199.3556998382
 30
0.0
 11
5100.5187548297
 21
5223.8557047854
 31
0.0
  0
LINE
  5
1ED
330
1F
100
AcDbEntity
  8
0
  6
Continuous
 62
     7
100
AcDbLine
 10
6239.0187300342
 20
5236.355700315
 30
0.0
 11
6242.018751015
 21
5229.3557010303
 31
0.0
  0
LINE
  5
1EE
330
1F
100
AcDbEntity
  8
0
  6
Continuous
 62
     7
100
AcDbLine
 10
6306.0187615054
 20
5229.3557010303
 30
0.0
 11
6309.0187824862
 21
5236.355700315
 31
0.0
  0
LINE
  5
1EF
330
1F
100
AcDbEntity
  8
0
  6
Continuous
 62
     7
100
AcDbLine
 10
6242.018751015
 20
5229.3557010303
 30
0.0
 11
6247.5187696116
 21
5223.8557047854
 31
0.0
  0
LINE
  5
1F0
330
1F
100
AcDbEntity
  8
0
  6
Continuous
 62
     7
100
AcDbLine
 10
6300.5187429088
 20
5223.8557047854
 30
0.0
 11
6306.0187615054
 21
5229.3557010303
 31
0.0
  0
LINE
  5
1F1
330
1F
100
AcDbEntity
  8
0
  6
Continuous
 62
     7
100
AcDbLine
 10
6244.5187486308
 20
5199.3556998382
 30
0.0
 11
6244.5187486308
 21
5196.3557012091
 31
0.0
  0
LINE
  5
1F2
330
1F
100
AcDbEntity
  8
0
  6
Continuous
 62
     7
100
AcDbLine
 10
6303.5187638896
 20
5196.3557012091
 30
0.0
 11
6303.5187638896
 21
5199.3556998382
 31
0.0
  0
LINE
  5
1F3
330
1F
100
AcDbEntity
  8
0
  6
Continuous
 62
     7
100
AcDbLine
 10
6247.5187696116
 20
5223.8557047854
 30
0.0
 11
6247.5187696116
 21
5199.3556998382
 31
0.0
  0
LINE
  5
1F4
330
1F
100
AcDbEntity
  8
0
  6
Continuous
 62
     7
100
AcDbLine
 10
6300.5187429088
 20
5199.3556998382
 30
0.0
 11
6300.5187429088
 21
5223.8557047854
 31
0.0
  0
LINE
  5
1F5
330
1F
100
AcDbEntity
  8
0
  6
Continuous
 62
     7
100
AcDbLine
 10
6839.018753876
 20
5236.355700315
 30
0.0
 11
6842.0187748568
 21
5229.3557010303
 31
0.0
  0
LINE
  5
1F6
330
1F
100
AcDbEntity
  8
0
  6
Continuous
 62
     7
100
AcDbLine
 10
6906.0187853473
 20
5229.3557010303
 30
0.0
 11
6909.0188063281
 21
5236.355700315
 31
0.0
  0
LINE
  5
1F7
330
1F
100
AcDbEntity
  8
0
  6
Continuous
 62
     7
100
AcDbLine
 10
6842.0187748568
 20
5229.3557010303
 30
0.0
 11
6847.5187338488
 21
5223.8557047854
 31
0.0
  0
LINE
  5
1F8
330
1F
100
AcDbEntity
  8
0
  6
Continuous
 62
     7
100
AcDbLine
 10
6900.518707146
 20
5223.8557047854
 30
0.0
 11
6906.0187853473
 21
5229.3557010303
 31
0.0
  0
LINE
  5
1F9
330
1F
100
AcDbEntity
  8
0
  6
Continuous
 62
     7
100
AcDbLine
 10
6844.518712868
 20
5199.3556998382
 30
0.0
 11
6844.518712868
 21
5196.3557012091
 31
0.0
  0
LINE
  5
1FA
330
1F
100
AcDbEntity
  8
0
  6
Continuous
 62
     7
100
AcDbLine
 10
6903.5187281268
 20
5196.3557012091
 30
0.0
 11
6903.5187281268
 21
5199.3556998382
 31
0.0
  0
LINE
  5
1FB
330
1F
100
AcDbEntity
  8
0
  6
Continuous
 62
     7
100
AcDbLine
 10
6847.5187338488
 20
5223.8557047854
 30
0.0
 11
6847.5187338488
 21
5199.3556998382
 31
0.0
  0
LINE
  5
1FC
330
1F
100
AcDbEntity
  8
0
  6
Continuous
 62
     7
100
AcDbLine
 10
6900.518707146
 20
5199.3556998382
 30
0.0
 11
6900.518707146
 21
5223.8557047854
 31
0.0
  0
LINE
  5
1FD
330
1F
100
AcDbEntity
  8
0
  6
Continuous
 62
     7
100
AcDbLine
 10
7439.0187777179
 20
5236.355700315
 30
0.0
 11
7442.0187986987
 21
5229.3557010303
 31
0.0
  0
LINE
  5
1FE
330
1F
100
AcDbEntity
  8
0
  6
Continuous
 62
     7
100
AcDbLine
 10
7506.0188091891
 20
5229.3557010303
 30
0.0
 11
7509.01883017
 21
5236.355700315
 31
0.0
  0
LINE
  5
1FF
330
1F
100
AcDbEntity
  8
0
  6
Continuous
 62
     7
100
AcDbLine
 10
7442.0187986987
 20
5229.3557010303
 30
0.0
 11
7447.5187576907
 21
5223.8557047854
 31
0.0
  0
LINE
  5
200
330
1F
100
AcDbEntity
  8
0
  6
Continuous
 62
     7
100
AcDbLine
 10
7500.5187309878
 20
5223.8557047854
 30
0.0
 11
7506.0188091891
 21
5229.3557010303
 31
0.0
  0
LINE
  5
201
330
1F
100
AcDbEntity
  8
0
  6
Continuous
 62
     7
100
AcDbLine
 10
7444.5187367099
 20
5199.3556998382
 30
0.0
 11
7444.5187367099
 21
5196.3557012091
 31
0.0
  0
LINE
  5
202
330
1F
100
AcDbEntity
  8
0
  6
Continuous
 62
     7
100
AcDbLine
 10
7503.5187519687
 20
5196.3557012091
 30
0.0
 11
7503.5187519687
 21
5199.3556998382
 31
0.0
  0
LINE
  5
203
330
1F
100
AcDbEntity
  8
0
  6
Continuous
 62
     7
100
AcDbLine
 10
7447.5187576907
 20
5223.8557047854
 30
0.0
 11
7447.5187576907
 21
5199.3556998382
 31
0.0
  0
LINE
  5
204
330
1F
100
AcDbEntity
  8
0
  6
Continuous
 62
     7
100
AcDbLine
 10
7500.5187309878
 20
5199.3556998382
 30
0.0
 11
7500.5187309878
 21
5223.8557047854
 31
0.0
  0
LINE
  5
205
330
1F
100
AcDbEntity
  8
0
  6
Continuous
 62
     7
100
AcDbLine
 10
4774.0187562602
 20
5272.7432109128
 30
0.0
 11
7774.0186966556
 21
5272.7432109128
 31
0.0
  0
LINE
  5
206
330
1F
100
AcDbEntity
  8
0
  6
Continuous
 62
     7
100
AcDbLine
 10
7774.0186966556
 20
5182.7432073365
 30
0.0
 11
7774.0186966556
 21
5272.7432109128
 31
0.0
  0
LINE
  5
207
330
1F
100
AcDbEntity
  8
0
  6
Continuous
 62
     7
100
AcDbLine
 10
7774.0186966556
 20
5182.7432073365
 30
0.0
 11
7772.8187359469
 21
5182.7432073365
 31
0.0
  0
LINE
  5
208
330
1F
100
AcDbEntity
  8
0
  6
Continuous
 62
     7
100
AcDbLine
 10
7772.8187359469
 20
5182.9592071186
 30
0.0
 11
7772.8187359469
 21
5272.5272036801
 31
0.0
  0
LINE
  5
209
330
1F
100
AcDbEntity
  8
0
  6
Continuous
 62
     7
100
AcDbLine
 10
4775.2187765735
 20
5272.5272036801
 30
0.0
 11
7772.8187359469
 21
5272.5272036801
 31
0.0
  0
LINE
  5
20A
330
1F
100
AcDbEntity
  8
0
  6
Continuous
 62
     7
100
AcDbLine
 10
4775.2187765735
 20
5182.9592071186
 30
0.0
 11
4775.2187765735
 21
5272.5272036801
 31
0.0
  0
LINE
  5
20B
330
1F
100
AcDbEntity
  8
0
  6
Continuous
 62
     7
100
AcDbLine
 10
4775.2187765735
 20
5182.7432073365
 30
0.0
 11
4774.0187562602
 21
5182.7432073365
 31
0.0
  0
LINE
  5
20C
330
1F
100
AcDbEntity
  8
0
  6
Continuous
 62
     7
100
AcDbLine
 10
4774.0187562602
 20
5272.7432109128
 30
0.0
 11
4774.0187562602
 21
5182.7432073365
 31
0.0
  0
LINE
  5
20D
330
1F
100
AcDbEntity
  8
0
  6
Continuous
 62
     7
100
AcDbLine
 10
4774.0187562602
 20
5372.7432049523
 30
0.0
 11
7774.0186966556
 21
5372.7432049523
 31
0.0
  0
LINE
  5
20E
330
1F
100
AcDbEntity
  8
0
  6
Continuous
 62
     7
100
AcDbLine
 10
7774.0186966556
 20
5272.7432109128
 30
0.0
 11
7774.0186966556
 21
5372.7432049523
 31
0.0
  0
LINE
  5
20F
330
1F
100
AcDbEntity
  8
0
  6
Continuous
 62
     7
100
AcDbLine
 10
4774.0187562602
 20
5272.7432109128
 30
0.0
 11
4774.0187562602
 21
5372.7432049523
 31
0.0
  0
LINE
  5
210
330
1F
100
AcDbEntity
  8
0
  6
Continuous
 62
     7
100
AcDbLine
 10
4774.0187562602
 20
5374.7432090054
 30
0.0
 11
7774.0186966556
 21
5374.7432090054
 31
0.0
  0
LINE
  5
211
330
1F
100
AcDbEntity
  8
0
  6
Continuous
 62
     7
100
AcDbLine
 10
7774.0186966556
 20
5374.7432090054
 30
0.0
 11
7774.0186966556
 21
5372.7432049523
 31
0.0
  0
LINE
  5
212
330
1F
100
AcDbEntity
  8
0
  6
Continuous
 62
     7
100
AcDbLine
 10
4774.0187562602
 20
5372.7432049523
 30
0.0
 11
4774.0187562602
 21
5374.7432090054
 31
0.0
  0
LINE
  5
213
330
1F
100
AcDbEntity
  8
0
  6
Continuous
 62
     7
100
AcDbLine
 10
4774.0187562602
 20
5412.7431966076
 30
0.0
 11
7774.0186966556
 21
5412.7431966076
 31
0.0
  0
LINE
  5
214
330
1F
100
AcDbEntity
  8
0
  6
Continuous
 62
     7
100
AcDbLine
 10
7774.0186966556
 20
5412.7431966076
 30
0.0
 11
7774.0186966556
 21
5374.7432090054
 31
0.0
  0
LINE
  5
215
330
1F
100
AcDbEntity
  8
0
  6
Continuous
 62
     7
100
AcDbLine
 10
4774.0187562602
 20
5412.7431966076
 30
0.0
 11
4774.0187562602
 21
5374.7432090054
 31
0.0
  0
LINE
  5
216
330
1F
100
AcDbEntity
  8
0
  6
Continuous
 62
     7
100
AcDbLine
 10
4775.2187765735
 20
5182.7432073365
 30
0.0
 11
4775.2187765735
 21
5182.9592071186
 31
0.0
  0
LINE
  5
217
330
1F
100
AcDbEntity
  8
0
  6
Continuous
 62
     7
100
AcDbLine
 10
7772.8187359469
 20
5182.7432073365
 30
0.0
 11
7772.8187359469
 21
5182.9592071186
 31
0.0
  0
LINE
  5
218
330
1F
100
AcDbEntity
  8
0
  6
Continuous
 62
     7
100
AcDbLine
 10
7772.8187359469
 20
5182.7432073365
 30
0.0
 11
7734.0187348025
 21
5182.7432073365
 31
0.0
  0
LINE
  5
219
330
1F
100
AcDbEntity
  8
0
  6
Continuous
 62
     7
100
AcDbLine
 10
7734.0187348025
 20
5182.7432073365
 30
0.0
 11
7734.0187348025
 21
5272.5272036801
 31
0.0
  0
LINE
  5
21A
330
1F
100
AcDbEntity
  8
0
  6
Continuous
 62
     7
100
AcDbLine
 10
4814.0187777179
 20
5182.7432073365
 30
0.0
 11
4775.2187765735
 21
5182.7432073365
 31
0.0
  0
LINE
  5
21B
330
1F
100
AcDbEntity
  8
0
  6
Continuous
 62
     7
100
AcDbLine
 10
4814.0187777179
 20
5272.5272036801
 30
0.0
 11
4814.0187777179
 21
5182.7432073365
 31
0.0
  0
LINE
  5
21C
330
1F
100
AcDbEntity
  8
0
  6
Continuous
 62
     7
100
AcDbLine
 10
5674.0187622207
 20
5192.3557042788
 30
0.0
 11
5702.0187593596
 21
5192.3557042788
 31
0.0
  0
LINE
  5
21D
330
1F
100
AcDbEntity
  8
0
  6
Continuous
 62
     7
100
AcDbLine
 10
5646.0187501805
 20
5192.3557042788
 30
0.0
 11
5674.0187622207
 21
5192.3557042788
 31
0.0
  0
LINE
  5
21E
330
1F
100
AcDbEntity
  8
0
  6
Continuous
 62
     7
100
AcDbLine
 10
5674.0187622207
 20
5196.3557012091
 30
0.0
 11
5704.0187485116
 21
5196.3557012091
 31
0.0
  0
LINE
  5
21F
330
1F
100
AcDbEntity
  8
0
  6
Continuous
 62
     7
100
AcDbLine
 10
5644.0187610286
 20
5196.3557012091
 30
0.0
 11
5674.0187622207
 21
5196.3557012091
 31
0.0
  0
LINE
  5
220
330
1F
100
AcDbEntity
  8
0
  6
Continuous
 62
     7
100
AcDbLine
 10
5674.0187622207
 20
5182.3557026396
 30
0.0
 11
5699.01875328
 21
5182.3557026396
 31
0.0
  0
LINE
  5
221
330
1F
100
AcDbEntity
  8
0
  6
Continuous
 62
     7
100
AcDbLine
 10
5649.0187562602
 20
5182.3557026396
 30
0.0
 11
5674.0187622207
 21
5182.3557026396
 31
0.0
  0
LINE
  5
222
330
1F
100
AcDbEntity
  8
0
  6
Continuous
 62
     7
100
AcDbLine
 10
6874.0187204974
 20
5196.3557012091
 30
0.0
 11
6904.0188110965
 21
5196.3557012091
 31
0.0
  0
LINE
  5
223
330
1F
100
AcDbEntity
  8
0
  6
Continuous
 62
     7
100
AcDbLine
 10
6844.0187491076
 20
5196.3557012091
 30
0.0
 11
6874.0187204974
 21
5196.3557012091
 31
0.0
  0
LINE
  5
224
330
1F
100
AcDbEntity
  8
0
  6
Continuous
 62
     7
100
AcDbLine
 10
6874.0187204974
 20
5192.3557042788
 30
0.0
 11
6902.0187176364
 21
5192.3557042788
 31
0.0
  0
LINE
  5
225
330
1F
100
AcDbEntity
  8
0
  6
Continuous
 62
     7
100
AcDbLine
 10
6846.0187233584
 20
5192.3557042788
 30
0.0
 11
6874.0187204974
 21
5192.3557042788
 31
0.0
  0
LINE
  5
226
330
1F
100
AcDbEntity
  8
0
  6
Continuous
 62
     7
100
AcDbLine
 10
6874.0187204974
 20
5182.3557026396
 30
0.0
 11
6899.0186966556
 21
5182.3557026396
 31
0.0
  0
LINE
  5
227
330
1F
100
AcDbEntity
  8
0
  6
Continuous
 62
     7
100
AcDbLine
 10
6849.0187443393
 20
5182.3557026396
 30
0.0
 11
6874.0187204974
 21
5182.3557026396
 31
0.0
  0
LINE
  5
228
330
1F
100
AcDbEntity
  8
0
  6
Continuous
 62
     7
100
AcDbLine
 10
6274.0187562602
 20
5196.3557012091
 30
0.0
 11
6304.01872765
 21
5196.3557012091
 31
0.0
  0
LINE
  5
229
330
1F
100
AcDbEntity
  8
0
  6
Continuous
 62
     7
100
AcDbLine
 10
6244.0187848704
 20
5196.3557012091
 30
0.0
 11
6274.0187562602
 21
5196.3557012091
 31
0.0
  0
LINE
  5
22A
330
1F
100
AcDbEntity
  8
0
  6
Continuous
 62
     7
100
AcDbLine
 10
6274.0187562602
 20
5192.3557042788
 30
0.0
 11
6302.0187533992
 21
5192.3557042788
 31
0.0
  0
LINE
  5
22B
330
1F
100
AcDbEntity
  8
0
  6
Continuous
 62
     7
100
AcDbLine
 10
6246.0187591212
 20
5192.3557042788
 30
0.0
 11
6274.0187562602
 21
5192.3557042788
 31
0.0
  0
LINE
  5
22C
330
1F
100
AcDbEntity
  8
0
  6
Continuous
 62
     7
100
AcDbLine
 10
6274.0187562602
 20
5182.3557026396
 30
0.0
 11
6299.0187324183
 21
5182.3557026396
 31
0.0
  0
LINE
  5
22D
330
1F
100
AcDbEntity
  8
0
  6
Continuous
 62
     7
100
AcDbLine
 10
6249.0187801021
 20
5182.3557026396
 30
0.0
 11
6274.0187562602
 21
5182.3557026396
 31
0.0
  0
LINE
  5
22E
330
1F
100
AcDbEntity
  8
0
  6
Continuous
 62
     7
100
AcDbLine
 10
5074.0187681811
 20
5196.3557012091
 30
0.0
 11
5104.0187693732
 21
5196.3557012091
 31
0.0
  0
LINE
  5
22F
330
1F
100
AcDbEntity
  8
0
  6
Continuous
 62
     7
100
AcDbLine
 10
5044.018766989
 20
5196.3557012091
 30
0.0
 11
5074.0187681811
 21
5196.3557012091
 31
0.0
  0
LINE
  5
230
330
1F
100
AcDbEntity
  8
0
  6
Continuous
 62
     7
100
AcDbLine
 10
5074.0187681811
 20
5192.3557042788
 30
0.0
 11
5102.0187653201
 21
5192.3557042788
 31
0.0
  0
LINE
  5
231
330
1F
100
AcDbEntity
  8
0
  6
Continuous
 62
     7
100
AcDbLine
 10
5046.0187412398
 20
5192.3557042788
 30
0.0
 11
5074.0187681811
 21
5192.3557042788
 31
0.0
  0
LINE
  5
232
330
1F
100
AcDbEntity
  8
0
  6
Continuous
 62
     7
100
AcDbLine
 10
5074.0187681811
 20
5182.3557026396
 30
0.0
 11
5099.0187443393
 21
5182.3557026396
 31
0.0
  0
LINE
  5
233
330
1F
100
AcDbEntity
  8
0
  6
Continuous
 62
     7
100
AcDbLine
 10
5049.0187622207
 20
5182.3557026396
 30
0.0
 11
5074.0187681811
 21
5182.3557026396
 31
0.0
  0
LINE
  5
234
330
1F
100
AcDbEntity
  8
0
  6
Continuous
 62
     7
100
AcDbLine
 10
7474.0187443393
 20
5196.3557012091
 30
0.0
 11
7504.018715729
 21
5196.3557012091
 31
0.0
  0
LINE
  5
235
330
1F
100
AcDbEntity
  8
0
  6
Continuous
 62
     7
100
AcDbLine
 10
7444.0187729495
 20
5196.3557012091
 30
0.0
 11
7474.0187443393
 21
5196.3557012091
 31
0.0
  0
LINE
  5
236
330
1F
100
AcDbEntity
  8
0
  6
Continuous
 62
     7
100
AcDbLine
 10
7474.0187443393
 20
5192.3557042788
 30
0.0
 11
7502.0188606875
 21
5192.3557042788
 31
0.0
  0
LINE
  5
237
330
1F
100
AcDbEntity
  8
0
  6
Continuous
 62
     7
100
AcDbLine
 10
7446.0187472003
 20
5192.3557042788
 30
0.0
 11
7474.0187443393
 21
5192.3557042788
 31
0.0
  0
LINE
  5
238
330
1F
100
AcDbEntity
  8
0
  6
Continuous
 62
     7
100
AcDbLine
 10
7474.0187443393
 20
5182.3557026396
 30
0.0
 11
7499.0188397067
 21
5182.3557026396
 31
0.0
  0
LINE
  5
239
330
1F
100
AcDbEntity
  8
0
  6
Continuous
 62
     7
100
AcDbLine
 10
7449.0187681811
 20
5182.3557026396
 30
0.0
 11
7474.0187443393
 21
5182.3557026396
 31
0.0
  0
LINE
  5
23A
330
1F
100
AcDbEntity
  8
0
  6
Continuous
 62
     7
100
AcDbLine
 10
6240.0187767642
 20
5084.6557028304
 30
0.0
 11
6308.0187357562
 21
5084.6557028304
 31
0.0
  0
LINE
  5
23B
330
1F
100
AcDbEntity
  8
0
  6
Continuous
 62
     7
100
AcDbLine
 10
6249.6890939372
 20
5144.6557033519
 30
0.0
 11
6298.3484185832
 21
5144.6557033519
 31
0.0
  0
LINE
  5
23C
330
1F
100
AcDbEntity
  8
0
  6
Continuous
 62
     7
100
AcDbLine
 10
6249.8969353335
 20
5014.6557025323
 30
0.0
 11
6298.1405771869
 21
5014.6557025323
 31
0.0
  0
LINE
  5
23D
330
1F
100
AcDbEntity
  8
0
  6
Continuous
 62
     7
100
AcDbLine
 10
6251.0187543528
 20
5151.155703486
 30
0.0
 11
6297.0187581675
 21
5151.155703486
 31
0.0
  0
LINE
  5
23E
330
1F
100
AcDbEntity
  8
0
  6
Continuous
 62
     7
100
AcDbLine
 10
6249.0187801021
 20
5147.1557037617
 30
0.0
 11
6299.0187324183
 21
5147.1557037617
 31
0.0
  0
LINE
  5
23F
330
1F
100
AcDbEntity
  8
0
  6
Continuous
 62
     7
100
AcDbLine
 10
6254.0187753337
 20
5161.1557032625
 30
0.0
 11
6294.0187371867
 21
5161.1557032625
 31
0.0
  0
LINE
  5
240
330
1F
100
AcDbEntity
  8
0
  6
Continuous
 62
     7
100
AcDbLine
 10
6290.5187524455
 20
5144.6557033519
 30
0.0
 11
6290.0187290805
 21
5145.0219729627
 31
0.0
  0
LINE
  5
241
330
1F
100
AcDbEntity
  8
0
  6
Continuous
 62
     7
100
AcDbLine
 10
6258.0187834399
 20
5145.0219729627
 30
0.0
 11
6257.5187600749
 21
5144.6557033519
 31
0.0
  0
LINE
  5
242
330
1F
100
AcDbEntity
  8
0
  6
Continuous
 62
     7
100
AcDbLine
 10
5640.0187529223
 20
5084.6557028304
 30
0.0
 11
5708.0187566178
 21
5084.6557028304
 31
0.0
  0
LINE
  5
243
330
1F
100
AcDbEntity
  8
0
  6
Continuous
 62
     7
100
AcDbLine
 10
5649.6890998977
 20
5144.6557033519
 30
0.0
 11
5698.3484096425
 21
5144.6557033519
 31
0.0
  0
LINE
  5
244
330
1F
100
AcDbEntity
  8
0
  6
Continuous
 62
     7
100
AcDbLine
 10
5649.8969263928
 20
5014.6557025323
 30
0.0
 11
5698.1405831473
 21
5014.6557025323
 31
0.0
  0
LINE
  5
245
330
1F
100
AcDbEntity
  8
0
  6
Continuous
 62
     7
100
AcDbLine
 10
5651.0187603133
 20
5151.155703486
 30
0.0
 11
5697.0187492268
 21
5151.155703486
 31
0.0
  0
LINE
  5
246
330
1F
100
AcDbEntity
  8
0
  6
Continuous
 62
     7
100
AcDbLine
 10
5649.0187562602
 20
5147.1557037617
 30
0.0
 11
5699.01875328
 21
5147.1557037617
 31
0.0
  0
LINE
  5
247
330
1F
100
AcDbEntity
  8
0
  6
Continuous
 62
     7
100
AcDbLine
 10
5654.0187514918
 20
5161.1557032625
 30
0.0
 11
5694.0187580483
 21
5161.1557032625
 31
0.0
  0
LINE
  5
248
330
1F
100
AcDbEntity
  8
0
  6
Continuous
 62
     7
100
AcDbLine
 10
5690.518758406
 20
5144.6557033519
 30
0.0
 11
5690.0187499421
 21
5145.0219729627
 31
0.0
  0
LINE
  5
249
330
1F
100
AcDbEntity
  8
0
  6
Continuous
 62
     7
100
AcDbLine
 10
5658.0187595981
 20
5145.0219729627
 30
0.0
 11
5657.5187511342
 21
5144.6557033519
 31
0.0
  0
LINE
  5
24A
330
1F
100
AcDbEntity
  8
0
  6
Continuous
 62
     7
100
AcDbLine
 10
5040.0187588828
 20
5084.6557028304
 30
0.0
 11
5108.0187476771
 21
5084.6557028304
 31
0.0
  0
LINE
  5
24B
330
1F
100
AcDbEntity
  8
0
  6
Continuous
 62
     7
100
AcDbLine
 10
5049.6891058581
 20
5144.6557033519
 30
0.0
 11
5098.3484007018
 21
5144.6557033519
 31
0.0
  0
LINE
  5
24C
330
1F
100
AcDbEntity
  8
0
  6
Continuous
 62
     7
100
AcDbLine
 10
5049.8969174521
 20
5014.6557025323
 30
0.0
 11
5098.1405891078
 21
5014.6557025323
 31
0.0
  0
LINE
  5
24D
330
1F
100
AcDbEntity
  8
0
  6
Continuous
 62
     7
100
AcDbLine
 10
5051.0187662738
 20
5151.155703486
 30
0.0
 11
5097.0187700885
 21
5151.155703486
 31
0.0
  0
LINE
  5
24E
330
1F
100
AcDbEntity
  8
0
  6
Continuous
 62
     7
100
AcDbLine
 10
5049.0187622207
 20
5147.1557037617
 30
0.0
 11
5099.0187443393
 21
5147.1557037617
 31
0.0
  0
LINE
  5
24F
330
1F
100
AcDbEntity
  8
0
  6
Continuous
 62
     7
100
AcDbLine
 10
5054.0187574523
 20
5161.1557032625
 30
0.0
 11
5094.0187491076
 21
5161.1557032625
 31
0.0
  0
LINE
  5
250
330
1F
100
AcDbEntity
  8
0
  6
Continuous
 62
     7
100
AcDbLine
 10
5090.5187643664
 20
5144.6557033519
 30
0.0
 11
5090.0187410014
 21
5145.0219729627
 31
0.0
  0
LINE
  5
251
330
1F
100
AcDbEntity
  8
0
  6
Continuous
 62
     7
100
AcDbLine
 10
5058.0187655585
 20
5145.0219729627
 30
0.0
 11
5057.5187421935
 21
5144.6557033519
 31
0.0
  0
LINE
  5
252
330
1F
100
AcDbEntity
  8
0
  6
Continuous
 62
     7
100
AcDbLine
 10
7440.0187052386
 20
5084.6557028304
 30
0.0
 11
7508.0186642306
 21
5084.6557028304
 31
0.0
  0
LINE
  5
253
330
1F
100
AcDbEntity
  8
0
  6
Continuous
 62
     7
100
AcDbLine
 10
7449.6890820163
 20
5144.6557033519
 30
0.0
 11
7498.3484066623
 21
5144.6557033519
 31
0.0
  0
LINE
  5
254
330
1F
100
AcDbEntity
  8
0
  6
Continuous
 62
     7
100
AcDbLine
 10
7449.8969830172
 20
5014.6557025323
 30
0.0
 11
7498.1405056613
 21
5014.6557025323
 31
0.0
  0
LINE
  5
255
330
1F
100
AcDbEntity
  8
0
  6
Continuous
 62
     7
100
AcDbLine
 10
7451.0187424319
 20
5151.155703486
 30
0.0
 11
7497.0187462466
 21
5151.155703486
 31
0.0
  0
LINE
  5
256
330
1F
100
AcDbEntity
  8
0
  6
Continuous
 62
     7
100
AcDbLine
 10
7449.0187681811
 20
5147.1557037617
 30
0.0
 11
7499.0188397067
 21
5147.1557037617
 31
0.0
  0
LINE
  5
257
330
1F
100
AcDbEntity
  8
0
  6
Continuous
 62
     7
100
AcDbLine
 10
7454.0187634128
 20
5161.1557032625
 30
0.0
 11
7494.0187252658
 21
5161.1557032625
 31
0.0
  0
LINE
  5
258
330
1F
100
AcDbEntity
  8
0
  6
Continuous
 62
     7
100
AcDbLine
 10
7490.5187405246
 20
5144.6557033519
 30
0.0
 11
7490.0187767642
 21
5145.0219729627
 31
0.0
  0
LINE
  5
259
330
1F
100
AcDbEntity
  8
0
  6
Continuous
 62
     7
100
AcDbLine
 10
7458.0187119143
 20
5145.0219729627
 30
0.0
 11
7457.518748154
 21
5144.6557033519
 31
0.0
  0
LINE
  5
25A
330
1F
100
AcDbEntity
  8
0
  6
Continuous
 62
     7
100
AcDbLine
 10
6840.0188006061
 20
5084.6557028304
 30
0.0
 11
6908.0187595981
 21
5084.6557028304
 31
0.0
  0
LINE
  5
25B
330
1F
100
AcDbEntity
  8
0
  6
Continuous
 62
     7
100
AcDbLine
 10
6849.6890581744
 20
5144.6557033519
 30
0.0
 11
6898.3483828204
 21
5144.6557033519
 31
0.0
  0
LINE
  5
25C
330
1F
100
AcDbEntity
  8
0
  6
Continuous
 62
     7
100
AcDbLine
 10
6849.8969591754
 20
5014.6557025323
 30
0.0
 11
6898.1406010287
 21
5014.6557025323
 31
0.0
  0
LINE
  5
25D
330
1F
100
AcDbEntity
  8
0
  6
Continuous
 62
     7
100
AcDbLine
 10
6851.0187185901
 20
5151.155703486
 30
0.0
 11
6897.0187224048
 21
5151.155703486
 31
0.0
  0
LINE
  5
25E
330
1F
100
AcDbEntity
  8
0
  6
Continuous
 62
     7
100
AcDbLine
 10
6849.0187443393
 20
5147.1557037617
 30
0.0
 11
6899.0186966556
 21
5147.1557037617
 31
0.0
  0
LINE
  5
25F
330
1F
100
AcDbEntity
  8
0
  6
Continuous
 62
     7
100
AcDbLine
 10
6854.0187395709
 20
5161.1557032625
 30
0.0
 11
6894.0187014239
 21
5161.1557032625
 31
0.0
  0
LINE
  5
260
330
1F
100
AcDbEntity
  8
0
  6
Continuous
 62
     7
100
AcDbLine
 10
6890.5187166827
 20
5144.6557033519
 30
0.0
 11
6890.0187529223
 21
5145.0219729627
 31
0.0
  0
LINE
  5
261
330
1F
100
AcDbEntity
  8
0
  6
Continuous
 62
     7
100
AcDbLine
 10
6858.0188072818
 20
5145.0219729627
 30
0.0
 11
6857.5187243121
 21
5144.6557033519
 31
0.0
  0
LINE
  5
262
330
1F
100
AcDbEntity
  8
0
  6
Continuous
 62
     7
100
AcDbLine
 10
5639.0187508958
 20
5236.355700315
 30
0.0
 11
5709.0187586444
 21
5236.355700315
 31
0.0
  0
LINE
  5
263
330
1F
100
AcDbEntity
  8
0
  6
Continuous
 62
     7
100
AcDbLine
 10
5642.0187569755
 20
5229.3557010303
 30
0.0
 11
5706.0187525647
 21
5229.3557010303
 31
0.0
  0
LINE
  5
264
330
1F
100
AcDbEntity
  8
0
  6
Continuous
 62
     7
100
AcDbLine
 10
5647.5187606709
 20
5223.8557047854
 30
0.0
 11
5700.5187488692
 21
5223.8557047854
 31
0.0
  0
LINE
  5
265
330
1F
100
AcDbEntity
  8
0
  6
Continuous
 62
     7
100
AcDbLine
 10
5644.5187545913
 20
5199.3556998382
 30
0.0
 11
5703.5187549489
 21
5199.3556998382
 31
0.0
  0
LINE
  5
266
330
1F
100
AcDbEntity
  8
0
  6
Continuous
 62
     7
100
AcDbLine
 10
5039.0187419551
 20
5236.355700315
 30
0.0
 11
5109.0187646048
 21
5236.355700315
 31
0.0
  0
LINE
  5
267
330
1F
100
AcDbEntity
  8
0
  6
Continuous
 62
     7
100
AcDbLine
 10
5042.0187629359
 20
5229.3557010303
 30
0.0
 11
5106.018743624
 21
5229.3557010303
 31
0.0
  0
LINE
  5
268
330
1F
100
AcDbEntity
  8
0
  6
Continuous
 62
     7
100
AcDbLine
 10
5047.5187517302
 20
5223.8557047854
 30
0.0
 11
5100.5187548297
 21
5223.8557047854
 31
0.0
  0
LINE
  5
269
330
1F
100
AcDbEntity
  8
0
  6
Continuous
 62
     7
100
AcDbLine
 10
5044.5187605517
 20
5199.3556998382
 30
0.0
 11
5103.5187460082
 21
5199.3556998382
 31
0.0
  0
LINE
  5
26A
330
1F
100
AcDbEntity
  8
0
  6
Continuous
 62
     7
100
AcDbLine
 10
6239.0187300342
 20
5236.355700315
 30
0.0
 11
6309.0187824862
 21
5236.355700315
 31
0.0
  0
LINE
  5
26B
330
1F
100
AcDbEntity
  8
0
  6
Continuous
 62
     7
100
AcDbLine
 10
6242.018751015
 20
5229.3557010303
 30
0.0
 11
6306.0187615054
 21
5229.3557010303
 31
0.0
  0
LINE
  5
26C
330
1F
100
AcDbEntity
  8
0
  6
Continuous
 62
     7
100
AcDbLine
 10
6247.5187696116
 20
5223.8557047854
 30
0.0
 11
6300.5187429088
 21
5223.8557047854
 31
0.0
  0
LINE
  5
26D
330
1F
100
AcDbEntity
  8
0
  6
Continuous
 62
     7
100
AcDbLine
 10
6244.5187486308
 20
5199.3556998382
 30
0.0
 11
6303.5187638896
 21
5199.3556998382
 31
0.0
  0
LINE
  5
26E
330
1F
100
AcDbEntity
  8
0
  6
Continuous
 62
     7
100
AcDbLine
 10
6839.018753876
 20
5236.355700315
 30
0.0
 11
6909.0188063281
 21
5236.355700315
 31
0.0
  0
LINE
  5
26F
330
1F
100
AcDbEntity
  8
0
  6
Continuous
 62
     7
100
AcDbLine
 10
6842.0187748568
 20
5229.3557010303
 30
0.0
 11
6906.0187853473
 21
5229.3557010303
 31
0.0
  0
LINE
  5
270
330
1F
100
AcDbEntity
  8
0
  6
Continuous
 62
     7
100
AcDbLine
 10
6847.5187338488
 20
5223.8557047854
 30
0.0
 11
6900.518707146
 21
5223.8557047854
 31
0.0
  0
LINE
  5
271
330
1F
100
AcDbEntity
  8
0
  6
Continuous
 62
     7
100
AcDbLine
 10
6844.518712868
 20
5199.3556998382
 30
0.0
 11
6903.5187281268
 21
5199.3556998382
 31
0.0
  0
LINE
  5
272
330
1F
100
AcDbEntity
  8
0
  6
Continuous
 62
     7
100
AcDbLine
 10
7439.0187777179
 20
5236.355700315
 30
0.0
 11
7509.01883017
 21
5236.355700315
 31
0.0
  0
LINE
  5
273
330
1F
100
AcDbEntity
  8
0
  6
Continuous
 62
     7
100
AcDbLine
 10
7442.0187986987
 20
5229.3557010303
 30
0.0
 11
7506.0188091891
 21
5229.3557010303
 31
0.0
  0
LINE
  5
274
330
1F
100
AcDbEntity
  8
0
  6
Continuous
 62
     7
100
AcDbLine
 10
7447.5187576907
 20
5223.8557047854
 30
0.0
 11
7500.5187309878
 21
5223.8557047854
 31
0.0
  0
LINE
  5
275
330
1F
100
AcDbEntity
  8
0
  6
Continuous
 62
     7
100
AcDbLine
 10
7444.5187367099
 20
5199.3556998382
 30
0.0
 11
7503.5187519687
 21
5199.3556998382
 31
0.0
  0
LINE
  5
276
330
1F
100
AcDbEntity
  8
0
  6
Continuous
 62
     7
100
AcDbLine
 10
7474.0187443393
 20
5237.3570657979
 30
0.0
 11
7511.1135239635
 21
5237.357064114
 31
0.0
  0
LINE
  5
277
330
1F
100
AcDbEntity
  8
0
  6
Continuous
 62
     7
100
AcDbLine
 10
7436.9239867087
 20
5237.357064114
 30
0.0
 11
7474.0187443393
 21
5237.3570657979
 31
0.0
  0
LINE
  5
278
330
1F
100
AcDbEntity
  8
0
  6
Continuous
 62
     7
100
AcDbLine
 10
6874.0187204974
 20
5237.3570657979
 30
0.0
 11
6911.1135239635
 21
5237.357064114
 31
0.0
  0
LINE
  5
279
330
1F
100
AcDbEntity
  8
0
  6
Continuous
 62
     7
100
AcDbLine
 10
6836.9239867087
 20
5237.357064114
 30
0.0
 11
6874.0187204974
 21
5237.3570657979
 31
0.0
  0
LINE
  5
27A
330
1F
100
AcDbEntity
  8
0
  6
Continuous
 62
     7
100
AcDbLine
 10
6274.0187562602
 20
5237.3570657979
 30
0.0
 11
6311.1135239635
 21
5237.357064114
 31
0.0
  0
LINE
  5
27B
330
1F
100
AcDbEntity
  8
0
  6
Continuous
 62
     7
100
AcDbLine
 10
6236.9239867087
 20
5237.357064114
 30
0.0
 11
6274.0187562602
 21
5237.3570657979
 31
0.0
  0
LINE
  5
27C
330
1F
100
AcDbEntity
  8
0
  6
Continuous
 62
     7
100
AcDbLine
 10
5074.0187681811
 20
5237.3570657979
 30
0.0
 11
5111.1135239635
 21
5237.357064114
 31
0.0
  0
LINE
  5
27D
330
1F
100
AcDbEntity
  8
0
  6
Continuous
 62
     7
100
AcDbLine
 10
5036.9239867087
 20
5237.357064114
 30
0.0
 11
5074.0187681811
 21
5237.3570657979
 31
0.0
  0
LINE
  5
27E
330
1F
100
AcDbEntity
  8
0
  6
Continuous
 62
     7
100
AcDbLine
 10
5674.0187622207
 20
5237.3570657979
 30
0.0
 11
5711.1135239635
 21
5237.357064114
 31
0.0
  0
LINE
  5
27F
330
1F
100
AcDbEntity
  8
0
  6
Continuous
 62
     7
100
AcDbLine
 10
5636.9239867087
 20
5237.357064114
 30
0.0
 11
5674.0187622207
 21
5237.3570657979
 31
0.0
  0
LINE
  5
280
330
1F
100
AcDbEntity
  8
0
  6
Continuous
 62
     7
100
AcDbLine
 10
7474.0187443393
 20
5236.6942174445
 30
0.0
 11
7509.6015251773
 21
5236.6942174445
 31
0.0
  0
LINE
  5
281
330
1F
100
AcDbEntity
  8
0
  6
Continuous
 62
     7
100
AcDbLine
 10
7438.4359635013
 20
5236.6942174445
 30
0.0
 11
7474.0187443393
 21
5236.6942174445
 31
0.0
  0
LINE
  5
282
330
1F
100
AcDbEntity
  8
0
  6
Continuous
 62
     7
100
AcDbLine
 10
5674.0187622207
 20
5236.6942174445
 30
0.0
 11
5709.6015281575
 21
5236.6942174445
 31
0.0
  0
LINE
  5
283
330
1F
100
AcDbEntity
  8
0
  6
Continuous
 62
     7
100
AcDbLine
 10
5638.4359813826
 20
5236.6942174445
 30
0.0
 11
5674.0187622207
 21
5236.6942174445
 31
0.0
  0
LINE
  5
284
330
1F
100
AcDbEntity
  8
0
  6
Continuous
 62
     7
100
AcDbLine
 10
6274.0187562602
 20
5236.6942174445
 30
0.0
 11
6309.6015370982
 21
5236.6942174445
 31
0.0
  0
LINE
  5
285
330
1F
100
AcDbEntity
  8
0
  6
Continuous
 62
     7
100
AcDbLine
 10
6238.4359754222
 20
5236.6942174445
 30
0.0
 11
6274.0187562602
 21
5236.6942174445
 31
0.0
  0
LINE
  5
286
330
1F
100
AcDbEntity
  8
0
  6
Continuous
 62
     7
100
AcDbLine
 10
5074.0187681811
 20
5236.6942174445
 30
0.0
 11
5109.6015192168
 21
5236.6942174445
 31
0.0
  0
LINE
  5
287
330
1F
100
AcDbEntity
  8
0
  6
Continuous
 62
     7
100
AcDbLine
 10
5038.4359873431
 20
5236.6942174445
 30
0.0
 11
5074.0187681811
 21
5236.6942174445
 31
0.0
  0
LINE
  5
288
330
1F
100
AcDbEntity
  8
0
  6
Continuous
 62
     7
100
AcDbLine
 10
6874.0187204974
 20
5236.6942174445
 30
0.0
 11
6909.6015013354
 21
5236.6942174445
 31
0.0
  0
LINE
  5
289
330
1F
100
AcDbEntity
  8
0
  6
Continuous
 62
     7
100
AcDbLine
 10
6838.4359396594
 20
5236.6942174445
 30
0.0
 11
6874.0187204974
 21
5236.6942174445
 31
0.0
  0
LINE
  5
28A
330
1F
100
AcDbEntity
  8
0
  6
Continuous
 62
     7
100
AcDbLine
 10
5674.0187622207
 20
5185.355704994
 30
0.0
 11
5702.0187593596
 21
5185.355704994
 31
0.0
  0
LINE
  5
28B
330
1F
100
AcDbEntity
  8
0
  6
Continuous
 62
     7
100
AcDbLine
 10
5646.0187501805
 20
5185.355704994
 30
0.0
 11
5674.0187622207
 21
5185.355704994
 31
0.0
  0
LINE
  5
28C
330
1F
100
AcDbEntity
  8
0
  6
Continuous
 62
     7
100
AcDbLine
 10
6874.0187204974
 20
5185.355704994
 30
0.0
 11
6902.0187176364
 21
5185.355704994
 31
0.0
  0
LINE
  5
28D
330
1F
100
AcDbEntity
  8
0
  6
Continuous
 62
     7
100
AcDbLine
 10
6846.0187233584
 20
5185.355704994
 30
0.0
 11
6874.0187204974
 21
5185.355704994
 31
0.0
  0
LINE
  5
28E
330
1F
100
AcDbEntity
  8
0
  6
Continuous
 62
     7
100
AcDbLine
 10
6274.0187562602
 20
5185.355704994
 30
0.0
 11
6302.0187533992
 21
5185.355704994
 31
0.0
  0
LINE
  5
28F
330
1F
100
AcDbEntity
  8
0
  6
Continuous
 62
     7
100
AcDbLine
 10
6246.0187591212
 20
5185.355704994
 30
0.0
 11
6274.0187562602
 21
5185.355704994
 31
0.0
  0
LINE
  5
290
330
1F
100
AcDbEntity
  8
0
  6
Continuous
 62
     7
100
AcDbLine
 10
5074.0187681811
 20
5185.355704994
 30
0.0
 11
5102.0187653201
 21
5185.355704994
 31
0.0
  0
LINE
  5
291
330
1F
100
AcDbEntity
  8
0
  6
Continuous
 62
     7
100
AcDbLine
 10
5046.0187412398
 20
5185.355704994
 30
0.0
 11
5074.0187681811
 21
5185.355704994
 31
0.0
  0
LINE
  5
292
330
1F
100
AcDbEntity
  8
0
  6
Continuous
 62
     7
100
AcDbLine
 10
7474.0187443393
 20
5185.355704994
 30
0.0
 11
7502.0188606875
 21
5185.355704994
 31
0.0
  0
LINE
  5
293
330
1F
100
AcDbEntity
  8
0
  6
Continuous
 62
     7
100
AcDbLine
 10
7446.0187472003
 20
5185.355704994
 30
0.0
 11
7474.0187443393
 21
5185.355704994
 31
0.0
  0
LINE
  5
294
330
1F
100
AcDbEntity
  8
0
  6
Continuous
 62
     7
100
AcDbLine
 10
6301.3281739848
 20
5142.0033460195
 30
0.0
 11
6246.7093385356
 21
5142.0033460195
 31
0.0
  0
LINE
  5
295
330
1F
100
AcDbEntity
  8
0
  6
Continuous
 62
     7
100
AcDbLine
 10
6246.9125307696
 20
5017.3500261913
 30
0.0
 11
6301.1249817508
 21
5017.3500261913
 31
0.0
  0
LINE
  5
296
330
1F
100
AcDbEntity
  8
0
  6
Continuous
 62
     7
100
AcDbLine
 10
6251.0187543528
 20
5158.1557027708
 30
0.0
 11
6297.0187581675
 21
5158.1557027708
 31
0.0
  0
LINE
  5
297
330
1F
100
AcDbEntity
  8
0
  6
Continuous
 62
     7
100
AcDbLine
 10
5646.9125367301
 20
5017.3500261913
 30
0.0
 11
5701.1249728101
 21
5017.3500261913
 31
0.0
  0
LINE
  5
298
330
1F
100
AcDbEntity
  8
0
  6
Continuous
 62
     7
100
AcDbLine
 10
5701.3281948464
 20
5142.0033460195
 30
0.0
 11
5646.7093146937
 21
5142.0033460195
 31
0.0
  0
LINE
  5
299
330
1F
100
AcDbEntity
  8
0
  6
Continuous
 62
     7
100
AcDbLine
 10
5651.0187603133
 20
5158.1557027708
 30
0.0
 11
5697.0187492268
 21
5158.1557027708
 31
0.0
  0
LINE
  5
29A
330
1F
100
AcDbEntity
  8
0
  6
Continuous
 62
     7
100
AcDbLine
 10
5101.3281859057
 20
5142.0033460195
 30
0.0
 11
5046.7093206542
 21
5142.0033460195
 31
0.0
  0
LINE
  5
29B
330
1F
100
AcDbEntity
  8
0
  6
Continuous
 62
     7
100
AcDbLine
 10
5046.9125426906
 20
5017.3500261913
 30
0.0
 11
5101.1249638694
 21
5017.3500261913
 31
0.0
  0
LINE
  5
29C
330
1F
100
AcDbEntity
  8
0
  6
Continuous
 62
     7
100
AcDbLine
 10
5051.0187662738
 20
5158.1557027708
 30
0.0
 11
5097.0187700885
 21
5158.1557027708
 31
0.0
  0
LINE
  5
29D
330
1F
100
AcDbEntity
  8
0
  6
Continuous
 62
     7
100
AcDbLine
 10
7501.3281620639
 20
5142.0033460195
 30
0.0
 11
7446.7093266147
 21
5142.0033460195
 31
0.0
  0
LINE
  5
29E
330
1F
100
AcDbEntity
  8
0
  6
Continuous
 62
     7
100
AcDbLine
 10
7446.9125784533
 20
5017.3500261913
 30
0.0
 11
7501.1250294345
 21
5017.3500261913
 31
0.0
  0
LINE
  5
29F
330
1F
100
AcDbEntity
  8
0
  6
Continuous
 62
     7
100
AcDbLine
 10
7451.0187424319
 20
5158.1557027708
 30
0.0
 11
7497.0187462466
 21
5158.1557027708
 31
0.0
  0
LINE
  5
2A0
330
1F
100
AcDbEntity
  8
0
  6
Continuous
 62
     7
100
AcDbLine
 10
6901.328138222
 20
5142.0033460195
 30
0.0
 11
6846.7093027728
 21
5142.0033460195
 31
0.0
  0
LINE
  5
2A1
330
1F
100
AcDbEntity
  8
0
  6
Continuous
 62
     7
100
AcDbLine
 10
6846.9125546115
 20
5017.3500261913
 30
0.0
 11
6901.1250055926
 21
5017.3500261913
 31
0.0
  0
LINE
  5
2A2
330
1F
100
AcDbEntity
  8
0
  6
Continuous
 62
     7
100
AcDbLine
 10
6851.0187185901
 20
5158.1557027708
 30
0.0
 11
6897.0187224048
 21
5158.1557027708
 31
0.0
  0
LINE
  5
2A3
330
1F
100
AcDbEntity
  8
0
  6
Continuous
 62
     7
100
AcDbLine
 10
8480.6629186855
 20
5237.3570657979
 30
0.0
 11
8488.8612991558
 21
5240.2648634921
 31
0.0
  0
LINE
  5
2A4
330
1F
100
AcDbEntity
  8
0
  6
Continuous
 62
     7
100
AcDbLine
 10
8488.8612991558
 20
5240.2648634921
 30
0.0
 11
8493.6795002209
 21
5242.1632416258
 31
0.0
  0
LINE
  5
2A5
330
1F
100
AcDbEntity
  8
0
  6
Continuous
 62
     7
100
AcDbLine
 10
8478.541589378
 20
5236.355700315
 30
0.0
 11
8479.1509872661
 21
5236.6942174445
 31
0.0
  0
LINE
  5
2A6
330
1F
100
AcDbEntity
  8
0
  6
Continuous
 62
     7
100
AcDbLine
 10
8413.5682350384
 20
5196.3557012091
 30
0.0
 11
8415.5682092892
 21
5192.3557042788
 31
0.0
  0
LINE
  5
2A7
330
1F
100
AcDbEntity
  8
0
  6
Continuous
 62
     7
100
AcDbLine
 10
8471.5682035671
 20
5192.3557042788
 30
0.0
 11
8473.5681778179
 21
5196.3557012091
 31
0.0
  0
LINE
  5
2A8
330
1F
100
AcDbEntity
  8
0
  6
Continuous
 62
     7
100
AcDbLine
 10
8415.5682092892
 20
5192.3557042788
 30
0.0
 11
8415.5682092892
 21
5185.355704994
 31
0.0
  0
LINE
  5
2A9
330
1F
100
AcDbEntity
  8
0
  6
Continuous
 62
     7
100
AcDbLine
 10
8471.5682035671
 20
5185.355704994
 30
0.0
 11
8471.5682035671
 21
5192.3557042788
 31
0.0
  0
LINE
  5
2AA
330
1F
100
AcDbEntity
  8
0
  6
Continuous
 62
     7
100
AcDbLine
 10
8427.5681740032
 20
5182.3557026396
 30
0.0
 11
8427.5681740032
 21
5161.1557032625
 31
0.0
  0
LINE
  5
2AB
330
1F
100
AcDbEntity
  8
0
  6
Continuous
 62
     7
100
AcDbLine
 10
8427.5681740032
 20
5147.1557037617
 30
0.0
 11
8427.5681740032
 21
5144.6557033519
 31
0.0
  0
LINE
  5
2AC
330
1F
100
AcDbEntity
  8
0
  6
Continuous
 62
     7
100
AcDbLine
 10
8459.5682388531
 20
5144.6557033519
 30
0.0
 11
8459.5682388531
 21
5147.1557037617
 31
0.0
  0
LINE
  5
2AD
330
1F
100
AcDbEntity
  8
0
  6
Continuous
 62
     7
100
AcDbLine
 10
8459.5682388531
 20
5161.1557032625
 30
0.0
 11
8459.5682388531
 21
5182.3557026396
 31
0.0
  0
LINE
  5
2AE
330
1F
100
AcDbEntity
  8
0
  6
Continuous
 62
     7
100
AcDbLine
 10
8178.473628162
 20
5162.655702577
 30
0.0
 11
8163.4736424671
 21
5162.655702577
 31
0.0
  0
LINE
  5
2AF
330
1F
100
AcDbEntity
  8
0
  6
Continuous
 62
     7
100
AcDbLine
 10
8163.4736424671
 20
5082.6557025025
 30
0.0
 11
8178.473628162
 21
5082.6557025025
 31
0.0
  0
LINE
  5
2B0
330
1F
100
AcDbEntity
  8
0
  6
Continuous
 62
     7
100
AcDbLine
 10
8163.4736424671
 20
5142.6557039554
 30
0.0
 11
8153.4735923992
 21
5142.6557039554
 31
0.0
  0
LINE
  5
2B1
330
1F
100
AcDbEntity
  8
0
  6
Continuous
 62
     7
100
AcDbLine
 10
8153.4735923992
 20
5102.6557039181
 30
0.0
 11
8163.4736424671
 21
5102.6557039181
 31
0.0
  0
LINE
  5
2B2
330
1F
100
AcDbEntity
  8
0
  6
Continuous
 62
     7
100
AcDbLine
 10
8383.5681444393
 20
5142.6557039554
 30
0.0
 11
8198.4736090885
 21
5142.6557039554
 31
0.0
  0
LINE
  5
2B3
330
1F
100
AcDbEntity
  8
0
  6
Continuous
 62
     7
100
AcDbLine
 10
8198.4736090885
 20
5102.6557039181
 30
0.0
 11
8383.5681444393
 21
5102.6557039181
 31
0.0
  0
LINE
  5
2B4
330
1F
100
AcDbEntity
  8
0
  6
Continuous
 62
     7
100
AcDbLine
 10
8477.5682455288
 20
5084.6557028304
 30
0.0
 11
8470.8776241527
 21
5142.0033460195
 31
0.0
  0
LINE
  5
2B5
330
1F
100
AcDbEntity
  8
0
  6
Continuous
 62
     7
100
AcDbLine
 10
8411.4392763363
 20
5100.6937183152
 30
0.0
 11
8409.5681673275
 21
5084.6557028304
 31
0.0
  0
LINE
  5
2B6
330
1F
100
AcDbEntity
  8
0
  6
Continuous
 62
     7
100
AcDbLine
 10
8409.5681673275
 20
5084.6557028304
 30
0.0
 11
8416.4619213329
 21
5017.3500261913
 31
0.0
  0
LINE
  5
2B7
330
1F
100
AcDbEntity
  8
0
  6
Continuous
 62
     7
100
AcDbLine
 10
8470.6743723141
 20
5017.3500261913
 30
0.0
 11
8477.5682455288
 21
5084.6557028304
 31
0.0
  0
LINE
  5
2B8
330
1F
100
AcDbEntity
  8
0
  6
Continuous
 62
     7
100
AcDbLine
 10
8399.5681768642
 20
5150.1557033221
 30
0.0
 11
8395.5682283626
 21
5148.6557040076
 31
0.0
  0
LINE
  5
2B9
330
1F
100
AcDbEntity
  8
0
  6
Continuous
 62
     7
100
AcDbLine
 10
8395.5682283626
 20
5096.6557047973
 30
0.0
 11
8399.5681768642
 21
5095.1557017575
 31
0.0
  0
LINE
  5
2BA
330
1F
100
AcDbEntity
  8
0
  6
Continuous
 62
     7
100
AcDbLine
 10
8395.5682283626
 20
5148.6557040076
 30
0.0
 11
8386.5681654201
 21
5148.6557040076
 31
0.0
  0
LINE
  5
2BB
330
1F
100
AcDbEntity
  8
0
  6
Continuous
 62
     7
100
AcDbLine
 10
8386.5681654201
 20
5096.6557047973
 30
0.0
 11
8395.5682283626
 21
5096.6557047973
 31
0.0
  0
LINE
  5
2BC
330
1F
100
AcDbEntity
  8
0
  6
Continuous
 62
     7
100
AcDbLine
 10
8468.5681825863
 20
5147.1557037617
 30
0.0
 11
8466.5682083355
 21
5151.155703486
 31
0.0
  0
LINE
  5
2BD
330
1F
100
AcDbEntity
  8
0
  6
Continuous
 62
     7
100
AcDbLine
 10
8420.5682045208
 20
5151.155703486
 30
0.0
 11
8418.56823027
 21
5147.1557037617
 31
0.0
  0
LINE
  5
2BE
330
1F
100
AcDbEntity
  8
0
  6
Continuous
 62
     7
100
AcDbLine
 10
8420.5682045208
 20
5158.1557027708
 30
0.0
 11
8420.5682045208
 21
5151.155703486
 31
0.0
  0
LINE
  5
2BF
330
1F
100
AcDbEntity
  8
0
  6
Continuous
 62
     7
100
AcDbLine
 10
8466.5682083355
 20
5151.155703486
 30
0.0
 11
8466.5682083355
 21
5158.1557027708
 31
0.0
  0
LINE
  5
2C0
330
1F
100
AcDbEntity
  8
0
  6
Continuous
 62
     7
100
AcDbLine
 10
8399.5681768642
 20
5100.6557017277
 30
0.0
 11
8411.4629989849
 21
5100.6557017277
 31
0.0
  0
LINE
  5
2C1
330
1F
100
AcDbEntity
  8
0
  6
Continuous
 62
     7
100
AcDbLine
 10
8416.5681368099
 20
5144.6557033519
 30
0.0
 11
8399.5681768642
 21
5144.6557033519
 31
0.0
  0
LINE
  5
2C2
330
1F
100
AcDbEntity
  8
0
  6
Continuous
 62
     7
100
AcDbLine
 10
8427.5681740032
 20
5147.1557037617
 30
0.0
 11
8427.5681740032
 21
5144.6557033519
 31
0.0
  0
LINE
  5
2C3
330
1F
100
AcDbEntity
  8
0
  6
Continuous
 62
     7
100
AcDbLine
 10
8459.5682388531
 20
5144.6557033519
 30
0.0
 11
8459.5682388531
 21
5147.1557037617
 31
0.0
  0
LINE
  5
2C4
330
1F
100
AcDbEntity
  8
0
  6
Continuous
 62
     7
100
AcDbLine
 10
8475.5681520687
 20
5229.3557010303
 30
0.0
 11
8478.5681730495
 21
5236.355700315
 31
0.0
  0
LINE
  5
2C5
330
1F
100
AcDbEntity
  8
0
  6
Continuous
 62
     7
100
AcDbLine
 10
8413.2398134457
 20
5227.6840962182
 30
0.0
 11
8416.0791403042
 21
5224.8447395573
 31
0.0
  0
LINE
  5
2C6
330
1F
100
AcDbEntity
  8
0
  6
Continuous
 62
     7
100
AcDbLine
 10
8470.0681930767
 20
5223.8557047854
 30
0.0
 11
8475.5681520687
 21
5229.3557010303
 31
0.0
  0
LINE
  5
2C7
330
1F
100
AcDbEntity
  8
0
  6
Continuous
 62
     7
100
AcDbLine
 10
8414.0681987987
 20
5199.3556998382
 30
0.0
 11
8414.0681987987
 21
5196.3557012091
 31
0.0
  0
LINE
  5
2C8
330
1F
100
AcDbEntity
  8
0
  6
Continuous
 62
     7
100
AcDbLine
 10
8473.0682140575
 20
5196.3557012091
 30
0.0
 11
8473.0682140575
 21
5199.3556998382
 31
0.0
  0
LINE
  5
2C9
330
1F
100
AcDbEntity
  8
0
  6
Continuous
 62
     7
100
AcDbLine
 10
8417.0682197796
 20
5199.8936690102
 30
0.0
 11
8417.0682197796
 21
5199.3556998382
 31
0.0
  0
LINE
  5
2CA
330
1F
100
AcDbEntity
  8
0
  6
Continuous
 62
     7
100
AcDbLine
 10
8470.0681930767
 20
5199.3556998382
 30
0.0
 11
8470.0681930767
 21
5223.8557047854
 31
0.0
  0
LINE
  5
2CB
330
1F
100
AcDbEntity
  8
0
  6
Continuous
 62
     7
100
AcDbLine
 10
8416.0810476528
 20
5224.855706812
 30
0.0
 11
8397.5264793621
 21
5224.855706812
 31
0.0
  0
LINE
  5
2CC
330
1F
100
AcDbEntity
  8
0
  6
Continuous
 62
     7
100
AcDbLine
 10
8349.5682245479
 20
5199.8557008515
 30
0.0
 11
8417.086101173
 21
5199.8557008515
 31
0.0
  0
LINE
  5
2CD
330
1F
100
AcDbEntity
  8
0
  6
Continuous
 62
     7
100
AcDbLine
 10
8164.768195747
 20
5412.7431966076
 30
0.0
 11
8164.768195747
 21
5374.7432090054
 31
0.0
  0
LINE
  5
2CE
330
1F
100
AcDbEntity
  8
0
  6
Continuous
 62
     7
100
AcDbLine
 10
8166.7681699978
 20
5372.7432049523
 30
0.0
 11
8663.5682350384
 21
5372.7432049523
 31
0.0
  0
LINE
  5
2CF
330
1F
100
AcDbEntity
  8
0
  6
Continuous
 62
     7
100
AcDbLine
 10
8663.5682350384
 20
5272.7432109128
 30
0.0
 11
8663.5682350384
 21
5372.7432049523
 31
0.0
  0
LINE
  5
2D0
330
1F
100
AcDbEntity
  8
0
  6
Continuous
 62
     7
100
AcDbLine
 10
8663.5682350384
 20
5272.7432109128
 30
0.0
 11
8163.5681754337
 21
5182.7432073365
 31
0.0
  0
LINE
  5
2D1
330
1F
100
AcDbEntity
  8
0
  6
Continuous
 62
     7
100
AcDbLine
 10
8163.5681754337
 20
5182.7432073365
 30
0.0
 11
8163.5681754337
 21
5412.7431966076
 31
0.0
  0
LINE
  5
2D2
330
1F
100
AcDbEntity
  8
0
  6
Continuous
 62
     7
100
AcDbLine
 10
8163.5681754337
 20
5412.7431966076
 30
0.0
 11
8164.768195747
 21
5412.7431966076
 31
0.0
  0
LINE
  5
2D3
330
1F
100
AcDbEntity
  8
0
  6
Continuous
 62
     7
100
AcDbLine
 10
8164.768195747
 20
5182.7432073365
 30
0.0
 11
8163.5681754337
 21
5182.7432073365
 31
0.0
  0
LINE
  5
2D4
330
1F
100
AcDbEntity
  8
0
  6
Continuous
 62
     7
100
AcDbLine
 10
8164.768195747
 20
5182.7432073365
 30
0.0
 11
8164.768195747
 21
5182.9592071186
 31
0.0
  0
LINE
  5
2D5
330
1F
100
AcDbEntity
  8
0
  6
Continuous
 62
     7
100
AcDbLine
 10
8413.5682350384
 20
5196.3557012091
 30
0.0
 11
8473.5681778179
 21
5196.3557012091
 31
0.0
  0
LINE
  5
2D6
330
1F
100
AcDbEntity
  8
0
  6
Continuous
 62
     7
100
AcDbLine
 10
8415.5682092892
 20
5192.3557042788
 30
0.0
 11
8471.5682035671
 21
5192.3557042788
 31
0.0
  0
LINE
  5
2D7
330
1F
100
AcDbEntity
  8
0
  6
Continuous
 62
     7
100
AcDbLine
 10
8418.56823027
 20
5182.3557026396
 30
0.0
 11
8468.5681825863
 21
5182.3557026396
 31
0.0
  0
LINE
  5
2D8
330
1F
100
AcDbEntity
  8
0
  6
Continuous
 62
     7
100
AcDbLine
 10
8163.4736424671
 20
5162.655702577
 30
0.0
 11
8163.4736424671
 21
5082.6557025025
 31
0.0
  0
LINE
  5
2D9
330
1F
100
AcDbEntity
  8
0
  6
Continuous
 62
     7
100
AcDbLine
 10
8198.4736090885
 20
5142.6557039554
 30
0.0
 11
8198.4736090885
 21
5102.6557039181
 31
0.0
  0
LINE
  5
2DA
330
1F
100
AcDbEntity
  8
0
  6
Continuous
 62
     7
100
AcDbLine
 10
8153.4735923992
 20
5142.6557039554
 30
0.0
 11
8153.4735923992
 21
5102.6557039181
 31
0.0
  0
LINE
  5
2DB
330
1F
100
AcDbEntity
  8
0
  6
Continuous
 62
     7
100
AcDbLine
 10
8409.5681673275
 20
5084.6557028304
 30
0.0
 11
8477.5682455288
 21
5084.6557028304
 31
0.0
  0
LINE
  5
2DC
330
1F
100
AcDbEntity
  8
0
  6
Continuous
 62
     7
100
AcDbLine
 10
8399.5681768642
 20
5150.1557033221
 30
0.0
 11
8399.5681768642
 21
5095.1557017575
 31
0.0
  0
LINE
  5
2DD
330
1F
100
AcDbEntity
  8
0
  6
Continuous
 62
     7
100
AcDbLine
 10
8395.5682283626
 20
5148.6557040076
 30
0.0
 11
8395.5682283626
 21
5096.6557047973
 31
0.0
  0
LINE
  5
2DE
330
1F
100
AcDbEntity
  8
0
  6
Continuous
 62
     7
100
AcDbLine
 10
8421.0984474407
 20
5144.6557033519
 30
0.0
 11
8467.8978687511
 21
5144.6557033519
 31
0.0
  0
LINE
  5
2DF
330
1F
100
AcDbEntity
  8
0
  6
Continuous
 62
     7
100
AcDbLine
 10
8419.4463258968
 20
5014.6557025323
 30
0.0
 11
8467.6899677502
 21
5014.6557025323
 31
0.0
  0
LINE
  5
2E0
330
1F
100
AcDbEntity
  8
0
  6
Continuous
 62
     7
100
AcDbLine
 10
8383.5681444393
 20
5145.6557035158
 30
0.0
 11
8383.5681444393
 21
5099.6557034264
 31
0.0
  0
LINE
  5
2E1
330
1F
100
AcDbEntity
  8
0
  6
Continuous
 62
     7
100
AcDbLine
 10
8420.5682045208
 20
5151.155703486
 30
0.0
 11
8466.5682083355
 21
5151.155703486
 31
0.0
  0
LINE
  5
2E2
330
1F
100
AcDbEntity
  8
0
  6
Continuous
 62
     7
100
AcDbLine
 10
8418.56823027
 20
5147.1557037617
 30
0.0
 11
8468.5681825863
 21
5147.1557037617
 31
0.0
  0
LINE
  5
2E3
330
1F
100
AcDbEntity
  8
0
  6
Continuous
 62
     7
100
AcDbLine
 10
8423.5682255016
 20
5161.1557032625
 30
0.0
 11
8463.5681873547
 21
5161.1557032625
 31
0.0
  0
LINE
  5
2E4
330
1F
100
AcDbEntity
  8
0
  6
Continuous
 62
     7
100
AcDbLine
 10
8461.4153867947
 20
5236.355700315
 30
0.0
 11
8478.5681730495
 21
5236.355700315
 31
0.0
  0
LINE
  5
2E5
330
1F
100
AcDbEntity
  8
0
  6
Continuous
 62
     7
100
AcDbLine
 10
8443.5682064281
 20
5229.3557010303
 30
0.0
 11
8475.5681520687
 21
5229.3557010303
 31
0.0
  0
LINE
  5
2E6
330
1F
100
AcDbEntity
  8
0
  6
Continuous
 62
     7
100
AcDbLine
 10
8422.5264555202
 20
5229.3557010303
 30
0.0
 11
8443.5682064281
 21
5229.3557010303
 31
0.0
  0
LINE
  5
2E7
330
1F
100
AcDbEntity
  8
0
  6
Continuous
 62
     7
100
AcDbLine
 10
8417.5249105678
 20
5223.8557047854
 30
0.0
 11
8470.0681930767
 21
5223.8557047854
 31
0.0
  0
LINE
  5
2E8
330
1F
100
AcDbEntity
  8
0
  6
Continuous
 62
     7
100
AcDbLine
 10
8443.5682064281
 20
5199.3556998382
 30
0.0
 11
8473.0682140575
 21
5199.3556998382
 31
0.0
  0
LINE
  5
2E9
330
1F
100
AcDbEntity
  8
0
  6
Continuous
 62
     7
100
AcDbLine
 10
8414.0681987987
 20
5199.3556998382
 30
0.0
 11
8443.5682064281
 21
5199.3556998382
 31
0.0
  0
LINE
  5
2EA
330
1F
100
AcDbEntity
  8
0
  6
Continuous
 62
     7
100
AcDbLine
 10
8419.5681577907
 20
5206.8784765611
 30
0.0
 11
8419.5681577907
 21
5217.8329311023
 31
0.0
  0
LINE
  5
2EB
330
1F
100
AcDbEntity
  8
0
  6
Continuous
 62
     7
100
AcDbLine
 10
8466.9785267101
 20
5237.3570657979
 30
0.0
 11
8480.6629186855
 21
5237.3570657979
 31
0.0
  0
LINE
  5
2EC
330
1F
100
AcDbEntity
  8
0
  6
Continuous
 62
     7
100
AcDbLine
 10
8463.2960325466
 20
5236.6942174445
 30
0.0
 11
8479.1509872661
 21
5236.6942174445
 31
0.0
  0
LINE
  5
2ED
330
1F
100
AcDbEntity
  8
0
  6
Continuous
 62
     7
100
AcDbLine
 10
8415.5682092892
 20
5185.355704994
 30
0.0
 11
8471.5682035671
 21
5185.355704994
 31
0.0
  0
LINE
  5
2EE
330
1F
100
AcDbEntity
  8
0
  6
Continuous
 62
     7
100
AcDbLine
 10
8178.473628162
 20
5162.655702577
 30
0.0
 11
8178.473628162
 21
5082.6557025025
 31
0.0
  0
LINE
  5
2EF
330
1F
100
AcDbEntity
  8
0
  6
Continuous
 62
     7
100
AcDbLine
 10
8470.8776241527
 20
5142.0033460195
 30
0.0
 11
8418.3463817821
 21
5142.0033460195
 31
0.0
  0
LINE
  5
2F0
330
1F
100
AcDbEntity
  8
0
  6
Continuous
 62
     7
100
AcDbLine
 10
8416.4619213329
 20
5017.3500261913
 30
0.0
 11
8470.6743723141
 21
5017.3500261913
 31
0.0
  0
LINE
  5
2F1
330
1F
100
AcDbEntity
  8
0
  6
Continuous
 62
     7
100
AcDbLine
 10
8386.5681654201
 20
5148.6557040076
 30
0.0
 11
8386.5681654201
 21
5096.6557047973
 31
0.0
  0
LINE
  5
2F2
330
1F
100
AcDbEntity
  8
0
  6
Continuous
 62
     7
100
AcDbLine
 10
8420.5682045208
 20
5158.1557027708
 30
0.0
 11
8466.5682083355
 21
5158.1557027708
 31
0.0
  0
LINE
  5
2F3
330
1F
100
AcDbEntity
  8
0
  6
Continuous
 62
     7
100
AcDbLine
 10
8349.5682245479
 20
5199.8557008515
 30
0.0
 11
8349.5682245479
 21
5216.223203362
 31
0.0
  0
LINE
  5
2F4
330
1F
100
AcDbEntity
  8
0
  6
Continuous
 62
     7
100
AcDbLine
 10
4774.0187553361
 20
4620.5148313906
 30
0.0
 11
7774.0187553361
 21
4620.5148313906
 31
0.0
  0
LINE
  5
2F5
330
1F
100
AcDbEntity
  8
0
  6
Continuous
 62
     7
100
AcDbLine
 10
4774.0187553361
 20
4620.5148313906
 30
0.0
 11
4774.0187553361
 21
4120.5148313906
 31
0.0
  0
LINE
  5
2F6
330
1F
100
AcDbEntity
  8
0
  6
Continuous
 62
     7
100
AcDbLine
 10
4774.0187553361
 20
4120.5148313906
 30
0.0
 11
7774.0187553361
 21
4120.5148313906
 31
0.0
  0
LINE
  5
2F7
330
1F
100
AcDbEntity
  8
0
  6
Continuous
 62
     7
100
AcDbLine
 10
7774.0187553361
 20
4620.5148313906
 30
0.0
 11
7774.0187553361
 21
4120.5148313906
 31
0.0
  0
LINE
  5
2F8
330
1F
100
AcDbEntity
  8
0
  6
Continuous
 62
     7
100
AcDbLine
 10
6868.2468451159
 20
4502.607259598
 30
0.0
 11
6868.7750614779
 21
4502.6815269854
 31
0.0
  0
LINE
  5
2F9
330
1F
100
AcDbEntity
  8
0
  6
Continuous
 62
     7
100
AcDbLine
 10
6877.9732502597
 20
4502.8256510164
 30
0.0
 11
6878.2761610644
 21
4502.7926300432
 31
0.0
  0
LINE
  5
2FA
330
1F
100
AcDbEntity
  8
0
  6
Continuous
 62
     7
100
AcDbLine
 10
7468.2468689578
 20
4502.607259598
 30
0.0
 11
7468.7749661105
 21
4502.6815269854
 31
0.0
  0
LINE
  5
2FB
330
1F
100
AcDbEntity
  8
0
  6
Continuous
 62
     7
100
AcDbLine
 10
7477.9731548922
 20
4502.8256510164
 30
0.0
 11
7478.2761849063
 21
4502.7926300432
 31
0.0
  0
LINE
  5
2FC
330
1F
100
AcDbEntity
  8
0
  6
Continuous
 62
     7
100
AcDbLine
 10
5068.2468033927
 20
4502.607259598
 30
0.0
 11
5068.7750793593
 21
4502.6815269854
 31
0.0
  0
LINE
  5
2FD
330
1F
100
AcDbEntity
  8
0
  6
Continuous
 62
     7
100
AcDbLine
 10
5077.9732383387
 20
4502.8256510164
 30
0.0
 11
5078.2761491435
 21
4502.7926300432
 31
0.0
  0
LINE
  5
2FE
330
1F
100
AcDbEntity
  8
0
  6
Continuous
 62
     7
100
AcDbLine
 10
5668.2467974322
 20
4502.607259598
 30
0.0
 11
5668.7750733989
 21
4502.6815269854
 31
0.0
  0
LINE
  5
2FF
330
1F
100
AcDbEntity
  8
0
  6
Continuous
 62
     7
100
AcDbLine
 10
5677.9732472794
 20
4502.8256510164
 30
0.0
 11
5678.276143183
 21
4502.7926300432
 31
0.0
  0
LINE
  5
300
330
1F
100
AcDbEntity
  8
0
  6
Continuous
 62
     7
100
AcDbLine
 10
6268.2468212741
 20
4502.607259598
 30
0.0
 11
6268.7750376361
 21
4502.6815269854
 31
0.0
  0
LINE
  5
301
330
1F
100
AcDbEntity
  8
0
  6
Continuous
 62
     7
100
AcDbLine
 10
6277.9732264178
 20
4502.8256510164
 30
0.0
 11
6278.2761372226
 21
4502.7926300432
 31
0.0
  0
LINE
  5
302
330
1F
100
AcDbEntity
  8
0
  6
Continuous
 62
     7
100
AcDbLine
 10
5679.2687542336
 20
4493.4676025774
 30
0.0
 11
5679.2687542336
 21
4494.0983389284
 31
0.0
  0
LINE
  5
303
330
1F
100
AcDbEntity
  8
0
  6
Continuous
 62
     7
100
AcDbLine
 10
5668.7687553065
 20
4494.0983389284
 30
0.0
 11
5668.7687553065
 21
4493.4676025774
 31
0.0
  0
LINE
  5
304
330
1F
100
AcDbEntity
  8
0
  6
Continuous
 62
     7
100
AcDbLine
 10
5079.2687452929
 20
4493.4676025774
 30
0.0
 11
5079.2687452929
 21
4494.0983389284
 31
0.0
  0
LINE
  5
305
330
1F
100
AcDbEntity
  8
0
  6
Continuous
 62
     7
100
AcDbLine
 10
5068.768761267
 20
4494.0983389284
 30
0.0
 11
5068.768761267
 21
4493.4676025774
 31
0.0
  0
LINE
  5
306
330
1F
100
AcDbEntity
  8
0
  6
Continuous
 62
     7
100
AcDbLine
 10
7479.2687214511
 20
4493.4676025774
 30
0.0
 11
7479.2687214511
 21
4494.0983389284
 31
0.0
  0
LINE
  5
307
330
1F
100
AcDbEntity
  8
0
  6
Continuous
 62
     7
100
AcDbLine
 10
7468.7687672274
 20
4494.0983389284
 30
0.0
 11
7468.7687672274
 21
4493.4676025774
 31
0.0
  0
LINE
  5
308
330
1F
100
AcDbEntity
  8
0
  6
Continuous
 62
     7
100
AcDbLine
 10
6279.268733372
 20
4493.4676025774
 30
0.0
 11
6279.268733372
 21
4494.0983389284
 31
0.0
  0
LINE
  5
309
330
1F
100
AcDbEntity
  8
0
  6
Continuous
 62
     7
100
AcDbLine
 10
6268.7687791484
 20
4494.0983389284
 30
0.0
 11
6268.7687791484
 21
4493.4676025774
 31
0.0
  0
LINE
  5
30A
330
1F
100
AcDbEntity
  8
0
  6
Continuous
 62
     7
100
AcDbLine
 10
6879.2686976092
 20
4493.4676025774
 30
0.0
 11
6879.2686976092
 21
4494.0983389284
 31
0.0
  0
LINE
  5
30B
330
1F
100
AcDbEntity
  8
0
  6
Continuous
 62
     7
100
AcDbLine
 10
6868.7687433856
 20
4494.0983389284
 30
0.0
 11
6868.7687433856
 21
4493.4676025774
 31
0.0
  0
LINE
  5
30C
330
1F
100
AcDbEntity
  8
0
  6
Continuous
 62
     7
100
AcDbLine
 10
7514.0187061923
 20
4620.5148433115
 30
0.0
 11
7514.0187061923
 21
4620.6093762781
 31
0.0
  0
LINE
  5
30D
330
1F
100
AcDbEntity
  8
0
  6
Continuous
 62
     7
100
AcDbLine
 10
7434.0187824862
 20
4620.6093762781
 30
0.0
 11
7434.0187824862
 21
4620.5148433115
 31
0.0
  0
LINE
  5
30E
330
1F
100
AcDbEntity
  8
0
  6
Continuous
 62
     7
100
AcDbLine
 10
7494.0187252658
 20
4620.6093762781
 30
0.0
 11
7494.0187252658
 21
4630.609426346
 31
0.0
  0
LINE
  5
30F
330
1F
100
AcDbEntity
  8
0
  6
Continuous
 62
     7
100
AcDbLine
 10
7454.0187634128
 20
4630.609426346
 30
0.0
 11
7454.0187634128
 21
4620.6093762781
 31
0.0
  0
LINE
  5
310
330
1F
100
AcDbEntity
  8
0
  6
Continuous
 62
     7
100
AcDbLine
 10
6314.0187777179
 20
4620.5148433115
 30
0.0
 11
6314.0187777179
 21
4620.6093762781
 31
0.0
  0
LINE
  5
311
330
1F
100
AcDbEntity
  8
0
  6
Continuous
 62
     7
100
AcDbLine
 10
6234.0187348025
 20
4620.6093762781
 30
0.0
 11
6234.0187348025
 21
4620.5148433115
 31
0.0
  0
LINE
  5
312
330
1F
100
AcDbEntity
  8
0
  6
Continuous
 62
     7
100
AcDbLine
 10
6294.0187371867
 20
4620.6093762781
 30
0.0
 11
6294.0187371867
 21
4630.609426346
 31
0.0
  0
LINE
  5
313
330
1F
100
AcDbEntity
  8
0
  6
Continuous
 62
     7
100
AcDbLine
 10
6254.0187753337
 20
4630.609426346
 30
0.0
 11
6254.0187753337
 21
4620.6093762781
 31
0.0
  0
LINE
  5
314
330
1F
100
AcDbEntity
  8
0
  6
Continuous
 62
     7
100
AcDbLine
 10
5714.018753876
 20
4620.5148433115
 30
0.0
 11
5714.018753876
 21
4620.6093762781
 31
0.0
  0
LINE
  5
315
330
1F
100
AcDbEntity
  8
0
  6
Continuous
 62
     7
100
AcDbLine
 10
5634.0187556641
 20
4620.6093762781
 30
0.0
 11
5634.0187556641
 21
4620.5148433115
 31
0.0
  0
LINE
  5
316
330
1F
100
AcDbEntity
  8
0
  6
Continuous
 62
     7
100
AcDbLine
 10
5694.0187580483
 20
4620.6093762781
 30
0.0
 11
5694.0187580483
 21
4630.609426346
 31
0.0
  0
LINE
  5
317
330
1F
100
AcDbEntity
  8
0
  6
Continuous
 62
     7
100
AcDbLine
 10
5654.0187514918
 20
4630.609426346
 30
0.0
 11
5654.0187514918
 21
4620.6093762781
 31
0.0
  0
LINE
  5
318
330
1F
100
AcDbEntity
  8
0
  6
Continuous
 62
     7
100
AcDbLine
 10
5114.0187598365
 20
4620.5148433115
 30
0.0
 11
5114.0187598365
 21
4620.6093762781
 31
0.0
  0
LINE
  5
319
330
1F
100
AcDbEntity
  8
0
  6
Continuous
 62
     7
100
AcDbLine
 10
5034.0187467235
 20
4620.6093762781
 30
0.0
 11
5034.0187467235
 21
4620.5148433115
 31
0.0
  0
LINE
  5
31A
330
1F
100
AcDbEntity
  8
0
  6
Continuous
 62
     7
100
AcDbLine
 10
5094.0187491076
 20
4620.6093762781
 30
0.0
 11
5094.0187491076
 21
4630.609426346
 31
0.0
  0
LINE
  5
31B
330
1F
100
AcDbEntity
  8
0
  6
Continuous
 62
     7
100
AcDbLine
 10
5054.0187574523
 20
4630.609426346
 30
0.0
 11
5054.0187574523
 21
4620.6093762781
 31
0.0
  0
LINE
  5
31C
330
1F
100
AcDbEntity
  8
0
  6
Continuous
 62
     7
100
AcDbLine
 10
6914.0188015597
 20
4620.5148433115
 30
0.0
 11
6914.0188015597
 21
4620.6093762781
 31
0.0
  0
LINE
  5
31D
330
1F
100
AcDbEntity
  8
0
  6
Continuous
 62
     7
100
AcDbLine
 10
6834.0187586444
 20
4620.6093762781
 30
0.0
 11
6834.0187586444
 21
4620.5148433115
 31
0.0
  0
LINE
  5
31E
330
1F
100
AcDbEntity
  8
0
  6
Continuous
 62
     7
100
AcDbLine
 10
6894.0187014239
 20
4620.6093762781
 30
0.0
 11
6894.0187014239
 21
4630.609426346
 31
0.0
  0
LINE
  5
31F
330
1F
100
AcDbEntity
  8
0
  6
Continuous
 62
     7
100
AcDbLine
 10
6854.0187395709
 20
4630.609426346
 30
0.0
 11
6854.0187395709
 21
4620.6093762781
 31
0.0
  0
LINE
  5
320
330
1F
100
AcDbEntity
  8
0
  6
Continuous
 62
     7
100
AcDbLine
 10
7774.0186966556
 20
4619.3148229982
 30
0.0
 11
7774.0186966556
 21
4620.5148433115
 31
0.0
  0
LINE
  5
321
330
1F
100
AcDbEntity
  8
0
  6
Continuous
 62
     7
100
AcDbLine
 10
4774.0187562602
 20
4619.3148229982
 30
0.0
 11
7774.0186966556
 21
4619.3148229982
 31
0.0
  0
LINE
  5
322
330
1F
100
AcDbEntity
  8
0
  6
Continuous
 62
     7
100
AcDbLine
 10
4774.0187562602
 20
4620.5148433115
 30
0.0
 11
4774.0187562602
 21
4619.3148229982
 31
0.0
  0
LINE
  5
323
330
1F
100
AcDbEntity
  8
0
  6
Continuous
 62
     7
100
AcDbLine
 10
7774.0186966556
 20
4620.5148433115
 30
0.0
 11
4774.0187562602
 21
4620.5148433115
 31
0.0
  0
LINE
  5
324
330
1F
100
AcDbEntity
  8
0
  6
Continuous
 62
     7
100
AcDbLine
 10
7774.0186966556
 20
4617.3148487474
 30
0.0
 11
4774.0187562602
 21
4617.3148487474
 31
0.0
  0
LINE
  5
325
330
1F
100
AcDbEntity
  8
0
  6
Continuous
 62
     7
100
AcDbLine
 10
7774.0186966556
 20
4619.3148229982
 30
0.0
 11
7774.0186966556
 21
4617.3148487474
 31
0.0
  0
LINE
  5
326
330
1F
100
AcDbEntity
  8
0
  6
Continuous
 62
     7
100
AcDbLine
 10
4774.0187562602
 20
4617.3148487474
 30
0.0
 11
4774.0187562602
 21
4619.3148229982
 31
0.0
  0
LINE
  5
327
330
1F
100
AcDbEntity
  8
0
  6
Continuous
 62
     7
100
AcDbLine
 10
4774.0187562602
 20
4120.5147837068
 30
0.0
 11
7774.0186966556
 21
4120.5147837068
 31
0.0
  0
LINE
  5
328
330
1F
100
AcDbEntity
  8
0
  6
Continuous
 62
     7
100
AcDbLine
 10
7774.0186966556
 20
4120.5147837068
 30
0.0
 11
7774.0186966556
 21
4617.3148487474
 31
0.0
  0
LINE
  5
329
330
1F
100
AcDbEntity
  8
0
  6
Continuous
 62
     7
100
AcDbLine
 10
4774.0187562602
 20
4617.3148487474
 30
0.0
 11
4774.0187562602
 21
4120.5147837068
 31
0.0
  0
LINE
  5
32A
330
1F
100
AcDbEntity
  8
0
  6
Continuous
 62
     7
100
AcDbLine
 10
7474.0187443393
 20
4487.2364138033
 30
0.0
 11
7476.4212883609
 21
4487.3096083071
 31
0.0
  0
LINE
  5
32B
330
1F
100
AcDbEntity
  8
0
  6
Continuous
 62
     7
100
AcDbLine
 10
7476.4212883609
 20
4487.3096083071
 30
0.0
 11
7478.7723339694
 21
4487.5274036791
 31
0.0
  0
LINE
  5
32C
330
1F
100
AcDbEntity
  8
0
  6
Continuous
 62
     7
100
AcDbLine
 10
7478.7723339694
 20
4487.5274036791
 30
0.0
 11
7481.0222901004
 21
4487.8852699663
 31
0.0
  0
LINE
  5
32D
330
1F
100
AcDbEntity
  8
0
  6
Continuous
 62
     7
100
AcDbLine
 10
7481.0222901004
 20
4487.8852699663
 30
0.0
 11
7483.1229962008
 21
4488.3755777742
 31
0.0
  0
LINE
  5
32E
330
1F
100
AcDbEntity
  8
0
  6
Continuous
 62
     7
100
AcDbLine
 10
7483.1229962008
 20
4488.3755777742
 30
0.0
 11
7485.0296295779
 21
4488.9878366854
 31
0.0
  0
LINE
  5
32F
330
1F
100
AcDbEntity
  8
0
  6
Continuous
 62
     7
100
AcDbLine
 10
7485.0296295779
 20
4488.9878366854
 30
0.0
 11
7486.7014206546
 21
4489.7089336779
 31
0.0
  0
LINE
  5
330
330
1F
100
AcDbEntity
  8
0
  6
Continuous
 62
     7
100
AcDbLine
 10
7486.7014206546
 20
4489.7089336779
 30
0.0
 11
7488.1030834811
 21
4490.5237291719
 31
0.0
  0
LINE
  5
331
330
1F
100
AcDbEntity
  8
0
  6
Continuous
 62
     7
100
AcDbLine
 10
7488.1030834811
 20
4490.5237291719
 30
0.0
 11
7489.2045773166
 21
4491.4145801927
 31
0.0
  0
LINE
  5
332
330
1F
100
AcDbEntity
  8
0
  6
Continuous
 62
     7
100
AcDbLine
 10
7489.2045773166
 20
4491.4145801927
 30
0.0
 11
7489.9822987216
 21
4492.3627708818
 31
0.0
  0
LINE
  5
333
330
1F
100
AcDbEntity
  8
0
  6
Continuous
 62
     7
100
AcDbLine
 10
7489.9822987216
 20
4492.3627708818
 30
0.0
 11
7490.4197968142
 21
4493.3477972414
 31
0.0
  0
LINE
  5
334
330
1F
100
AcDbEntity
  8
0
  6
Continuous
 62
     7
100
AcDbLine
 10
7490.4197968142
 20
4493.3477972414
 30
0.0
 11
7490.5077732699
 21
4494.348916855
 31
0.0
  0
LINE
  5
335
330
1F
100
AcDbEntity
  8
0
  6
Continuous
 62
     7
100
AcDbLine
 10
7490.5077732699
 20
4494.348916855
 30
0.0
 11
7490.24432074
 21
4495.3446720507
 31
0.0
  0
LINE
  5
336
330
1F
100
AcDbEntity
  8
0
  6
Continuous
 62
     7
100
AcDbLine
 10
7490.24432074
 20
4495.3446720507
 30
0.0
 11
7489.6349228518
 21
4496.3138435747
 31
0.0
  0
LINE
  5
337
330
1F
100
AcDbEntity
  8
0
  6
Continuous
 62
     7
100
AcDbLine
 10
7489.6349228518
 20
4496.3138435747
 30
0.0
 11
7488.6929310458
 21
4497.2358082201
 31
0.0
  0
LINE
  5
338
330
1F
100
AcDbEntity
  8
0
  6
Continuous
 62
     7
100
AcDbLine
 10
7488.6929310458
 20
4497.2358082201
 30
0.0
 11
7487.438134064
 21
4498.090896454
 31
0.0
  0
LINE
  5
339
330
1F
100
AcDbEntity
  8
0
  6
Continuous
 62
     7
100
AcDbLine
 10
7487.438134064
 20
4498.090896454
 30
0.0
 11
7485.8972347873
 21
4498.8609884645
 31
0.0
  0
LINE
  5
33A
330
1F
100
AcDbEntity
  8
0
  6
Continuous
 62
     7
100
AcDbLine
 10
7485.8972347873
 20
4498.8609884645
 30
0.0
 11
7484.1031349795
 21
4499.529394951
 31
0.0
  0
LINE
  5
33B
330
1F
100
AcDbEntity
  8
0
  6
Continuous
 62
     7
100
AcDbLine
 10
7484.1031349795
 20
4499.529394951
 30
0.0
 11
7482.094220032
 21
4500.0821684267
 31
0.0
  0
LINE
  5
33C
330
1F
100
AcDbEntity
  8
0
  6
Continuous
 62
     7
100
AcDbLine
 10
7482.094220032
 20
4500.0821684267
 30
0.0
 11
7479.9131668704
 21
4500.5073879625
 31
0.0
  0
LINE
  5
33D
330
1F
100
AcDbEntity
  8
0
  6
Continuous
 62
     7
100
AcDbLine
 10
7479.9131668704
 20
4500.5073879625
 30
0.0
 11
7477.6064671176
 21
4500.7959936525
 31
0.0
  0
LINE
  5
33E
330
1F
100
AcDbEntity
  8
0
  6
Continuous
 62
     7
100
AcDbLine
 10
7477.6064671176
 20
4500.7959936525
 30
0.0
 11
7475.2232350009
 21
4500.9417866136
 31
0.0
  0
LINE
  5
33F
330
1F
100
AcDbEntity
  8
0
  6
Continuous
 62
     7
100
AcDbLine
 10
7475.2232350009
 20
4500.9417866136
 30
0.0
 11
7472.8142536776
 21
4500.9417866136
 31
0.0
  0
LINE
  5
340
330
1F
100
AcDbEntity
  8
0
  6
Continuous
 62
     7
100
AcDbLine
 10
7472.8142536776
 20
4500.9417866136
 30
0.0
 11
7470.4312599795
 21
4500.7959936525
 31
0.0
  0
LINE
  5
341
330
1F
100
AcDbEntity
  8
0
  6
Continuous
 62
     7
100
AcDbLine
 10
7470.4312599795
 20
4500.7959936525
 30
0.0
 11
7468.1245602267
 21
4500.5073879625
 31
0.0
  0
LINE
  5
342
330
1F
100
AcDbEntity
  8
0
  6
Continuous
 62
     7
100
AcDbLine
 10
7468.1245602267
 20
4500.5073879625
 30
0.0
 11
7465.9432686465
 21
4500.0821684267
 31
0.0
  0
LINE
  5
343
330
1F
100
AcDbEntity
  8
0
  6
Continuous
 62
     7
100
AcDbLine
 10
7465.9432686465
 20
4500.0821684267
 30
0.0
 11
7463.934353699
 21
4499.529394951
 31
0.0
  0
LINE
  5
344
330
1F
100
AcDbEntity
  8
0
  6
Continuous
 62
     7
100
AcDbLine
 10
7463.934353699
 20
4499.529394951
 30
0.0
 11
7462.1403731006
 21
4498.8609884645
 31
0.0
  0
LINE
  5
345
330
1F
100
AcDbEntity
  8
0
  6
Continuous
 62
     7
100
AcDbLine
 10
7462.1403731006
 20
4498.8609884645
 30
0.0
 11
7460.5994738238
 21
4498.090896454
 31
0.0
  0
LINE
  5
346
330
1F
100
AcDbEntity
  8
0
  6
Continuous
 62
     7
100
AcDbLine
 10
7460.5994738238
 20
4498.090896454
 30
0.0
 11
7459.3445576327
 21
4497.2358082201
 31
0.0
  0
LINE
  5
347
330
1F
100
AcDbEntity
  8
0
  6
Continuous
 62
     7
100
AcDbLine
 10
7459.3445576327
 20
4497.2358082201
 30
0.0
 11
7458.4024466174
 21
4496.3138435747
 31
0.0
  0
LINE
  5
348
330
1F
100
AcDbEntity
  8
0
  6
Continuous
 62
     7
100
AcDbLine
 10
7458.4024466174
 20
4496.3138435747
 30
0.0
 11
7457.7931679385
 21
4495.3446720507
 31
0.0
  0
LINE
  5
349
330
1F
100
AcDbEntity
  8
0
  6
Continuous
 62
     7
100
AcDbLine
 10
7457.7931679385
 20
4495.3446720507
 30
0.0
 11
7457.5297154086
 21
4494.348916855
 31
0.0
  0
LINE
  5
34A
330
1F
100
AcDbEntity
  8
0
  6
Continuous
 62
     7
100
AcDbLine
 10
7457.5297154086
 20
4494.348916855
 30
0.0
 11
7457.6176918643
 21
4493.3477972414
 31
0.0
  0
LINE
  5
34B
330
1F
100
AcDbEntity
  8
0
  6
Continuous
 62
     7
100
AcDbLine
 10
7457.6176918643
 20
4493.3477972414
 30
0.0
 11
7458.0553091662
 21
4492.3627708818
 31
0.0
  0
LINE
  5
34C
330
1F
100
AcDbEntity
  8
0
  6
Continuous
 62
     7
100
AcDbLine
 10
7458.0553091662
 20
4492.3627708818
 30
0.0
 11
7458.8330305713
 21
4491.4145801927
 31
0.0
  0
LINE
  5
34D
330
1F
100
AcDbEntity
  8
0
  6
Continuous
 62
     7
100
AcDbLine
 10
7458.8330305713
 20
4491.4145801927
 30
0.0
 11
7459.9345244067
 21
4490.5237291719
 31
0.0
  0
LINE
  5
34E
330
1F
100
AcDbEntity
  8
0
  6
Continuous
 62
     7
100
AcDbLine
 10
7459.9345244067
 20
4490.5237291719
 30
0.0
 11
7461.336068024
 21
4489.7089336779
 31
0.0
  0
LINE
  5
34F
330
1F
100
AcDbEntity
  8
0
  6
Continuous
 62
     7
100
AcDbLine
 10
7461.336068024
 20
4489.7089336779
 30
0.0
 11
7463.0079783099
 21
4488.9878366854
 31
0.0
  0
LINE
  5
350
330
1F
100
AcDbEntity
  8
0
  6
Continuous
 62
     7
100
AcDbLine
 10
7463.0079783099
 20
4488.9878366854
 30
0.0
 11
7464.9144924777
 21
4488.3755777742
 31
0.0
  0
LINE
  5
351
330
1F
100
AcDbEntity
  8
0
  6
Continuous
 62
     7
100
AcDbLine
 10
7464.9144924777
 20
4488.3755777742
 30
0.0
 11
7467.0151985782
 21
4487.8852699663
 31
0.0
  0
LINE
  5
352
330
1F
100
AcDbEntity
  8
0
  6
Continuous
 62
     7
100
AcDbLine
 10
7467.0151985782
 20
4487.8852699663
 30
0.0
 11
7469.2651547091
 21
4487.5274036791
 31
0.0
  0
LINE
  5
353
330
1F
100
AcDbEntity
  8
0
  6
Continuous
 62
     7
100
AcDbLine
 10
7469.2651547091
 20
4487.5274036791
 30
0.0
 11
7471.6164387362
 21
4487.3096083071
 31
0.0
  0
LINE
  5
354
330
1F
100
AcDbEntity
  8
0
  6
Continuous
 62
     7
100
AcDbLine
 10
7471.6164387362
 20
4487.3096083071
 30
0.0
 11
7474.0187443393
 21
4487.2364138033
 31
0.0
  0
LINE
  5
355
330
1F
100
AcDbEntity
  8
0
  6
Continuous
 62
     7
100
AcDbLine
 10
7492.0176781314
 20
4495.5433939363
 30
0.0
 11
7491.9201649325
 21
4496.2449406053
 31
0.0
  0
LINE
  5
356
330
1F
100
AcDbEntity
  8
0
  6
Continuous
 62
     7
100
AcDbLine
 10
7491.9201649325
 20
4496.2449406053
 30
0.0
 11
7491.4840973514
 21
4497.2733591463
 31
0.0
  0
LINE
  5
357
330
1F
100
AcDbEntity
  8
0
  6
Continuous
 62
     7
100
AcDbLine
 10
7491.4840973514
 20
4497.2733591463
 30
0.0
 11
7490.7080448764
 21
4498.2666109468
 31
0.0
  0
LINE
  5
358
330
1F
100
AcDbEntity
  8
0
  6
Continuous
 62
     7
100
AcDbLine
 10
7490.7080448764
 20
4498.2666109468
 30
0.0
 11
7489.6072662967
 21
4499.2052648928
 31
0.0
  0
LINE
  5
359
330
1F
100
AcDbEntity
  8
0
  6
Continuous
 62
     7
100
AcDbLine
 10
7489.6072662967
 20
4499.2052648928
 30
0.0
 11
7488.2029808658
 21
4500.0710819628
 31
0.0
  0
LINE
  5
35A
330
1F
100
AcDbEntity
  8
0
  6
Continuous
 62
     7
100
AcDbLine
 10
7488.2029808658
 20
4500.0710819628
 30
0.0
 11
7486.5226067202
 21
4500.8471344377
 31
0.0
  0
LINE
  5
35B
330
1F
100
AcDbEntity
  8
0
  6
Continuous
 62
     7
100
AcDbLine
 10
7486.5226067202
 20
4500.8471344377
 30
0.0
 11
7484.5988072055
 21
4501.5184019472
 31
0.0
  0
LINE
  5
35C
330
1F
100
AcDbEntity
  8
0
  6
Continuous
 62
     7
100
AcDbLine
 10
7484.5988072055
 20
4501.5184019472
 30
0.0
 11
7482.4692524569
 21
4502.0718906786
 31
0.0
  0
LINE
  5
35D
330
1F
100
AcDbEntity
  8
0
  6
Continuous
 62
     7
100
AcDbLine
 10
7482.4692524569
 20
4502.0718906786
 30
0.0
 11
7480.1751888888
 21
4502.4966333773
 31
0.0
  0
LINE
  5
35E
330
1F
100
AcDbEntity
  8
0
  6
Continuous
 62
     7
100
AcDbLine
 10
7480.1751888888
 20
4502.4966333773
 30
0.0
 11
7477.7612007754
 21
4502.7845238115
 31
0.0
  0
LINE
  5
35F
330
1F
100
AcDbEntity
  8
0
  6
Continuous
 62
     7
100
AcDbLine
 10
7477.7612007754
 20
4502.7845238115
 30
0.0
 11
7475.2742565768
 21
4502.9298399355
 31
0.0
  0
LINE
  5
360
330
1F
100
AcDbEntity
  8
0
  6
Continuous
 62
     7
100
AcDbLine
 10
7475.2742565768
 20
4502.9298399355
 30
0.0
 11
7472.7632321017
 21
4502.9298399355
 31
0.0
  0
LINE
  5
361
330
1F
100
AcDbEntity
  8
0
  6
Continuous
 62
     7
100
AcDbLine
 10
7472.7632321017
 20
4502.9298399355
 30
0.0
 11
7470.2762879031
 21
4502.7845238115
 31
0.0
  0
LINE
  5
362
330
1F
100
AcDbEntity
  8
0
  6
Continuous
 62
     7
100
AcDbLine
 10
7470.2762879031
 20
4502.7845238115
 30
0.0
 11
7467.8622997897
 21
4502.4966333773
 31
0.0
  0
LINE
  5
363
330
1F
100
AcDbEntity
  8
0
  6
Continuous
 62
     7
100
AcDbLine
 10
7467.8622997897
 20
4502.4966333773
 30
0.0
 11
7465.5682362216
 21
4502.0718906786
 31
0.0
  0
LINE
  5
364
330
1F
100
AcDbEntity
  8
0
  6
Continuous
 62
     7
100
AcDbLine
 10
7465.5682362216
 20
4502.0718906786
 30
0.0
 11
7463.4385622638
 21
4501.5184019472
 31
0.0
  0
LINE
  5
365
330
1F
100
AcDbEntity
  8
0
  6
Continuous
 62
     7
100
AcDbLine
 10
7463.4385622638
 20
4501.5184019472
 30
0.0
 11
7461.5148819583
 21
4500.8471344377
 31
0.0
  0
LINE
  5
366
330
1F
100
AcDbEntity
  8
0
  6
Continuous
 62
     7
100
AcDbLine
 10
7461.5148819583
 20
4500.8471344377
 30
0.0
 11
7459.8345078128
 21
4500.0710819628
 31
0.0
  0
LINE
  5
367
330
1F
100
AcDbEntity
  8
0
  6
Continuous
 62
     7
100
AcDbLine
 10
7459.8345078128
 20
4500.0710819628
 30
0.0
 11
7458.4303415912
 21
4499.2052648928
 31
0.0
  0
LINE
  5
368
330
1F
100
AcDbEntity
  8
0
  6
Continuous
 62
     7
100
AcDbLine
 10
7458.4303415912
 20
4499.2052648928
 30
0.0
 11
7457.3294438022
 21
4498.2666109468
 31
0.0
  0
LINE
  5
369
330
1F
100
AcDbEntity
  8
0
  6
Continuous
 62
     7
100
AcDbLine
 10
7457.3294438022
 20
4498.2666109468
 30
0.0
 11
7456.5533913272
 21
4497.2733591463
 31
0.0
  0
LINE
  5
36A
330
1F
100
AcDbEntity
  8
0
  6
Continuous
 62
     7
100
AcDbLine
 10
7456.5533913272
 20
4497.2733591463
 30
0.0
 11
7456.117323746
 21
4496.2449406053
 31
0.0
  0
LINE
  5
36B
330
1F
100
AcDbEntity
  8
0
  6
Continuous
 62
     7
100
AcDbLine
 10
7456.117323746
 20
4496.2449406053
 30
0.0
 11
7456.0192145007
 21
4495.4114292528
 31
0.0
  0
LINE
  5
36C
330
1F
100
AcDbEntity
  8
0
  6
Continuous
 62
     7
100
AcDbLine
 10
7485.9811581271
 20
4495.6064556505
 30
0.0
 11
7485.1941383975
 21
4496.4272116091
 31
0.0
  0
LINE
  5
36D
330
1F
100
AcDbEntity
  8
0
  6
Continuous
 62
     7
100
AcDbLine
 10
7485.1941383975
 20
4496.4272116091
 30
0.0
 11
7484.0840614932
 21
4497.1807335283
 31
0.0
  0
LINE
  5
36E
330
1F
100
AcDbEntity
  8
0
  6
Continuous
 62
     7
100
AcDbLine
 10
7484.0840614932
 20
4497.1807335283
 30
0.0
 11
7482.683352341
 21
4497.8452061083
 31
0.0
  0
LINE
  5
36F
330
1F
100
AcDbEntity
  8
0
  6
Continuous
 62
     7
100
AcDbLine
 10
7482.683352341
 20
4497.8452061083
 30
0.0
 11
7481.0320652621
 21
4498.401317444
 31
0.0
  0
LINE
  5
370
330
1F
100
AcDbEntity
  8
0
  6
Continuous
 62
     7
100
AcDbLine
 10
7481.0320652621
 20
4498.401317444
 30
0.0
 11
7479.178122391
 21
4498.8332127001
 31
0.0
  0
LINE
  5
371
330
1F
100
AcDbEntity
  8
0
  6
Continuous
 62
     7
100
AcDbLine
 10
7479.178122391
 20
4498.8332127001
 30
0.0
 11
7477.1754063266
 21
4499.1281364824
 31
0.0
  0
LINE
  5
372
330
1F
100
AcDbEntity
  8
0
  6
Continuous
 62
     7
100
AcDbLine
 10
7477.1754063266
 20
4499.1281364824
 30
0.0
 11
7475.0811375277
 21
4499.2778633501
 31
0.0
  0
LINE
  5
373
330
1F
100
AcDbEntity
  8
0
  6
Continuous
 62
     7
100
AcDbLine
 10
7475.0811375277
 20
4499.2778633501
 30
0.0
 11
7472.9563511508
 21
4499.2778633501
 31
0.0
  0
LINE
  5
374
330
1F
100
AcDbEntity
  8
0
  6
Continuous
 62
     7
100
AcDbLine
 10
7472.9563511508
 20
4499.2778633501
 30
0.0
 11
7470.8623207705
 21
4499.1281364824
 31
0.0
  0
LINE
  5
375
330
1F
100
AcDbEntity
  8
0
  6
Continuous
 62
     7
100
AcDbLine
 10
7470.8623207705
 20
4499.1281364824
 30
0.0
 11
7468.8593662875
 21
4498.8332127001
 31
0.0
  0
LINE
  5
376
330
1F
100
AcDbEntity
  8
0
  6
Continuous
 62
     7
100
AcDbLine
 10
7468.8593662875
 20
4498.8332127001
 30
0.0
 11
7467.0054234164
 21
4498.401317444
 31
0.0
  0
LINE
  5
377
330
1F
100
AcDbEntity
  8
0
  6
Continuous
 62
     7
100
AcDbLine
 10
7467.0054234164
 20
4498.401317444
 30
0.0
 11
7465.3541363376
 21
4497.8452061083
 31
0.0
  0
LINE
  5
378
330
1F
100
AcDbEntity
  8
0
  6
Continuous
 62
     7
100
AcDbLine
 10
7465.3541363376
 20
4497.8452061083
 30
0.0
 11
7463.9534271853
 21
4497.1807335283
 31
0.0
  0
LINE
  5
379
330
1F
100
AcDbEntity
  8
0
  6
Continuous
 62
     7
100
AcDbLine
 10
7463.9534271853
 20
4497.1807335283
 30
0.0
 11
7462.8434694903
 21
4496.4272116091
 31
0.0
  0
LINE
  5
37A
330
1F
100
AcDbEntity
  8
0
  6
Continuous
 62
     7
100
AcDbLine
 10
7462.8434694903
 20
4496.4272116091
 30
0.0
 11
7462.0563305514
 21
4495.6064556505
 31
0.0
  0
LINE
  5
37B
330
1F
100
AcDbEntity
  8
0
  6
Continuous
 62
     7
100
AcDbLine
 10
7462.0563305514
 20
4495.6064556505
 30
0.0
 11
7462.0348728793
 21
4495.5433939363
 31
0.0
  0
LINE
  5
37C
330
1F
100
AcDbEntity
  8
0
  6
Continuous
 62
     7
100
AcDbLine
 10
7462.0348728793
 20
4495.5433939363
 30
0.0
 11
7462.0603836673
 21
4495.4805706407
 31
0.0
  0
LINE
  5
37D
330
1F
100
AcDbEntity
  8
0
  6
Continuous
 62
     7
100
AcDbLine
 10
7462.0603836673
 20
4495.4805706407
 30
0.0
 11
7462.1302403109
 21
4495.4239462282
 31
0.0
  0
LINE
  5
37E
330
1F
100
AcDbEntity
  8
0
  6
Continuous
 62
     7
100
AcDbLine
 10
7462.1302403109
 20
4495.4239462282
 30
0.0
 11
7462.2382439273
 21
4495.3787659075
 31
0.0
  0
LINE
  5
37F
330
1F
100
AcDbEntity
  8
0
  6
Continuous
 62
     7
100
AcDbLine
 10
7462.2382439273
 20
4495.3787659075
 30
0.0
 11
7462.3739040988
 21
4495.349321213
 31
0.0
  0
LINE
  5
380
330
1F
100
AcDbEntity
  8
0
  6
Continuous
 62
     7
100
AcDbLine
 10
7462.3739040988
 20
4495.349321213
 30
0.0
 11
7462.5247038501
 21
4495.338234749
 31
0.0
  0
LINE
  5
381
330
1F
100
AcDbEntity
  8
0
  6
Continuous
 62
     7
100
AcDbLine
 10
7462.5247038501
 20
4495.338234749
 30
0.0
 11
7462.6764572757
 21
4495.3466986086
 31
0.0
  0
LINE
  5
382
330
1F
100
AcDbEntity
  8
0
  6
Continuous
 62
     7
100
AcDbLine
 10
7462.6764572757
 20
4495.3466986086
 30
0.0
 11
7462.8149784701
 21
4495.3738783266
 31
0.0
  0
LINE
  5
383
330
1F
100
AcDbEntity
  8
0
  6
Continuous
 62
     7
100
AcDbLine
 10
7485.2225102084
 20
4495.3738783266
 30
0.0
 11
7485.3610314029
 21
4495.3466986086
 31
0.0
  0
LINE
  5
384
330
1F
100
AcDbEntity
  8
0
  6
Continuous
 62
     7
100
AcDbLine
 10
7485.3610314029
 20
4495.3466986086
 30
0.0
 11
7485.5129040378
 21
4495.338234749
 31
0.0
  0
LINE
  5
385
330
1F
100
AcDbEntity
  8
0
  6
Continuous
 62
     7
100
AcDbLine
 10
7485.5129040378
 20
4495.338234749
 30
0.0
 11
7485.6635845797
 21
4495.349321213
 31
0.0
  0
LINE
  5
386
330
1F
100
AcDbEntity
  8
0
  6
Continuous
 62
     7
100
AcDbLine
 10
7485.6635845797
 20
4495.349321213
 30
0.0
 11
7485.7992447513
 21
4495.3787659075
 31
0.0
  0
LINE
  5
387
330
1F
100
AcDbEntity
  8
0
  6
Continuous
 62
     7
100
AcDbLine
 10
7485.7992447513
 20
4495.3787659075
 30
0.0
 11
7485.9072483676
 21
4495.4239462282
 31
0.0
  0
LINE
  5
388
330
1F
100
AcDbEntity
  8
0
  6
Continuous
 62
     7
100
AcDbLine
 10
7485.9072483676
 20
4495.4239462282
 30
0.0
 11
7485.9771050113
 21
4495.4805706407
 31
0.0
  0
LINE
  5
389
330
1F
100
AcDbEntity
  8
0
  6
Continuous
 62
     7
100
AcDbLine
 10
7485.9771050113
 20
4495.4805706407
 30
0.0
 11
7486.0026157992
 21
4495.5433939363
 31
0.0
  0
LINE
  5
38A
330
1F
100
AcDbEntity
  8
0
  6
Continuous
 62
     7
100
AcDbLine
 10
7486.0026157992
 20
4495.5433939363
 30
0.0
 11
7485.9811581271
 21
4495.6064556505
 31
0.0
  0
LINE
  5
38B
330
1F
100
AcDbEntity
  8
0
  6
Continuous
 62
     7
100
AcDbLine
 10
7462.8149784701
 20
4492.8226803209
 30
0.0
 11
7462.6764572757
 21
4492.8498600389
 31
0.0
  0
LINE
  5
38C
330
1F
100
AcDbEntity
  8
0
  6
Continuous
 62
     7
100
AcDbLine
 10
7462.6764572757
 20
4492.8498600389
 30
0.0
 11
7462.5247038501
 21
4492.8583238985
 31
0.0
  0
LINE
  5
38D
330
1F
100
AcDbEntity
  8
0
  6
Continuous
 62
     7
100
AcDbLine
 10
7462.5247038501
 20
4492.8583238985
 30
0.0
 11
7462.3739040988
 21
4492.8473566439
 31
0.0
  0
LINE
  5
38E
330
1F
100
AcDbEntity
  8
0
  6
Continuous
 62
     7
100
AcDbLine
 10
7462.3739040988
 20
4492.8473566439
 30
0.0
 11
7462.2382439273
 21
4492.8177927401
 31
0.0
  0
LINE
  5
38F
330
1F
100
AcDbEntity
  8
0
  6
Continuous
 62
     7
100
AcDbLine
 10
7462.2382439273
 20
4492.8177927401
 30
0.0
 11
7462.1302403109
 21
4492.7726124193
 31
0.0
  0
LINE
  5
390
330
1F
100
AcDbEntity
  8
0
  6
Continuous
 62
     7
100
AcDbLine
 10
7462.1302403109
 20
4492.7726124193
 30
0.0
 11
7462.0603836673
 21
4492.7159880068
 31
0.0
  0
LINE
  5
391
330
1F
100
AcDbEntity
  8
0
  6
Continuous
 62
     7
100
AcDbLine
 10
7462.0603836673
 20
4492.7159880068
 30
0.0
 11
7462.0348728793
 21
4492.6531647112
 31
0.0
  0
LINE
  5
392
330
1F
100
AcDbEntity
  8
0
  6
Continuous
 62
     7
100
AcDbLine
 10
7462.0348728793
 20
4492.6531647112
 30
0.0
 11
7462.0563305514
 21
4492.590102997
 31
0.0
  0
LINE
  5
393
330
1F
100
AcDbEntity
  8
0
  6
Continuous
 62
     7
100
AcDbLine
 10
7462.0563305514
 20
4492.590102997
 30
0.0
 11
7462.8434694903
 21
4491.7693470385
 31
0.0
  0
LINE
  5
394
330
1F
100
AcDbEntity
  8
0
  6
Continuous
 62
     7
100
AcDbLine
 10
7462.8434694903
 20
4491.7693470385
 30
0.0
 11
7463.9534271853
 21
4491.0158251192
 31
0.0
  0
LINE
  5
395
330
1F
100
AcDbEntity
  8
0
  6
Continuous
 62
     7
100
AcDbLine
 10
7463.9534271853
 20
4491.0158251192
 30
0.0
 11
7465.3541363376
 21
4490.3513525392
 31
0.0
  0
LINE
  5
396
330
1F
100
AcDbEntity
  8
0
  6
Continuous
 62
     7
100
AcDbLine
 10
7465.3541363376
 20
4490.3513525392
 30
0.0
 11
7467.0054234164
 21
4489.7952412035
 31
0.0
  0
LINE
  5
397
330
1F
100
AcDbEntity
  8
0
  6
Continuous
 62
     7
100
AcDbLine
 10
7467.0054234164
 20
4489.7952412035
 30
0.0
 11
7468.8593662875
 21
4489.3634651567
 31
0.0
  0
LINE
  5
398
330
1F
100
AcDbEntity
  8
0
  6
Continuous
 62
     7
100
AcDbLine
 10
7468.8593662875
 20
4489.3634651567
 30
0.0
 11
7470.8623207705
 21
4489.0684221651
 31
0.0
  0
LINE
  5
399
330
1F
100
AcDbEntity
  8
0
  6
Continuous
 62
     7
100
AcDbLine
 10
7470.8623207705
 20
4489.0684221651
 30
0.0
 11
7472.9563511508
 21
4488.9186952974
 31
0.0
  0
LINE
  5
39A
330
1F
100
AcDbEntity
  8
0
  6
Continuous
 62
     7
100
AcDbLine
 10
7472.9563511508
 20
4488.9186952974
 30
0.0
 11
7475.0811375277
 21
4488.9186952974
 31
0.0
  0
LINE
  5
39B
330
1F
100
AcDbEntity
  8
0
  6
Continuous
 62
     7
100
AcDbLine
 10
7475.0811375277
 20
4488.9186952974
 30
0.0
 11
7477.1754063266
 21
4489.0684221651
 31
0.0
  0
LINE
  5
39C
330
1F
100
AcDbEntity
  8
0
  6
Continuous
 62
     7
100
AcDbLine
 10
7477.1754063266
 20
4489.0684221651
 30
0.0
 11
7479.178122391
 21
4489.3634651567
 31
0.0
  0
LINE
  5
39D
330
1F
100
AcDbEntity
  8
0
  6
Continuous
 62
     7
100
AcDbLine
 10
7479.178122391
 20
4489.3634651567
 30
0.0
 11
7481.0320652621
 21
4489.7952412035
 31
0.0
  0
LINE
  5
39E
330
1F
100
AcDbEntity
  8
0
  6
Continuous
 62
     7
100
AcDbLine
 10
7481.0320652621
 20
4489.7952412035
 30
0.0
 11
7482.683352341
 21
4490.3513525392
 31
0.0
  0
LINE
  5
39F
330
1F
100
AcDbEntity
  8
0
  6
Continuous
 62
     7
100
AcDbLine
 10
7482.683352341
 20
4490.3513525392
 30
0.0
 11
7484.0840614932
 21
4491.0158251192
 31
0.0
  0
LINE
  5
3A0
330
1F
100
AcDbEntity
  8
0
  6
Continuous
 62
     7
100
AcDbLine
 10
7484.0840614932
 20
4491.0158251192
 30
0.0
 11
7485.1941383975
 21
4491.7693470385
 31
0.0
  0
LINE
  5
3A1
330
1F
100
AcDbEntity
  8
0
  6
Continuous
 62
     7
100
AcDbLine
 10
7485.1941383975
 20
4491.7693470385
 30
0.0
 11
7485.9811581271
 21
4492.590102997
 31
0.0
  0
LINE
  5
3A2
330
1F
100
AcDbEntity
  8
0
  6
Continuous
 62
     7
100
AcDbLine
 10
7485.9811581271
 20
4492.590102997
 30
0.0
 11
7486.0026157992
 21
4492.6531647112
 31
0.0
  0
LINE
  5
3A3
330
1F
100
AcDbEntity
  8
0
  6
Continuous
 62
     7
100
AcDbLine
 10
7486.0026157992
 20
4492.6531647112
 30
0.0
 11
7485.9771050113
 21
4492.7159880068
 31
0.0
  0
LINE
  5
3A4
330
1F
100
AcDbEntity
  8
0
  6
Continuous
 62
     7
100
AcDbLine
 10
7485.9771050113
 20
4492.7159880068
 30
0.0
 11
7485.9072483676
 21
4492.7726124193
 31
0.0
  0
LINE
  5
3A5
330
1F
100
AcDbEntity
  8
0
  6
Continuous
 62
     7
100
AcDbLine
 10
7485.9072483676
 20
4492.7726124193
 30
0.0
 11
7485.7992447513
 21
4492.8177927401
 31
0.0
  0
LINE
  5
3A6
330
1F
100
AcDbEntity
  8
0
  6
Continuous
 62
     7
100
AcDbLine
 10
7485.7992447513
 20
4492.8177927401
 30
0.0
 11
7485.6635845797
 21
4492.8473566439
 31
0.0
  0
LINE
  5
3A7
330
1F
100
AcDbEntity
  8
0
  6
Continuous
 62
     7
100
AcDbLine
 10
7485.6635845797
 20
4492.8473566439
 30
0.0
 11
7485.5129040378
 21
4492.8583238985
 31
0.0
  0
LINE
  5
3A8
330
1F
100
AcDbEntity
  8
0
  6
Continuous
 62
     7
100
AcDbLine
 10
7485.5129040378
 20
4492.8583238985
 30
0.0
 11
7485.3610314029
 21
4492.8498600389
 31
0.0
  0
LINE
  5
3A9
330
1F
100
AcDbEntity
  8
0
  6
Continuous
 62
     7
100
AcDbLine
 10
7485.3610314029
 20
4492.8498600389
 30
0.0
 11
7485.2225102084
 21
4492.8226803209
 31
0.0
  0
LINE
  5
3AA
330
1F
100
AcDbEntity
  8
0
  6
Continuous
 62
     7
100
AcDbLine
 10
6874.0187204974
 20
4487.2364138033
 30
0.0
 11
6876.4211453097
 21
4487.3096083071
 31
0.0
  0
LINE
  5
3AB
330
1F
100
AcDbEntity
  8
0
  6
Continuous
 62
     7
100
AcDbLine
 10
6876.4211453097
 20
4487.3096083071
 30
0.0
 11
6878.7724293368
 21
4487.5274036791
 31
0.0
  0
LINE
  5
3AC
330
1F
100
AcDbEntity
  8
0
  6
Continuous
 62
     7
100
AcDbLine
 10
6878.7724293368
 20
4487.5274036791
 30
0.0
 11
6881.0222662585
 21
4487.8852699663
 31
0.0
  0
LINE
  5
3AD
330
1F
100
AcDbEntity
  8
0
  6
Continuous
 62
     7
100
AcDbLine
 10
6881.0222662585
 20
4487.8852699663
 30
0.0
 11
6883.122972359
 21
4488.3755777742
 31
0.0
  0
LINE
  5
3AE
330
1F
100
AcDbEntity
  8
0
  6
Continuous
 62
     7
100
AcDbLine
 10
6883.122972359
 20
4488.3755777742
 30
0.0
 11
6885.0294865268
 21
4488.9878366854
 31
0.0
  0
LINE
  5
3AF
330
1F
100
AcDbEntity
  8
0
  6
Continuous
 62
     7
100
AcDbLine
 10
6885.0294865268
 20
4488.9878366854
 30
0.0
 11
6886.7013968127
 21
4489.7089336779
 31
0.0
  0
LINE
  5
3B0
330
1F
100
AcDbEntity
  8
0
  6
Continuous
 62
     7
100
AcDbLine
 10
6886.7013968127
 20
4489.7089336779
 30
0.0
 11
6888.1030596393
 21
4490.5237291719
 31
0.0
  0
LINE
  5
3B1
330
1F
100
AcDbEntity
  8
0
  6
Continuous
 62
     7
100
AcDbLine
 10
6888.1030596393
 20
4490.5237291719
 30
0.0
 11
6889.2044342654
 21
4491.4145801927
 31
0.0
  0
LINE
  5
3B2
330
1F
100
AcDbEntity
  8
0
  6
Continuous
 62
     7
100
AcDbLine
 10
6889.2044342654
 20
4491.4145801927
 30
0.0
 11
6889.9822748797
 21
4492.3627708818
 31
0.0
  0
LINE
  5
3B3
330
1F
100
AcDbEntity
  8
0
  6
Continuous
 62
     7
100
AcDbLine
 10
6889.9822748797
 20
4492.3627708818
 30
0.0
 11
6890.4197729724
 21
4493.3477972414
 31
0.0
  0
LINE
  5
3B4
330
1F
100
AcDbEntity
  8
0
  6
Continuous
 62
     7
100
AcDbLine
 10
6890.4197729724
 20
4493.3477972414
 30
0.0
 11
6890.5077494281
 21
4494.348916855
 31
0.0
  0
LINE
  5
3B5
330
1F
100
AcDbEntity
  8
0
  6
Continuous
 62
     7
100
AcDbLine
 10
6890.5077494281
 20
4494.348916855
 30
0.0
 11
6890.2442968982
 21
4495.3446720507
 31
0.0
  0
LINE
  5
3B6
330
1F
100
AcDbEntity
  8
0
  6
Continuous
 62
     7
100
AcDbLine
 10
6890.2442968982
 20
4495.3446720507
 30
0.0
 11
6889.6350182193
 21
4496.3138435747
 31
0.0
  0
LINE
  5
3B7
330
1F
100
AcDbEntity
  8
0
  6
Continuous
 62
     7
100
AcDbLine
 10
6889.6350182193
 20
4496.3138435747
 30
0.0
 11
6888.692907204
 21
4497.2358082201
 31
0.0
  0
LINE
  5
3B8
330
1F
100
AcDbEntity
  8
0
  6
Continuous
 62
     7
100
AcDbLine
 10
6888.692907204
 20
4497.2358082201
 30
0.0
 11
6887.4379910129
 21
4498.090896454
 31
0.0
  0
LINE
  5
3B9
330
1F
100
AcDbEntity
  8
0
  6
Continuous
 62
     7
100
AcDbLine
 10
6887.4379910129
 20
4498.090896454
 30
0.0
 11
6885.8972109454
 21
4498.8609884645
 31
0.0
  0
LINE
  5
3BA
330
1F
100
AcDbEntity
  8
0
  6
Continuous
 62
     7
100
AcDbLine
 10
6885.8972109454
 20
4498.8609884645
 30
0.0
 11
6884.1031111377
 21
4499.529394951
 31
0.0
  0
LINE
  5
3BB
330
1F
100
AcDbEntity
  8
0
  6
Continuous
 62
     7
100
AcDbLine
 10
6884.1031111377
 20
4499.529394951
 30
0.0
 11
6882.0941961902
 21
4500.0821684267
 31
0.0
  0
LINE
  5
3BC
330
1F
100
AcDbEntity
  8
0
  6
Continuous
 62
     7
100
AcDbLine
 10
6882.0941961902
 20
4500.0821684267
 30
0.0
 11
6879.9130238192
 21
4500.5073879625
 31
0.0
  0
LINE
  5
3BD
330
1F
100
AcDbEntity
  8
0
  6
Continuous
 62
     7
100
AcDbLine
 10
6879.9130238192
 20
4500.5073879625
 30
0.0
 11
6877.6063240664
 21
4500.7959936525
 31
0.0
  0
LINE
  5
3BE
330
1F
100
AcDbEntity
  8
0
  6
Continuous
 62
     7
100
AcDbLine
 10
6877.6063240664
 20
4500.7959936525
 30
0.0
 11
6875.223211159
 21
4500.9417866136
 31
0.0
  0
LINE
  5
3BF
330
1F
100
AcDbEntity
  8
0
  6
Continuous
 62
     7
100
AcDbLine
 10
6875.223211159
 20
4500.9417866136
 30
0.0
 11
6872.8143490451
 21
4500.9417866136
 31
0.0
  0
LINE
  5
3C0
330
1F
100
AcDbEntity
  8
0
  6
Continuous
 62
     7
100
AcDbLine
 10
6872.8143490451
 20
4500.9417866136
 30
0.0
 11
6870.4311169284
 21
4500.7959936525
 31
0.0
  0
LINE
  5
3C1
330
1F
100
AcDbEntity
  8
0
  6
Continuous
 62
     7
100
AcDbLine
 10
6870.4311169284
 20
4500.7959936525
 30
0.0
 11
6868.1244171756
 21
4500.5073879625
 31
0.0
  0
LINE
  5
3C2
330
1F
100
AcDbEntity
  8
0
  6
Continuous
 62
     7
100
AcDbLine
 10
6868.1244171756
 20
4500.5073879625
 30
0.0
 11
6865.9433640139
 21
4500.0821684267
 31
0.0
  0
LINE
  5
3C3
330
1F
100
AcDbEntity
  8
0
  6
Continuous
 62
     7
100
AcDbLine
 10
6865.9433640139
 20
4500.0821684267
 30
0.0
 11
6863.9343298571
 21
4499.529394951
 31
0.0
  0
LINE
  5
3C4
330
1F
100
AcDbEntity
  8
0
  6
Continuous
 62
     7
100
AcDbLine
 10
6863.9343298571
 20
4499.529394951
 30
0.0
 11
6862.1403492587
 21
4498.8609884645
 31
0.0
  0
LINE
  5
3C5
330
1F
100
AcDbEntity
  8
0
  6
Continuous
 62
     7
100
AcDbLine
 10
6862.1403492587
 20
4498.8609884645
 30
0.0
 11
6860.599449982
 21
4498.090896454
 31
0.0
  0
LINE
  5
3C6
330
1F
100
AcDbEntity
  8
0
  6
Continuous
 62
     7
100
AcDbLine
 10
6860.599449982
 20
4498.090896454
 30
0.0
 11
6859.3446530002
 21
4497.2358082201
 31
0.0
  0
LINE
  5
3C7
330
1F
100
AcDbEntity
  8
0
  6
Continuous
 62
     7
100
AcDbLine
 10
6859.3446530002
 20
4497.2358082201
 30
0.0
 11
6858.4025419848
 21
4496.3138435747
 31
0.0
  0
LINE
  5
3C8
330
1F
100
AcDbEntity
  8
0
  6
Continuous
 62
     7
100
AcDbLine
 10
6858.4025419848
 20
4496.3138435747
 30
0.0
 11
6857.7932633059
 21
4495.3446720507
 31
0.0
  0
LINE
  5
3C9
330
1F
100
AcDbEntity
  8
0
  6
Continuous
 62
     7
100
AcDbLine
 10
6857.7932633059
 20
4495.3446720507
 30
0.0
 11
6857.529810776
 21
4494.348916855
 31
0.0
  0
LINE
  5
3CA
330
1F
100
AcDbEntity
  8
0
  6
Continuous
 62
     7
100
AcDbLine
 10
6857.529810776
 20
4494.348916855
 30
0.0
 11
6857.6177872317
 21
4493.3477972414
 31
0.0
  0
LINE
  5
3CB
330
1F
100
AcDbEntity
  8
0
  6
Continuous
 62
     7
100
AcDbLine
 10
6857.6177872317
 20
4493.3477972414
 30
0.0
 11
6858.0552853244
 21
4492.3627708818
 31
0.0
  0
LINE
  5
3CC
330
1F
100
AcDbEntity
  8
0
  6
Continuous
 62
     7
100
AcDbLine
 10
6858.0552853244
 20
4492.3627708818
 30
0.0
 11
6858.8330067294
 21
4491.4145801927
 31
0.0
  0
LINE
  5
3CD
330
1F
100
AcDbEntity
  8
0
  6
Continuous
 62
     7
100
AcDbLine
 10
6858.8330067294
 20
4491.4145801927
 30
0.0
 11
6859.9345005649
 21
4490.5237291719
 31
0.0
  0
LINE
  5
3CE
330
1F
100
AcDbEntity
  8
0
  6
Continuous
 62
     7
100
AcDbLine
 10
6859.9345005649
 20
4490.5237291719
 30
0.0
 11
6861.3360441821
 21
4489.7089336779
 31
0.0
  0
LINE
  5
3CF
330
1F
100
AcDbEntity
  8
0
  6
Continuous
 62
     7
100
AcDbLine
 10
6861.3360441821
 20
4489.7089336779
 30
0.0
 11
6863.0079544681
 21
4488.9878366854
 31
0.0
  0
LINE
  5
3D0
330
1F
100
AcDbEntity
  8
0
  6
Continuous
 62
     7
100
AcDbLine
 10
6863.0079544681
 20
4488.9878366854
 30
0.0
 11
6864.9145878451
 21
4488.3755777742
 31
0.0
  0
LINE
  5
3D1
330
1F
100
AcDbEntity
  8
0
  6
Continuous
 62
     7
100
AcDbLine
 10
6864.9145878451
 20
4488.3755777742
 30
0.0
 11
6867.0151747363
 21
4487.8852699663
 31
0.0
  0
LINE
  5
3D2
330
1F
100
AcDbEntity
  8
0
  6
Continuous
 62
     7
100
AcDbLine
 10
6867.0151747363
 20
4487.8852699663
 30
0.0
 11
6869.2651308673
 21
4487.5274036791
 31
0.0
  0
LINE
  5
3D3
330
1F
100
AcDbEntity
  8
0
  6
Continuous
 62
     7
100
AcDbLine
 10
6869.2651308673
 20
4487.5274036791
 30
0.0
 11
6871.6162956851
 21
4487.3096083071
 31
0.0
  0
LINE
  5
3D4
330
1F
100
AcDbEntity
  8
0
  6
Continuous
 62
     7
100
AcDbLine
 10
6871.6162956851
 20
4487.3096083071
 30
0.0
 11
6874.0187204974
 21
4487.2364138033
 31
0.0
  0
LINE
  5
3D5
330
1F
100
AcDbEntity
  8
0
  6
Continuous
 62
     7
100
AcDbLine
 10
6892.0176542895
 20
4495.5433939363
 30
0.0
 11
6891.9201410907
 21
4496.2449406053
 31
0.0
  0
LINE
  5
3D6
330
1F
100
AcDbEntity
  8
0
  6
Continuous
 62
     7
100
AcDbLine
 10
6891.9201410907
 20
4496.2449406053
 30
0.0
 11
6891.4840735095
 21
4497.2733591463
 31
0.0
  0
LINE
  5
3D7
330
1F
100
AcDbEntity
  8
0
  6
Continuous
 62
     7
100
AcDbLine
 10
6891.4840735095
 20
4497.2733591463
 30
0.0
 11
6890.7080210345
 21
4498.2666109468
 31
0.0
  0
LINE
  5
3D8
330
1F
100
AcDbEntity
  8
0
  6
Continuous
 62
     7
100
AcDbLine
 10
6890.7080210345
 20
4498.2666109468
 30
0.0
 11
6889.6072424548
 21
4499.2052648928
 31
0.0
  0
LINE
  5
3D9
330
1F
100
AcDbEntity
  8
0
  6
Continuous
 62
     7
100
AcDbLine
 10
6889.6072424548
 20
4499.2052648928
 30
0.0
 11
6888.2029570239
 21
4500.0710819628
 31
0.0
  0
LINE
  5
3DA
330
1F
100
AcDbEntity
  8
0
  6
Continuous
 62
     7
100
AcDbLine
 10
6888.2029570239
 20
4500.0710819628
 30
0.0
 11
6886.5225828784
 21
4500.8471344377
 31
0.0
  0
LINE
  5
3DB
330
1F
100
AcDbEntity
  8
0
  6
Continuous
 62
     7
100
AcDbLine
 10
6886.5225828784
 20
4500.8471344377
 30
0.0
 11
6884.5989025729
 21
4501.5184019472
 31
0.0
  0
LINE
  5
3DC
330
1F
100
AcDbEntity
  8
0
  6
Continuous
 62
     7
100
AcDbLine
 10
6884.5989025729
 20
4501.5184019472
 30
0.0
 11
6882.4692286151
 21
4502.0718906786
 31
0.0
  0
LINE
  5
3DD
330
1F
100
AcDbEntity
  8
0
  6
Continuous
 62
     7
100
AcDbLine
 10
6882.4692286151
 20
4502.0718906786
 30
0.0
 11
6880.175165047
 21
4502.4966333773
 31
0.0
  0
LINE
  5
3DE
330
1F
100
AcDbEntity
  8
0
  6
Continuous
 62
     7
100
AcDbLine
 10
6880.175165047
 20
4502.4966333773
 30
0.0
 11
6877.7611769336
 21
4502.7845238115
 31
0.0
  0
LINE
  5
3DF
330
1F
100
AcDbEntity
  8
0
  6
Continuous
 62
     7
100
AcDbLine
 10
6877.7611769336
 20
4502.7845238115
 30
0.0
 11
6875.2743519442
 21
4502.9298399355
 31
0.0
  0
LINE
  5
3E0
330
1F
100
AcDbEntity
  8
0
  6
Continuous
 62
     7
100
AcDbLine
 10
6875.2743519442
 20
4502.9298399355
 30
0.0
 11
6872.7630890506
 21
4502.9298399355
 31
0.0
  0
LINE
  5
3E1
330
1F
100
AcDbEntity
  8
0
  6
Continuous
 62
     7
100
AcDbLine
 10
6872.7630890506
 20
4502.9298399355
 30
0.0
 11
6870.2763832705
 21
4502.7845238115
 31
0.0
  0
LINE
  5
3E2
330
1F
100
AcDbEntity
  8
0
  6
Continuous
 62
     7
100
AcDbLine
 10
6870.2763832705
 20
4502.7845238115
 30
0.0
 11
6867.8623951571
 21
4502.4966333773
 31
0.0
  0
LINE
  5
3E3
330
1F
100
AcDbEntity
  8
0
  6
Continuous
 62
     7
100
AcDbLine
 10
6867.8623951571
 20
4502.4966333773
 30
0.0
 11
6865.5682123797
 21
4502.0718906786
 31
0.0
  0
LINE
  5
3E4
330
1F
100
AcDbEntity
  8
0
  6
Continuous
 62
     7
100
AcDbLine
 10
6865.5682123797
 20
4502.0718906786
 30
0.0
 11
6863.4386576312
 21
4501.5184019472
 31
0.0
  0
LINE
  5
3E5
330
1F
100
AcDbEntity
  8
0
  6
Continuous
 62
     7
100
AcDbLine
 10
6863.4386576312
 20
4501.5184019472
 30
0.0
 11
6861.5148581164
 21
4500.8471344377
 31
0.0
  0
LINE
  5
3E6
330
1F
100
AcDbEntity
  8
0
  6
Continuous
 62
     7
100
AcDbLine
 10
6861.5148581164
 20
4500.8471344377
 30
0.0
 11
6859.8346031802
 21
4500.0710819628
 31
0.0
  0
LINE
  5
3E7
330
1F
100
AcDbEntity
  8
0
  6
Continuous
 62
     7
100
AcDbLine
 10
6859.8346031802
 20
4500.0710819628
 30
0.0
 11
6858.4303177493
 21
4499.2052648928
 31
0.0
  0
LINE
  5
3E8
330
1F
100
AcDbEntity
  8
0
  6
Continuous
 62
     7
100
AcDbLine
 10
6858.4303177493
 20
4499.2052648928
 30
0.0
 11
6857.3294199603
 21
4498.2666109468
 31
0.0
  0
LINE
  5
3E9
330
1F
100
AcDbEntity
  8
0
  6
Continuous
 62
     7
100
AcDbLine
 10
6857.3294199603
 20
4498.2666109468
 30
0.0
 11
6856.5534866946
 21
4497.2733591463
 31
0.0
  0
LINE
  5
3EA
330
1F
100
AcDbEntity
  8
0
  6
Continuous
 62
     7
100
AcDbLine
 10
6856.5534866946
 20
4497.2733591463
 30
0.0
 11
6856.1174191134
 21
4496.2449406053
 31
0.0
  0
LINE
  5
3EB
330
1F
100
AcDbEntity
  8
0
  6
Continuous
 62
     7
100
AcDbLine
 10
6856.1174191134
 20
4496.2449406053
 30
0.0
 11
6856.0191906588
 21
4495.4114292528
 31
0.0
  0
LINE
  5
3EC
330
1F
100
AcDbEntity
  8
0
  6
Continuous
 62
     7
100
AcDbLine
 10
6885.9811342852
 20
4495.6064556505
 30
0.0
 11
6885.1941145556
 21
4496.4272116091
 31
0.0
  0
LINE
  5
3ED
330
1F
100
AcDbEntity
  8
0
  6
Continuous
 62
     7
100
AcDbLine
 10
6885.1941145556
 20
4496.4272116091
 30
0.0
 11
6884.0840376513
 21
4497.1807335283
 31
0.0
  0
LINE
  5
3EE
330
1F
100
AcDbEntity
  8
0
  6
Continuous
 62
     7
100
AcDbLine
 10
6884.0840376513
 20
4497.1807335283
 30
0.0
 11
6882.6832092898
 21
4497.8452061083
 31
0.0
  0
LINE
  5
3EF
330
1F
100
AcDbEntity
  8
0
  6
Continuous
 62
     7
100
AcDbLine
 10
6882.6832092898
 20
4497.8452061083
 30
0.0
 11
6881.0320414203
 21
4498.401317444
 31
0.0
  0
LINE
  5
3F0
330
1F
100
AcDbEntity
  8
0
  6
Continuous
 62
     7
100
AcDbLine
 10
6881.0320414203
 20
4498.401317444
 30
0.0
 11
6879.1782177585
 21
4498.8332127001
 31
0.0
  0
LINE
  5
3F1
330
1F
100
AcDbEntity
  8
0
  6
Continuous
 62
     7
100
AcDbLine
 10
6879.1782177585
 20
4498.8332127001
 30
0.0
 11
6877.1752632754
 21
4499.1281364824
 31
0.0
  0
LINE
  5
3F2
330
1F
100
AcDbEntity
  8
0
  6
Continuous
 62
     7
100
AcDbLine
 10
6877.1752632754
 20
4499.1281364824
 30
0.0
 11
6875.0811136859
 21
4499.2778633501
 31
0.0
  0
LINE
  5
3F3
330
1F
100
AcDbEntity
  8
0
  6
Continuous
 62
     7
100
AcDbLine
 10
6875.0811136859
 20
4499.2778633501
 30
0.0
 11
6872.9563273089
 21
4499.2778633501
 31
0.0
  0
LINE
  5
3F4
330
1F
100
AcDbEntity
  8
0
  6
Continuous
 62
     7
100
AcDbLine
 10
6872.9563273089
 20
4499.2778633501
 30
0.0
 11
6870.8621777194
 21
4499.1281364824
 31
0.0
  0
LINE
  5
3F5
330
1F
100
AcDbEntity
  8
0
  6
Continuous
 62
     7
100
AcDbLine
 10
6870.8621777194
 20
4499.1281364824
 30
0.0
 11
6868.8592232364
 21
4498.8332127001
 31
0.0
  0
LINE
  5
3F6
330
1F
100
AcDbEntity
  8
0
  6
Continuous
 62
     7
100
AcDbLine
 10
6868.8592232364
 20
4498.8332127001
 30
0.0
 11
6867.0053995746
 21
4498.401317444
 31
0.0
  0
LINE
  5
3F7
330
1F
100
AcDbEntity
  8
0
  6
Continuous
 62
     7
100
AcDbLine
 10
6867.0053995746
 20
4498.401317444
 30
0.0
 11
6865.354231705
 21
4497.8452061083
 31
0.0
  0
LINE
  5
3F8
330
1F
100
AcDbEntity
  8
0
  6
Continuous
 62
     7
100
AcDbLine
 10
6865.354231705
 20
4497.8452061083
 30
0.0
 11
6863.9534033435
 21
4497.1807335283
 31
0.0
  0
LINE
  5
3F9
330
1F
100
AcDbEntity
  8
0
  6
Continuous
 62
     7
100
AcDbLine
 10
6863.9534033435
 20
4497.1807335283
 30
0.0
 11
6862.8434456485
 21
4496.4272116091
 31
0.0
  0
LINE
  5
3FA
330
1F
100
AcDbEntity
  8
0
  6
Continuous
 62
     7
100
AcDbLine
 10
6862.8434456485
 20
4496.4272116091
 30
0.0
 11
6862.0564259189
 21
4495.6064556505
 31
0.0
  0
LINE
  5
3FB
330
1F
100
AcDbEntity
  8
0
  6
Continuous
 62
     7
100
AcDbLine
 10
6862.0564259189
 20
4495.6064556505
 30
0.0
 11
6862.0349682467
 21
4495.5433939363
 31
0.0
  0
LINE
  5
3FC
330
1F
100
AcDbEntity
  8
0
  6
Continuous
 62
     7
100
AcDbLine
 10
6862.0349682467
 20
4495.5433939363
 30
0.0
 11
6862.0603598254
 21
4495.4805706407
 31
0.0
  0
LINE
  5
3FD
330
1F
100
AcDbEntity
  8
0
  6
Continuous
 62
     7
100
AcDbLine
 10
6862.0603598254
 20
4495.4805706407
 30
0.0
 11
6862.1303356784
 21
4495.4239462282
 31
0.0
  0
LINE
  5
3FE
330
1F
100
AcDbEntity
  8
0
  6
Continuous
 62
     7
100
AcDbLine
 10
6862.1303356784
 20
4495.4239462282
 30
0.0
 11
6862.2382200854
 21
4495.3787659075
 31
0.0
  0
LINE
  5
3FF
330
1F
100
AcDbEntity
  8
0
  6
Continuous
 62
     7
100
AcDbLine
 10
6862.2382200854
 20
4495.3787659075
 30
0.0
 11
6862.3738802569
 21
4495.349321213
 31
0.0
  0
LINE
  5
400
330
1F
100
AcDbEntity
  8
0
  6
Continuous
 62
     7
100
AcDbLine
 10
6862.3738802569
 20
4495.349321213
 30
0.0
 11
6862.5246800082
 21
4495.338234749
 31
0.0
  0
LINE
  5
401
330
1F
100
AcDbEntity
  8
0
  6
Continuous
 62
     7
100
AcDbLine
 10
6862.5246800082
 20
4495.338234749
 30
0.0
 11
6862.6764334338
 21
4495.3466986086
 31
0.0
  0
LINE
  5
402
330
1F
100
AcDbEntity
  8
0
  6
Continuous
 62
     7
100
AcDbLine
 10
6862.6764334338
 20
4495.3466986086
 30
0.0
 11
6862.8149546283
 21
4495.3738783266
 31
0.0
  0
LINE
  5
403
330
1F
100
AcDbEntity
  8
0
  6
Continuous
 62
     7
100
AcDbLine
 10
6885.2224863665
 20
4495.3738783266
 30
0.0
 11
6885.361007561
 21
4495.3466986086
 31
0.0
  0
LINE
  5
404
330
1F
100
AcDbEntity
  8
0
  6
Continuous
 62
     7
100
AcDbLine
 10
6885.361007561
 20
4495.3466986086
 30
0.0
 11
6885.5127609866
 21
4495.338234749
 31
0.0
  0
LINE
  5
405
330
1F
100
AcDbEntity
  8
0
  6
Continuous
 62
     7
100
AcDbLine
 10
6885.5127609866
 20
4495.338234749
 30
0.0
 11
6885.6635607379
 21
4495.349321213
 31
0.0
  0
LINE
  5
406
330
1F
100
AcDbEntity
  8
0
  6
Continuous
 62
     7
100
AcDbLine
 10
6885.6635607379
 20
4495.349321213
 30
0.0
 11
6885.7993401187
 21
4495.3787659075
 31
0.0
  0
LINE
  5
407
330
1F
100
AcDbEntity
  8
0
  6
Continuous
 62
     7
100
AcDbLine
 10
6885.7993401187
 20
4495.3787659075
 30
0.0
 11
6885.9072245257
 21
4495.4239462282
 31
0.0
  0
LINE
  5
408
330
1F
100
AcDbEntity
  8
0
  6
Continuous
 62
     7
100
AcDbLine
 10
6885.9072245257
 20
4495.4239462282
 30
0.0
 11
6885.9772003787
 21
4495.4805706407
 31
0.0
  0
LINE
  5
409
330
1F
100
AcDbEntity
  8
0
  6
Continuous
 62
     7
100
AcDbLine
 10
6885.9772003787
 20
4495.4805706407
 30
0.0
 11
6886.0025919574
 21
4495.5433939363
 31
0.0
  0
LINE
  5
40A
330
1F
100
AcDbEntity
  8
0
  6
Continuous
 62
     7
100
AcDbLine
 10
6886.0025919574
 20
4495.5433939363
 30
0.0
 11
6885.9811342852
 21
4495.6064556505
 31
0.0
  0
LINE
  5
40B
330
1F
100
AcDbEntity
  8
0
  6
Continuous
 62
     7
100
AcDbLine
 10
6862.8149546283
 20
4492.8226803209
 30
0.0
 11
6862.6764334338
 21
4492.8498600389
 31
0.0
  0
LINE
  5
40C
330
1F
100
AcDbEntity
  8
0
  6
Continuous
 62
     7
100
AcDbLine
 10
6862.6764334338
 20
4492.8498600389
 30
0.0
 11
6862.5246800082
 21
4492.8583238985
 31
0.0
  0
LINE
  5
40D
330
1F
100
AcDbEntity
  8
0
  6
Continuous
 62
     7
100
AcDbLine
 10
6862.5246800082
 20
4492.8583238985
 30
0.0
 11
6862.3738802569
 21
4492.8473566439
 31
0.0
  0
LINE
  5
40E
330
1F
100
AcDbEntity
  8
0
  6
Continuous
 62
     7
100
AcDbLine
 10
6862.3738802569
 20
4492.8473566439
 30
0.0
 11
6862.2382200854
 21
4492.8177927401
 31
0.0
  0
LINE
  5
40F
330
1F
100
AcDbEntity
  8
0
  6
Continuous
 62
     7
100
AcDbLine
 10
6862.2382200854
 20
4492.8177927401
 30
0.0
 11
6862.1303356784
 21
4492.7726124193
 31
0.0
  0
LINE
  5
410
330
1F
100
AcDbEntity
  8
0
  6
Continuous
 62
     7
100
AcDbLine
 10
6862.1303356784
 20
4492.7726124193
 30
0.0
 11
6862.0603598254
 21
4492.7159880068
 31
0.0
  0
LINE
  5
411
330
1F
100
AcDbEntity
  8
0
  6
Continuous
 62
     7
100
AcDbLine
 10
6862.0603598254
 20
4492.7159880068
 30
0.0
 11
6862.0349682467
 21
4492.6531647112
 31
0.0
  0
LINE
  5
412
330
1F
100
AcDbEntity
  8
0
  6
Continuous
 62
     7
100
AcDbLine
 10
6862.0349682467
 20
4492.6531647112
 30
0.0
 11
6862.0564259189
 21
4492.590102997
 31
0.0
  0
LINE
  5
413
330
1F
100
AcDbEntity
  8
0
  6
Continuous
 62
     7
100
AcDbLine
 10
6862.0564259189
 20
4492.590102997
 30
0.0
 11
6862.8434456485
 21
4491.7693470385
 31
0.0
  0
LINE
  5
414
330
1F
100
AcDbEntity
  8
0
  6
Continuous
 62
     7
100
AcDbLine
 10
6862.8434456485
 20
4491.7693470385
 30
0.0
 11
6863.9534033435
 21
4491.0158251192
 31
0.0
  0
LINE
  5
415
330
1F
100
AcDbEntity
  8
0
  6
Continuous
 62
     7
100
AcDbLine
 10
6863.9534033435
 20
4491.0158251192
 30
0.0
 11
6865.354231705
 21
4490.3513525392
 31
0.0
  0
LINE
  5
416
330
1F
100
AcDbEntity
  8
0
  6
Continuous
 62
     7
100
AcDbLine
 10
6865.354231705
 20
4490.3513525392
 30
0.0
 11
6867.0053995746
 21
4489.7952412035
 31
0.0
  0
LINE
  5
417
330
1F
100
AcDbEntity
  8
0
  6
Continuous
 62
     7
100
AcDbLine
 10
6867.0053995746
 20
4489.7952412035
 30
0.0
 11
6868.8592232364
 21
4489.3634651567
 31
0.0
  0
LINE
  5
418
330
1F
100
AcDbEntity
  8
0
  6
Continuous
 62
     7
100
AcDbLine
 10
6868.8592232364
 20
4489.3634651567
 30
0.0
 11
6870.8621777194
 21
4489.0684221651
 31
0.0
  0
LINE
  5
419
330
1F
100
AcDbEntity
  8
0
  6
Continuous
 62
     7
100
AcDbLine
 10
6870.8621777194
 20
4489.0684221651
 30
0.0
 11
6872.9563273089
 21
4488.9186952974
 31
0.0
  0
LINE
  5
41A
330
1F
100
AcDbEntity
  8
0
  6
Continuous
 62
     7
100
AcDbLine
 10
6872.9563273089
 20
4488.9186952974
 30
0.0
 11
6875.0811136859
 21
4488.9186952974
 31
0.0
  0
LINE
  5
41B
330
1F
100
AcDbEntity
  8
0
  6
Continuous
 62
     7
100
AcDbLine
 10
6875.0811136859
 20
4488.9186952974
 30
0.0
 11
6877.1752632754
 21
4489.0684221651
 31
0.0
  0
LINE
  5
41C
330
1F
100
AcDbEntity
  8
0
  6
Continuous
 62
     7
100
AcDbLine
 10
6877.1752632754
 20
4489.0684221651
 30
0.0
 11
6879.1782177585
 21
4489.3634651567
 31
0.0
  0
LINE
  5
41D
330
1F
100
AcDbEntity
  8
0
  6
Continuous
 62
     7
100
AcDbLine
 10
6879.1782177585
 20
4489.3634651567
 30
0.0
 11
6881.0320414203
 21
4489.7952412035
 31
0.0
  0
LINE
  5
41E
330
1F
100
AcDbEntity
  8
0
  6
Continuous
 62
     7
100
AcDbLine
 10
6881.0320414203
 20
4489.7952412035
 30
0.0
 11
6882.6832092898
 21
4490.3513525392
 31
0.0
  0
LINE
  5
41F
330
1F
100
AcDbEntity
  8
0
  6
Continuous
 62
     7
100
AcDbLine
 10
6882.6832092898
 20
4490.3513525392
 30
0.0
 11
6884.0840376513
 21
4491.0158251192
 31
0.0
  0
LINE
  5
420
330
1F
100
AcDbEntity
  8
0
  6
Continuous
 62
     7
100
AcDbLine
 10
6884.0840376513
 20
4491.0158251192
 30
0.0
 11
6885.1941145556
 21
4491.7693470385
 31
0.0
  0
LINE
  5
421
330
1F
100
AcDbEntity
  8
0
  6
Continuous
 62
     7
100
AcDbLine
 10
6885.1941145556
 20
4491.7693470385
 30
0.0
 11
6885.9811342852
 21
4492.590102997
 31
0.0
  0
LINE
  5
422
330
1F
100
AcDbEntity
  8
0
  6
Continuous
 62
     7
100
AcDbLine
 10
6885.9811342852
 20
4492.590102997
 30
0.0
 11
6886.0025919574
 21
4492.6531647112
 31
0.0
  0
LINE
  5
423
330
1F
100
AcDbEntity
  8
0
  6
Continuous
 62
     7
100
AcDbLine
 10
6886.0025919574
 20
4492.6531647112
 30
0.0
 11
6885.9772003787
 21
4492.7159880068
 31
0.0
  0
LINE
  5
424
330
1F
100
AcDbEntity
  8
0
  6
Continuous
 62
     7
100
AcDbLine
 10
6885.9772003787
 20
4492.7159880068
 30
0.0
 11
6885.9072245257
 21
4492.7726124193
 31
0.0
  0
LINE
  5
425
330
1F
100
AcDbEntity
  8
0
  6
Continuous
 62
     7
100
AcDbLine
 10
6885.9072245257
 20
4492.7726124193
 30
0.0
 11
6885.7993401187
 21
4492.8177927401
 31
0.0
  0
LINE
  5
426
330
1F
100
AcDbEntity
  8
0
  6
Continuous
 62
     7
100
AcDbLine
 10
6885.7993401187
 20
4492.8177927401
 30
0.0
 11
6885.6635607379
 21
4492.8473566439
 31
0.0
  0
LINE
  5
427
330
1F
100
AcDbEntity
  8
0
  6
Continuous
 62
     7
100
AcDbLine
 10
6885.6635607379
 20
4492.8473566439
 30
0.0
 11
6885.5127609866
 21
4492.8583238985
 31
0.0
  0
LINE
  5
428
330
1F
100
AcDbEntity
  8
0
  6
Continuous
 62
     7
100
AcDbLine
 10
6885.5127609866
 20
4492.8583238985
 30
0.0
 11
6885.361007561
 21
4492.8498600389
 31
0.0
  0
LINE
  5
429
330
1F
100
AcDbEntity
  8
0
  6
Continuous
 62
     7
100
AcDbLine
 10
6885.361007561
 20
4492.8498600389
 30
0.0
 11
6885.2224863665
 21
4492.8226803209
 31
0.0
  0
LINE
  5
42A
330
1F
100
AcDbEntity
  8
0
  6
Continuous
 62
     7
100
AcDbLine
 10
5074.0187681811
 20
4487.2364138033
 30
0.0
 11
5076.4211631911
 21
4487.3096083071
 31
0.0
  0
LINE
  5
42B
330
1F
100
AcDbEntity
  8
0
  6
Continuous
 62
     7
100
AcDbLine
 10
5076.4211631911
 20
4487.3096083071
 30
0.0
 11
5078.7723876136
 21
4487.5274036791
 31
0.0
  0
LINE
  5
42C
330
1F
100
AcDbEntity
  8
0
  6
Continuous
 62
     7
100
AcDbLine
 10
5078.7723876136
 20
4487.5274036791
 30
0.0
 11
5081.0222841399
 21
4487.8852699663
 31
0.0
  0
LINE
  5
42D
330
1F
100
AcDbEntity
  8
0
  6
Continuous
 62
     7
100
AcDbLine
 10
5081.0222841399
 20
4487.8852699663
 30
0.0
 11
5083.1229306357
 21
4488.3755777742
 31
0.0
  0
LINE
  5
42E
330
1F
100
AcDbEntity
  8
0
  6
Continuous
 62
     7
100
AcDbLine
 10
5083.1229306357
 20
4488.3755777742
 30
0.0
 11
5085.0295044082
 21
4488.9878366854
 31
0.0
  0
LINE
  5
42F
330
1F
100
AcDbEntity
  8
0
  6
Continuous
 62
     7
100
AcDbLine
 10
5085.0295044082
 20
4488.9878366854
 30
0.0
 11
5086.7014444964
 21
4489.7089336779
 31
0.0
  0
LINE
  5
430
330
1F
100
AcDbEntity
  8
0
  6
Continuous
 62
     7
100
AcDbLine
 10
5086.7014444964
 20
4489.7089336779
 30
0.0
 11
5088.1030477183
 21
4490.5237291719
 31
0.0
  0
LINE
  5
431
330
1F
100
AcDbEntity
  8
0
  6
Continuous
 62
     7
100
AcDbLine
 10
5088.1030477183
 20
4490.5237291719
 30
0.0
 11
5089.2044819491
 21
4491.4145801927
 31
0.0
  0
LINE
  5
432
330
1F
100
AcDbEntity
  8
0
  6
Continuous
 62
     7
100
AcDbLine
 10
5089.2044819491
 20
4491.4145801927
 30
0.0
 11
5089.9822331565
 21
4492.3627708818
 31
0.0
  0
LINE
  5
433
330
1F
100
AcDbEntity
  8
0
  6
Continuous
 62
     7
100
AcDbLine
 10
5089.9822331565
 20
4492.3627708818
 30
0.0
 11
5090.4197610515
 21
4493.3477972414
 31
0.0
  0
LINE
  5
434
330
1F
100
AcDbEntity
  8
0
  6
Continuous
 62
     7
100
AcDbLine
 10
5090.4197610515
 20
4493.3477972414
 30
0.0
 11
5090.5077375071
 21
4494.348916855
 31
0.0
  0
LINE
  5
435
330
1F
100
AcDbEntity
  8
0
  6
Continuous
 62
     7
100
AcDbLine
 10
5090.5077375071
 20
4494.348916855
 30
0.0
 11
5090.2442849772
 21
4495.3446720507
 31
0.0
  0
LINE
  5
436
330
1F
100
AcDbEntity
  8
0
  6
Continuous
 62
     7
100
AcDbLine
 10
5090.2442849772
 20
4495.3446720507
 30
0.0
 11
5089.6350062983
 21
4496.3138435747
 31
0.0
  0
LINE
  5
437
330
1F
100
AcDbEntity
  8
0
  6
Continuous
 62
     7
100
AcDbLine
 10
5089.6350062983
 20
4496.3138435747
 30
0.0
 11
5088.692895283
 21
4497.2358082201
 31
0.0
  0
LINE
  5
438
330
1F
100
AcDbEntity
  8
0
  6
Continuous
 62
     7
100
AcDbLine
 10
5088.692895283
 20
4497.2358082201
 30
0.0
 11
5087.4380386966
 21
4498.090896454
 31
0.0
  0
LINE
  5
439
330
1F
100
AcDbEntity
  8
0
  6
Continuous
 62
     7
100
AcDbLine
 10
5087.4380386966
 20
4498.090896454
 30
0.0
 11
5085.8971692222
 21
4498.8609884645
 31
0.0
  0
LINE
  5
43A
330
1F
100
AcDbEntity
  8
0
  6
Continuous
 62
     7
100
AcDbLine
 10
5085.8971692222
 20
4498.8609884645
 30
0.0
 11
5084.1031290191
 21
4499.529394951
 31
0.0
  0
LINE
  5
43B
330
1F
100
AcDbEntity
  8
0
  6
Continuous
 62
     7
100
AcDbLine
 10
5084.1031290191
 20
4499.529394951
 30
0.0
 11
5082.0941544669
 21
4500.0821684267
 31
0.0
  0
LINE
  5
43C
330
1F
100
AcDbEntity
  8
0
  6
Continuous
 62
     7
100
AcDbLine
 10
5082.0941544669
 20
4500.0821684267
 30
0.0
 11
5079.913071503
 21
4500.5073879625
 31
0.0
  0
LINE
  5
43D
330
1F
100
AcDbEntity
  8
0
  6
Continuous
 62
     7
100
AcDbLine
 10
5079.913071503
 20
4500.5073879625
 30
0.0
 11
5077.6063419478
 21
4500.7959936525
 31
0.0
  0
LINE
  5
43E
330
1F
100
AcDbEntity
  8
0
  6
Continuous
 62
     7
100
AcDbLine
 10
5077.6063419478
 20
4500.7959936525
 30
0.0
 11
5075.2231694358
 21
4500.9417866136
 31
0.0
  0
LINE
  5
43F
330
1F
100
AcDbEntity
  8
0
  6
Continuous
 62
     7
100
AcDbLine
 10
5075.2231694358
 20
4500.9417866136
 30
0.0
 11
5072.8143371241
 21
4500.9417866136
 31
0.0
  0
LINE
  5
440
330
1F
100
AcDbEntity
  8
0
  6
Continuous
 62
     7
100
AcDbLine
 10
5072.8143371241
 20
4500.9417866136
 30
0.0
 11
5070.4311646121
 21
4500.7959936525
 31
0.0
  0
LINE
  5
441
330
1F
100
AcDbEntity
  8
0
  6
Continuous
 62
     7
100
AcDbLine
 10
5070.4311646121
 20
4500.7959936525
 30
0.0
 11
5068.124435057
 21
4500.5073879625
 31
0.0
  0
LINE
  5
442
330
1F
100
AcDbEntity
  8
0
  6
Continuous
 62
     7
100
AcDbLine
 10
5068.124435057
 20
4500.5073879625
 30
0.0
 11
5065.943352093
 21
4500.0821684267
 31
0.0
  0
LINE
  5
443
330
1F
100
AcDbEntity
  8
0
  6
Continuous
 62
     7
100
AcDbLine
 10
5065.943352093
 20
4500.0821684267
 30
0.0
 11
5063.9343775409
 21
4499.529394951
 31
0.0
  0
LINE
  5
444
330
1F
100
AcDbEntity
  8
0
  6
Continuous
 62
     7
100
AcDbLine
 10
5063.9343775409
 20
4499.529394951
 30
0.0
 11
5062.1403373378
 21
4498.8609884645
 31
0.0
  0
LINE
  5
445
330
1F
100
AcDbEntity
  8
0
  6
Continuous
 62
     7
100
AcDbLine
 10
5062.1403373378
 20
4498.8609884645
 30
0.0
 11
5060.5994678634
 21
4498.090896454
 31
0.0
  0
LINE
  5
446
330
1F
100
AcDbEntity
  8
0
  6
Continuous
 62
     7
100
AcDbLine
 10
5060.5994678634
 20
4498.090896454
 30
0.0
 11
5059.3446112769
 21
4497.2358082201
 31
0.0
  0
LINE
  5
447
330
1F
100
AcDbEntity
  8
0
  6
Continuous
 62
     7
100
AcDbLine
 10
5059.3446112769
 20
4497.2358082201
 30
0.0
 11
5058.4025002616
 21
4496.3138435747
 31
0.0
  0
LINE
  5
448
330
1F
100
AcDbEntity
  8
0
  6
Continuous
 62
     7
100
AcDbLine
 10
5058.4025002616
 20
4496.3138435747
 30
0.0
 11
5057.7932215827
 21
4495.3446720507
 31
0.0
  0
LINE
  5
449
330
1F
100
AcDbEntity
  8
0
  6
Continuous
 62
     7
100
AcDbLine
 10
5057.7932215827
 20
4495.3446720507
 30
0.0
 11
5057.5297690528
 21
4494.348916855
 31
0.0
  0
LINE
  5
44A
330
1F
100
AcDbEntity
  8
0
  6
Continuous
 62
     7
100
AcDbLine
 10
5057.5297690528
 20
4494.348916855
 30
0.0
 11
5057.6177455085
 21
4493.3477972414
 31
0.0
  0
LINE
  5
44B
330
1F
100
AcDbEntity
  8
0
  6
Continuous
 62
     7
100
AcDbLine
 10
5057.6177455085
 20
4493.3477972414
 30
0.0
 11
5058.0552734034
 21
4492.3627708818
 31
0.0
  0
LINE
  5
44C
330
1F
100
AcDbEntity
  8
0
  6
Continuous
 62
     7
100
AcDbLine
 10
5058.0552734034
 20
4492.3627708818
 30
0.0
 11
5058.8330544131
 21
4491.4145801927
 31
0.0
  0
LINE
  5
44D
330
1F
100
AcDbEntity
  8
0
  6
Continuous
 62
     7
100
AcDbLine
 10
5058.8330544131
 20
4491.4145801927
 30
0.0
 11
5059.9344588416
 21
4490.5237291719
 31
0.0
  0
LINE
  5
44E
330
1F
100
AcDbEntity
  8
0
  6
Continuous
 62
     7
100
AcDbLine
 10
5059.9344588416
 20
4490.5237291719
 30
0.0
 11
5061.3360918658
 21
4489.7089336779
 31
0.0
  0
LINE
  5
44F
330
1F
100
AcDbEntity
  8
0
  6
Continuous
 62
     7
100
AcDbLine
 10
5061.3360918658
 20
4489.7089336779
 30
0.0
 11
5063.0080021518
 21
4488.9878366854
 31
0.0
  0
LINE
  5
450
330
1F
100
AcDbEntity
  8
0
  6
Continuous
 62
     7
100
AcDbLine
 10
5063.0080021518
 20
4488.9878366854
 30
0.0
 11
5064.9145759242
 21
4488.3755777742
 31
0.0
  0
LINE
  5
451
330
1F
100
AcDbEntity
  8
0
  6
Continuous
 62
     7
100
AcDbLine
 10
5064.9145759242
 20
4488.3755777742
 30
0.0
 11
5067.01522242
 21
4487.8852699663
 31
0.0
  0
LINE
  5
452
330
1F
100
AcDbEntity
  8
0
  6
Continuous
 62
     7
100
AcDbLine
 10
5067.01522242
 20
4487.8852699663
 30
0.0
 11
5069.2651189464
 21
4487.5274036791
 31
0.0
  0
LINE
  5
453
330
1F
100
AcDbEntity
  8
0
  6
Continuous
 62
     7
100
AcDbLine
 10
5069.2651189464
 20
4487.5274036791
 30
0.0
 11
5071.6163433688
 21
4487.3096083071
 31
0.0
  0
LINE
  5
454
330
1F
100
AcDbEntity
  8
0
  6
Continuous
 62
     7
100
AcDbLine
 10
5071.6163433688
 20
4487.3096083071
 30
0.0
 11
5074.0187681811
 21
4487.2364138033
 31
0.0
  0
LINE
  5
455
330
1F
100
AcDbEntity
  8
0
  6
Continuous
 62
     7
100
AcDbLine
 10
5092.0177019732
 20
4495.5433939363
 30
0.0
 11
5091.9201589721
 21
4496.2449406053
 31
0.0
  0
LINE
  5
456
330
1F
100
AcDbEntity
  8
0
  6
Continuous
 62
     7
100
AcDbLine
 10
5091.9201589721
 20
4496.2449406053
 30
0.0
 11
5091.4840913909
 21
4497.2733591463
 31
0.0
  0
LINE
  5
457
330
1F
100
AcDbEntity
  8
0
  6
Continuous
 62
     7
100
AcDbLine
 10
5091.4840913909
 20
4497.2733591463
 30
0.0
 11
5090.7080687182
 21
4498.2666109468
 31
0.0
  0
LINE
  5
458
330
1F
100
AcDbEntity
  8
0
  6
Continuous
 62
     7
100
AcDbLine
 10
5090.7080687182
 20
4498.2666109468
 30
0.0
 11
5089.6072007316
 21
4499.2052648928
 31
0.0
  0
LINE
  5
459
330
1F
100
AcDbEntity
  8
0
  6
Continuous
 62
     7
100
AcDbLine
 10
5089.6072007316
 20
4499.2052648928
 30
0.0
 11
5088.202945103
 21
4500.0710819628
 31
0.0
  0
LINE
  5
45A
330
1F
100
AcDbEntity
  8
0
  6
Continuous
 62
     7
100
AcDbLine
 10
5088.202945103
 20
4500.0710819628
 30
0.0
 11
5086.5226007598
 21
4500.8471344377
 31
0.0
  0
LINE
  5
45B
330
1F
100
AcDbEntity
  8
0
  6
Continuous
 62
     7
100
AcDbLine
 10
5086.5226007598
 20
4500.8471344377
 30
0.0
 11
5084.598890652
 21
4501.5184019472
 31
0.0
  0
LINE
  5
45C
330
1F
100
AcDbEntity
  8
0
  6
Continuous
 62
     7
100
AcDbLine
 10
5084.598890652
 20
4501.5184019472
 30
0.0
 11
5082.4692464965
 21
4502.0718906786
 31
0.0
  0
LINE
  5
45D
330
1F
100
AcDbEntity
  8
0
  6
Continuous
 62
     7
100
AcDbLine
 10
5082.4692464965
 20
4502.0718906786
 30
0.0
 11
5080.1751233237
 21
4502.4966333773
 31
0.0
  0
LINE
  5
45E
330
1F
100
AcDbEntity
  8
0
  6
Continuous
 62
     7
100
AcDbLine
 10
5080.1751233237
 20
4502.4966333773
 30
0.0
 11
5077.7611650126
 21
4502.7845238115
 31
0.0
  0
LINE
  5
45F
330
1F
100
AcDbEntity
  8
0
  6
Continuous
 62
     7
100
AcDbLine
 10
5077.7611650126
 20
4502.7845238115
 30
0.0
 11
5075.2743698256
 21
4502.9298399355
 31
0.0
  0
LINE
  5
460
330
1F
100
AcDbEntity
  8
0
  6
Continuous
 62
     7
100
AcDbLine
 10
5075.2743698256
 20
4502.9298399355
 30
0.0
 11
5072.7631367343
 21
4502.9298399355
 31
0.0
  0
LINE
  5
461
330
1F
100
AcDbEntity
  8
0
  6
Continuous
 62
     7
100
AcDbLine
 10
5072.7631367343
 20
4502.9298399355
 30
0.0
 11
5070.2763415473
 21
4502.7845238115
 31
0.0
  0
LINE
  5
462
330
1F
100
AcDbEntity
  8
0
  6
Continuous
 62
     7
100
AcDbLine
 10
5070.2763415473
 20
4502.7845238115
 30
0.0
 11
5067.8623832362
 21
4502.4966333773
 31
0.0
  0
LINE
  5
463
330
1F
100
AcDbEntity
  8
0
  6
Continuous
 62
     7
100
AcDbLine
 10
5067.8623832362
 20
4502.4966333773
 30
0.0
 11
5065.5682600634
 21
4502.0718906786
 31
0.0
  0
LINE
  5
464
330
1F
100
AcDbEntity
  8
0
  6
Continuous
 62
     7
100
AcDbLine
 10
5065.5682600634
 20
4502.0718906786
 30
0.0
 11
5063.4386159079
 21
4501.5184019472
 31
0.0
  0
LINE
  5
465
330
1F
100
AcDbEntity
  8
0
  6
Continuous
 62
     7
100
AcDbLine
 10
5063.4386159079
 20
4501.5184019472
 30
0.0
 11
5061.5149058001
 21
4500.8471344377
 31
0.0
  0
LINE
  5
466
330
1F
100
AcDbEntity
  8
0
  6
Continuous
 62
     7
100
AcDbLine
 10
5061.5149058001
 20
4500.8471344377
 30
0.0
 11
5059.834561457
 21
4500.0710819628
 31
0.0
  0
LINE
  5
467
330
1F
100
AcDbEntity
  8
0
  6
Continuous
 62
     7
100
AcDbLine
 10
5059.834561457
 20
4500.0710819628
 30
0.0
 11
5058.4303058284
 21
4499.2052648928
 31
0.0
  0
LINE
  5
468
330
1F
100
AcDbEntity
  8
0
  6
Continuous
 62
     7
100
AcDbLine
 10
5058.4303058284
 20
4499.2052648928
 30
0.0
 11
5057.3294378417
 21
4498.2666109468
 31
0.0
  0
LINE
  5
469
330
1F
100
AcDbEntity
  8
0
  6
Continuous
 62
     7
100
AcDbLine
 10
5057.3294378417
 20
4498.2666109468
 30
0.0
 11
5056.5534449714
 21
4497.2733591463
 31
0.0
  0
LINE
  5
46A
330
1F
100
AcDbEntity
  8
0
  6
Continuous
 62
     7
100
AcDbLine
 10
5056.5534449714
 20
4497.2733591463
 30
0.0
 11
5056.1173475879
 21
4496.2449406053
 31
0.0
  0
LINE
  5
46B
330
1F
100
AcDbEntity
  8
0
  6
Continuous
 62
     7
100
AcDbLine
 10
5056.1173475879
 20
4496.2449406053
 30
0.0
 11
5056.0191787379
 21
4495.4114292528
 31
0.0
  0
LINE
  5
46C
330
1F
100
AcDbEntity
  8
0
  6
Continuous
 62
     7
100
AcDbLine
 10
5085.9811223643
 20
4495.6064556505
 30
0.0
 11
5085.1940430301
 21
4496.4272116091
 31
0.0
  0
LINE
  5
46D
330
1F
100
AcDbEntity
  8
0
  6
Continuous
 62
     7
100
AcDbLine
 10
5085.1940430301
 20
4496.4272116091
 30
0.0
 11
5084.0840853351
 21
4497.1807335283
 31
0.0
  0
LINE
  5
46E
330
1F
100
AcDbEntity
  8
0
  6
Continuous
 62
     7
100
AcDbLine
 10
5084.0840853351
 20
4497.1807335283
 30
0.0
 11
5082.6832569735
 21
4497.8452061083
 31
0.0
  0
LINE
  5
46F
330
1F
100
AcDbEntity
  8
0
  6
Continuous
 62
     7
100
AcDbLine
 10
5082.6832569735
 20
4497.8452061083
 30
0.0
 11
5081.0320593017
 21
4498.401317444
 31
0.0
  0
LINE
  5
470
330
1F
100
AcDbEntity
  8
0
  6
Continuous
 62
     7
100
AcDbLine
 10
5081.0320593017
 20
4498.401317444
 30
0.0
 11
5079.1782356398
 21
4498.8332127001
 31
0.0
  0
LINE
  5
471
330
1F
100
AcDbEntity
  8
0
  6
Continuous
 62
     7
100
AcDbLine
 10
5079.1782356398
 20
4498.8332127001
 30
0.0
 11
5077.1753109591
 21
4499.1281364824
 31
0.0
  0
LINE
  5
472
330
1F
100
AcDbEntity
  8
0
  6
Continuous
 62
     7
100
AcDbLine
 10
5077.1753109591
 20
4499.1281364824
 30
0.0
 11
5075.0811613696
 21
4499.2778633501
 31
0.0
  0
LINE
  5
473
330
1F
100
AcDbEntity
  8
0
  6
Continuous
 62
     7
100
AcDbLine
 10
5075.0811613696
 20
4499.2778633501
 30
0.0
 11
5072.9563451903
 21
4499.2778633501
 31
0.0
  0
LINE
  5
474
330
1F
100
AcDbEntity
  8
0
  6
Continuous
 62
     7
100
AcDbLine
 10
5072.9563451903
 20
4499.2778633501
 30
0.0
 11
5070.8621956008
 21
4499.1281364824
 31
0.0
  0
LINE
  5
475
330
1F
100
AcDbEntity
  8
0
  6
Continuous
 62
     7
100
AcDbLine
 10
5070.8621956008
 20
4499.1281364824
 30
0.0
 11
5068.8592709201
 21
4498.8332127001
 31
0.0
  0
LINE
  5
476
330
1F
100
AcDbEntity
  8
0
  6
Continuous
 62
     7
100
AcDbLine
 10
5068.8592709201
 20
4498.8332127001
 30
0.0
 11
5067.0054472583
 21
4498.401317444
 31
0.0
  0
LINE
  5
477
330
1F
100
AcDbEntity
  8
0
  6
Continuous
 62
     7
100
AcDbLine
 10
5067.0054472583
 20
4498.401317444
 30
0.0
 11
5065.3542495864
 21
4497.8452061083
 31
0.0
  0
LINE
  5
478
330
1F
100
AcDbEntity
  8
0
  6
Continuous
 62
     7
100
AcDbLine
 10
5065.3542495864
 20
4497.8452061083
 30
0.0
 11
5063.9534212249
 21
4497.1807335283
 31
0.0
  0
LINE
  5
479
330
1F
100
AcDbEntity
  8
0
  6
Continuous
 62
     7
100
AcDbLine
 10
5063.9534212249
 20
4497.1807335283
 30
0.0
 11
5062.8434635299
 21
4496.4272116091
 31
0.0
  0
LINE
  5
47A
330
1F
100
AcDbEntity
  8
0
  6
Continuous
 62
     7
100
AcDbLine
 10
5062.8434635299
 20
4496.4272116091
 30
0.0
 11
5062.0563841956
 21
4495.6064556505
 31
0.0
  0
LINE
  5
47B
330
1F
100
AcDbEntity
  8
0
  6
Continuous
 62
     7
100
AcDbLine
 10
5062.0563841956
 20
4495.6064556505
 30
0.0
 11
5062.0349265235
 21
4495.5433939363
 31
0.0
  0
LINE
  5
47C
330
1F
100
AcDbEntity
  8
0
  6
Continuous
 62
     7
100
AcDbLine
 10
5062.0349265235
 20
4495.5433939363
 30
0.0
 11
5062.0603479045
 21
4495.4805706407
 31
0.0
  0
LINE
  5
47D
330
1F
100
AcDbEntity
  8
0
  6
Continuous
 62
     7
100
AcDbLine
 10
5062.0603479045
 20
4495.4805706407
 30
0.0
 11
5062.1302939551
 21
4495.4239462282
 31
0.0
  0
LINE
  5
47E
330
1F
100
AcDbEntity
  8
0
  6
Continuous
 62
     7
100
AcDbLine
 10
5062.1302939551
 20
4495.4239462282
 30
0.0
 11
5062.2381783622
 21
4495.3787659075
 31
0.0
  0
LINE
  5
47F
330
1F
100
AcDbEntity
  8
0
  6
Continuous
 62
     7
100
AcDbLine
 10
5062.2381783622
 20
4495.3787659075
 30
0.0
 11
5062.3738981383
 21
4495.349321213
 31
0.0
  0
LINE
  5
480
330
1F
100
AcDbEntity
  8
0
  6
Continuous
 62
     7
100
AcDbLine
 10
5062.3738981383
 20
4495.349321213
 30
0.0
 11
5062.5247276919
 21
4495.338234749
 31
0.0
  0
LINE
  5
481
330
1F
100
AcDbEntity
  8
0
  6
Continuous
 62
     7
100
AcDbLine
 10
5062.5247276919
 20
4495.338234749
 30
0.0
 11
5062.6764811175
 21
4495.3466986086
 31
0.0
  0
LINE
  5
482
330
1F
100
AcDbEntity
  8
0
  6
Continuous
 62
     7
100
AcDbLine
 10
5062.6764811175
 20
4495.3466986086
 30
0.0
 11
5062.8149725097
 21
4495.3738783266
 31
0.0
  0
LINE
  5
483
330
1F
100
AcDbEntity
  8
0
  6
Continuous
 62
     7
100
AcDbLine
 10
5085.2225340503
 20
4495.3738783266
 30
0.0
 11
5085.3610254424
 21
4495.3466986086
 31
0.0
  0
LINE
  5
484
330
1F
100
AcDbEntity
  8
0
  6
Continuous
 62
     7
100
AcDbLine
 10
5085.3610254424
 20
4495.3466986086
 30
0.0
 11
5085.512778868
 21
4495.338234749
 31
0.0
  0
LINE
  5
485
330
1F
100
AcDbEntity
  8
0
  6
Continuous
 62
     7
100
AcDbLine
 10
5085.512778868
 20
4495.338234749
 30
0.0
 11
5085.6636084216
 21
4495.349321213
 31
0.0
  0
LINE
  5
486
330
1F
100
AcDbEntity
  8
0
  6
Continuous
 62
     7
100
AcDbLine
 10
5085.6636084216
 20
4495.349321213
 30
0.0
 11
5085.7993281978
 21
4495.3787659075
 31
0.0
  0
LINE
  5
487
330
1F
100
AcDbEntity
  8
0
  6
Continuous
 62
     7
100
AcDbLine
 10
5085.7993281978
 20
4495.3787659075
 30
0.0
 11
5085.9072126048
 21
4495.4239462282
 31
0.0
  0
LINE
  5
488
330
1F
100
AcDbEntity
  8
0
  6
Continuous
 62
     7
100
AcDbLine
 10
5085.9072126048
 20
4495.4239462282
 30
0.0
 11
5085.9771586554
 21
4495.4805706407
 31
0.0
  0
LINE
  5
489
330
1F
100
AcDbEntity
  8
0
  6
Continuous
 62
     7
100
AcDbLine
 10
5085.9771586554
 20
4495.4805706407
 30
0.0
 11
5086.0025800364
 21
4495.5433939363
 31
0.0
  0
LINE
  5
48A
330
1F
100
AcDbEntity
  8
0
  6
Continuous
 62
     7
100
AcDbLine
 10
5086.0025800364
 20
4495.5433939363
 30
0.0
 11
5085.9811223643
 21
4495.6064556505
 31
0.0
  0
LINE
  5
48B
330
1F
100
AcDbEntity
  8
0
  6
Continuous
 62
     7
100
AcDbLine
 10
5062.8149725097
 20
4492.8226803209
 30
0.0
 11
5062.6764811175
 21
4492.8498600389
 31
0.0
  0
LINE
  5
48C
330
1F
100
AcDbEntity
  8
0
  6
Continuous
 62
     7
100
AcDbLine
 10
5062.6764811175
 20
4492.8498600389
 30
0.0
 11
5062.5247276919
 21
4492.8583238985
 31
0.0
  0
LINE
  5
48D
330
1F
100
AcDbEntity
  8
0
  6
Continuous
 62
     7
100
AcDbLine
 10
5062.5247276919
 20
4492.8583238985
 30
0.0
 11
5062.3738981383
 21
4492.8473566439
 31
0.0
  0
LINE
  5
48E
330
1F
100
AcDbEntity
  8
0
  6
Continuous
 62
     7
100
AcDbLine
 10
5062.3738981383
 20
4492.8473566439
 30
0.0
 11
5062.2381783622
 21
4492.8177927401
 31
0.0
  0
LINE
  5
48F
330
1F
100
AcDbEntity
  8
0
  6
Continuous
 62
     7
100
AcDbLine
 10
5062.2381783622
 20
4492.8177927401
 30
0.0
 11
5062.1302939551
 21
4492.7726124193
 31
0.0
  0
LINE
  5
490
330
1F
100
AcDbEntity
  8
0
  6
Continuous
 62
     7
100
AcDbLine
 10
5062.1302939551
 20
4492.7726124193
 30
0.0
 11
5062.0603479045
 21
4492.7159880068
 31
0.0
  0
LINE
  5
491
330
1F
100
AcDbEntity
  8
0
  6
Continuous
 62
     7
100
AcDbLine
 10
5062.0603479045
 20
4492.7159880068
 30
0.0
 11
5062.0349265235
 21
4492.6531647112
 31
0.0
  0
LINE
  5
492
330
1F
100
AcDbEntity
  8
0
  6
Continuous
 62
     7
100
AcDbLine
 10
5062.0349265235
 20
4492.6531647112
 30
0.0
 11
5062.0563841956
 21
4492.590102997
 31
0.0
  0
LINE
  5
493
330
1F
100
AcDbEntity
  8
0
  6
Continuous
 62
     7
100
AcDbLine
 10
5062.0563841956
 20
4492.590102997
 30
0.0
 11
5062.8434635299
 21
4491.7693470385
 31
0.0
  0
LINE
  5
494
330
1F
100
AcDbEntity
  8
0
  6
Continuous
 62
     7
100
AcDbLine
 10
5062.8434635299
 20
4491.7693470385
 30
0.0
 11
5063.9534212249
 21
4491.0158251192
 31
0.0
  0
LINE
  5
495
330
1F
100
AcDbEntity
  8
0
  6
Continuous
 62
     7
100
AcDbLine
 10
5063.9534212249
 20
4491.0158251192
 30
0.0
 11
5065.3542495864
 21
4490.3513525392
 31
0.0
  0
LINE
  5
496
330
1F
100
AcDbEntity
  8
0
  6
Continuous
 62
     7
100
AcDbLine
 10
5065.3542495864
 20
4490.3513525392
 30
0.0
 11
5067.0054472583
 21
4489.7952412035
 31
0.0
  0
LINE
  5
497
330
1F
100
AcDbEntity
  8
0
  6
Continuous
 62
     7
100
AcDbLine
 10
5067.0054472583
 20
4489.7952412035
 30
0.0
 11
5068.8592709201
 21
4489.3634651567
 31
0.0
  0
LINE
  5
498
330
1F
100
AcDbEntity
  8
0
  6
Continuous
 62
     7
100
AcDbLine
 10
5068.8592709201
 20
4489.3634651567
 30
0.0
 11
5070.8621956008
 21
4489.0684221651
 31
0.0
  0
LINE
  5
499
330
1F
100
AcDbEntity
  8
0
  6
Continuous
 62
     7
100
AcDbLine
 10
5070.8621956008
 20
4489.0684221651
 30
0.0
 11
5072.9563451903
 21
4488.9186952974
 31
0.0
  0
LINE
  5
49A
330
1F
100
AcDbEntity
  8
0
  6
Continuous
 62
     7
100
AcDbLine
 10
5072.9563451903
 20
4488.9186952974
 30
0.0
 11
5075.0811613696
 21
4488.9186952974
 31
0.0
  0
LINE
  5
49B
330
1F
100
AcDbEntity
  8
0
  6
Continuous
 62
     7
100
AcDbLine
 10
5075.0811613696
 20
4488.9186952974
 30
0.0
 11
5077.1753109591
 21
4489.0684221651
 31
0.0
  0
LINE
  5
49C
330
1F
100
AcDbEntity
  8
0
  6
Continuous
 62
     7
100
AcDbLine
 10
5077.1753109591
 20
4489.0684221651
 30
0.0
 11
5079.1782356398
 21
4489.3634651567
 31
0.0
  0
LINE
  5
49D
330
1F
100
AcDbEntity
  8
0
  6
Continuous
 62
     7
100
AcDbLine
 10
5079.1782356398
 20
4489.3634651567
 30
0.0
 11
5081.0320593017
 21
4489.7952412035
 31
0.0
  0
LINE
  5
49E
330
1F
100
AcDbEntity
  8
0
  6
Continuous
 62
     7
100
AcDbLine
 10
5081.0320593017
 20
4489.7952412035
 30
0.0
 11
5082.6832569735
 21
4490.3513525392
 31
0.0
  0
LINE
  5
49F
330
1F
100
AcDbEntity
  8
0
  6
Continuous
 62
     7
100
AcDbLine
 10
5082.6832569735
 20
4490.3513525392
 30
0.0
 11
5084.0840853351
 21
4491.0158251192
 31
0.0
  0
LINE
  5
4A0
330
1F
100
AcDbEntity
  8
0
  6
Continuous
 62
     7
100
AcDbLine
 10
5084.0840853351
 20
4491.0158251192
 30
0.0
 11
5085.1940430301
 21
4491.7693470385
 31
0.0
  0
LINE
  5
4A1
330
1F
100
AcDbEntity
  8
0
  6
Continuous
 62
     7
100
AcDbLine
 10
5085.1940430301
 20
4491.7693470385
 30
0.0
 11
5085.9811223643
 21
4492.590102997
 31
0.0
  0
LINE
  5
4A2
330
1F
100
AcDbEntity
  8
0
  6
Continuous
 62
     7
100
AcDbLine
 10
5085.9811223643
 20
4492.590102997
 30
0.0
 11
5086.0025800364
 21
4492.6531647112
 31
0.0
  0
LINE
  5
4A3
330
1F
100
AcDbEntity
  8
0
  6
Continuous
 62
     7
100
AcDbLine
 10
5086.0025800364
 20
4492.6531647112
 30
0.0
 11
5085.9771586554
 21
4492.7159880068
 31
0.0
  0
LINE
  5
4A4
330
1F
100
AcDbEntity
  8
0
  6
Continuous
 62
     7
100
AcDbLine
 10
5085.9771586554
 20
4492.7159880068
 30
0.0
 11
5085.9072126048
 21
4492.7726124193
 31
0.0
  0
LINE
  5
4A5
330
1F
100
AcDbEntity
  8
0
  6
Continuous
 62
     7
100
AcDbLine
 10
5085.9072126048
 20
4492.7726124193
 30
0.0
 11
5085.7993281978
 21
4492.8177927401
 31
0.0
  0
LINE
  5
4A6
330
1F
100
AcDbEntity
  8
0
  6
Continuous
 62
     7
100
AcDbLine
 10
5085.7993281978
 20
4492.8177927401
 30
0.0
 11
5085.6636084216
 21
4492.8473566439
 31
0.0
  0
LINE
  5
4A7
330
1F
100
AcDbEntity
  8
0
  6
Continuous
 62
     7
100
AcDbLine
 10
5085.6636084216
 20
4492.8473566439
 30
0.0
 11
5085.512778868
 21
4492.8583238985
 31
0.0
  0
LINE
  5
4A8
330
1F
100
AcDbEntity
  8
0
  6
Continuous
 62
     7
100
AcDbLine
 10
5085.512778868
 20
4492.8583238985
 30
0.0
 11
5085.3610254424
 21
4492.8498600389
 31
0.0
  0
LINE
  5
4A9
330
1F
100
AcDbEntity
  8
0
  6
Continuous
 62
     7
100
AcDbLine
 10
5085.3610254424
 20
4492.8498600389
 30
0.0
 11
5085.2225340503
 21
4492.8226803209
 31
0.0
  0
LINE
  5
4AA
330
1F
100
AcDbEntity
  8
0
  6
Continuous
 62
     7
100
AcDbLine
 10
5674.0187622207
 20
4487.2364138033
 30
0.0
 11
5676.4211721318
 21
4487.3096083071
 31
0.0
  0
LINE
  5
4AB
330
1F
100
AcDbEntity
  8
0
  6
Continuous
 62
     7
100
AcDbLine
 10
5676.4211721318
 20
4487.3096083071
 30
0.0
 11
5678.7723965543
 21
4487.5274036791
 31
0.0
  0
LINE
  5
4AC
330
1F
100
AcDbEntity
  8
0
  6
Continuous
 62
     7
100
AcDbLine
 10
5678.7723965543
 20
4487.5274036791
 30
0.0
 11
5681.0222930806
 21
4487.8852699663
 31
0.0
  0
LINE
  5
4AD
330
1F
100
AcDbEntity
  8
0
  6
Continuous
 62
     7
100
AcDbLine
 10
5681.0222930806
 20
4487.8852699663
 30
0.0
 11
5683.1229246753
 21
4488.3755777742
 31
0.0
  0
LINE
  5
4AE
330
1F
100
AcDbEntity
  8
0
  6
Continuous
 62
     7
100
AcDbLine
 10
5683.1229246753
 20
4488.3755777742
 30
0.0
 11
5685.0295133489
 21
4488.9878366854
 31
0.0
  0
LINE
  5
4AF
330
1F
100
AcDbEntity
  8
0
  6
Continuous
 62
     7
100
AcDbLine
 10
5685.0295133489
 20
4488.9878366854
 30
0.0
 11
5686.701438536
 21
4489.7089336779
 31
0.0
  0
LINE
  5
4B0
330
1F
100
AcDbEntity
  8
0
  6
Continuous
 62
     7
100
AcDbLine
 10
5686.701438536
 20
4489.7089336779
 30
0.0
 11
5688.1030417579
 21
4490.5237291719
 31
0.0
  0
LINE
  5
4B1
330
1F
100
AcDbEntity
  8
0
  6
Continuous
 62
     7
100
AcDbLine
 10
5688.1030417579
 20
4490.5237291719
 30
0.0
 11
5689.2044610875
 21
4491.4145801927
 31
0.0
  0
LINE
  5
4B2
330
1F
100
AcDbEntity
  8
0
  6
Continuous
 62
     7
100
AcDbLine
 10
5689.2044610875
 20
4491.4145801927
 30
0.0
 11
5689.9822420972
 21
4492.3627708818
 31
0.0
  0
LINE
  5
4B3
330
1F
100
AcDbEntity
  8
0
  6
Continuous
 62
     7
100
AcDbLine
 10
5689.9822420972
 20
4492.3627708818
 30
0.0
 11
5690.4197699922
 21
4493.3477972414
 31
0.0
  0
LINE
  5
4B4
330
1F
100
AcDbEntity
  8
0
  6
Continuous
 62
     7
100
AcDbLine
 10
5690.4197699922
 20
4493.3477972414
 30
0.0
 11
5690.5077464478
 21
4494.348916855
 31
0.0
  0
LINE
  5
4B5
330
1F
100
AcDbEntity
  8
0
  6
Continuous
 62
     7
100
AcDbLine
 10
5690.5077464478
 20
4494.348916855
 30
0.0
 11
5690.2442939179
 21
4495.3446720507
 31
0.0
  0
LINE
  5
4B6
330
1F
100
AcDbEntity
  8
0
  6
Continuous
 62
     7
100
AcDbLine
 10
5690.2442939179
 20
4495.3446720507
 30
0.0
 11
5689.635015239
 21
4496.3138435747
 31
0.0
  0
LINE
  5
4B7
330
1F
100
AcDbEntity
  8
0
  6
Continuous
 62
     7
100
AcDbLine
 10
5689.635015239
 20
4496.3138435747
 30
0.0
 11
5688.6929042237
 21
4497.2358082201
 31
0.0
  0
LINE
  5
4B8
330
1F
100
AcDbEntity
  8
0
  6
Continuous
 62
     7
100
AcDbLine
 10
5688.6929042237
 20
4497.2358082201
 30
0.0
 11
5687.4380327361
 21
4498.090896454
 31
0.0
  0
LINE
  5
4B9
330
1F
100
AcDbEntity
  8
0
  6
Continuous
 62
     7
100
AcDbLine
 10
5687.4380327361
 20
4498.090896454
 30
0.0
 11
5685.8971632617
 21
4498.8609884645
 31
0.0
  0
LINE
  5
4BA
330
1F
100
AcDbEntity
  8
0
  6
Continuous
 62
     7
100
AcDbLine
 10
5685.8971632617
 20
4498.8609884645
 30
0.0
 11
5684.1031230586
 21
4499.529394951
 31
0.0
  0
LINE
  5
4BB
330
1F
100
AcDbEntity
  8
0
  6
Continuous
 62
     7
100
AcDbLine
 10
5684.1031230586
 20
4499.529394951
 30
0.0
 11
5682.0941485064
 21
4500.0821684267
 31
0.0
  0
LINE
  5
4BC
330
1F
100
AcDbEntity
  8
0
  6
Continuous
 62
     7
100
AcDbLine
 10
5682.0941485064
 20
4500.0821684267
 30
0.0
 11
5679.9130655425
 21
4500.5073879625
 31
0.0
  0
LINE
  5
4BD
330
1F
100
AcDbEntity
  8
0
  6
Continuous
 62
     7
100
AcDbLine
 10
5679.9130655425
 20
4500.5073879625
 30
0.0
 11
5677.6063508885
 21
4500.7959936525
 31
0.0
  0
LINE
  5
4BE
330
1F
100
AcDbEntity
  8
0
  6
Continuous
 62
     7
100
AcDbLine
 10
5677.6063508885
 20
4500.7959936525
 30
0.0
 11
5675.2231783765
 21
4500.9417866136
 31
0.0
  0
LINE
  5
4BF
330
1F
100
AcDbEntity
  8
0
  6
Continuous
 62
     7
100
AcDbLine
 10
5675.2231783765
 20
4500.9417866136
 30
0.0
 11
5672.8143311637
 21
4500.9417866136
 31
0.0
  0
LINE
  5
4C0
330
1F
100
AcDbEntity
  8
0
  6
Continuous
 62
     7
100
AcDbLine
 10
5672.8143311637
 20
4500.9417866136
 30
0.0
 11
5670.4311586516
 21
4500.7959936525
 31
0.0
  0
LINE
  5
4C1
330
1F
100
AcDbEntity
  8
0
  6
Continuous
 62
     7
100
AcDbLine
 10
5670.4311586516
 20
4500.7959936525
 30
0.0
 11
5668.1244439977
 21
4500.5073879625
 31
0.0
  0
LINE
  5
4C2
330
1F
100
AcDbEntity
  8
0
  6
Continuous
 62
     7
100
AcDbLine
 10
5668.1244439977
 20
4500.5073879625
 30
0.0
 11
5665.9433610337
 21
4500.0821684267
 31
0.0
  0
LINE
  5
4C3
330
1F
100
AcDbEntity
  8
0
  6
Continuous
 62
     7
100
AcDbLine
 10
5665.9433610337
 20
4500.0821684267
 30
0.0
 11
5663.9343864816
 21
4499.529394951
 31
0.0
  0
LINE
  5
4C4
330
1F
100
AcDbEntity
  8
0
  6
Continuous
 62
     7
100
AcDbLine
 10
5663.9343864816
 20
4499.529394951
 30
0.0
 11
5662.1403462785
 21
4498.8609884645
 31
0.0
  0
LINE
  5
4C5
330
1F
100
AcDbEntity
  8
0
  6
Continuous
 62
     7
100
AcDbLine
 10
5662.1403462785
 20
4498.8609884645
 30
0.0
 11
5660.5994768041
 21
4498.090896454
 31
0.0
  0
LINE
  5
4C6
330
1F
100
AcDbEntity
  8
0
  6
Continuous
 62
     7
100
AcDbLine
 10
5660.5994768041
 20
4498.090896454
 30
0.0
 11
5659.3446053164
 21
4497.2358082201
 31
0.0
  0
LINE
  5
4C7
330
1F
100
AcDbEntity
  8
0
  6
Continuous
 62
     7
100
AcDbLine
 10
5659.3446053164
 20
4497.2358082201
 30
0.0
 11
5658.4024943011
 21
4496.3138435747
 31
0.0
  0
LINE
  5
4C8
330
1F
100
AcDbEntity
  8
0
  6
Continuous
 62
     7
100
AcDbLine
 10
5658.4024943011
 20
4496.3138435747
 30
0.0
 11
5657.7932156222
 21
4495.3446720507
 31
0.0
  0
LINE
  5
4C9
330
1F
100
AcDbEntity
  8
0
  6
Continuous
 62
     7
100
AcDbLine
 10
5657.7932156222
 20
4495.3446720507
 30
0.0
 11
5657.5297630923
 21
4494.348916855
 31
0.0
  0
LINE
  5
4CA
330
1F
100
AcDbEntity
  8
0
  6
Continuous
 62
     7
100
AcDbLine
 10
5657.5297630923
 20
4494.348916855
 30
0.0
 11
5657.617739548
 21
4493.3477972414
 31
0.0
  0
LINE
  5
4CB
330
1F
100
AcDbEntity
  8
0
  6
Continuous
 62
     7
100
AcDbLine
 10
5657.617739548
 20
4493.3477972414
 30
0.0
 11
5658.055267443
 21
4492.3627708818
 31
0.0
  0
LINE
  5
4CC
330
1F
100
AcDbEntity
  8
0
  6
Continuous
 62
     7
100
AcDbLine
 10
5658.055267443
 20
4492.3627708818
 30
0.0
 11
5658.8330484527
 21
4491.4145801927
 31
0.0
  0
LINE
  5
4CD
330
1F
100
AcDbEntity
  8
0
  6
Continuous
 62
     7
100
AcDbLine
 10
5658.8330484527
 20
4491.4145801927
 30
0.0
 11
5659.9344677823
 21
4490.5237291719
 31
0.0
  0
LINE
  5
4CE
330
1F
100
AcDbEntity
  8
0
  6
Continuous
 62
     7
100
AcDbLine
 10
5659.9344677823
 20
4490.5237291719
 30
0.0
 11
5661.3360710042
 21
4489.7089336779
 31
0.0
  0
LINE
  5
4CF
330
1F
100
AcDbEntity
  8
0
  6
Continuous
 62
     7
100
AcDbLine
 10
5661.3360710042
 20
4489.7089336779
 30
0.0
 11
5663.0079961913
 21
4488.9878366854
 31
0.0
  0
LINE
  5
4D0
330
1F
100
AcDbEntity
  8
0
  6
Continuous
 62
     7
100
AcDbLine
 10
5663.0079961913
 20
4488.9878366854
 30
0.0
 11
5664.9145848649
 21
4488.3755777742
 31
0.0
  0
LINE
  5
4D1
330
1F
100
AcDbEntity
  8
0
  6
Continuous
 62
     7
100
AcDbLine
 10
5664.9145848649
 20
4488.3755777742
 30
0.0
 11
5667.0152164596
 21
4487.8852699663
 31
0.0
  0
LINE
  5
4D2
330
1F
100
AcDbEntity
  8
0
  6
Continuous
 62
     7
100
AcDbLine
 10
5667.0152164596
 20
4487.8852699663
 30
0.0
 11
5669.2651129859
 21
4487.5274036791
 31
0.0
  0
LINE
  5
4D3
330
1F
100
AcDbEntity
  8
0
  6
Continuous
 62
     7
100
AcDbLine
 10
5669.2651129859
 20
4487.5274036791
 30
0.0
 11
5671.6163374083
 21
4487.3096083071
 31
0.0
  0
LINE
  5
4D4
330
1F
100
AcDbEntity
  8
0
  6
Continuous
 62
     7
100
AcDbLine
 10
5671.6163374083
 20
4487.3096083071
 30
0.0
 11
5674.0187622207
 21
4487.2364138033
 31
0.0
  0
LINE
  5
4D5
330
1F
100
AcDbEntity
  8
0
  6
Continuous
 62
     7
100
AcDbLine
 10
5692.0176960128
 20
4495.5433939363
 30
0.0
 11
5691.9201530116
 21
4496.2449406053
 31
0.0
  0
LINE
  5
4D6
330
1F
100
AcDbEntity
  8
0
  6
Continuous
 62
     7
100
AcDbLine
 10
5691.9201530116
 20
4496.2449406053
 30
0.0
 11
5691.4840854304
 21
4497.2733591463
 31
0.0
  0
LINE
  5
4D7
330
1F
100
AcDbEntity
  8
0
  6
Continuous
 62
     7
100
AcDbLine
 10
5691.4840854304
 20
4497.2733591463
 30
0.0
 11
5690.7080627578
 21
4498.2666109468
 31
0.0
  0
LINE
  5
4D8
330
1F
100
AcDbEntity
  8
0
  6
Continuous
 62
     7
100
AcDbLine
 10
5690.7080627578
 20
4498.2666109468
 30
0.0
 11
5689.6072096723
 21
4499.2052648928
 31
0.0
  0
LINE
  5
4D9
330
1F
100
AcDbEntity
  8
0
  6
Continuous
 62
     7
100
AcDbLine
 10
5689.6072096723
 20
4499.2052648928
 30
0.0
 11
5688.2029540437
 21
4500.0710819628
 31
0.0
  0
LINE
  5
4DA
330
1F
100
AcDbEntity
  8
0
  6
Continuous
 62
     7
100
AcDbLine
 10
5688.2029540437
 20
4500.0710819628
 30
0.0
 11
5686.5226097005
 21
4500.8471344377
 31
0.0
  0
LINE
  5
4DB
330
1F
100
AcDbEntity
  8
0
  6
Continuous
 62
     7
100
AcDbLine
 10
5686.5226097005
 20
4500.8471344377
 30
0.0
 11
5684.5988846915
 21
4501.5184019472
 31
0.0
  0
LINE
  5
4DC
330
1F
100
AcDbEntity
  8
0
  6
Continuous
 62
     7
100
AcDbLine
 10
5684.5988846915
 20
4501.5184019472
 30
0.0
 11
5682.469240536
 21
4502.0718906786
 31
0.0
  0
LINE
  5
4DD
330
1F
100
AcDbEntity
  8
0
  6
Continuous
 62
     7
100
AcDbLine
 10
5682.469240536
 20
4502.0718906786
 30
0.0
 11
5680.1751173633
 21
4502.4966333773
 31
0.0
  0
LINE
  5
4DE
330
1F
100
AcDbEntity
  8
0
  6
Continuous
 62
     7
100
AcDbLine
 10
5680.1751173633
 20
4502.4966333773
 30
0.0
 11
5677.7611590522
 21
4502.7845238115
 31
0.0
  0
LINE
  5
4DF
330
1F
100
AcDbEntity
  8
0
  6
Continuous
 62
     7
100
AcDbLine
 10
5677.7611590522
 20
4502.7845238115
 30
0.0
 11
5675.2743787663
 21
4502.9298399355
 31
0.0
  0
LINE
  5
4E0
330
1F
100
AcDbEntity
  8
0
  6
Continuous
 62
     7
100
AcDbLine
 10
5675.2743787663
 20
4502.9298399355
 30
0.0
 11
5672.763145675
 21
4502.9298399355
 31
0.0
  0
LINE
  5
4E1
330
1F
100
AcDbEntity
  8
0
  6
Continuous
 62
     7
100
AcDbLine
 10
5672.763145675
 20
4502.9298399355
 30
0.0
 11
5670.276350488
 21
4502.7845238115
 31
0.0
  0
LINE
  5
4E2
330
1F
100
AcDbEntity
  8
0
  6
Continuous
 62
     7
100
AcDbLine
 10
5670.276350488
 20
4502.7845238115
 30
0.0
 11
5667.8623921769
 21
4502.4966333773
 31
0.0
  0
LINE
  5
4E3
330
1F
100
AcDbEntity
  8
0
  6
Continuous
 62
     7
100
AcDbLine
 10
5667.8623921769
 20
4502.4966333773
 30
0.0
 11
5665.5682690041
 21
4502.0718906786
 31
0.0
  0
LINE
  5
4E4
330
1F
100
AcDbEntity
  8
0
  6
Continuous
 62
     7
100
AcDbLine
 10
5665.5682690041
 20
4502.0718906786
 30
0.0
 11
5663.4386248486
 21
4501.5184019472
 31
0.0
  0
LINE
  5
4E5
330
1F
100
AcDbEntity
  8
0
  6
Continuous
 62
     7
100
AcDbLine
 10
5663.4386248486
 20
4501.5184019472
 30
0.0
 11
5661.5148998397
 21
4500.8471344377
 31
0.0
  0
LINE
  5
4E6
330
1F
100
AcDbEntity
  8
0
  6
Continuous
 62
     7
100
AcDbLine
 10
5661.5148998397
 20
4500.8471344377
 30
0.0
 11
5659.8345554965
 21
4500.0710819628
 31
0.0
  0
LINE
  5
4E7
330
1F
100
AcDbEntity
  8
0
  6
Continuous
 62
     7
100
AcDbLine
 10
5659.8345554965
 20
4500.0710819628
 30
0.0
 11
5658.4302998679
 21
4499.2052648928
 31
0.0
  0
LINE
  5
4E8
330
1F
100
AcDbEntity
  8
0
  6
Continuous
 62
     7
100
AcDbLine
 10
5658.4302998679
 20
4499.2052648928
 30
0.0
 11
5657.3294467824
 21
4498.2666109468
 31
0.0
  0
LINE
  5
4E9
330
1F
100
AcDbEntity
  8
0
  6
Continuous
 62
     7
100
AcDbLine
 10
5657.3294467824
 20
4498.2666109468
 30
0.0
 11
5656.5534390109
 21
4497.2733591463
 31
0.0
  0
LINE
  5
4EA
330
1F
100
AcDbEntity
  8
0
  6
Continuous
 62
     7
100
AcDbLine
 10
5656.5534390109
 20
4497.2733591463
 30
0.0
 11
5656.1173565286
 21
4496.2449406053
 31
0.0
  0
LINE
  5
4EB
330
1F
100
AcDbEntity
  8
0
  6
Continuous
 62
     7
100
AcDbLine
 10
5656.1173565286
 20
4496.2449406053
 30
0.0
 11
5656.0191727775
 21
4495.4114292528
 31
0.0
  0
LINE
  5
4EC
330
1F
100
AcDbEntity
  8
0
  6
Continuous
 62
     7
100
AcDbLine
 10
5685.9811164039
 20
4495.6064556505
 30
0.0
 11
5685.1940519708
 21
4496.4272116091
 31
0.0
  0
LINE
  5
4ED
330
1F
100
AcDbEntity
  8
0
  6
Continuous
 62
     7
100
AcDbLine
 10
5685.1940519708
 20
4496.4272116091
 30
0.0
 11
5684.0840793746
 21
4497.1807335283
 31
0.0
  0
LINE
  5
4EE
330
1F
100
AcDbEntity
  8
0
  6
Continuous
 62
     7
100
AcDbLine
 10
5684.0840793746
 20
4497.1807335283
 30
0.0
 11
5682.6832510131
 21
4497.8452061083
 31
0.0
  0
LINE
  5
4EF
330
1F
100
AcDbEntity
  8
0
  6
Continuous
 62
     7
100
AcDbLine
 10
5682.6832510131
 20
4497.8452061083
 30
0.0
 11
5681.0320682423
 21
4498.401317444
 31
0.0
  0
LINE
  5
4F0
330
1F
100
AcDbEntity
  8
0
  6
Continuous
 62
     7
100
AcDbLine
 10
5681.0320682423
 20
4498.401317444
 30
0.0
 11
5679.1782296794
 21
4498.8332127001
 31
0.0
  0
LINE
  5
4F1
330
1F
100
AcDbEntity
  8
0
  6
Continuous
 62
     7
100
AcDbLine
 10
5679.1782296794
 20
4498.8332127001
 30
0.0
 11
5677.1753049987
 21
4499.1281364824
 31
0.0
  0
LINE
  5
4F2
330
1F
100
AcDbEntity
  8
0
  6
Continuous
 62
     7
100
AcDbLine
 10
5677.1753049987
 20
4499.1281364824
 30
0.0
 11
5675.0811703103
 21
4499.2778633501
 31
0.0
  0
LINE
  5
4F3
330
1F
100
AcDbEntity
  8
0
  6
Continuous
 62
     7
100
AcDbLine
 10
5675.0811703103
 20
4499.2778633501
 30
0.0
 11
5672.9563392299
 21
4499.2778633501
 31
0.0
  0
LINE
  5
4F4
330
1F
100
AcDbEntity
  8
0
  6
Continuous
 62
     7
100
AcDbLine
 10
5672.9563392299
 20
4499.2778633501
 30
0.0
 11
5670.8622045415
 21
4499.1281364824
 31
0.0
  0
LINE
  5
4F5
330
1F
100
AcDbEntity
  8
0
  6
Continuous
 62
     7
100
AcDbLine
 10
5670.8622045415
 20
4499.1281364824
 30
0.0
 11
5668.8592798608
 21
4498.8332127001
 31
0.0
  0
LINE
  5
4F6
330
1F
100
AcDbEntity
  8
0
  6
Continuous
 62
     7
100
AcDbLine
 10
5668.8592798608
 20
4498.8332127001
 30
0.0
 11
5667.0054412978
 21
4498.401317444
 31
0.0
  0
LINE
  5
4F7
330
1F
100
AcDbEntity
  8
0
  6
Continuous
 62
     7
100
AcDbLine
 10
5667.0054412978
 20
4498.401317444
 30
0.0
 11
5665.3542585271
 21
4497.8452061083
 31
0.0
  0
LINE
  5
4F8
330
1F
100
AcDbEntity
  8
0
  6
Continuous
 62
     7
100
AcDbLine
 10
5665.3542585271
 20
4497.8452061083
 30
0.0
 11
5663.9534301656
 21
4497.1807335283
 31
0.0
  0
LINE
  5
4F9
330
1F
100
AcDbEntity
  8
0
  6
Continuous
 62
     7
100
AcDbLine
 10
5663.9534301656
 20
4497.1807335283
 30
0.0
 11
5662.8434575694
 21
4496.4272116091
 31
0.0
  0
LINE
  5
4FA
330
1F
100
AcDbEntity
  8
0
  6
Continuous
 62
     7
100
AcDbLine
 10
5662.8434575694
 20
4496.4272116091
 30
0.0
 11
5662.0563931363
 21
4495.6064556505
 31
0.0
  0
LINE
  5
4FB
330
1F
100
AcDbEntity
  8
0
  6
Continuous
 62
     7
100
AcDbLine
 10
5662.0563931363
 20
4495.6064556505
 30
0.0
 11
5662.034920563
 21
4495.5433939363
 31
0.0
  0
LINE
  5
4FC
330
1F
100
AcDbEntity
  8
0
  6
Continuous
 62
     7
100
AcDbLine
 10
5662.034920563
 20
4495.5433939363
 30
0.0
 11
5662.0603568452
 21
4495.4805706407
 31
0.0
  0
LINE
  5
4FD
330
1F
100
AcDbEntity
  8
0
  6
Continuous
 62
     7
100
AcDbLine
 10
5662.0603568452
 20
4495.4805706407
 30
0.0
 11
5662.1303028958
 21
4495.4239462282
 31
0.0
  0
LINE
  5
4FE
330
1F
100
AcDbEntity
  8
0
  6
Continuous
 62
     7
100
AcDbLine
 10
5662.1303028958
 20
4495.4239462282
 30
0.0
 11
5662.2381873029
 21
4495.3787659075
 31
0.0
  0
LINE
  5
4FF
330
1F
100
AcDbEntity
  8
0
  6
Continuous
 62
     7
100
AcDbLine
 10
5662.2381873029
 20
4495.3787659075
 30
0.0
 11
5662.373907079
 21
4495.349321213
 31
0.0
  0
LINE
  5
500
330
1F
100
AcDbEntity
  8
0
  6
Continuous
 62
     7
100
AcDbLine
 10
5662.373907079
 20
4495.349321213
 30
0.0
 11
5662.5247217315
 21
4495.338234749
 31
0.0
  0
LINE
  5
501
330
1F
100
AcDbEntity
  8
0
  6
Continuous
 62
     7
100
AcDbLine
 10
5662.5247217315
 20
4495.338234749
 30
0.0
 11
5662.6764900582
 21
4495.3466986086
 31
0.0
  0
LINE
  5
502
330
1F
100
AcDbEntity
  8
0
  6
Continuous
 62
     7
100
AcDbLine
 10
5662.6764900582
 20
4495.3466986086
 30
0.0
 11
5662.8149814504
 21
4495.3738783266
 31
0.0
  0
LINE
  5
503
330
1F
100
AcDbEntity
  8
0
  6
Continuous
 62
     7
100
AcDbLine
 10
5685.2225280898
 20
4495.3738783266
 30
0.0
 11
5685.3610194819
 21
4495.3466986086
 31
0.0
  0
LINE
  5
504
330
1F
100
AcDbEntity
  8
0
  6
Continuous
 62
     7
100
AcDbLine
 10
5685.3610194819
 20
4495.3466986086
 30
0.0
 11
5685.5127878087
 21
4495.338234749
 31
0.0
  0
LINE
  5
505
330
1F
100
AcDbEntity
  8
0
  6
Continuous
 62
     7
100
AcDbLine
 10
5685.5127878087
 20
4495.338234749
 30
0.0
 11
5685.6636024611
 21
4495.349321213
 31
0.0
  0
LINE
  5
506
330
1F
100
AcDbEntity
  8
0
  6
Continuous
 62
     7
100
AcDbLine
 10
5685.6636024611
 20
4495.349321213
 30
0.0
 11
5685.7993222373
 21
4495.3787659075
 31
0.0
  0
LINE
  5
507
330
1F
100
AcDbEntity
  8
0
  6
Continuous
 62
     7
100
AcDbLine
 10
5685.7993222373
 20
4495.3787659075
 30
0.0
 11
5685.9072066443
 21
4495.4239462282
 31
0.0
  0
LINE
  5
508
330
1F
100
AcDbEntity
  8
0
  6
Continuous
 62
     7
100
AcDbLine
 10
5685.9072066443
 20
4495.4239462282
 30
0.0
 11
5685.977152695
 21
4495.4805706407
 31
0.0
  0
LINE
  5
509
330
1F
100
AcDbEntity
  8
0
  6
Continuous
 62
     7
100
AcDbLine
 10
5685.977152695
 20
4495.4805706407
 30
0.0
 11
5686.0025889771
 21
4495.5433939363
 31
0.0
  0
LINE
  5
50A
330
1F
100
AcDbEntity
  8
0
  6
Continuous
 62
     7
100
AcDbLine
 10
5686.0025889771
 20
4495.5433939363
 30
0.0
 11
5685.9811164039
 21
4495.6064556505
 31
0.0
  0
LINE
  5
50B
330
1F
100
AcDbEntity
  8
0
  6
Continuous
 62
     7
100
AcDbLine
 10
5662.8149814504
 20
4492.8226803209
 30
0.0
 11
5662.6764900582
 21
4492.8498600389
 31
0.0
  0
LINE
  5
50C
330
1F
100
AcDbEntity
  8
0
  6
Continuous
 62
     7
100
AcDbLine
 10
5662.6764900582
 20
4492.8498600389
 30
0.0
 11
5662.5247217315
 21
4492.8583238985
 31
0.0
  0
LINE
  5
50D
330
1F
100
AcDbEntity
  8
0
  6
Continuous
 62
     7
100
AcDbLine
 10
5662.5247217315
 20
4492.8583238985
 30
0.0
 11
5662.373907079
 21
4492.8473566439
 31
0.0
  0
LINE
  5
50E
330
1F
100
AcDbEntity
  8
0
  6
Continuous
 62
     7
100
AcDbLine
 10
5662.373907079
 20
4492.8473566439
 30
0.0
 11
5662.2381873029
 21
4492.8177927401
 31
0.0
  0
LINE
  5
50F
330
1F
100
AcDbEntity
  8
0
  6
Continuous
 62
     7
100
AcDbLine
 10
5662.2381873029
 20
4492.8177927401
 30
0.0
 11
5662.1303028958
 21
4492.7726124193
 31
0.0
  0
LINE
  5
510
330
1F
100
AcDbEntity
  8
0
  6
Continuous
 62
     7
100
AcDbLine
 10
5662.1303028958
 20
4492.7726124193
 30
0.0
 11
5662.0603568452
 21
4492.7159880068
 31
0.0
  0
LINE
  5
511
330
1F
100
AcDbEntity
  8
0
  6
Continuous
 62
     7
100
AcDbLine
 10
5662.0603568452
 20
4492.7159880068
 30
0.0
 11
5662.034920563
 21
4492.6531647112
 31
0.0
  0
LINE
  5
512
330
1F
100
AcDbEntity
  8
0
  6
Continuous
 62
     7
100
AcDbLine
 10
5662.034920563
 20
4492.6531647112
 30
0.0
 11
5662.0563931363
 21
4492.590102997
 31
0.0
  0
LINE
  5
513
330
1F
100
AcDbEntity
  8
0
  6
Continuous
 62
     7
100
AcDbLine
 10
5662.0563931363
 20
4492.590102997
 30
0.0
 11
5662.8434575694
 21
4491.7693470385
 31
0.0
  0
LINE
  5
514
330
1F
100
AcDbEntity
  8
0
  6
Continuous
 62
     7
100
AcDbLine
 10
5662.8434575694
 20
4491.7693470385
 30
0.0
 11
5663.9534301656
 21
4491.0158251192
 31
0.0
  0
LINE
  5
515
330
1F
100
AcDbEntity
  8
0
  6
Continuous
 62
     7
100
AcDbLine
 10
5663.9534301656
 20
4491.0158251192
 30
0.0
 11
5665.3542585271
 21
4490.3513525392
 31
0.0
  0
LINE
  5
516
330
1F
100
AcDbEntity
  8
0
  6
Continuous
 62
     7
100
AcDbLine
 10
5665.3542585271
 20
4490.3513525392
 30
0.0
 11
5667.0054412978
 21
4489.7952412035
 31
0.0
  0
LINE
  5
517
330
1F
100
AcDbEntity
  8
0
  6
Continuous
 62
     7
100
AcDbLine
 10
5667.0054412978
 20
4489.7952412035
 30
0.0
 11
5668.8592798608
 21
4489.3634651567
 31
0.0
  0
LINE
  5
518
330
1F
100
AcDbEntity
  8
0
  6
Continuous
 62
     7
100
AcDbLine
 10
5668.8592798608
 20
4489.3634651567
 30
0.0
 11
5670.8622045415
 21
4489.0684221651
 31
0.0
  0
LINE
  5
519
330
1F
100
AcDbEntity
  8
0
  6
Continuous
 62
     7
100
AcDbLine
 10
5670.8622045415
 20
4489.0684221651
 30
0.0
 11
5672.9563392299
 21
4488.9186952974
 31
0.0
  0
LINE
  5
51A
330
1F
100
AcDbEntity
  8
0
  6
Continuous
 62
     7
100
AcDbLine
 10
5672.9563392299
 20
4488.9186952974
 30
0.0
 11
5675.0811703103
 21
4488.9186952974
 31
0.0
  0
LINE
  5
51B
330
1F
100
AcDbEntity
  8
0
  6
Continuous
 62
     7
100
AcDbLine
 10
5675.0811703103
 20
4488.9186952974
 30
0.0
 11
5677.1753049987
 21
4489.0684221651
 31
0.0
  0
LINE
  5
51C
330
1F
100
AcDbEntity
  8
0
  6
Continuous
 62
     7
100
AcDbLine
 10
5677.1753049987
 20
4489.0684221651
 30
0.0
 11
5679.1782296794
 21
4489.3634651567
 31
0.0
  0
LINE
  5
51D
330
1F
100
AcDbEntity
  8
0
  6
Continuous
 62
     7
100
AcDbLine
 10
5679.1782296794
 20
4489.3634651567
 30
0.0
 11
5681.0320682423
 21
4489.7952412035
 31
0.0
  0
LINE
  5
51E
330
1F
100
AcDbEntity
  8
0
  6
Continuous
 62
     7
100
AcDbLine
 10
5681.0320682423
 20
4489.7952412035
 30
0.0
 11
5682.6832510131
 21
4490.3513525392
 31
0.0
  0
LINE
  5
51F
330
1F
100
AcDbEntity
  8
0
  6
Continuous
 62
     7
100
AcDbLine
 10
5682.6832510131
 20
4490.3513525392
 30
0.0
 11
5684.0840793746
 21
4491.0158251192
 31
0.0
  0
LINE
  5
520
330
1F
100
AcDbEntity
  8
0
  6
Continuous
 62
     7
100
AcDbLine
 10
5684.0840793746
 20
4491.0158251192
 30
0.0
 11
5685.1940519708
 21
4491.7693470385
 31
0.0
  0
LINE
  5
521
330
1F
100
AcDbEntity
  8
0
  6
Continuous
 62
     7
100
AcDbLine
 10
5685.1940519708
 20
4491.7693470385
 30
0.0
 11
5685.9811164039
 21
4492.590102997
 31
0.0
  0
LINE
  5
522
330
1F
100
AcDbEntity
  8
0
  6
Continuous
 62
     7
100
AcDbLine
 10
5685.9811164039
 20
4492.590102997
 30
0.0
 11
5686.0025889771
 21
4492.6531647112
 31
0.0
  0
LINE
  5
523
330
1F
100
AcDbEntity
  8
0
  6
Continuous
 62
     7
100
AcDbLine
 10
5686.0025889771
 20
4492.6531647112
 30
0.0
 11
5685.977152695
 21
4492.7159880068
 31
0.0
  0
LINE
  5
524
330
1F
100
AcDbEntity
  8
0
  6
Continuous
 62
     7
100
AcDbLine
 10
5685.977152695
 20
4492.7159880068
 30
0.0
 11
5685.9072066443
 21
4492.7726124193
 31
0.0
  0
LINE
  5
525
330
1F
100
AcDbEntity
  8
0
  6
Continuous
 62
     7
100
AcDbLine
 10
5685.9072066443
 20
4492.7726124193
 30
0.0
 11
5685.7993222373
 21
4492.8177927401
 31
0.0
  0
LINE
  5
526
330
1F
100
AcDbEntity
  8
0
  6
Continuous
 62
     7
100
AcDbLine
 10
5685.7993222373
 20
4492.8177927401
 30
0.0
 11
5685.6636024611
 21
4492.8473566439
 31
0.0
  0
LINE
  5
527
330
1F
100
AcDbEntity
  8
0
  6
Continuous
 62
     7
100
AcDbLine
 10
5685.6636024611
 20
4492.8473566439
 30
0.0
 11
5685.5127878087
 21
4492.8583238985
 31
0.0
  0
LINE
  5
528
330
1F
100
AcDbEntity
  8
0
  6
Continuous
 62
     7
100
AcDbLine
 10
5685.5127878087
 20
4492.8583238985
 30
0.0
 11
5685.3610194819
 21
4492.8498600389
 31
0.0
  0
LINE
  5
529
330
1F
100
AcDbEntity
  8
0
  6
Continuous
 62
     7
100
AcDbLine
 10
5685.3610194819
 20
4492.8498600389
 30
0.0
 11
5685.2225280898
 21
4492.8226803209
 31
0.0
  0
LINE
  5
52A
330
1F
100
AcDbEntity
  8
0
  6
Continuous
 62
     7
100
AcDbLine
 10
6274.0187562602
 20
4487.2364138033
 30
0.0
 11
6276.4211810725
 21
4487.3096083071
 31
0.0
  0
LINE
  5
52B
330
1F
100
AcDbEntity
  8
0
  6
Continuous
 62
     7
100
AcDbLine
 10
6276.4211810725
 20
4487.3096083071
 30
0.0
 11
6278.772405495
 21
4487.5274036791
 31
0.0
  0
LINE
  5
52C
330
1F
100
AcDbEntity
  8
0
  6
Continuous
 62
     7
100
AcDbLine
 10
6278.772405495
 20
4487.5274036791
 30
0.0
 11
6281.0223020213
 21
4487.8852699663
 31
0.0
  0
LINE
  5
52D
330
1F
100
AcDbEntity
  8
0
  6
Continuous
 62
     7
100
AcDbLine
 10
6281.0223020213
 20
4487.8852699663
 30
0.0
 11
6283.1229485171
 21
4488.3755777742
 31
0.0
  0
LINE
  5
52E
330
1F
100
AcDbEntity
  8
0
  6
Continuous
 62
     7
100
AcDbLine
 10
6283.1229485171
 20
4488.3755777742
 30
0.0
 11
6285.0295222896
 21
4488.9878366854
 31
0.0
  0
LINE
  5
52F
330
1F
100
AcDbEntity
  8
0
  6
Continuous
 62
     7
100
AcDbLine
 10
6285.0295222896
 20
4488.9878366854
 30
0.0
 11
6286.7014325755
 21
4489.7089336779
 31
0.0
  0
LINE
  5
530
330
1F
100
AcDbEntity
  8
0
  6
Continuous
 62
     7
100
AcDbLine
 10
6286.7014325755
 20
4489.7089336779
 30
0.0
 11
6288.1030357974
 21
4490.5237291719
 31
0.0
  0
LINE
  5
531
330
1F
100
AcDbEntity
  8
0
  6
Continuous
 62
     7
100
AcDbLine
 10
6288.1030357974
 20
4490.5237291719
 30
0.0
 11
6289.2044700282
 21
4491.4145801927
 31
0.0
  0
LINE
  5
532
330
1F
100
AcDbEntity
  8
0
  6
Continuous
 62
     7
100
AcDbLine
 10
6289.2044700282
 20
4491.4145801927
 30
0.0
 11
6289.9822510379
 21
4492.3627708818
 31
0.0
  0
LINE
  5
533
330
1F
100
AcDbEntity
  8
0
  6
Continuous
 62
     7
100
AcDbLine
 10
6289.9822510379
 20
4492.3627708818
 30
0.0
 11
6290.4197491305
 21
4493.3477972414
 31
0.0
  0
LINE
  5
534
330
1F
100
AcDbEntity
  8
0
  6
Continuous
 62
     7
100
AcDbLine
 10
6290.4197491305
 20
4493.3477972414
 30
0.0
 11
6290.5077255862
 21
4494.348916855
 31
0.0
  0
LINE
  5
535
330
1F
100
AcDbEntity
  8
0
  6
Continuous
 62
     7
100
AcDbLine
 10
6290.5077255862
 20
4494.348916855
 30
0.0
 11
6290.2442730563
 21
4495.3446720507
 31
0.0
  0
LINE
  5
536
330
1F
100
AcDbEntity
  8
0
  6
Continuous
 62
     7
100
AcDbLine
 10
6290.2442730563
 20
4495.3446720507
 30
0.0
 11
6289.6349943774
 21
4496.3138435747
 31
0.0
  0
LINE
  5
537
330
1F
100
AcDbEntity
  8
0
  6
Continuous
 62
     7
100
AcDbLine
 10
6289.6349943774
 20
4496.3138435747
 30
0.0
 11
6288.6928833621
 21
4497.2358082201
 31
0.0
  0
LINE
  5
538
330
1F
100
AcDbEntity
  8
0
  6
Continuous
 62
     7
100
AcDbLine
 10
6288.6928833621
 20
4497.2358082201
 30
0.0
 11
6287.4380267756
 21
4498.090896454
 31
0.0
  0
LINE
  5
539
330
1F
100
AcDbEntity
  8
0
  6
Continuous
 62
     7
100
AcDbLine
 10
6287.4380267756
 20
4498.090896454
 30
0.0
 11
6285.8971871035
 21
4498.8609884645
 31
0.0
  0
LINE
  5
53A
330
1F
100
AcDbEntity
  8
0
  6
Continuous
 62
     7
100
AcDbLine
 10
6285.8971871035
 20
4498.8609884645
 30
0.0
 11
6284.1031469005
 21
4499.529394951
 31
0.0
  0
LINE
  5
53B
330
1F
100
AcDbEntity
  8
0
  6
Continuous
 62
     7
100
AcDbLine
 10
6284.1031469005
 20
4499.529394951
 30
0.0
 11
6282.0941723483
 21
4500.0821684267
 31
0.0
  0
LINE
  5
53C
330
1F
100
AcDbEntity
  8
0
  6
Continuous
 62
     7
100
AcDbLine
 10
6282.0941723483
 20
4500.0821684267
 30
0.0
 11
6279.913059582
 21
4500.5073879625
 31
0.0
  0
LINE
  5
53D
330
1F
100
AcDbEntity
  8
0
  6
Continuous
 62
     7
100
AcDbLine
 10
6279.913059582
 20
4500.5073879625
 30
0.0
 11
6277.6063598292
 21
4500.7959936525
 31
0.0
  0
LINE
  5
53E
330
1F
100
AcDbEntity
  8
0
  6
Continuous
 62
     7
100
AcDbLine
 10
6277.6063598292
 20
4500.7959936525
 30
0.0
 11
6275.2231873172
 21
4500.9417866136
 31
0.0
  0
LINE
  5
53F
330
1F
100
AcDbEntity
  8
0
  6
Continuous
 62
     7
100
AcDbLine
 10
6275.2231873172
 20
4500.9417866136
 30
0.0
 11
6272.8143252032
 21
4500.9417866136
 31
0.0
  0
LINE
  5
540
330
1F
100
AcDbEntity
  8
0
  6
Continuous
 62
     7
100
AcDbLine
 10
6272.8143252032
 20
4500.9417866136
 30
0.0
 11
6270.4311526912
 21
4500.7959936525
 31
0.0
  0
LINE
  5
541
330
1F
100
AcDbEntity
  8
0
  6
Continuous
 62
     7
100
AcDbLine
 10
6270.4311526912
 20
4500.7959936525
 30
0.0
 11
6268.1244529384
 21
4500.5073879625
 31
0.0
  0
LINE
  5
542
330
1F
100
AcDbEntity
  8
0
  6
Continuous
 62
     7
100
AcDbLine
 10
6268.1244529384
 20
4500.5073879625
 30
0.0
 11
6265.9433401721
 21
4500.0821684267
 31
0.0
  0
LINE
  5
543
330
1F
100
AcDbEntity
  8
0
  6
Continuous
 62
     7
100
AcDbLine
 10
6265.9433401721
 20
4500.0821684267
 30
0.0
 11
6263.9343656199
 21
4499.529394951
 31
0.0
  0
LINE
  5
544
330
1F
100
AcDbEntity
  8
0
  6
Continuous
 62
     7
100
AcDbLine
 10
6263.9343656199
 20
4499.529394951
 30
0.0
 11
6262.1403254168
 21
4498.8609884645
 31
0.0
  0
LINE
  5
545
330
1F
100
AcDbEntity
  8
0
  6
Continuous
 62
     7
100
AcDbLine
 10
6262.1403254168
 20
4498.8609884645
 30
0.0
 11
6260.5994857448
 21
4498.090896454
 31
0.0
  0
LINE
  5
546
330
1F
100
AcDbEntity
  8
0
  6
Continuous
 62
     7
100
AcDbLine
 10
6260.5994857448
 20
4498.090896454
 30
0.0
 11
6259.3446291583
 21
4497.2358082201
 31
0.0
  0
LINE
  5
547
330
1F
100
AcDbEntity
  8
0
  6
Continuous
 62
     7
100
AcDbLine
 10
6259.3446291583
 20
4497.2358082201
 30
0.0
 11
6258.402518143
 21
4496.3138435747
 31
0.0
  0
LINE
  5
548
330
1F
100
AcDbEntity
  8
0
  6
Continuous
 62
     7
100
AcDbLine
 10
6258.402518143
 20
4496.3138435747
 30
0.0
 11
6257.7932394641
 21
4495.3446720507
 31
0.0
  0
LINE
  5
549
330
1F
100
AcDbEntity
  8
0
  6
Continuous
 62
     7
100
AcDbLine
 10
6257.7932394641
 20
4495.3446720507
 30
0.0
 11
6257.5297869342
 21
4494.348916855
 31
0.0
  0
LINE
  5
54A
330
1F
100
AcDbEntity
  8
0
  6
Continuous
 62
     7
100
AcDbLine
 10
6257.5297869342
 20
4494.348916855
 30
0.0
 11
6257.6177633899
 21
4493.3477972414
 31
0.0
  0
LINE
  5
54B
330
1F
100
AcDbEntity
  8
0
  6
Continuous
 62
     7
100
AcDbLine
 10
6257.6177633899
 20
4493.3477972414
 30
0.0
 11
6258.0552614825
 21
4492.3627708818
 31
0.0
  0
LINE
  5
54C
330
1F
100
AcDbEntity
  8
0
  6
Continuous
 62
     7
100
AcDbLine
 10
6258.0552614825
 20
4492.3627708818
 30
0.0
 11
6258.8330424922
 21
4491.4145801927
 31
0.0
  0
LINE
  5
54D
330
1F
100
AcDbEntity
  8
0
  6
Continuous
 62
     7
100
AcDbLine
 10
6258.8330424922
 20
4491.4145801927
 30
0.0
 11
6259.934476723
 21
4490.5237291719
 31
0.0
  0
LINE
  5
54E
330
1F
100
AcDbEntity
  8
0
  6
Continuous
 62
     7
100
AcDbLine
 10
6259.934476723
 20
4490.5237291719
 30
0.0
 11
6261.3360799449
 21
4489.7089336779
 31
0.0
  0
LINE
  5
54F
330
1F
100
AcDbEntity
  8
0
  6
Continuous
 62
     7
100
AcDbLine
 10
6261.3360799449
 20
4489.7089336779
 30
0.0
 11
6263.0079902308
 21
4488.9878366854
 31
0.0
  0
LINE
  5
550
330
1F
100
AcDbEntity
  8
0
  6
Continuous
 62
     7
100
AcDbLine
 10
6263.0079902308
 20
4488.9878366854
 30
0.0
 11
6264.9145640033
 21
4488.3755777742
 31
0.0
  0
LINE
  5
551
330
1F
100
AcDbEntity
  8
0
  6
Continuous
 62
     7
100
AcDbLine
 10
6264.9145640033
 20
4488.3755777742
 30
0.0
 11
6267.0152104991
 21
4487.8852699663
 31
0.0
  0
LINE
  5
552
330
1F
100
AcDbEntity
  8
0
  6
Continuous
 62
     7
100
AcDbLine
 10
6267.0152104991
 20
4487.8852699663
 30
0.0
 11
6269.2651070254
 21
4487.5274036791
 31
0.0
  0
LINE
  5
553
330
1F
100
AcDbEntity
  8
0
  6
Continuous
 62
     7
100
AcDbLine
 10
6269.2651070254
 20
4487.5274036791
 30
0.0
 11
6271.6163314479
 21
4487.3096083071
 31
0.0
  0
LINE
  5
554
330
1F
100
AcDbEntity
  8
0
  6
Continuous
 62
     7
100
AcDbLine
 10
6271.6163314479
 20
4487.3096083071
 30
0.0
 11
6274.0187562602
 21
4487.2364138033
 31
0.0
  0
LINE
  5
555
330
1F
100
AcDbEntity
  8
0
  6
Continuous
 62
     7
100
AcDbLine
 10
6292.0176900523
 20
4495.5433939363
 30
0.0
 11
6291.9201768535
 21
4496.2449406053
 31
0.0
  0
LINE
  5
556
330
1F
100
AcDbEntity
  8
0
  6
Continuous
 62
     7
100
AcDbLine
 10
6291.9201768535
 20
4496.2449406053
 30
0.0
 11
6291.4840496676
 21
4497.2733591463
 31
0.0
  0
LINE
  5
557
330
1F
100
AcDbEntity
  8
0
  6
Continuous
 62
     7
100
AcDbLine
 10
6291.4840496676
 20
4497.2733591463
 30
0.0
 11
6290.7080567973
 21
4498.2666109468
 31
0.0
  0
LINE
  5
558
330
1F
100
AcDbEntity
  8
0
  6
Continuous
 62
     7
100
AcDbLine
 10
6290.7080567973
 20
4498.2666109468
 30
0.0
 11
6289.6072186129
 21
4499.2052648928
 31
0.0
  0
LINE
  5
559
330
1F
100
AcDbEntity
  8
0
  6
Continuous
 62
     7
100
AcDbLine
 10
6289.6072186129
 20
4499.2052648928
 30
0.0
 11
6288.202933182
 21
4500.0710819628
 31
0.0
  0
LINE
  5
55A
330
1F
100
AcDbEntity
  8
0
  6
Continuous
 62
     7
100
AcDbLine
 10
6288.202933182
 20
4500.0710819628
 30
0.0
 11
6286.5226186412
 21
4500.8471344377
 31
0.0
  0
LINE
  5
55B
330
1F
100
AcDbEntity
  8
0
  6
Continuous
 62
     7
100
AcDbLine
 10
6286.5226186412
 20
4500.8471344377
 30
0.0
 11
6284.5988787311
 21
4501.5184019472
 31
0.0
  0
LINE
  5
55C
330
1F
100
AcDbEntity
  8
0
  6
Continuous
 62
     7
100
AcDbLine
 10
6284.5988787311
 20
4501.5184019472
 30
0.0
 11
6282.4692643779
 21
4502.0718906786
 31
0.0
  0
LINE
  5
55D
330
1F
100
AcDbEntity
  8
0
  6
Continuous
 62
     7
100
AcDbLine
 10
6282.4692643779
 20
4502.0718906786
 30
0.0
 11
6280.1751412051
 21
4502.4966333773
 31
0.0
  0
LINE
  5
55E
330
1F
100
AcDbEntity
  8
0
  6
Continuous
 62
     7
100
AcDbLine
 10
6280.1751412051
 20
4502.4966333773
 30
0.0
 11
6277.7611530917
 21
4502.7845238115
 31
0.0
  0
LINE
  5
55F
330
1F
100
AcDbEntity
  8
0
  6
Continuous
 62
     7
100
AcDbLine
 10
6277.7611530917
 20
4502.7845238115
 30
0.0
 11
6275.274387707
 21
4502.9298399355
 31
0.0
  0
LINE
  5
560
330
1F
100
AcDbEntity
  8
0
  6
Continuous
 62
     7
100
AcDbLine
 10
6275.274387707
 20
4502.9298399355
 30
0.0
 11
6272.7631248134
 21
4502.9298399355
 31
0.0
  0
LINE
  5
561
330
1F
100
AcDbEntity
  8
0
  6
Continuous
 62
     7
100
AcDbLine
 10
6272.7631248134
 20
4502.9298399355
 30
0.0
 11
6270.2763594287
 21
4502.7845238115
 31
0.0
  0
LINE
  5
562
330
1F
100
AcDbEntity
  8
0
  6
Continuous
 62
     7
100
AcDbLine
 10
6270.2763594287
 20
4502.7845238115
 30
0.0
 11
6267.8623713153
 21
4502.4966333773
 31
0.0
  0
LINE
  5
563
330
1F
100
AcDbEntity
  8
0
  6
Continuous
 62
     7
100
AcDbLine
 10
6267.8623713153
 20
4502.4966333773
 30
0.0
 11
6265.5682481425
 21
4502.0718906786
 31
0.0
  0
LINE
  5
564
330
1F
100
AcDbEntity
  8
0
  6
Continuous
 62
     7
100
AcDbLine
 10
6265.5682481425
 20
4502.0718906786
 30
0.0
 11
6263.4386337893
 21
4501.5184019472
 31
0.0
  0
LINE
  5
565
330
1F
100
AcDbEntity
  8
0
  6
Continuous
 62
     7
100
AcDbLine
 10
6263.4386337893
 20
4501.5184019472
 30
0.0
 11
6261.5148938792
 21
4500.8471344377
 31
0.0
  0
LINE
  5
566
330
1F
100
AcDbEntity
  8
0
  6
Continuous
 62
     7
100
AcDbLine
 10
6261.5148938792
 20
4500.8471344377
 30
0.0
 11
6259.8345793384
 21
4500.0710819628
 31
0.0
  0
LINE
  5
567
330
1F
100
AcDbEntity
  8
0
  6
Continuous
 62
     7
100
AcDbLine
 10
6259.8345793384
 20
4500.0710819628
 30
0.0
 11
6258.4302939074
 21
4499.2052648928
 31
0.0
  0
LINE
  5
568
330
1F
100
AcDbEntity
  8
0
  6
Continuous
 62
     7
100
AcDbLine
 10
6258.4302939074
 20
4499.2052648928
 30
0.0
 11
6257.3294557231
 21
4498.2666109468
 31
0.0
  0
LINE
  5
569
330
1F
100
AcDbEntity
  8
0
  6
Continuous
 62
     7
100
AcDbLine
 10
6257.3294557231
 20
4498.2666109468
 30
0.0
 11
6256.5534032481
 21
4497.2733591463
 31
0.0
  0
LINE
  5
56A
330
1F
100
AcDbEntity
  8
0
  6
Continuous
 62
     7
100
AcDbLine
 10
6256.5534032481
 20
4497.2733591463
 30
0.0
 11
6256.1173356669
 21
4496.2449406053
 31
0.0
  0
LINE
  5
56B
330
1F
100
AcDbEntity
  8
0
  6
Continuous
 62
     7
100
AcDbLine
 10
6256.1173356669
 20
4496.2449406053
 30
0.0
 11
6256.019166817
 21
4495.4114292528
 31
0.0
  0
LINE
  5
56C
330
1F
100
AcDbEntity
  8
0
  6
Continuous
 62
     7
100
AcDbLine
 10
6285.9811104434
 20
4495.6064556505
 30
0.0
 11
6285.1940311091
 21
4496.4272116091
 31
0.0
  0
LINE
  5
56D
330
1F
100
AcDbEntity
  8
0
  6
Continuous
 62
     7
100
AcDbLine
 10
6285.1940311091
 20
4496.4272116091
 30
0.0
 11
6284.0840734141
 21
4497.1807335283
 31
0.0
  0
LINE
  5
56E
330
1F
100
AcDbEntity
  8
0
  6
Continuous
 62
     7
100
AcDbLine
 10
6284.0840734141
 20
4497.1807335283
 30
0.0
 11
6282.6832450526
 21
4497.8452061083
 31
0.0
  0
LINE
  5
56F
330
1F
100
AcDbEntity
  8
0
  6
Continuous
 62
     7
100
AcDbLine
 10
6282.6832450526
 20
4497.8452061083
 30
0.0
 11
6281.032077183
 21
4498.401317444
 31
0.0
  0
LINE
  5
570
330
1F
100
AcDbEntity
  8
0
  6
Continuous
 62
     7
100
AcDbLine
 10
6281.032077183
 20
4498.401317444
 30
0.0
 11
6279.1782535212
 21
4498.8332127001
 31
0.0
  0
LINE
  5
571
330
1F
100
AcDbEntity
  8
0
  6
Continuous
 62
     7
100
AcDbLine
 10
6279.1782535212
 20
4498.8332127001
 30
0.0
 11
6277.1752990382
 21
4499.1281364824
 31
0.0
  0
LINE
  5
572
330
1F
100
AcDbEntity
  8
0
  6
Continuous
 62
     7
100
AcDbLine
 10
6277.1752990382
 20
4499.1281364824
 30
0.0
 11
6275.0811494487
 21
4499.2778633501
 31
0.0
  0
LINE
  5
573
330
1F
100
AcDbEntity
  8
0
  6
Continuous
 62
     7
100
AcDbLine
 10
6275.0811494487
 20
4499.2778633501
 30
0.0
 11
6272.9563630717
 21
4499.2778633501
 31
0.0
  0
LINE
  5
574
330
1F
100
AcDbEntity
  8
0
  6
Continuous
 62
     7
100
AcDbLine
 10
6272.9563630717
 20
4499.2778633501
 30
0.0
 11
6270.8622134822
 21
4499.1281364824
 31
0.0
  0
LINE
  5
575
330
1F
100
AcDbEntity
  8
0
  6
Continuous
 62
     7
100
AcDbLine
 10
6270.8622134822
 20
4499.1281364824
 30
0.0
 11
6268.8592589991
 21
4498.8332127001
 31
0.0
  0
LINE
  5
576
330
1F
100
AcDbEntity
  8
0
  6
Continuous
 62
     7
100
AcDbLine
 10
6268.8592589991
 20
4498.8332127001
 30
0.0
 11
6267.0054353373
 21
4498.401317444
 31
0.0
  0
LINE
  5
577
330
1F
100
AcDbEntity
  8
0
  6
Continuous
 62
     7
100
AcDbLine
 10
6267.0054353373
 20
4498.401317444
 30
0.0
 11
6265.3542674678
 21
4497.8452061083
 31
0.0
  0
LINE
  5
578
330
1F
100
AcDbEntity
  8
0
  6
Continuous
 62
     7
100
AcDbLine
 10
6265.3542674678
 20
4497.8452061083
 30
0.0
 11
6263.9534391063
 21
4497.1807335283
 31
0.0
  0
LINE
  5
579
330
1F
100
AcDbEntity
  8
0
  6
Continuous
 62
     7
100
AcDbLine
 10
6263.9534391063
 20
4497.1807335283
 30
0.0
 11
6262.8434814113
 21
4496.4272116091
 31
0.0
  0
LINE
  5
57A
330
1F
100
AcDbEntity
  8
0
  6
Continuous
 62
     7
100
AcDbLine
 10
6262.8434814113
 20
4496.4272116091
 30
0.0
 11
6262.056402077
 21
4495.6064556505
 31
0.0
  0
LINE
  5
57B
330
1F
100
AcDbEntity
  8
0
  6
Continuous
 62
     7
100
AcDbLine
 10
6262.056402077
 20
4495.6064556505
 30
0.0
 11
6262.0349444049
 21
4495.5433939363
 31
0.0
  0
LINE
  5
57C
330
1F
100
AcDbEntity
  8
0
  6
Continuous
 62
     7
100
AcDbLine
 10
6262.0349444049
 20
4495.5433939363
 30
0.0
 11
6262.0603359836
 21
4495.4805706407
 31
0.0
  0
LINE
  5
57D
330
1F
100
AcDbEntity
  8
0
  6
Continuous
 62
     7
100
AcDbLine
 10
6262.0603359836
 20
4495.4805706407
 30
0.0
 11
6262.1303118365
 21
4495.4239462282
 31
0.0
  0
LINE
  5
57E
330
1F
100
AcDbEntity
  8
0
  6
Continuous
 62
     7
100
AcDbLine
 10
6262.1303118365
 20
4495.4239462282
 30
0.0
 11
6262.2381962436
 21
4495.3787659075
 31
0.0
  0
LINE
  5
57F
330
1F
100
AcDbEntity
  8
0
  6
Continuous
 62
     7
100
AcDbLine
 10
6262.2381962436
 20
4495.3787659075
 30
0.0
 11
6262.3739160197
 21
4495.349321213
 31
0.0
  0
LINE
  5
580
330
1F
100
AcDbEntity
  8
0
  6
Continuous
 62
     7
100
AcDbLine
 10
6262.3739160197
 20
4495.349321213
 30
0.0
 11
6262.524715771
 21
4495.338234749
 31
0.0
  0
LINE
  5
581
330
1F
100
AcDbEntity
  8
0
  6
Continuous
 62
     7
100
AcDbLine
 10
6262.524715771
 20
4495.338234749
 30
0.0
 11
6262.6764691966
 21
4495.3466986086
 31
0.0
  0
LINE
  5
582
330
1F
100
AcDbEntity
  8
0
  6
Continuous
 62
     7
100
AcDbLine
 10
6262.6764691966
 20
4495.3466986086
 30
0.0
 11
6262.8149903911
 21
4495.3738783266
 31
0.0
  0
LINE
  5
583
330
1F
100
AcDbEntity
  8
0
  6
Continuous
 62
     7
100
AcDbLine
 10
6285.2225221293
 20
4495.3738783266
 30
0.0
 11
6285.3610433238
 21
4495.3466986086
 31
0.0
  0
LINE
  5
584
330
1F
100
AcDbEntity
  8
0
  6
Continuous
 62
     7
100
AcDbLine
 10
6285.3610433238
 20
4495.3466986086
 30
0.0
 11
6285.5127967494
 21
4495.338234749
 31
0.0
  0
LINE
  5
585
330
1F
100
AcDbEntity
  8
0
  6
Continuous
 62
     7
100
AcDbLine
 10
6285.5127967494
 20
4495.338234749
 30
0.0
 11
6285.6635965007
 21
4495.349321213
 31
0.0
  0
LINE
  5
586
330
1F
100
AcDbEntity
  8
0
  6
Continuous
 62
     7
100
AcDbLine
 10
6285.6635965007
 20
4495.349321213
 30
0.0
 11
6285.7993162768
 21
4495.3787659075
 31
0.0
  0
LINE
  5
587
330
1F
100
AcDbEntity
  8
0
  6
Continuous
 62
     7
100
AcDbLine
 10
6285.7993162768
 20
4495.3787659075
 30
0.0
 11
6285.9072006839
 21
4495.4239462282
 31
0.0
  0
LINE
  5
588
330
1F
100
AcDbEntity
  8
0
  6
Continuous
 62
     7
100
AcDbLine
 10
6285.9072006839
 20
4495.4239462282
 30
0.0
 11
6285.9771765368
 21
4495.4805706407
 31
0.0
  0
LINE
  5
589
330
1F
100
AcDbEntity
  8
0
  6
Continuous
 62
     7
100
AcDbLine
 10
6285.9771765368
 20
4495.4805706407
 30
0.0
 11
6286.0025681155
 21
4495.5433939363
 31
0.0
  0
LINE
  5
58A
330
1F
100
AcDbEntity
  8
0
  6
Continuous
 62
     7
100
AcDbLine
 10
6286.0025681155
 20
4495.5433939363
 30
0.0
 11
6285.9811104434
 21
4495.6064556505
 31
0.0
  0
LINE
  5
58B
330
1F
100
AcDbEntity
  8
0
  6
Continuous
 62
     7
100
AcDbLine
 10
6262.8149903911
 20
4492.8226803209
 30
0.0
 11
6262.6764691966
 21
4492.8498600389
 31
0.0
  0
LINE
  5
58C
330
1F
100
AcDbEntity
  8
0
  6
Continuous
 62
     7
100
AcDbLine
 10
6262.6764691966
 20
4492.8498600389
 30
0.0
 11
6262.524715771
 21
4492.8583238985
 31
0.0
  0
LINE
  5
58D
330
1F
100
AcDbEntity
  8
0
  6
Continuous
 62
     7
100
AcDbLine
 10
6262.524715771
 20
4492.8583238985
 30
0.0
 11
6262.3739160197
 21
4492.8473566439
 31
0.0
  0
LINE
  5
58E
330
1F
100
AcDbEntity
  8
0
  6
Continuous
 62
     7
100
AcDbLine
 10
6262.3739160197
 20
4492.8473566439
 30
0.0
 11
6262.2381962436
 21
4492.8177927401
 31
0.0
  0
LINE
  5
58F
330
1F
100
AcDbEntity
  8
0
  6
Continuous
 62
     7
100
AcDbLine
 10
6262.2381962436
 20
4492.8177927401
 30
0.0
 11
6262.1303118365
 21
4492.7726124193
 31
0.0
  0
LINE
  5
590
330
1F
100
AcDbEntity
  8
0
  6
Continuous
 62
     7
100
AcDbLine
 10
6262.1303118365
 20
4492.7726124193
 30
0.0
 11
6262.0603359836
 21
4492.7159880068
 31
0.0
  0
LINE
  5
591
330
1F
100
AcDbEntity
  8
0
  6
Continuous
 62
     7
100
AcDbLine
 10
6262.0603359836
 20
4492.7159880068
 30
0.0
 11
6262.0349444049
 21
4492.6531647112
 31
0.0
  0
LINE
  5
592
330
1F
100
AcDbEntity
  8
0
  6
Continuous
 62
     7
100
AcDbLine
 10
6262.0349444049
 20
4492.6531647112
 30
0.0
 11
6262.056402077
 21
4492.590102997
 31
0.0
  0
LINE
  5
593
330
1F
100
AcDbEntity
  8
0
  6
Continuous
 62
     7
100
AcDbLine
 10
6262.056402077
 20
4492.590102997
 30
0.0
 11
6262.8434814113
 21
4491.7693470385
 31
0.0
  0
LINE
  5
594
330
1F
100
AcDbEntity
  8
0
  6
Continuous
 62
     7
100
AcDbLine
 10
6262.8434814113
 20
4491.7693470385
 30
0.0
 11
6263.9534391063
 21
4491.0158251192
 31
0.0
  0
LINE
  5
595
330
1F
100
AcDbEntity
  8
0
  6
Continuous
 62
     7
100
AcDbLine
 10
6263.9534391063
 20
4491.0158251192
 30
0.0
 11
6265.3542674678
 21
4490.3513525392
 31
0.0
  0
LINE
  5
596
330
1F
100
AcDbEntity
  8
0
  6
Continuous
 62
     7
100
AcDbLine
 10
6265.3542674678
 20
4490.3513525392
 30
0.0
 11
6267.0054353373
 21
4489.7952412035
 31
0.0
  0
LINE
  5
597
330
1F
100
AcDbEntity
  8
0
  6
Continuous
 62
     7
100
AcDbLine
 10
6267.0054353373
 20
4489.7952412035
 30
0.0
 11
6268.8592589991
 21
4489.3634651567
 31
0.0
  0
LINE
  5
598
330
1F
100
AcDbEntity
  8
0
  6
Continuous
 62
     7
100
AcDbLine
 10
6268.8592589991
 20
4489.3634651567
 30
0.0
 11
6270.8622134822
 21
4489.0684221651
 31
0.0
  0
LINE
  5
599
330
1F
100
AcDbEntity
  8
0
  6
Continuous
 62
     7
100
AcDbLine
 10
6270.8622134822
 20
4489.0684221651
 30
0.0
 11
6272.9563630717
 21
4488.9186952974
 31
0.0
  0
LINE
  5
59A
330
1F
100
AcDbEntity
  8
0
  6
Continuous
 62
     7
100
AcDbLine
 10
6272.9563630717
 20
4488.9186952974
 30
0.0
 11
6275.0811494487
 21
4488.9186952974
 31
0.0
  0
LINE
  5
59B
330
1F
100
AcDbEntity
  8
0
  6
Continuous
 62
     7
100
AcDbLine
 10
6275.0811494487
 20
4488.9186952974
 30
0.0
 11
6277.1752990382
 21
4489.0684221651
 31
0.0
  0
LINE
  5
59C
330
1F
100
AcDbEntity
  8
0
  6
Continuous
 62
     7
100
AcDbLine
 10
6277.1752990382
 20
4489.0684221651
 30
0.0
 11
6279.1782535212
 21
4489.3634651567
 31
0.0
  0
LINE
  5
59D
330
1F
100
AcDbEntity
  8
0
  6
Continuous
 62
     7
100
AcDbLine
 10
6279.1782535212
 20
4489.3634651567
 30
0.0
 11
6281.032077183
 21
4489.7952412035
 31
0.0
  0
LINE
  5
59E
330
1F
100
AcDbEntity
  8
0
  6
Continuous
 62
     7
100
AcDbLine
 10
6281.032077183
 20
4489.7952412035
 30
0.0
 11
6282.6832450526
 21
4490.3513525392
 31
0.0
  0
LINE
  5
59F
330
1F
100
AcDbEntity
  8
0
  6
Continuous
 62
     7
100
AcDbLine
 10
6282.6832450526
 20
4490.3513525392
 30
0.0
 11
6284.0840734141
 21
4491.0158251192
 31
0.0
  0
LINE
  5
5A0
330
1F
100
AcDbEntity
  8
0
  6
Continuous
 62
     7
100
AcDbLine
 10
6284.0840734141
 20
4491.0158251192
 30
0.0
 11
6285.1940311091
 21
4491.7693470385
 31
0.0
  0
LINE
  5
5A1
330
1F
100
AcDbEntity
  8
0
  6
Continuous
 62
     7
100
AcDbLine
 10
6285.1940311091
 20
4491.7693470385
 30
0.0
 11
6285.9811104434
 21
4492.590102997
 31
0.0
  0
LINE
  5
5A2
330
1F
100
AcDbEntity
  8
0
  6
Continuous
 62
     7
100
AcDbLine
 10
6285.9811104434
 20
4492.590102997
 30
0.0
 11
6286.0025681155
 21
4492.6531647112
 31
0.0
  0
LINE
  5
5A3
330
1F
100
AcDbEntity
  8
0
  6
Continuous
 62
     7
100
AcDbLine
 10
6286.0025681155
 20
4492.6531647112
 30
0.0
 11
6285.9771765368
 21
4492.7159880068
 31
0.0
  0
LINE
  5
5A4
330
1F
100
AcDbEntity
  8
0
  6
Continuous
 62
     7
100
AcDbLine
 10
6285.9771765368
 20
4492.7159880068
 30
0.0
 11
6285.9072006839
 21
4492.7726124193
 31
0.0
  0
LINE
  5
5A5
330
1F
100
AcDbEntity
  8
0
  6
Continuous
 62
     7
100
AcDbLine
 10
6285.9072006839
 20
4492.7726124193
 30
0.0
 11
6285.7993162768
 21
4492.8177927401
 31
0.0
  0
LINE
  5
5A6
330
1F
100
AcDbEntity
  8
0
  6
Continuous
 62
     7
100
AcDbLine
 10
6285.7993162768
 20
4492.8177927401
 30
0.0
 11
6285.6635965007
 21
4492.8473566439
 31
0.0
  0
LINE
  5
5A7
330
1F
100
AcDbEntity
  8
0
  6
Continuous
 62
     7
100
AcDbLine
 10
6285.6635965007
 20
4492.8473566439
 30
0.0
 11
6285.5127967494
 21
4492.8583238985
 31
0.0
  0
LINE
  5
5A8
330
1F
100
AcDbEntity
  8
0
  6
Continuous
 62
     7
100
AcDbLine
 10
6285.5127967494
 20
4492.8583238985
 30
0.0
 11
6285.3610433238
 21
4492.8498600389
 31
0.0
  0
LINE
  5
5A9
330
1F
100
AcDbEntity
  8
0
  6
Continuous
 62
     7
100
AcDbLine
 10
6285.3610433238
 20
4492.8498600389
 30
0.0
 11
6285.2225221293
 21
4492.8226803209
 31
0.0
  0
LINE
  5
5AA
330
1F
100
AcDbEntity
  8
0
  6
Continuous
 62
     7
100
AcDbLine
 10
7473.2687553361
 20
4345.7109838133
 30
0.0
 11
7473.2687553361
 21
4335.3186789679
 31
0.0
  0
LINE
  5
5AB
330
1F
100
AcDbEntity
  8
0
  6
Continuous
 62
     7
100
AcDbLine
 10
7474.7687553361
 20
4335.3186789679
 30
0.0
 11
7474.7687553361
 21
4345.7109838133
 31
0.0
  0
LINE
  5
5AC
330
1F
100
AcDbEntity
  8
0
  6
Continuous
 62
     7
100
AcDbLine
 10
6273.2687553361
 20
4345.7109838133
 30
0.0
 11
6273.2687553361
 21
4335.3186789679
 31
0.0
  0
LINE
  5
5AD
330
1F
100
AcDbEntity
  8
0
  6
Continuous
 62
     7
100
AcDbLine
 10
6274.7687553361
 20
4335.3186789679
 30
0.0
 11
6274.7687553361
 21
4345.7109838133
 31
0.0
  0
LINE
  5
5AE
330
1F
100
AcDbEntity
  8
0
  6
Continuous
 62
     7
100
AcDbLine
 10
5678.2649375098
 20
4492.1835993196
 30
0.0
 11
5678.8759149211
 21
4492.6388595964
 31
0.0
  0
LINE
  5
5AF
330
1F
100
AcDbEntity
  8
0
  6
Continuous
 62
     7
100
AcDbLine
 10
5678.8759149211
 20
4492.6388595964
 30
0.0
 11
5679.2246169942
 21
4493.1850765612
 31
0.0
  0
LINE
  5
5B0
330
1F
100
AcDbEntity
  8
0
  6
Continuous
 62
     7
100
AcDbLine
 10
5679.2246169942
 20
4493.1850765612
 30
0.0
 11
5679.2246169942
 21
4493.7501285936
 31
0.0
  0
LINE
  5
5B1
330
1F
100
AcDbEntity
  8
0
  6
Continuous
 62
     7
100
AcDbLine
 10
5679.2246169942
 20
4493.7501285936
 30
0.0
 11
5678.8759149211
 21
4494.2962263491
 31
0.0
  0
LINE
  5
5B2
330
1F
100
AcDbEntity
  8
0
  6
Continuous
 62
     7
100
AcDbLine
 10
5678.8759149211
 20
4494.2962263491
 30
0.0
 11
5678.2018757956
 21
4494.7868917849
 31
0.0
  0
LINE
  5
5B3
330
1F
100
AcDbEntity
  8
0
  6
Continuous
 62
     7
100
AcDbLine
 10
5678.2018757956
 20
4494.7868917849
 30
0.0
 11
5677.2476501363
 21
4495.1891039278
 31
0.0
  0
LINE
  5
5B4
330
1F
100
AcDbEntity
  8
0
  6
Continuous
 62
     7
100
AcDbLine
 10
5677.2476501363
 20
4495.1891039278
 30
0.0
 11
5676.0771341222
 21
4495.4760406877
 31
0.0
  0
LINE
  5
5B5
330
1F
100
AcDbEntity
  8
0
  6
Continuous
 62
     7
100
AcDbLine
 10
5676.0771341222
 20
4495.4760406877
 30
0.0
 11
5674.7687525647
 21
4495.6285093691
 31
0.0
  0
LINE
  5
5B6
330
1F
100
AcDbEntity
  8
0
  6
Continuous
 62
     7
100
AcDbLine
 10
5674.7687525647
 20
4491.0880659487
 30
0.0
 11
5674.7687525647
 21
4495.6285093691
 31
0.0
  0
LINE
  5
5B7
330
1F
100
AcDbEntity
  8
0
  6
Continuous
 62
     7
100
AcDbLine
 10
5673.2687569755
 20
4495.6285093691
 30
0.0
 11
5671.960375418
 21
4495.4760406877
 31
0.0
  0
LINE
  5
5B8
330
1F
100
AcDbEntity
  8
0
  6
Continuous
 62
     7
100
AcDbLine
 10
5671.960375418
 20
4495.4760406877
 30
0.0
 11
5670.7898594039
 21
4495.1891039278
 31
0.0
  0
LINE
  5
5B9
330
1F
100
AcDbEntity
  8
0
  6
Continuous
 62
     7
100
AcDbLine
 10
5670.7898594039
 20
4495.1891039278
 30
0.0
 11
5669.8356337445
 21
4494.7868917849
 31
0.0
  0
LINE
  5
5BA
330
1F
100
AcDbEntity
  8
0
  6
Continuous
 62
     7
100
AcDbLine
 10
5669.8356337445
 20
4494.7868917849
 30
0.0
 11
5669.1615946191
 21
4494.2962263491
 31
0.0
  0
LINE
  5
5BB
330
1F
100
AcDbEntity
  8
0
  6
Continuous
 62
     7
100
AcDbLine
 10
5669.1615946191
 20
4494.2962263491
 30
0.0
 11
5668.812892546
 21
4493.7501285936
 31
0.0
  0
LINE
  5
5BC
330
1F
100
AcDbEntity
  8
0
  6
Continuous
 62
     7
100
AcDbLine
 10
5668.812892546
 20
4493.7501285936
 30
0.0
 11
5668.812892546
 21
4493.1850765612
 31
0.0
  0
LINE
  5
5BD
330
1F
100
AcDbEntity
  8
0
  6
Continuous
 62
     7
100
AcDbLine
 10
5668.812892546
 20
4493.1850765612
 30
0.0
 11
5669.1615946191
 21
4492.6388595964
 31
0.0
  0
LINE
  5
5BE
330
1F
100
AcDbEntity
  8
0
  6
Continuous
 62
     7
100
AcDbLine
 10
5669.1615946191
 20
4492.6388595964
 30
0.0
 11
5669.7725720303
 21
4492.1835993196
 31
0.0
  0
LINE
  5
5BF
330
1F
100
AcDbEntity
  8
0
  6
Continuous
 62
     7
100
AcDbLine
 10
5673.2687569755
 20
4495.6285093691
 30
0.0
 11
5673.2687569755
 21
4491.0880659487
 31
0.0
  0
LINE
  5
5C0
330
1F
100
AcDbEntity
  8
0
  6
Continuous
 62
     7
100
AcDbLine
 10
5679.2687542336
 20
4494.1041801836
 30
0.0
 11
5679.0898657935
 21
4494.6692322161
 31
0.0
  0
LINE
  5
5C1
330
1F
100
AcDbEntity
  8
0
  6
Continuous
 62
     7
100
AcDbLine
 10
5679.0898657935
 20
4494.6692322161
 30
0.0
 11
5678.565389623
 21
4495.195779648
 31
0.0
  0
LINE
  5
5C2
330
1F
100
AcDbEntity
  8
0
  6
Continuous
 62
     7
100
AcDbLine
 10
5678.565389623
 20
4495.195779648
 30
0.0
 11
5677.7310587066
 21
4495.6479404833
 31
0.0
  0
LINE
  5
5C3
330
1F
100
AcDbEntity
  8
0
  6
Continuous
 62
     7
100
AcDbLine
 10
5677.7310587066
 20
4495.6479404833
 30
0.0
 11
5676.6437507766
 21
4495.9949587252
 31
0.0
  0
LINE
  5
5C4
330
1F
100
AcDbEntity
  8
0
  6
Continuous
 62
     7
100
AcDbLine
 10
5676.6437507766
 20
4495.9949587252
 30
0.0
 11
5675.3775544064
 21
4496.213111725
 31
0.0
  0
LINE
  5
5C5
330
1F
100
AcDbEntity
  8
0
  6
Continuous
 62
     7
100
AcDbLine
 10
5675.3775544064
 20
4496.213111725
 30
0.0
 11
5674.0187622207
 21
4496.2874983217
 31
0.0
  0
LINE
  5
5C6
330
1F
100
AcDbEntity
  8
0
  6
Continuous
 62
     7
100
AcDbLine
 10
5674.0187622207
 20
4496.2874983217
 30
0.0
 11
5672.6599551337
 21
4496.213111725
 31
0.0
  0
LINE
  5
5C7
330
1F
100
AcDbEntity
  8
0
  6
Continuous
 62
     7
100
AcDbLine
 10
5672.6599551337
 20
4496.213111725
 30
0.0
 11
5671.3937587636
 21
4495.9949587252
 31
0.0
  0
LINE
  5
5C8
330
1F
100
AcDbEntity
  8
0
  6
Continuous
 62
     7
100
AcDbLine
 10
5671.3937587636
 20
4495.9949587252
 30
0.0
 11
5670.3064508336
 21
4495.6479404833
 31
0.0
  0
LINE
  5
5C9
330
1F
100
AcDbEntity
  8
0
  6
Continuous
 62
     7
100
AcDbLine
 10
5670.3064508336
 20
4495.6479404833
 30
0.0
 11
5669.4721199172
 21
4495.195779648
 31
0.0
  0
LINE
  5
5CA
330
1F
100
AcDbEntity
  8
0
  6
Continuous
 62
     7
100
AcDbLine
 10
5669.4721199172
 20
4495.195779648
 30
0.0
 11
5668.9476437467
 21
4494.6692322161
 31
0.0
  0
LINE
  5
5CB
330
1F
100
AcDbEntity
  8
0
  6
Continuous
 62
     7
100
AcDbLine
 10
5668.9476437467
 20
4494.6692322161
 30
0.0
 11
5668.7687553065
 21
4494.1041801836
 31
0.0
  0
LINE
  5
5CC
330
1F
100
AcDbEntity
  8
0
  6
Continuous
 62
     7
100
AcDbLine
 10
5073.2687629359
 20
4495.6285093691
 30
0.0
 11
5071.9603813785
 21
4495.4760406877
 31
0.0
  0
LINE
  5
5CD
330
1F
100
AcDbEntity
  8
0
  6
Continuous
 62
     7
100
AcDbLine
 10
5071.9603813785
 20
4495.4760406877
 30
0.0
 11
5070.7898653644
 21
4495.1891039278
 31
0.0
  0
LINE
  5
5CE
330
1F
100
AcDbEntity
  8
0
  6
Continuous
 62
     7
100
AcDbLine
 10
5070.7898653644
 20
4495.1891039278
 30
0.0
 11
5069.8356248038
 21
4494.7868917849
 31
0.0
  0
LINE
  5
5CF
330
1F
100
AcDbEntity
  8
0
  6
Continuous
 62
     7
100
AcDbLine
 10
5069.8356248038
 20
4494.7868917849
 30
0.0
 11
5069.1615856784
 21
4494.2962263491
 31
0.0
  0
LINE
  5
5D0
330
1F
100
AcDbEntity
  8
0
  6
Continuous
 62
     7
100
AcDbLine
 10
5069.1615856784
 20
4494.2962263491
 30
0.0
 11
5068.8128985064
 21
4493.7501285936
 31
0.0
  0
LINE
  5
5D1
330
1F
100
AcDbEntity
  8
0
  6
Continuous
 62
     7
100
AcDbLine
 10
5068.8128985064
 20
4493.7501285936
 30
0.0
 11
5068.8128985064
 21
4493.1850765612
 31
0.0
  0
LINE
  5
5D2
330
1F
100
AcDbEntity
  8
0
  6
Continuous
 62
     7
100
AcDbLine
 10
5068.8128985064
 20
4493.1850765612
 30
0.0
 11
5069.1615856784
 21
4492.6388595964
 31
0.0
  0
LINE
  5
5D3
330
1F
100
AcDbEntity
  8
0
  6
Continuous
 62
     7
100
AcDbLine
 10
5069.1615856784
 20
4492.6388595964
 30
0.0
 11
5069.7725630896
 21
4492.1835993196
 31
0.0
  0
LINE
  5
5D4
330
1F
100
AcDbEntity
  8
0
  6
Continuous
 62
     7
100
AcDbLine
 10
5073.2687629359
 20
4495.6285093691
 30
0.0
 11
5073.2687629359
 21
4491.0880659487
 31
0.0
  0
LINE
  5
5D5
330
1F
100
AcDbEntity
  8
0
  6
Continuous
 62
     7
100
AcDbLine
 10
5078.2649434703
 20
4492.1835993196
 30
0.0
 11
5078.8759208815
 21
4492.6388595964
 31
0.0
  0
LINE
  5
5D6
330
1F
100
AcDbEntity
  8
0
  6
Continuous
 62
     7
100
AcDbLine
 10
5078.8759208815
 20
4492.6388595964
 30
0.0
 11
5079.2246080535
 21
4493.1850765612
 31
0.0
  0
LINE
  5
5D7
330
1F
100
AcDbEntity
  8
0
  6
Continuous
 62
     7
100
AcDbLine
 10
5079.2246080535
 20
4493.1850765612
 30
0.0
 11
5079.2246080535
 21
4493.7501285936
 31
0.0
  0
LINE
  5
5D8
330
1F
100
AcDbEntity
  8
0
  6
Continuous
 62
     7
100
AcDbLine
 10
5079.2246080535
 20
4493.7501285936
 30
0.0
 11
5078.8759208815
 21
4494.2962263491
 31
0.0
  0
LINE
  5
5D9
330
1F
100
AcDbEntity
  8
0
  6
Continuous
 62
     7
100
AcDbLine
 10
5078.8759208815
 20
4494.2962263491
 30
0.0
 11
5078.2018817561
 21
4494.7868917849
 31
0.0
  0
LINE
  5
5DA
330
1F
100
AcDbEntity
  8
0
  6
Continuous
 62
     7
100
AcDbLine
 10
5078.2018817561
 20
4494.7868917849
 30
0.0
 11
5077.2476411956
 21
4495.1891039278
 31
0.0
  0
LINE
  5
5DB
330
1F
100
AcDbEntity
  8
0
  6
Continuous
 62
     7
100
AcDbLine
 10
5077.2476411956
 20
4495.1891039278
 30
0.0
 11
5076.0771251815
 21
4495.4760406877
 31
0.0
  0
LINE
  5
5DC
330
1F
100
AcDbEntity
  8
0
  6
Continuous
 62
     7
100
AcDbLine
 10
5076.0771251815
 20
4495.4760406877
 30
0.0
 11
5074.768743624
 21
4495.6285093691
 31
0.0
  0
LINE
  5
5DD
330
1F
100
AcDbEntity
  8
0
  6
Continuous
 62
     7
100
AcDbLine
 10
5074.768743624
 20
4491.0880659487
 30
0.0
 11
5074.768743624
 21
4495.6285093691
 31
0.0
  0
LINE
  5
5DE
330
1F
100
AcDbEntity
  8
0
  6
Continuous
 62
     7
100
AcDbLine
 10
5079.2687452929
 20
4494.1041801836
 30
0.0
 11
5079.089871754
 21
4494.6692322161
 31
0.0
  0
LINE
  5
5DF
330
1F
100
AcDbEntity
  8
0
  6
Continuous
 62
     7
100
AcDbLine
 10
5079.089871754
 20
4494.6692322161
 30
0.0
 11
5078.5653806823
 21
4495.195779648
 31
0.0
  0
LINE
  5
5E0
330
1F
100
AcDbEntity
  8
0
  6
Continuous
 62
     7
100
AcDbLine
 10
5078.5653806823
 20
4495.195779648
 30
0.0
 11
5077.731064667
 21
4495.6479404833
 31
0.0
  0
LINE
  5
5E1
330
1F
100
AcDbEntity
  8
0
  6
Continuous
 62
     7
100
AcDbLine
 10
5077.731064667
 20
4495.6479404833
 30
0.0
 11
5076.643756737
 21
4495.9949587252
 31
0.0
  0
LINE
  5
5E2
330
1F
100
AcDbEntity
  8
0
  6
Continuous
 62
     7
100
AcDbLine
 10
5076.643756737
 20
4495.9949587252
 30
0.0
 11
5075.3775454657
 21
4496.213111725
 31
0.0
  0
LINE
  5
5E3
330
1F
100
AcDbEntity
  8
0
  6
Continuous
 62
     7
100
AcDbLine
 10
5075.3775454657
 20
4496.213111725
 30
0.0
 11
5074.0187681811
 21
4496.2874983217
 31
0.0
  0
LINE
  5
5E4
330
1F
100
AcDbEntity
  8
0
  6
Continuous
 62
     7
100
AcDbLine
 10
5074.0187681811
 20
4496.2874983217
 30
0.0
 11
5072.6599610942
 21
4496.213111725
 31
0.0
  0
LINE
  5
5E5
330
1F
100
AcDbEntity
  8
0
  6
Continuous
 62
     7
100
AcDbLine
 10
5072.6599610942
 20
4496.213111725
 30
0.0
 11
5071.3937498229
 21
4495.9949587252
 31
0.0
  0
LINE
  5
5E6
330
1F
100
AcDbEntity
  8
0
  6
Continuous
 62
     7
100
AcDbLine
 10
5071.3937498229
 20
4495.9949587252
 30
0.0
 11
5070.3064418929
 21
4495.6479404833
 31
0.0
  0
LINE
  5
5E7
330
1F
100
AcDbEntity
  8
0
  6
Continuous
 62
     7
100
AcDbLine
 10
5070.3064418929
 20
4495.6479404833
 30
0.0
 11
5069.4721258777
 21
4495.195779648
 31
0.0
  0
LINE
  5
5E8
330
1F
100
AcDbEntity
  8
0
  6
Continuous
 62
     7
100
AcDbLine
 10
5069.4721258777
 20
4495.195779648
 30
0.0
 11
5068.947634806
 21
4494.6692322161
 31
0.0
  0
LINE
  5
5E9
330
1F
100
AcDbEntity
  8
0
  6
Continuous
 62
     7
100
AcDbLine
 10
5068.947634806
 20
4494.6692322161
 30
0.0
 11
5068.768761267
 21
4494.1041801836
 31
0.0
  0
LINE
  5
5EA
330
1F
100
AcDbEntity
  8
0
  6
Continuous
 62
     7
100
AcDbLine
 10
7473.2686794894
 20
4495.6285093691
 30
0.0
 11
7471.9604767459
 21
4495.4760406877
 31
0.0
  0
LINE
  5
5EB
330
1F
100
AcDbEntity
  8
0
  6
Continuous
 62
     7
100
AcDbLine
 10
7471.9604767459
 20
4495.4760406877
 30
0.0
 11
7470.7898415225
 21
4495.1891039278
 31
0.0
  0
LINE
  5
5EC
330
1F
100
AcDbEntity
  8
0
  6
Continuous
 62
     7
100
AcDbLine
 10
7470.7898415225
 20
4495.1891039278
 30
0.0
 11
7469.8356903689
 21
4494.7868917849
 31
0.0
  0
LINE
  5
5ED
330
1F
100
AcDbEntity
  8
0
  6
Continuous
 62
     7
100
AcDbLine
 10
7469.8356903689
 20
4494.7868917849
 30
0.0
 11
7469.1616810458
 21
4494.2962263491
 31
0.0
  0
LINE
  5
5EE
330
1F
100
AcDbEntity
  8
0
  6
Continuous
 62
     7
100
AcDbLine
 10
7469.1616810458
 20
4494.2962263491
 30
0.0
 11
7468.8128746646
 21
4493.7501285936
 31
0.0
  0
LINE
  5
5EF
330
1F
100
AcDbEntity
  8
0
  6
Continuous
 62
     7
100
AcDbLine
 10
7468.8128746646
 20
4493.7501285936
 30
0.0
 11
7468.8128746646
 21
4493.1850765612
 31
0.0
  0
LINE
  5
5F0
330
1F
100
AcDbEntity
  8
0
  6
Continuous
 62
     7
100
AcDbLine
 10
7468.8128746646
 20
4493.1850765612
 30
0.0
 11
7469.1616810458
 21
4492.6388595964
 31
0.0
  0
LINE
  5
5F1
330
1F
100
AcDbEntity
  8
0
  6
Continuous
 62
     7
100
AcDbLine
 10
7469.1616810458
 20
4492.6388595964
 30
0.0
 11
7469.7725094455
 21
4492.1835993196
 31
0.0
  0
LINE
  5
5F2
330
1F
100
AcDbEntity
  8
0
  6
Continuous
 62
     7
100
AcDbLine
 10
7473.2686794894
 20
4495.6285093691
 30
0.0
 11
7473.2686794894
 21
4491.0880659487
 31
0.0
  0
LINE
  5
5F3
330
1F
100
AcDbEntity
  8
0
  6
Continuous
 62
     7
100
AcDbLine
 10
7478.2649792331
 20
4492.1835993196
 30
0.0
 11
7478.8758076327
 21
4492.6388595964
 31
0.0
  0
LINE
  5
5F4
330
1F
100
AcDbEntity
  8
0
  6
Continuous
 62
     7
100
AcDbLine
 10
7478.8758076327
 20
4492.6388595964
 30
0.0
 11
7479.2246140139
 21
4493.1850765612
 31
0.0
  0
LINE
  5
5F5
330
1F
100
AcDbEntity
  8
0
  6
Continuous
 62
     7
100
AcDbLine
 10
7479.2246140139
 20
4493.1850765612
 30
0.0
 11
7479.2246140139
 21
4493.7501285936
 31
0.0
  0
LINE
  5
5F6
330
1F
100
AcDbEntity
  8
0
  6
Continuous
 62
     7
100
AcDbLine
 10
7479.2246140139
 20
4493.7501285936
 30
0.0
 11
7478.8758076327
 21
4494.2962263491
 31
0.0
  0
LINE
  5
5F7
330
1F
100
AcDbEntity
  8
0
  6
Continuous
 62
     7
100
AcDbLine
 10
7478.8758076327
 20
4494.2962263491
 30
0.0
 11
7478.2017983096
 21
4494.7868917849
 31
0.0
  0
LINE
  5
5F8
330
1F
100
AcDbEntity
  8
0
  6
Continuous
 62
     7
100
AcDbLine
 10
7478.2017983096
 20
4494.7868917849
 30
0.0
 11
7477.247647156
 21
4495.1891039278
 31
0.0
  0
LINE
  5
5F9
330
1F
100
AcDbEntity
  8
0
  6
Continuous
 62
     7
100
AcDbLine
 10
7477.247647156
 20
4495.1891039278
 30
0.0
 11
7476.0772503512
 21
4495.4760406877
 31
0.0
  0
LINE
  5
5FA
330
1F
100
AcDbEntity
  8
0
  6
Continuous
 62
     7
100
AcDbLine
 10
7476.0772503512
 20
4495.4760406877
 30
0.0
 11
7474.7688091891
 21
4495.6285093691
 31
0.0
  0
LINE
  5
5FB
330
1F
100
AcDbEntity
  8
0
  6
Continuous
 62
     7
100
AcDbLine
 10
7474.7688091891
 20
4491.0880659487
 30
0.0
 11
7474.7688091891
 21
4495.6285093691
 31
0.0
  0
LINE
  5
5FC
330
1F
100
AcDbEntity
  8
0
  6
Continuous
 62
     7
100
AcDbLine
 10
7479.2687214511
 20
4494.1041801836
 30
0.0
 11
7479.0899075168
 21
4494.6692322161
 31
0.0
  0
LINE
  5
5FD
330
1F
100
AcDbEntity
  8
0
  6
Continuous
 62
     7
100
AcDbLine
 10
7479.0899075168
 20
4494.6692322161
 30
0.0
 11
7478.5653866427
 21
4495.195779648
 31
0.0
  0
LINE
  5
5FE
330
1F
100
AcDbEntity
  8
0
  6
Continuous
 62
     7
100
AcDbLine
 10
7478.5653866427
 20
4495.195779648
 30
0.0
 11
7477.7311600345
 21
4495.6479404833
 31
0.0
  0
LINE
  5
5FF
330
1F
100
AcDbEntity
  8
0
  6
Continuous
 62
     7
100
AcDbLine
 10
7477.7311600345
 20
4495.6479404833
 30
0.0
 11
7476.6437328952
 21
4495.9949587252
 31
0.0
  0
LINE
  5
600
330
1F
100
AcDbEntity
  8
0
  6
Continuous
 62
     7
100
AcDbLine
 10
7476.6437328952
 20
4495.9949587252
 30
0.0
 11
7475.3774918216
 21
4496.213111725
 31
0.0
  0
LINE
  5
601
330
1F
100
AcDbEntity
  8
0
  6
Continuous
 62
     7
100
AcDbLine
 10
7475.3774918216
 20
4496.213111725
 30
0.0
 11
7474.0187443393
 21
4496.2874983217
 31
0.0
  0
LINE
  5
602
330
1F
100
AcDbEntity
  8
0
  6
Continuous
 62
     7
100
AcDbLine
 10
7474.0187443393
 20
4496.2874983217
 30
0.0
 11
7472.659996857
 21
4496.213111725
 31
0.0
  0
LINE
  5
603
330
1F
100
AcDbEntity
  8
0
  6
Continuous
 62
     7
100
AcDbLine
 10
7472.659996857
 20
4496.213111725
 30
0.0
 11
7471.3937557834
 21
4495.9949587252
 31
0.0
  0
LINE
  5
604
330
1F
100
AcDbEntity
  8
0
  6
Continuous
 62
     7
100
AcDbLine
 10
7471.3937557834
 20
4495.9949587252
 30
0.0
 11
7470.3063286441
 21
4495.6479404833
 31
0.0
  0
LINE
  5
605
330
1F
100
AcDbEntity
  8
0
  6
Continuous
 62
     7
100
AcDbLine
 10
7470.3063286441
 20
4495.6479404833
 30
0.0
 11
7469.4721020358
 21
4495.195779648
 31
0.0
  0
LINE
  5
606
330
1F
100
AcDbEntity
  8
0
  6
Continuous
 62
     7
100
AcDbLine
 10
7469.4721020358
 20
4495.195779648
 30
0.0
 11
7468.9475811618
 21
4494.6692322161
 31
0.0
  0
LINE
  5
607
330
1F
100
AcDbEntity
  8
0
  6
Continuous
 62
     7
100
AcDbLine
 10
7468.9475811618
 20
4494.6692322161
 30
0.0
 11
7468.7687672274
 21
4494.1041801836
 31
0.0
  0
LINE
  5
608
330
1F
100
AcDbEntity
  8
0
  6
Continuous
 62
     7
100
AcDbLine
 10
6873.2687553361
 20
4345.7109838133
 30
0.0
 11
6873.2687553361
 21
4335.3186789679
 31
0.0
  0
LINE
  5
609
330
1F
100
AcDbEntity
  8
0
  6
Continuous
 62
     7
100
AcDbLine
 10
6874.7687553361
 20
4335.3186789679
 30
0.0
 11
6874.7687553361
 21
4345.7109838133
 31
0.0
  0
LINE
  5
60A
330
1F
100
AcDbEntity
  8
0
  6
Continuous
 62
     7
100
AcDbLine
 10
5674.7687553361
 20
4335.3186789679
 30
0.0
 11
5674.7687553361
 21
4345.7109838133
 31
0.0
  0
LINE
  5
60B
330
1F
100
AcDbEntity
  8
0
  6
Continuous
 62
     7
100
AcDbLine
 10
5673.2687553361
 20
4345.7109838133
 30
0.0
 11
5673.2687553361
 21
4335.3186789679
 31
0.0
  0
LINE
  5
60C
330
1F
100
AcDbEntity
  8
0
  6
Continuous
 62
     7
100
AcDbLine
 10
6278.2649315493
 20
4492.1835993196
 30
0.0
 11
6278.8759387629
 21
4492.6388595964
 31
0.0
  0
LINE
  5
60D
330
1F
100
AcDbEntity
  8
0
  6
Continuous
 62
     7
100
AcDbLine
 10
6278.8759387629
 20
4492.6388595964
 30
0.0
 11
6279.2246259349
 21
4493.1850765612
 31
0.0
  0
LINE
  5
60E
330
1F
100
AcDbEntity
  8
0
  6
Continuous
 62
     7
100
AcDbLine
 10
6279.2246259349
 20
4493.1850765612
 30
0.0
 11
6279.2246259349
 21
4493.7501285936
 31
0.0
  0
LINE
  5
60F
330
1F
100
AcDbEntity
  8
0
  6
Continuous
 62
     7
100
AcDbLine
 10
6279.2246259349
 20
4493.7501285936
 30
0.0
 11
6278.8759387629
 21
4494.2962263491
 31
0.0
  0
LINE
  5
610
330
1F
100
AcDbEntity
  8
0
  6
Continuous
 62
     7
100
AcDbLine
 10
6278.8759387629
 20
4494.2962263491
 30
0.0
 11
6278.2018698352
 21
4494.7868917849
 31
0.0
  0
LINE
  5
611
330
1F
100
AcDbEntity
  8
0
  6
Continuous
 62
     7
100
AcDbLine
 10
6278.2018698352
 20
4494.7868917849
 30
0.0
 11
6277.247659077
 21
4495.1891039278
 31
0.0
  0
LINE
  5
612
330
1F
100
AcDbEntity
  8
0
  6
Continuous
 62
     7
100
AcDbLine
 10
6277.247659077
 20
4495.1891039278
 30
0.0
 11
6276.0771430629
 21
4495.4760406877
 31
0.0
  0
LINE
  5
613
330
1F
100
AcDbEntity
  8
0
  6
Continuous
 62
     7
100
AcDbLine
 10
6276.0771430629
 20
4495.4760406877
 30
0.0
 11
6274.7687615054
 21
4495.6285093691
 31
0.0
  0
LINE
  5
614
330
1F
100
AcDbEntity
  8
0
  6
Continuous
 62
     7
100
AcDbLine
 10
6274.7687615054
 20
4491.0880659487
 30
0.0
 11
6274.7687615054
 21
4495.6285093691
 31
0.0
  0
LINE
  5
615
330
1F
100
AcDbEntity
  8
0
  6
Continuous
 62
     7
100
AcDbLine
 10
6273.268751015
 20
4495.6285093691
 30
0.0
 11
6271.9603694575
 21
4495.4760406877
 31
0.0
  0
LINE
  5
616
330
1F
100
AcDbEntity
  8
0
  6
Continuous
 62
     7
100
AcDbLine
 10
6271.9603694575
 20
4495.4760406877
 30
0.0
 11
6270.7898534434
 21
4495.1891039278
 31
0.0
  0
LINE
  5
617
330
1F
100
AcDbEntity
  8
0
  6
Continuous
 62
     7
100
AcDbLine
 10
6270.7898534434
 20
4495.1891039278
 30
0.0
 11
6269.8356426852
 21
4494.7868917849
 31
0.0
  0
LINE
  5
618
330
1F
100
AcDbEntity
  8
0
  6
Continuous
 62
     7
100
AcDbLine
 10
6269.8356426852
 20
4494.7868917849
 30
0.0
 11
6269.1615737574
 21
4494.2962263491
 31
0.0
  0
LINE
  5
619
330
1F
100
AcDbEntity
  8
0
  6
Continuous
 62
     7
100
AcDbLine
 10
6269.1615737574
 20
4494.2962263491
 30
0.0
 11
6268.8128865855
 21
4493.7501285936
 31
0.0
  0
LINE
  5
61A
330
1F
100
AcDbEntity
  8
0
  6
Continuous
 62
     7
100
AcDbLine
 10
6268.8128865855
 20
4493.7501285936
 30
0.0
 11
6268.8128865855
 21
4493.1850765612
 31
0.0
  0
LINE
  5
61B
330
1F
100
AcDbEntity
  8
0
  6
Continuous
 62
     7
100
AcDbLine
 10
6268.8128865855
 20
4493.1850765612
 30
0.0
 11
6269.1615737574
 21
4492.6388595964
 31
0.0
  0
LINE
  5
61C
330
1F
100
AcDbEntity
  8
0
  6
Continuous
 62
     7
100
AcDbLine
 10
6269.1615737574
 20
4492.6388595964
 30
0.0
 11
6269.772580971
 21
4492.1835993196
 31
0.0
  0
LINE
  5
61D
330
1F
100
AcDbEntity
  8
0
  6
Continuous
 62
     7
100
AcDbLine
 10
6273.268751015
 20
4495.6285093691
 30
0.0
 11
6273.268751015
 21
4491.0880659487
 31
0.0
  0
LINE
  5
61E
330
1F
100
AcDbEntity
  8
0
  6
Continuous
 62
     7
100
AcDbLine
 10
6279.268733372
 20
4494.1041801836
 30
0.0
 11
6279.089859833
 21
4494.6692322161
 31
0.0
  0
LINE
  5
61F
330
1F
100
AcDbEntity
  8
0
  6
Continuous
 62
     7
100
AcDbLine
 10
6279.089859833
 20
4494.6692322161
 30
0.0
 11
6278.5653985637
 21
4495.195779648
 31
0.0
  0
LINE
  5
620
330
1F
100
AcDbEntity
  8
0
  6
Continuous
 62
     7
100
AcDbLine
 10
6278.5653985637
 20
4495.195779648
 30
0.0
 11
6277.7310527461
 21
4495.6479404833
 31
0.0
  0
LINE
  5
621
330
1F
100
AcDbEntity
  8
0
  6
Continuous
 62
     7
100
AcDbLine
 10
6277.7310527461
 20
4495.6479404833
 30
0.0
 11
6276.6437448161
 21
4495.9949587252
 31
0.0
  0
LINE
  5
622
330
1F
100
AcDbEntity
  8
0
  6
Continuous
 62
     7
100
AcDbLine
 10
6276.6437448161
 20
4495.9949587252
 30
0.0
 11
6275.3775633471
 21
4496.213111725
 31
0.0
  0
LINE
  5
623
330
1F
100
AcDbEntity
  8
0
  6
Continuous
 62
     7
100
AcDbLine
 10
6275.3775633471
 20
4496.213111725
 30
0.0
 11
6274.0187562602
 21
4496.2874983217
 31
0.0
  0
LINE
  5
624
330
1F
100
AcDbEntity
  8
0
  6
Continuous
 62
     7
100
AcDbLine
 10
6274.0187562602
 20
4496.2874983217
 30
0.0
 11
6272.6599491733
 21
4496.213111725
 31
0.0
  0
LINE
  5
625
330
1F
100
AcDbEntity
  8
0
  6
Continuous
 62
     7
100
AcDbLine
 10
6272.6599491733
 20
4496.213111725
 30
0.0
 11
6271.3937677043
 21
4495.9949587252
 31
0.0
  0
LINE
  5
626
330
1F
100
AcDbEntity
  8
0
  6
Continuous
 62
     7
100
AcDbLine
 10
6271.3937677043
 20
4495.9949587252
 30
0.0
 11
6270.3064597743
 21
4495.6479404833
 31
0.0
  0
LINE
  5
627
330
1F
100
AcDbEntity
  8
0
  6
Continuous
 62
     7
100
AcDbLine
 10
6270.3064597743
 20
4495.6479404833
 30
0.0
 11
6269.4721139567
 21
4495.195779648
 31
0.0
  0
LINE
  5
628
330
1F
100
AcDbEntity
  8
0
  6
Continuous
 62
     7
100
AcDbLine
 10
6269.4721139567
 20
4495.195779648
 30
0.0
 11
6268.9476526873
 21
4494.6692322161
 31
0.0
  0
LINE
  5
629
330
1F
100
AcDbEntity
  8
0
  6
Continuous
 62
     7
100
AcDbLine
 10
6268.9476526873
 20
4494.6692322161
 30
0.0
 11
6268.7687791484
 21
4494.1041801836
 31
0.0
  0
LINE
  5
62A
330
1F
100
AcDbEntity
  8
0
  6
Continuous
 62
     7
100
AcDbLine
 10
6878.2649553912
 20
4492.1835993196
 30
0.0
 11
6878.8759030002
 21
4492.6388595964
 31
0.0
  0
LINE
  5
62B
330
1F
100
AcDbEntity
  8
0
  6
Continuous
 62
     7
100
AcDbLine
 10
6878.8759030002
 20
4492.6388595964
 30
0.0
 11
6879.2245901721
 21
4493.1850765612
 31
0.0
  0
LINE
  5
62C
330
1F
100
AcDbEntity
  8
0
  6
Continuous
 62
     7
100
AcDbLine
 10
6879.2245901721
 20
4493.1850765612
 30
0.0
 11
6879.2245901721
 21
4493.7501285936
 31
0.0
  0
LINE
  5
62D
330
1F
100
AcDbEntity
  8
0
  6
Continuous
 62
     7
100
AcDbLine
 10
6879.2245901721
 20
4493.7501285936
 30
0.0
 11
6878.8759030002
 21
4494.2962263491
 31
0.0
  0
LINE
  5
62E
330
1F
100
AcDbEntity
  8
0
  6
Continuous
 62
     7
100
AcDbLine
 10
6878.8759030002
 20
4494.2962263491
 30
0.0
 11
6878.201893677
 21
4494.7868917849
 31
0.0
  0
LINE
  5
62F
330
1F
100
AcDbEntity
  8
0
  6
Continuous
 62
     7
100
AcDbLine
 10
6878.201893677
 20
4494.7868917849
 30
0.0
 11
6877.2476233142
 21
4495.1891039278
 31
0.0
  0
LINE
  5
630
330
1F
100
AcDbEntity
  8
0
  6
Continuous
 62
     7
100
AcDbLine
 10
6877.2476233142
 20
4495.1891039278
 30
0.0
 11
6876.0771073001
 21
4495.4760406877
 31
0.0
  0
LINE
  5
631
330
1F
100
AcDbEntity
  8
0
  6
Continuous
 62
     7
100
AcDbLine
 10
6876.0771073001
 20
4495.4760406877
 30
0.0
 11
6874.7687853473
 21
4495.6285093691
 31
0.0
  0
LINE
  5
632
330
1F
100
AcDbEntity
  8
0
  6
Continuous
 62
     7
100
AcDbLine
 10
6874.7687853473
 20
4491.0880659487
 30
0.0
 11
6874.7687853473
 21
4495.6285093691
 31
0.0
  0
LINE
  5
633
330
1F
100
AcDbEntity
  8
0
  6
Continuous
 62
     7
100
AcDbLine
 10
6873.2687748568
 20
4495.6285093691
 30
0.0
 11
6871.9603336947
 21
4495.4760406877
 31
0.0
  0
LINE
  5
634
330
1F
100
AcDbEntity
  8
0
  6
Continuous
 62
     7
100
AcDbLine
 10
6871.9603336947
 20
4495.4760406877
 30
0.0
 11
6870.7898176806
 21
4495.1891039278
 31
0.0
  0
LINE
  5
635
330
1F
100
AcDbEntity
  8
0
  6
Continuous
 62
     7
100
AcDbLine
 10
6870.7898176806
 20
4495.1891039278
 30
0.0
 11
6869.8356665271
 21
4494.7868917849
 31
0.0
  0
LINE
  5
636
330
1F
100
AcDbEntity
  8
0
  6
Continuous
 62
     7
100
AcDbLine
 10
6869.8356665271
 20
4494.7868917849
 30
0.0
 11
6869.1615379947
 21
4494.2962263491
 31
0.0
  0
LINE
  5
637
330
1F
100
AcDbEntity
  8
0
  6
Continuous
 62
     7
100
AcDbLine
 10
6869.1615379947
 20
4494.2962263491
 30
0.0
 11
6868.8128508227
 21
4493.7501285936
 31
0.0
  0
LINE
  5
638
330
1F
100
AcDbEntity
  8
0
  6
Continuous
 62
     7
100
AcDbLine
 10
6868.8128508227
 20
4493.7501285936
 30
0.0
 11
6868.8128508227
 21
4493.1850765612
 31
0.0
  0
LINE
  5
639
330
1F
100
AcDbEntity
  8
0
  6
Continuous
 62
     7
100
AcDbLine
 10
6868.8128508227
 20
4493.1850765612
 30
0.0
 11
6869.1615379947
 21
4492.6388595964
 31
0.0
  0
LINE
  5
63A
330
1F
100
AcDbEntity
  8
0
  6
Continuous
 62
     7
100
AcDbLine
 10
6869.1615379947
 20
4492.6388595964
 30
0.0
 11
6869.7726048129
 21
4492.1835993196
 31
0.0
  0
LINE
  5
63B
330
1F
100
AcDbEntity
  8
0
  6
Continuous
 62
     7
100
AcDbLine
 10
6873.2687748568
 20
4495.6285093691
 30
0.0
 11
6873.2687748568
 21
4491.0880659487
 31
0.0
  0
LINE
  5
63C
330
1F
100
AcDbEntity
  8
0
  6
Continuous
 62
     7
100
AcDbLine
 10
6879.2686976092
 20
4494.1041801836
 30
0.0
 11
6879.0898836749
 21
4494.6692322161
 31
0.0
  0
LINE
  5
63D
330
1F
100
AcDbEntity
  8
0
  6
Continuous
 62
     7
100
AcDbLine
 10
6879.0898836749
 20
4494.6692322161
 30
0.0
 11
6878.5653628009
 21
4495.195779648
 31
0.0
  0
LINE
  5
63E
330
1F
100
AcDbEntity
  8
0
  6
Continuous
 62
     7
100
AcDbLine
 10
6878.5653628009
 20
4495.195779648
 30
0.0
 11
6877.7310169833
 21
4495.6479404833
 31
0.0
  0
LINE
  5
63F
330
1F
100
AcDbEntity
  8
0
  6
Continuous
 62
     7
100
AcDbLine
 10
6877.7310169833
 20
4495.6479404833
 30
0.0
 11
6876.6437090533
 21
4495.9949587252
 31
0.0
  0
LINE
  5
640
330
1F
100
AcDbEntity
  8
0
  6
Continuous
 62
     7
100
AcDbLine
 10
6876.6437090533
 20
4495.9949587252
 30
0.0
 11
6875.377587189
 21
4496.213111725
 31
0.0
  0
LINE
  5
641
330
1F
100
AcDbEntity
  8
0
  6
Continuous
 62
     7
100
AcDbLine
 10
6875.377587189
 20
4496.213111725
 30
0.0
 11
6874.0187204974
 21
4496.2874983217
 31
0.0
  0
LINE
  5
642
330
1F
100
AcDbEntity
  8
0
  6
Continuous
 62
     7
100
AcDbLine
 10
6874.0187204974
 20
4496.2874983217
 30
0.0
 11
6872.6599730151
 21
4496.213111725
 31
0.0
  0
LINE
  5
643
330
1F
100
AcDbEntity
  8
0
  6
Continuous
 62
     7
100
AcDbLine
 10
6872.6599730151
 20
4496.213111725
 30
0.0
 11
6871.3937319415
 21
4495.9949587252
 31
0.0
  0
LINE
  5
644
330
1F
100
AcDbEntity
  8
0
  6
Continuous
 62
     7
100
AcDbLine
 10
6871.3937319415
 20
4495.9949587252
 30
0.0
 11
6870.3064240115
 21
4495.6479404833
 31
0.0
  0
LINE
  5
645
330
1F
100
AcDbEntity
  8
0
  6
Continuous
 62
     7
100
AcDbLine
 10
6870.3064240115
 20
4495.6479404833
 30
0.0
 11
6869.4720781939
 21
4495.195779648
 31
0.0
  0
LINE
  5
646
330
1F
100
AcDbEntity
  8
0
  6
Continuous
 62
     7
100
AcDbLine
 10
6869.4720781939
 20
4495.195779648
 30
0.0
 11
6868.9476765292
 21
4494.6692322161
 31
0.0
  0
LINE
  5
647
330
1F
100
AcDbEntity
  8
0
  6
Continuous
 62
     7
100
AcDbLine
 10
6868.9476765292
 20
4494.6692322161
 30
0.0
 11
6868.7687433856
 21
4494.1041801836
 31
0.0
  0
LINE
  5
648
330
1F
100
AcDbEntity
  8
0
  6
Continuous
 62
     7
100
AcDbLine
 10
5074.7687553361
 20
4335.3186789679
 30
0.0
 11
5074.7687553361
 21
4345.7109838133
 31
0.0
  0
LINE
  5
649
330
1F
100
AcDbEntity
  8
0
  6
Continuous
 62
     7
100
AcDbLine
 10
5073.2687553361
 20
4345.7109838133
 30
0.0
 11
5073.2687553361
 21
4335.3186789679
 31
0.0
  0
LINE
  5
64A
330
1F
100
AcDbEntity
  8
0
  6
Continuous
 62
     7
100
AcDbLine
 10
7514.0187061923
 20
4620.6093762781
 30
0.0
 11
7434.0187824862
 21
4620.6093762781
 31
0.0
  0
LINE
  5
64B
330
1F
100
AcDbEntity
  8
0
  6
Continuous
 62
     7
100
AcDbLine
 10
7494.0187252658
 20
4630.609426346
 30
0.0
 11
7454.0187634128
 21
4630.609426346
 31
0.0
  0
LINE
  5
64C
330
1F
100
AcDbEntity
  8
0
  6
Continuous
 62
     7
100
AcDbLine
 10
6314.0187777179
 20
4620.6093762781
 30
0.0
 11
6234.0187348025
 21
4620.6093762781
 31
0.0
  0
LINE
  5
64D
330
1F
100
AcDbEntity
  8
0
  6
Continuous
 62
     7
100
AcDbLine
 10
6294.0187371867
 20
4630.609426346
 30
0.0
 11
6254.0187753337
 21
4630.609426346
 31
0.0
  0
LINE
  5
64E
330
1F
100
AcDbEntity
  8
0
  6
Continuous
 62
     7
100
AcDbLine
 10
5714.018753876
 20
4620.6093762781
 30
0.0
 11
5634.0187556641
 21
4620.6093762781
 31
0.0
  0
LINE
  5
64F
330
1F
100
AcDbEntity
  8
0
  6
Continuous
 62
     7
100
AcDbLine
 10
5694.0187580483
 20
4630.609426346
 30
0.0
 11
5654.0187514918
 21
4630.609426346
 31
0.0
  0
LINE
  5
650
330
1F
100
AcDbEntity
  8
0
  6
Continuous
 62
     7
100
AcDbLine
 10
5114.0187598365
 20
4620.6093762781
 30
0.0
 11
5034.0187467235
 21
4620.6093762781
 31
0.0
  0
LINE
  5
651
330
1F
100
AcDbEntity
  8
0
  6
Continuous
 62
     7
100
AcDbLine
 10
5094.0187491076
 20
4630.609426346
 30
0.0
 11
5054.0187574523
 21
4630.609426346
 31
0.0
  0
LINE
  5
652
330
1F
100
AcDbEntity
  8
0
  6
Continuous
 62
     7
100
AcDbLine
 10
6914.0188015597
 20
4620.6093762781
 30
0.0
 11
6834.0187586444
 21
4620.6093762781
 31
0.0
  0
LINE
  5
653
330
1F
100
AcDbEntity
  8
0
  6
Continuous
 62
     7
100
AcDbLine
 10
6894.0187014239
 20
4630.609426346
 30
0.0
 11
6854.0187395709
 21
4630.609426346
 31
0.0
  0
LINE
  5
654
330
1F
100
AcDbEntity
  8
0
  6
Continuous
 62
     7
100
AcDbLine
 10
7462.8149784701
 20
4496.4034889604
 30
0.0
 11
7462.8149784701
 21
4495.3738783266
 31
0.0
  0
LINE
  5
655
330
1F
100
AcDbEntity
  8
0
  6
Continuous
 62
     7
100
AcDbLine
 10
7485.2225102084
 20
4496.4034889604
 30
0.0
 11
7485.2225102084
 21
4495.3738783266
 31
0.0
  0
LINE
  5
656
330
1F
100
AcDbEntity
  8
0
  6
Continuous
 62
     7
100
AcDbLine
 10
7462.0563305514
 20
4492.710742798
 30
0.0
 11
7462.0563305514
 21
4492.590102997
 31
0.0
  0
LINE
  5
657
330
1F
100
AcDbEntity
  8
0
  6
Continuous
 62
     7
100
AcDbLine
 10
7485.9811581271
 20
4492.710742798
 30
0.0
 11
7485.9811581271
 21
4492.590102997
 31
0.0
  0
LINE
  5
658
330
1F
100
AcDbEntity
  8
0
  6
Continuous
 62
     7
100
AcDbLine
 10
6862.8149546283
 20
4496.4034889604
 30
0.0
 11
6862.8149546283
 21
4495.3738783266
 31
0.0
  0
LINE
  5
659
330
1F
100
AcDbEntity
  8
0
  6
Continuous
 62
     7
100
AcDbLine
 10
6885.2224863665
 20
4496.4034889604
 30
0.0
 11
6885.2224863665
 21
4495.3738783266
 31
0.0
  0
LINE
  5
65A
330
1F
100
AcDbEntity
  8
0
  6
Continuous
 62
     7
100
AcDbLine
 10
6862.0564259189
 20
4492.710742798
 30
0.0
 11
6862.0564259189
 21
4492.590102997
 31
0.0
  0
LINE
  5
65B
330
1F
100
AcDbEntity
  8
0
  6
Continuous
 62
     7
100
AcDbLine
 10
6885.9811342852
 20
4492.710742798
 30
0.0
 11
6885.9811342852
 21
4492.590102997
 31
0.0
  0
LINE
  5
65C
330
1F
100
AcDbEntity
  8
0
  6
Continuous
 62
     7
100
AcDbLine
 10
5062.8149725097
 20
4496.4034889604
 30
0.0
 11
5062.8149725097
 21
4495.3738783266
 31
0.0
  0
LINE
  5
65D
330
1F
100
AcDbEntity
  8
0
  6
Continuous
 62
     7
100
AcDbLine
 10
5085.2225340503
 20
4496.4034889604
 30
0.0
 11
5085.2225340503
 21
4495.3738783266
 31
0.0
  0
LINE
  5
65E
330
1F
100
AcDbEntity
  8
0
  6
Continuous
 62
     7
100
AcDbLine
 10
5062.0563841956
 20
4492.710742798
 30
0.0
 11
5062.0563841956
 21
4492.590102997
 31
0.0
  0
LINE
  5
65F
330
1F
100
AcDbEntity
  8
0
  6
Continuous
 62
     7
100
AcDbLine
 10
5085.9811223643
 20
4492.710742798
 30
0.0
 11
5085.9811223643
 21
4492.590102997
 31
0.0
  0
LINE
  5
660
330
1F
100
AcDbEntity
  8
0
  6
Continuous
 62
     7
100
AcDbLine
 10
5662.8149814504
 20
4496.4034889604
 30
0.0
 11
5662.8149814504
 21
4495.3738783266
 31
0.0
  0
LINE
  5
661
330
1F
100
AcDbEntity
  8
0
  6
Continuous
 62
     7
100
AcDbLine
 10
5685.2225280898
 20
4496.4034889604
 30
0.0
 11
5685.2225280898
 21
4495.3738783266
 31
0.0
  0
LINE
  5
662
330
1F
100
AcDbEntity
  8
0
  6
Continuous
 62
     7
100
AcDbLine
 10
5662.0563931363
 20
4492.710742798
 30
0.0
 11
5662.0563931363
 21
4492.590102997
 31
0.0
  0
LINE
  5
663
330
1F
100
AcDbEntity
  8
0
  6
Continuous
 62
     7
100
AcDbLine
 10
5685.9811164039
 20
4492.710742798
 30
0.0
 11
5685.9811164039
 21
4492.590102997
 31
0.0
  0
LINE
  5
664
330
1F
100
AcDbEntity
  8
0
  6
Continuous
 62
     7
100
AcDbLine
 10
6262.8149903911
 20
4496.4034889604
 30
0.0
 11
6262.8149903911
 21
4495.3738783266
 31
0.0
  0
LINE
  5
665
330
1F
100
AcDbEntity
  8
0
  6
Continuous
 62
     7
100
AcDbLine
 10
6285.2225221293
 20
4496.4034889604
 30
0.0
 11
6285.2225221293
 21
4495.3738783266
 31
0.0
  0
LINE
  5
666
330
1F
100
AcDbEntity
  8
0
  6
Continuous
 62
     7
100
AcDbLine
 10
6262.056402077
 20
4492.710742798
 30
0.0
 11
6262.056402077
 21
4492.590102997
 31
0.0
  0
LINE
  5
667
330
1F
100
AcDbEntity
  8
0
  6
Continuous
 62
     7
100
AcDbLine
 10
6285.9811104434
 20
4492.710742798
 30
0.0
 11
6285.9811104434
 21
4492.590102997
 31
0.0
  0
LWPOLYLINE
  5
668
330
1F
100
AcDbEntity
  8
0
  6
Continuous
 62
     7
100
AcDbPolyline
 90
       12
 70
   128
 43
0.0
 10
8418.342590332
 20
5142.0033460195
 10
8421.9892998374
 20
5116.783644174
 10
8412.4673340177
 20
5101.9567995172
 10
8411.4799848589
 20
5100.7119813192
 10
8411.441225
 20
5100.6635780863
 10
8411.4386636063
 20
5100.6603863256
 10
8411.438513815
 20
5100.6602010267
 10
8411.4385085059
 20
5100.6601949776
 10
8411.4386044583
 20
5100.6603163282
 10
8411.4388620008
 20
5100.6606394255
 10
8411.4438689149
 20
5100.6668991035
 10
8411.4631181942
 20
5100.6909429739
  0
LWPOLYLINE
  5
669
330
1F
100
AcDbEntity
  8
0
  6
Continuous
 62
     7
100
AcDbPolyline
 90
        3
 70
   128
 43
0.0
 10
8416.5649414062
 20
5144.6557033519
 10
8417.1614436692
 20
5143.7965449277
 10
8418.3463817821
 20
5142.0033460195
  0
LINE
  5
66A
330
1F
100
AcDbEntity
  8
0
  6
Continuous
 62
     7
100
AcDbLine
 10
8416.5649414062
 20
5144.6557033519
 30
0.0
 11
8421.0984474407
 21
5144.6557033519
 31
0.0
  0
LWPOLYLINE
  5
66B
330
1F
100
AcDbEntity
  8
0
  6
Continuous
 62
     7
100
AcDbPolyline
 90
        3
 70
   128
 43
0.0
 10
8416.0766601562
 20
5224.8467735658
 10
8416.5526257824
 20
5224.5227930886
 10
8417.5249105678
 20
5223.8557047854
  0
LWPOLYLINE
  5
66C
330
1F
100
AcDbEntity
  8
0
  6
Continuous
 62
     7
100
AcDbPolyline
 90
       10
 70
   128
 43
0.0
 10
8419.563293457
 20
5206.8784765611
 10
8417.301334608
 20
5200.3577059818
 10
8417.0851948694
 20
5199.8918158943
 10
8417.0830623741
 20
5199.8872742777
 10
8417.0828081552
 20
5199.8867275921
 10
8417.0827972205
 20
5199.8867031691
 10
8417.0827949016
 20
5199.8866976371
 10
8417.0827946425
 20
5199.8866964753
 10
8417.0828268407
 20
5199.8867615205
 10
8417.086101173
 20
5199.8936690102
  0
LWPOLYLINE
  5
66D
330
1F
100
AcDbEntity
  8
0
  6
Continuous
 62
     7
100
AcDbPolyline
 90
        3
 70
   128
 43
0.0
 10
8417.5186157227
 20
5223.8557047854
 10
8418.6437821009
 20
5221.042988692
 10
8419.5681577907
 20
5217.8329311023
  0
LWPOLYLINE
  5
66E
330
1F
100
AcDbEntity
  8
0
  6
Continuous
 62
     7
100
AcDbPolyline
 90
        3
 70
   128
 43
0.0
 10
6861.6752624512
 20
4500.8983944323
 10
6862.6400981867
 20
4501.2905234486
 10
6863.5187662738
 20
4501.5801523592
  0
LWPOLYLINE
  5
66F
330
1F
100
AcDbEntity
  8
0
  6
Continuous
 62
     7
100
AcDbPolyline
 90
        3
 70
   128
 43
0.0
 10
7461.6737365723
 20
4500.8983944323
 10
7462.6401225651
 20
4501.290510384
 10
7463.5187901156
 20
4501.5801523592
  0
LWPOLYLINE
  5
670
330
1F
100
AcDbEntity
  8
0
  6
Continuous
 62
     7
100
AcDbPolyline
 90
        3
 70
   128
 43
0.0
 10
5061.6760253906
 20
4500.8983944323
 10
5062.6864573463
 20
4501.307769775
 10
5063.6060453551
 20
4501.6103123094
  0
LWPOLYLINE
  5
671
330
1F
100
AcDbEntity
  8
0
  6
Continuous
 62
     7
100
AcDbPolyline
 90
        3
 70
   128
 43
0.0
 10
5661.6744995117
 20
4500.8983944323
 10
5662.6864419003
 20
4501.3077723292
 10
5663.6060393947
 20
4501.6103123094
  0
LWPOLYLINE
  5
672
330
1F
100
AcDbEntity
  8
0
  6
Continuous
 62
     7
100
AcDbPolyline
 90
        3
 70
   128
 43
0.0
 10
6261.6729736328
 20
4500.8983944323
 10
6262.6864562564
 20
4501.3077748833
 10
6263.6060632365
 20
4501.6103123094
  0
LWPOLYLINE
  5
673
330
1F
100
AcDbEntity
  8
0
  6
Continuous
 62
     7
100
AcDbPolyline
 90
        4
 70
   128
 43
0.0
 10
7456.0508728027
 20
4495.3914020922
 10
7457.6537179429
 20
4491.8364669217
 10
7461.6511603581
 20
4489.2776148709
 10
7474.0187443393
 20
4487.1006344225
  0
LWPOLYLINE
  5
674
330
1F
100
AcDbEntity
  8
0
  6
Continuous
 62
     7
100
AcDbPolyline
 90
        4
 70
   128
 43
0.0
 10
7474.0180969238
 20
4487.1006344225
 10
7486.5030526865
 20
4489.3275706512
 10
7490.4876300655
 20
4491.9454083005
 10
7491.9766701358
 20
4495.5742691423
  0
LWPOLYLINE
  5
675
330
1F
100
AcDbEntity
  8
0
  6
Continuous
 62
     7
100
AcDbPolyline
 90
        4
 70
   128
 43
0.0
 10
6856.0485839844
 20
4495.3914020922
 10
6857.6536932
 20
4491.8364708371
 10
6861.6511723915
 20
4489.2776324198
 10
6874.0187204974
 20
4487.1006344225
  0
LWPOLYLINE
  5
676
330
1F
100
AcDbEntity
  8
0
  6
Continuous
 62
     7
100
AcDbPolyline
 90
        4
 70
   128
 43
0.0
 10
6874.0158081055
 20
4487.1006344225
 10
6886.5030413613
 20
4489.327575502
 10
6890.4876314059
 20
4491.9454205806
 10
6891.9766462939
 20
4495.5742691423
  0
LWPOLYLINE
  5
677
330
1F
100
AcDbEntity
  8
0
  6
Continuous
 62
     7
100
AcDbPolyline
 90
        4
 70
   128
 43
0.0
 10
5056.0493469238
 20
4495.3914020922
 10
5057.6537031695
 20
4491.8364600146
 10
5061.6511743465
 20
4489.2776162912
 10
5074.0187681811
 20
4487.1006344225
  0
LWPOLYLINE
  5
678
330
1F
100
AcDbEntity
  8
0
  6
Continuous
 62
     7
100
AcDbPolyline
 90
        4
 70
   128
 43
0.0
 10
5074.0165710449
 20
4487.1006344225
 10
5086.5030531777
 20
4489.3275874343
 10
5090.4876076451
 20
4491.9454361615
 10
5091.976634373
 20
4495.5742691423
  0
LWPOLYLINE
  5
679
330
1F
100
AcDbEntity
  8
0
  6
Continuous
 62
     7
100
AcDbPolyline
 90
        4
 70
   128
 43
0.0
 10
5656.0516357422
 20
4495.3914020922
 10
5657.6537061998
 20
4491.8364612853
 10
5661.6511731097
 20
4489.2776161513
 10
5674.0187622207
 20
4487.1006344225
  0
LWPOLYLINE
  5
67A
330
1F
100
AcDbEntity
  8
0
  6
Continuous
 62
     7
100
AcDbPolyline
 90
        4
 70
   128
 43
0.0
 10
5674.015045166
 20
4487.1006344225
 10
5686.5030475913
 20
4489.327587269
 10
5690.4876129275
 20
4491.9454332872
 10
5691.9766433137
 20
4495.5742691423
  0
LWPOLYLINE
  5
67B
330
1F
100
AcDbEntity
  8
0
  6
Continuous
 62
     7
100
AcDbPolyline
 90
        4
 70
   128
 43
0.0
 10
6256.0501098633
 20
4495.3914020922
 10
6257.6537064466
 20
4491.8364608932
 10
6261.6511792878
 20
4489.277619185
 10
6274.0187562602
 20
4487.1006344225
  0
LWPOLYLINE
  5
67C
330
1F
100
AcDbEntity
  8
0
  6
Continuous
 62
     7
100
AcDbPolyline
 90
        4
 70
   128
 43
0.0
 10
6274.0173339844
 20
4487.1006344225
 10
6286.5030462899
 20
4489.3275905516
 10
6290.4876235524
 20
4491.9454343021
 10
6291.9766224521
 20
4495.5742691423
  0
LWPOLYLINE
  5
67D
330
1F
100
AcDbEntity
  8
0
  6
Continuous
 62
     7
100
AcDbPolyline
 90
        8
 70
   128
 43
0.0
 10
6291.7633056641
 20
4494.0189455416
 10
6292.1763567172
 20
4495.6685776141
 10
6291.6013976961
 20
4497.3303445078
 10
6284.9169778742
 20
4501.4811832769
 10
6273.6290484959
 20
4503.020977524
 10
6262.5027256871
 20
4501.2769247867
 10
6256.254185559
 20
4497.0114215181
 10
6256.4099944728
 20
4493.7005375292
  0
LWPOLYLINE
  5
67E
330
1F
100
AcDbEntity
  8
0
  6
Continuous
 62
     7
100
AcDbPolyline
 90
        8
 70
   128
 43
0.0
 10
5091.7625427246
 20
4494.0189455416
 10
5092.1763690613
 20
4495.6685773716
 10
5091.6013884718
 20
4497.3303438615
 10
5084.9169793704
 20
4501.4811840086
 10
5073.6290472898
 20
4503.0209776738
 10
5062.502724179
 20
4501.276923748
 10
5056.2541938248
 20
4497.0114209253
 10
5056.4099765914
 20
4493.7005375292
  0
LWPOLYLINE
  5
67F
330
1F
100
AcDbEntity
  8
0
  6
Continuous
 62
     7
100
AcDbPolyline
 90
        8
 70
   128
 43
0.0
 10
6891.7617797852
 20
4494.0189455416
 10
6892.1763217894
 20
4495.6685785825
 10
6891.6013847782
 20
4497.3303479799
 10
6884.9169490171
 20
4501.4811796896
 10
6873.6290315446
 20
4503.0209772858
 10
6862.5027118404
 20
4501.2769277265
 10
6856.2542028075
 20
4497.0114166321
 10
6856.40995871
 20
4493.7005375292
  0
LWPOLYLINE
  5
680
330
1F
100
AcDbEntity
  8
0
  6
Continuous
 62
     7
100
AcDbPolyline
 90
        8
 70
   128
 43
0.0
 10
5691.7610168457
 20
4494.0189455416
 10
5692.1763622783
 20
4495.6685798884
 10
5691.601395969
 20
4497.3303471746
 10
5684.9169769085
 20
4501.4811844031
 10
5673.6290450298
 20
4503.0209773912
 10
5662.5027243568
 20
4501.276923634
 10
5656.2541865122
 20
4497.011421202
 10
5656.4099706309
 20
4493.7005375292
  0
LWPOLYLINE
  5
681
330
1F
100
AcDbEntity
  8
0
  6
Continuous
 62
     7
100
AcDbPolyline
 90
        8
 70
   128
 43
0.0
 10
7491.7602539062
 20
4494.0189455416
 10
7492.1764629633
 20
4495.6685851452
 10
7491.6012860085
 20
4497.330345435
 10
7484.9169722865
 20
4501.4811746189
 10
7473.629057452
 20
4503.0209782154
 10
7462.5027076621
 20
4501.2769349561
 10
7456.2542274611
 20
4497.0114171481
 10
7456.4099825519
 20
4493.7005375292
  0
ENDSEC
  0
SECTION
  2
OBJECTS
  0
DICTIONARY
  5
C
330
0
100
AcDbDictionary
281
     1
  3
ACAD_GROUP
350
D
  3
ACAD_LAYOUT
350
1A
  3
ACAD_MLINESTYLE
350
17
  3
ACAD_PLOTSETTINGS
350
19
  3
ACAD_PLOTSTYLENAME
350
E
  3
ACAD_SCALELIST
350
47
  3
DWGPROPS
350
682
  0
DICTIONARY
  5
D
102
{ACAD_REACTORS
330
C
102
}
330
C
100
AcDbDictionary
281
     1
  0
DICTIONARY
  5
1A
102
{ACAD_REACTORS
330
C
102
}
330
C
100
AcDbDictionary
281
     1
  3
Layout1
350
1E
  3
Layout2
350
26
  3
Model
350
22
  0
DICTIONARY
  5
17
102
{ACAD_REACTORS
330
C
102
}
330
C
100
AcDbDictionary
281
     1
  3
Standard
350
18
  0
DICTIONARY
  5
19
102
{ACAD_REACTORS
330
C
102
}
330
C
100
AcDbDictionary
281
     1
  0
ACDBDICTIONARYWDFLT
  5
E
102
{ACAD_REACTORS
330
C
102
}
330
C
100
AcDbDictionary
281
     1
  3
Normal
350
F
100
AcDbDictionaryWithDefault
340
F
  0
DICTIONARY
  5
47
102
{ACAD_REACTORS
330
C
102
}
330
C
100
AcDbDictionary
281
     1
  3
A0
350
48
  3
A1
350
49
  3
A2
350
4A
  3
A3
350
4B
  3
A4
350
4C
  3
A5
350
4D
  3
A6
350
4E
  3
A7
350
4F
  3
A8
350
50
  3
A9
350
51
  3
B0
350
52
  3
B1
350
53
  3
B2
350
54
  3
B3
350
55
  3
B4
350
56
  3
B5
350
57
  3
B6
350
58
  3
B7
350
59
  3
B8
350
5A
  3
B9
350
5B
  3
C0
350
5C
  3
C1
350
5D
  3
C2
350
5E
  3
C3
350
5F
  3
C4
350
60
  3
C5
350
61
  3
C6
350
62
  3
C7
350
63
  3
C8
350
64
  3
C9
350
65
  3
D0
350
66
  3
D1
350
67
  3
D2
350
68
  0
XRECORD
  5
682
102
{ACAD_REACTORS
330
C
102
}
330
C
100
AcDbXrecord
280
     1
  1
DWGPROPS COOKIE
  2

  3

  4

  6

  7

  8
radek.stransky
  9

300
=
301
=
302
=
303
=
304
=
305
=
306
=
307
=
308
=
309
=
 40
0.0
 41
2459096.331627454
 42
2459096.331656898
  1

 90
        0
  0
LAYOUT
  5
1E
102
{ACAD_REACTORS
330
1A
102
}
330
1A
100
AcDbPlotSettings
  1

  2
none_device
  4

  6

 40
0.0
 41
0.0
 42
0.0
 43
0.0
 44
0.0
 45
0.0
 46
0.0
 47
0.0
 48
0.0
 49
0.0
140
0.0
141
0.0
142
1.0
143
1.0
 70
   688
 72
     1
 73
     0
 74
     5
  7

 75
    16
147
1.0
148
0.0
149
0.0
100
AcDbLayout
  1
Layout1
 70
     1
 71
     1
 10
0.0
 20
0.0
 11
420.0
 21
297.0
 12
0.0
 22
0.0
 32
0.0
 14
1.0000000000E+20
 24
1.0000000000E+20
 34
1.0000000000E+20
 15
-1.0000000000E+20
 25
-1.0000000000E+20
 35
-1.0000000000E+20
146
0.0
 13
0.0
 23
0.0
 33
0.0
 16
1.0
 26
0.0
 36
0.0
 17
0.0
 27
1.0
 37
0.0
 76
     0
330
1B
  0
LAYOUT
  5
26
102
{ACAD_REACTORS
330
1A
102
}
330
1A
100
AcDbPlotSettings
  1

  2
none_device
  4

  6

 40
0.0
 41
0.0
 42
0.0
 43
0.0
 44
0.0
 45
0.0
 46
0.0
 47
0.0
 48
0.0
 49
0.0
140
0.0
141
0.0
142
1.0
143
1.0
 70
   688
 72
     1
 73
     0
 74
     5
  7

 75
    16
147
1.0
148
0.0
149
0.0
100
AcDbLayout
  1
Layout2
 70
     1
 71
     2
 10
0.0
 20
0.0
 11
0.0
 21
0.0
 12
0.0
 22
0.0
 32
0.0
 14
0.0
 24
0.0
 34
0.0
 15
0.0
 25
0.0
 35
0.0
146
0.0
 13
0.0
 23
0.0
 33
0.0
 16
1.0
 26
0.0
 36
0.0
 17
0.0
 27
1.0
 37
0.0
 76
     0
330
23
  0
LAYOUT
  5
22
102
{ACAD_REACTORS
330
1A
102
}
330
1A
100
AcDbPlotSettings
  1

  2
none_device
  4
ANSI_A_(11.00_x_8.50_Inches)
  6

 40
6.35
 41
19.05
 42
6.35000508
 43
19.05000254
 44
279.4
 45
215.9
 46
-344.4581916961
 47
-250.0796659669
 48
0.0
 49
0.0
140
0.0
141
0.0
142
0.0027998101
143
1.0
 70
  1696
 72
     0
 73
     0
 74
     0
  7

 75
     0
147
0.0179189148
148
-1300.4909072572
149
0.0
100
AcDbLayout
  1
Model
 70
     1
 71
     0
 10
0.0
 20
0.0
 11
420.0
 21
297.0
 12
0.0
 22
0.0
 32
0.0
 14
4774.0187553361
 24
4120.5147837068
 34
0.0
 15
8663.5682350384
 25
5412.7431966076
 35
0.0
146
0.0
 13
0.0
 23
0.0
 33
0.0
 16
1.0
 26
0.0
 36
0.0
 17
0.0
 27
1.0
 37
0.0
 76
     0
330
1F
331
29
  0
MLINESTYLE
  5
18
102
{ACAD_REACTORS
330
17
102
}
330
17
100
AcDbMlineStyle
  2
Standard
 70
     0
  3

 62
   256
 51
90.0
 52
90.0
 71
     2
 49
0.5
 62
   256
  6
BYLAYER
 49
-0.5
 62
   256
  6
BYLAYER
  0
ACDBPLACEHOLDER
  5
F
102
{ACAD_REACTORS
330
E
102
}
330
E
  0
SCALE
  5
48
102
{ACAD_REACTORS
330
47
102
}
330
47
100
AcDbScale
 70
     0
300
1:1
140
1.0
141
1.0
290
     1
  0
SCALE
  5
49
102
{ACAD_REACTORS
330
47
102
}
330
47
100
AcDbScale
 70
     0
300
1:2
140
1.0
141
2.0
290
     0
  0
SCALE
  5
4A
102
{ACAD_REACTORS
330
47
102
}
330
47
100
AcDbScale
 70
     0
300
1:4
140
1.0
141
4.0
290
     0
  0
SCALE
  5
4B
102
{ACAD_REACTORS
330
47
102
}
330
47
100
AcDbScale
 70
     0
300
1:5
140
1.0
141
5.0
290
     0
  0
SCALE
  5
4C
102
{ACAD_REACTORS
330
47
102
}
330
47
100
AcDbScale
 70
     0
300
1:8
140
1.0
141
8.0
290
     0
  0
SCALE
  5
4D
102
{ACAD_REACTORS
330
47
102
}
330
47
100
AcDbScale
 70
     0
300
1:10
140
1.0
141
10.0
290
     0
  0
SCALE
  5
4E
102
{ACAD_REACTORS
330
47
102
}
330
47
100
AcDbScale
 70
     0
300
1:16
140
1.0
141
16.0
290
     0
  0
SCALE
  5
4F
102
{ACAD_REACTORS
330
47
102
}
330
47
100
AcDbScale
 70
     0
300
1:20
140
1.0
141
20.0
290
     0
  0
SCALE
  5
50
102
{ACAD_REACTORS
330
47
102
}
330
47
100
AcDbScale
 70
     0
300
1:30
140
1.0
141
30.0
290
     0
  0
SCALE
  5
51
102
{ACAD_REACTORS
330
47
102
}
330
47
100
AcDbScale
 70
     0
300
1:40
140
1.0
141
40.0
290
     0
  0
SCALE
  5
52
102
{ACAD_REACTORS
330
47
102
}
330
47
100
AcDbScale
 70
     0
300
1:50
140
1.0
141
50.0
290
     0
  0
SCALE
  5
53
102
{ACAD_REACTORS
330
47
102
}
330
47
100
AcDbScale
 70
     0
300
1:100
140
1.0
141
100.0
290
     0
  0
SCALE
  5
54
102
{ACAD_REACTORS
330
47
102
}
330
47
100
AcDbScale
 70
     0
300
2:1
140
2.0
141
1.0
290
     0
  0
SCALE
  5
55
102
{ACAD_REACTORS
330
47
102
}
330
47
100
AcDbScale
 70
     0
300
4:1
140
4.0
141
1.0
290
     0
  0
SCALE
  5
56
102
{ACAD_REACTORS
330
47
102
}
330
47
100
AcDbScale
 70
     0
300
8:1
140
8.0
141
1.0
290
     0
  0
SCALE
  5
57
102
{ACAD_REACTORS
330
47
102
}
330
47
100
AcDbScale
 70
     0
300
10:1
140
10.0
141
1.0
290
     0
  0
SCALE
  5
58
102
{ACAD_REACTORS
330
47
102
}
330
47
100
AcDbScale
 70
     0
300
100:1
140
100.0
141
1.0
290
     0
  0
SCALE
  5
59
102
{ACAD_REACTORS
330
47
102
}
330
47
100
AcDbScale
 70
     0
300
1/128" = 1'-0"
140
0.0078125
141
12.0
290
     0
  0
SCALE
  5
5A
102
{ACAD_REACTORS
330
47
102
}
330
47
100
AcDbScale
 70
     0
300
1/64" = 1'-0"
140
0.015625
141
12.0
290
     0
  0
SCALE
  5
5B
102
{ACAD_REACTORS
330
47
102
}
330
47
100
AcDbScale
 70
     0
300
1/32" = 1'-0"
140
0.03125
141
12.0
290
     0
  0
SCALE
  5
5C
102
{ACAD_REACTORS
330
47
102
}
330
47
100
AcDbScale
 70
     0
300
1/16" = 1'-0"
140
0.0625
141
12.0
290
     0
  0
SCALE
  5
5D
102
{ACAD_REACTORS
330
47
102
}
330
47
100
AcDbScale
 70
     0
300
3/32" = 1'-0"
140
0.09375
141
12.0
290
     0
  0
SCALE
  5
5E
102
{ACAD_REACTORS
330
47
102
}
330
47
100
AcDbScale
 70
     0
300
1/8" = 1'-0"
140
0.125
141
12.0
290
     0
  0
SCALE
  5
5F
102
{ACAD_REACTORS
330
47
102
}
330
47
100
AcDbScale
 70
     0
300
3/16" = 1'-0"
140
0.1875
141
12.0
290
     0
  0
SCALE
  5
60
102
{ACAD_REACTORS
330
47
102
}
330
47
100
AcDbScale
 70
     0
300
1/4" = 1'-0"
140
0.25
141
12.0
290
     0
  0
SCALE
  5
61
102
{ACAD_REACTORS
330
47
102
}
330
47
100
AcDbScale
 70
     0
300
3/8" = 1'-0"
140
0.375
141
12.0
290
     0
  0
SCALE
  5
62
102
{ACAD_REACTORS
330
47
102
}
330
47
100
AcDbScale
 70
     0
300
1/2" = 1'-0"
140
0.5
141
12.0
290
     0
  0
SCALE
  5
63
102
{ACAD_REACTORS
330
47
102
}
330
47
100
AcDbScale
 70
     0
300
3/4" = 1'-0"
140
0.75
141
12.0
290
     0
  0
SCALE
  5
64
102
{ACAD_REACTORS
330
47
102
}
330
47
100
AcDbScale
 70
     0
300
1" = 1'-0"
140
1.0
141
12.0
290
     0
  0
SCALE
  5
65
102
{ACAD_REACTORS
330
47
102
}
330
47
100
AcDbScale
 70
     0
300
1-1/2" = 1'-0"
140
1.5
141
12.0
290
     0
  0
SCALE
  5
66
102
{ACAD_REACTORS
330
47
102
}
330
47
100
AcDbScale
 70
     0
300
3" = 1'-0"
140
3.0
141
12.0
290
     0
  0
SCALE
  5
67
102
{ACAD_REACTORS
330
47
102
}
330
47
100
AcDbScale
 70
     0
300
6" = 1'-0"
140
6.0
141
12.0
290
     0
  0
SCALE
  5
68
102
{ACAD_REACTORS
330
47
102
}
330
47
100
AcDbScale
 70
     0
300
1'-0" = 1'-0"
140
12.0
141
12.0
290
     0
  0
ENDSEC
  0
EOF
