  0
SECTION
  2
HEADER
  9
$ACADVER
  1
AC1015
  9
$ACADMAINTVER
 70
     6
  9
$DWGCODEPAGE
  3
ANSI_1250
  9
$INSBASE
 10
0.0
 20
0.0
 30
0.0
  9
$EXTMIN
 10
0.0
 20
0.0
 30
0.0
  9
$EXTMAX
 10
20000.0
 20
10000.0
 30
0.0
  9
$LIMMIN
 10
0.0
 20
0.0
  9
$LIMMAX
 10
20000.0
 20
10000.0
  9
$ORTHOMODE
 70
     0
  9
$REGENMODE
 70
     1
  9
$FILLMODE
 70
     1
  9
$QTEXTMODE
 70
     0
  9
$MIRRTEXT
 70
     1
  9
$LTSCALE
 40
1.0
  9
$ATTMODE
 70
     1
  9
$TEXTSIZE
 40
2.0
  9
$TRACEWID
 40
1.0
  9
$TEXTSTYLE
  7
Standard
  9
$CLAYER
  8
0
  9
$CELTYPE
  6
ByLayer
  9
$CECOLOR
 62
   256
  9
$CELTSCALE
 40
1.0
  9
$DISPSILH
 70
     0
  9
$DIMSCALE
 40
1.0
  9
$DIMASZ
 40
2.0
  9
$DIMEXO
 40
1.0
  9
$DIMDLI
 40
3.75
  9
$DIMRND
 40
0.0
  9
$DIMDLE
 40
0.0
  9
$DIMEXE
 40
1.0
  9
$DIMTP
 40
0.0
  9
$DIMTM
 40
0.0
  9
$DIMTXT
 40
2.0
  9
$DIMCEN
 40
2.5
  9
$DIMTSZ
 40
0.0
  9
$DIMTOL
 70
     0
  9
$DIMLIM
 70
     0
  9
$DIMTIH
 70
     1
  9
$DIMTOH
 70
     1
  9
$DIMSE1
 70
     0
  9
$DIMSE2
 70
     0
  9
$DIMTAD
 70
     1
  9
$DIMZIN
 70
     0
  9
$DIMBLK
  1

  9
$DIMASO
 70
     1
  9
$DIMSHO
 70
     1
  9
$DIMPOST
  1

  9
$DIMAPOST
  1

  9
$DIMALT
 70
     0
  9
$DIMALTD
 70
     3
  9
$DIMALTF
 40
0.0393700787
  9
$DIMLFAC
 40
1.0
  9
$DIMTOFL
 70
     1
  9
$DIMTVP
 40
0.0
  9
$DIMTIX
 70
     0
  9
$DIMSOXD
 70
     0
  9
$DIMSAH
 70
     0
  9
$DIMBLK1
  1

  9
$DIMBLK2
  1

  9
$DIMSTYLE
  2
ISO-25
  9
$DIMCLRD
 70
     0
  9
$DIMCLRE
 70
     0
  9
$DIMCLRT
 70
     0
  9
$DIMTFAC
 40
1.0
  9
$DIMGAP
 40
1.524
  9
$DIMJUST
 70
     0
  9
$DIMSD1
 70
     0
  9
$DIMSD2
 70
     0
  9
$DIMTOLJ
 70
     0
  9
$DIMTZIN
 70
     0
  9
$DIMALTZ
 70
     0
  9
$DIMALTTZ
 70
     0
  9
$DIMUPT
 70
     0
  9
$DIMDEC
 70
     2
  9
$DIMTDEC
 70
     0
  9
$DIMALTU
 70
     2
  9
$DIMALTTD
 70
     3
  9
$DIMTXSTY
  7
Standard
  9
$DIMAUNIT
 70
     0
  9
$DIMADEC
 70
     2
  9
$DIMALTRND
 40
0.0
  9
$DIMAZIN
 70
     0
  9
$DIMDSEP
 70
    44
  9
$DIMATFIT
 70
     3
  9
$DIMFRAC
 70
     0
  9
$DIMLDRBLK
  1

  9
$DIMLUNIT
 70
     2
  9
$DIMLWD
 70
    -2
  9
$DIMLWE
 70
    -2
  9
$DIMTMOVE
 70
     0
  9
$LUNITS
 70
     2
  9
$LUPREC
 70
     3
  9
$SKETCHINC
 40
1.0
  9
$FILLETRAD
 40
10.0
  9
$AUNITS
 70
     0
  9
$AUPREC
 70
     2
  9
$MENU
  1
.
  9
$ELEVATION
 40
0.0
  9
$PELEVATION
 40
0.0
  9
$THICKNESS
 40
0.0
  9
$LIMCHECK
 70
     0
  9
$CHAMFERA
 40
0.0
  9
$CHAMFERB
 40
0.0
  9
$CHAMFERC
 40
0.0
  9
$CHAMFERD
 40
0.0
  9
$SKPOLY
 70
     0
  9
$TDCREATE
 40
2459095.42451978
  9
$TDUCREATE
 40
2459095.341186447
  9
$TDUPDATE
 40
2459095.424520474
  9
$TDUUPDATE
 40
2459095.341187141
  9
$TDINDWG
 40
0.0000000116
  9
$TDUSRTIMER
 40
0.0000000116
  9
$USRTIMER
 70
     1
  9
$ANGBASE
 50
0.0
  9
$ANGDIR
 70
     0
  9
$PDMODE
 70
     0
  9
$PDSIZE
 40
-1.0
  9
$PLINEWID
 40
0.0
  9
$SPLFRAME
 70
     0
  9
$SPLINETYPE
 70
     6
  9
$SPLINESEGS
 70
     8
  9
$HANDSEED
  5
47C
  9
$SURFTAB1
 70
     6
  9
$SURFTAB2
 70
     6
  9
$SURFTYPE
 70
     6
  9
$SURFU
 70
     6
  9
$SURFV
 70
     6
  9
$UCSBASE
  2

  9
$UCSNAME
  2

  9
$UCSORG
 10
0.0
 20
0.0
 30
0.0
  9
$UCSXDIR
 10
1.0
 20
0.0
 30
0.0
  9
$UCSYDIR
 10
0.0
 20
1.0
 30
0.0
  9
$UCSORTHOREF
  2

  9
$UCSORTHOVIEW
 70
     0
  9
$UCSORGTOP
 10
0.0
 20
0.0
 30
0.0
  9
$UCSORGBOTTOM
 10
0.0
 20
0.0
 30
0.0
  9
$UCSORGLEFT
 10
0.0
 20
0.0
 30
0.0
  9
$UCSORGRIGHT
 10
0.0
 20
0.0
 30
0.0
  9
$UCSORGFRONT
 10
0.0
 20
0.0
 30
0.0
  9
$UCSORGBACK
 10
0.0
 20
0.0
 30
0.0
  9
$PUCSBASE
  2

  9
$PUCSNAME
  2

  9
$PUCSORG
 10
0.0
 20
0.0
 30
0.0
  9
$PUCSXDIR
 10
1.0
 20
0.0
 30
0.0
  9
$PUCSYDIR
 10
0.0
 20
1.0
 30
0.0
  9
$PUCSORTHOREF
  2

  9
$PUCSORTHOVIEW
 70
     0
  9
$PUCSORGTOP
 10
0.0
 20
0.0
 30
0.0
  9
$PUCSORGBOTTOM
 10
0.0
 20
0.0
 30
0.0
  9
$PUCSORGLEFT
 10
0.0
 20
0.0
 30
0.0
  9
$PUCSORGRIGHT
 10
0.0
 20
0.0
 30
0.0
  9
$PUCSORGFRONT
 10
0.0
 20
0.0
 30
0.0
  9
$PUCSORGBACK
 10
0.0
 20
0.0
 30
0.0
  9
$USERI1
 70
     0
  9
$USERI2
 70
     0
  9
$USERI3
 70
     0
  9
$USERI4
 70
     0
  9
$USERI5
 70
     0
  9
$USERR1
 40
0.0
  9
$USERR2
 40
0.0
  9
$USERR3
 40
0.0
  9
$USERR4
 40
0.0
  9
$USERR5
 40
0.0
  9
$WORLDVIEW
 70
     1
  9
$SHADEDGE
 70
     3
  9
$SHADEDIF
 70
    70
  9
$TILEMODE
 70
     1
  9
$MAXACTVP
 70
    64
  9
$PINSBASE
 10
0.0
 20
0.0
 30
0.0
  9
$PLIMCHECK
 70
     0
  9
$PEXTMIN
 10
1.0000000000E+20
 20
1.0000000000E+20
 30
1.0000000000E+20
  9
$PEXTMAX
 10
-1.0000000000E+20
 20
-1.0000000000E+20
 30
-1.0000000000E+20
  9
$PLIMMIN
 10
0.0
 20
0.0
  9
$PLIMMAX
 10
420.0
 20
297.0
  9
$UNITMODE
 70
     0
  9
$VISRETAIN
 70
     1
  9
$PLINEGEN
 70
     0
  9
$PSLTSCALE
 70
     1
  9
$TREEDEPTH
 70
  3020
  9
$CMLSTYLE
  2
Standard
  9
$CMLJUST
 70
     0
  9
$CMLSCALE
 40
20.0
  9
$PROXYGRAPHICS
 70
     1
  9
$MEASUREMENT
 70
     1
  9
$CELWEIGHT
370
    -1
  9
$ENDCAPS
280
     0
  9
$JOINSTYLE
280
     0
  9
$LWDISPLAY
290
     1
  9
$INSUNITS
 70
     4
  9
$HYPERLINKBASE
  1

  9
$STYLESHEET
  1

  9
$XEDIT
290
     1
  9
$CEPSNTYPE
380
     0
  9
$PSTYLEMODE
290
     1
  9
$FINGERPRINTGUID
  2
{f2786132-c71c-4526-8873-46e8bf8f6b8d}
  9
$VERSIONGUID
  2
{FAEB1C32-E019-11D5-929B-00C0DF256EC4}
  9
$EXTNAMES
290
     1
  9
$PSVPSCALE
 40
0.0
  9
$OLESTARTUP
290
     0
  0
ENDSEC
  0
SECTION
  2
CLASSES
  0
CLASS
  1
ACDBDICTIONARYWDFLT
  2
AcDbDictionaryWithDefault
  3
ObjectDBX Classes
 90
        0
280
     0
281
     0
  0
CLASS
  1
VISUALSTYLE
  2
AcDbVisualStyle
  3
ObjectDBX Classes
 90
     4095
280
     0
281
     0
  0
CLASS
  1
MATERIAL
  2
AcDbMaterial
  3
ObjectDBX Classes
 90
     1153
280
     0
281
     0
  0
CLASS
  1
SCALE
  2
AcDbScale
  3
ObjectDBX Classes
 90
     1153
280
     0
281
     0
  0
CLASS
  1
TABLESTYLE
  2
AcDbTableStyle
  3
ObjectDBX Classes
 90
     4095
280
     0
281
     0
  0
CLASS
  1
MLEADERSTYLE
  2
AcDbMLeaderStyle
  3
ACDB_MLEADERSTYLE_CLASS
 90
     4095
280
     0
281
     0
  0
CLASS
  1
SUN
  2
AcDbSun
  3
SCENEOE
 90
     1153
280
     0
281
     0
  0
CLASS
  1
ACDBPLACEHOLDER
  2
AcDbPlaceHolder
  3
ObjectDBX Classes
 90
        0
280
     0
281
     0
  0
CLASS
  1
LAYOUT
  2
AcDbLayout
  3
ObjectDBX Classes
 90
        0
280
     0
281
     0
  0
ENDSEC
  0
SECTION
  2
TABLES
  0
TABLE
  2
VPORT
  5
8
330
0
100
AcDbSymbolTable
 70
     1
  0
VPORT
  5
29
330
8
100
AcDbSymbolTableRecord
100
AcDbViewportTableRecord
  2
*Active
 70
     0
 10
0.0
 20
0.0
 11
1.0
 21
1.0
 12
10000.0
 22
5000.0
 13
0.0
 23
0.0
 14
10.0
 24
10.0
 15
10.0
 25
10.0
 16
0.0
 26
0.0
 36
1.0
 17
0.0
 27
0.0
 37
0.0
 40
10000.0
 41
2.0
 42
50.0
 43
0.0
 44
0.0
 50
0.0
 51
0.0
 71
     0
 72
  2000
 73
     1
 74
     3
 75
     0
 76
     0
 77
     0
 78
     0
281
     0
 65
     1
110
0.0
120
0.0
130
0.0
111
1.0
121
0.0
131
0.0
112
0.0
122
1.0
132
0.0
 79
     0
146
0.0
  0
ENDTAB
  0
TABLE
  2
LTYPE
  5
5
330
0
100
AcDbSymbolTable
 70
     6
  0
LTYPE
  5
14
330
5
100
AcDbSymbolTableRecord
100
AcDbLinetypeTableRecord
  2
ByBlock
 70
     0
  3

 72
    65
 73
     0
 40
0.0
  0
LTYPE
  5
15
330
5
100
AcDbSymbolTableRecord
100
AcDbLinetypeTableRecord
  2
ByLayer
 70
     0
  3

 72
    65
 73
     0
 40
0.0
  0
LTYPE
  5
16
330
5
100
AcDbSymbolTableRecord
100
AcDbLinetypeTableRecord
  2
Continuous
 70
     0
  3
Solid line
 72
    65
 73
     0
 40
0.0
  0
LTYPE
  5
6E
330
5
100
AcDbSymbolTableRecord
100
AcDbLinetypeTableRecord
  2
HIDDEN
 70
     0
  3
Hidden __ __ __ __ __ __ __ __ __ __ __ __ __ __
 72
    65
 73
     2
 40
1.905
 49
1.27
 74
     0
 49
-0.635
 74
     0
  0
LTYPE
  5
6F
330
5
100
AcDbSymbolTableRecord
100
AcDbLinetypeTableRecord
  2
PHANTOM
 70
     0
  3
Phantom ______  __  __  ______  __  __  ______
 72
    65
 73
     6
 40
12.7
 49
6.35
 74
     0
 49
-1.27
 74
     0
 49
1.27
 74
     0
 49
-1.27
 74
     0
 49
1.27
 74
     0
 49
-1.27
 74
     0
  0
LTYPE
  5
70
330
5
100
AcDbSymbolTableRecord
100
AcDbLinetypeTableRecord
  2
CENTER
 70
     0
  3
Center ____ _ ____ _ ____ _ ____ _ ____ _ ____
 72
    65
 73
     4
 40
10.16
 49
6.35
 74
     0
 49
-1.27
 74
     0
 49
1.27
 74
     0
 49
-1.27
 74
     0
  0
LTYPE
  5
71
330
5
100
AcDbSymbolTableRecord
100
AcDbLinetypeTableRecord
  2
CENTERX2
 70
     0
  3
Center (2x) ________  __  ________  __  _____
 72
    65
 73
     4
 40
20.32
 49
12.7
 74
     0
 49
-2.54
 74
     0
 49
2.54
 74
     0
 49
-2.54
 74
     0
  0
LTYPE
  5
72
330
5
100
AcDbSymbolTableRecord
100
AcDbLinetypeTableRecord
  2
DOT2
 70
     0
  3
Dot (.5x) ........................................
 72
    65
 73
     2
 40
0.635
 49
0.0
 74
     0
 49
-0.635
 74
     0
  0
ENDTAB
  0
TABLE
  2
LAYER
  5
2
330
0
100
AcDbSymbolTable
 70
    13
  0
LAYER
  5
10
330
2
100
AcDbSymbolTableRecord
100
AcDbLayerTableRecord
  2
0
 70
     0
 62
     7
  6
Continuous
370
    -3
390
F
  0
LAYER
  5
73
330
2
100
AcDbSymbolTableRecord
100
AcDbLayerTableRecord
  2
FORMAT
 70
     0
 62
     7
  6
Continuous
370
    -3
390
F
  0
LAYER
  5
74
330
2
100
AcDbSymbolTableRecord
100
AcDbLayerTableRecord
  2
OSA
 70
     0
 62
     7
  6
CENTER
370
    -3
390
F
  0
LAYER
  5
75
330
2
100
AcDbSymbolTableRecord
100
AcDbLayerTableRecord
  2
0_35
 70
     0
 62
     7
  6
Continuous
370
    35
390
F
  0
LAYER
  5
76
330
2
100
AcDbSymbolTableRecord
100
AcDbLayerTableRecord
  2
0_5
 70
     0
 62
     7
  6
Continuous
370
    50
390
F
  0
LAYER
  5
77
330
2
100
AcDbSymbolTableRecord
100
AcDbLayerTableRecord
  2
0_25
 70
     0
 62
     7
  6
Continuous
370
    25
390
F
  0
LAYER
  5
78
330
2
100
AcDbSymbolTableRecord
100
AcDbLayerTableRecord
  2
0_18
 70
     0
 62
     7
  6
Continuous
370
    -3
390
F
  0
LAYER
  5
79
330
2
100
AcDbSymbolTableRecord
100
AcDbLayerTableRecord
  2
SLD-0
 70
     0
 62
   179
  6
Continuous
370
    -3
390
F
  0
LAYER
  5
7A
330
2
100
AcDbSymbolTableRecord
100
AcDbLayerTableRecord
  2
KOTY
 70
     0
 62
     7
  6
Continuous
370
    -3
390
F
  0
LAYER
  5
7B
330
2
100
AcDbSymbolTableRecord
100
AcDbLayerTableRecord
  2
SILNA
 70
     0
 62
   179
  6
Continuous
370
    -3
390
F
  0
LAYER
  5
7C
330
2
100
AcDbSymbolTableRecord
100
AcDbLayerTableRecord
  2
0_18_1
 70
     0
 62
   179
  6
Continuous
370
    -3
390
F
  0
LAYER
  5
7D
330
2
100
AcDbSymbolTableRecord
100
AcDbLayerTableRecord
  2
0_35_1
 70
     0
 62
   179
  6
Continuous
370
    35
390
F
  0
LAYER
  5
7E
330
2
100
AcDbSymbolTableRecord
100
AcDbLayerTableRecord
  2
0_5_1
 70
     0
 62
   179
  6
Continuous
370
    50
390
F
  0
ENDTAB
  0
TABLE
  2
STYLE
  5
3
330
0
100
AcDbSymbolTable
 70
     1
  0
STYLE
  5
11
330
3
100
AcDbSymbolTableRecord
100
AcDbTextStyleTableRecord
  2
Standard
 70
     0
 40
0.0
 41
1.0
 50
0.0
 71
     0
 42
2.0
  3
txt
  4

  0
ENDTAB
  0
TABLE
  2
VIEW
  5
6
330
0
100
AcDbSymbolTable
 70
     0
  0
ENDTAB
  0
TABLE
  2
UCS
  5
7
330
0
100
AcDbSymbolTable
 70
     0
  0
ENDTAB
  0
TABLE
  2
APPID
  5
9
330
0
100
AcDbSymbolTable
 70
     1
  0
APPID
  5
12
330
9
100
AcDbSymbolTableRecord
100
AcDbRegAppTableRecord
  2
ACAD
 70
     0
  0
ENDTAB
  0
TABLE
  2
DIMSTYLE
  5
A
330
0
100
AcDbSymbolTable
 70
     1
100
AcDbDimStyleTable
  0
DIMSTYLE
105
27
330
A
100
AcDbSymbolTableRecord
100
AcDbDimStyleTableRecord
  2
ISO-25
 70
     0
 41
2.5
 42
0.625
 43
3.75
 44
1.25
 73
     0
 74
     0
 77
     1
 78
     8
140
2.5
141
2.5
143
0.0393700787
147
0.625
171
     3
172
     1
178
     0
271
     2
272
     2
274
     3
278
    44
283
     0
284
     8
340
11
  0
ENDTAB
  0
TABLE
  2
BLOCK_RECORD
  5
1
330
0
100
AcDbSymbolTable
 70
     1
  0
BLOCK_RECORD
  5
1F
330
1
100
AcDbSymbolTableRecord
100
AcDbBlockTableRecord
  2
*Model_Space
340
22
  0
BLOCK_RECORD
  5
1B
330
1
100
AcDbSymbolTableRecord
100
AcDbBlockTableRecord
  2
*Paper_Space
340
1E
  0
BLOCK_RECORD
  5
23
330
1
100
AcDbSymbolTableRecord
100
AcDbBlockTableRecord
  2
*Paper_Space0
340
26
  0
ENDTAB
  0
ENDSEC
  0
SECTION
  2
BLOCKS
  0
BLOCK
  5
20
330
1F
100
AcDbEntity
  8
0
100
AcDbBlockBegin
  2
*Model_Space
 70
     0
 10
0.0
 20
0.0
 30
0.0
  3
*Model_Space
  1

  0
ENDBLK
  5
21
330
1F
100
AcDbEntity
  8
0
100
AcDbBlockEnd
  0
BLOCK
  5
1C
330
1B
100
AcDbEntity
 67
     1
  8
0
100
AcDbBlockBegin
  2
*Paper_Space
 70
     0
 10
0.0
 20
0.0
 30
0.0
  3
*Paper_Space
  1

  0
ENDBLK
  5
1D
330
1B
100
AcDbEntity
 67
     1
  8
0
100
AcDbBlockEnd
  0
BLOCK
  5
24
330
23
100
AcDbEntity
  8
0
100
AcDbBlockBegin
  2
*Paper_Space0
 70
     0
 10
0.0
 20
0.0
 30
0.0
  3
*Paper_Space0
  1

  0
ENDBLK
  5
25
330
23
100
AcDbEntity
  8
0
100
AcDbBlockEnd
  0
ENDSEC
  0
SECTION
  2
ENTITIES
  0
LINE
  5
7F
330
1F
100
AcDbEntity
  8
0
  6
Continuous
 62
     7
370
    25
100
AcDbLine
 10
1987.0222404803
 20
7740.6872298706
 30
0.0
 11
1987.0222404803
 21
7740.0664063885
 31
0.0
  0
LINE
  5
80
330
1F
100
AcDbEntity
  8
0
  6
Continuous
 62
     7
370
    25
100
AcDbLine
 10
2005.0222404803
 20
7740.0664063885
 30
0.0
 11
2005.0222404803
 21
7740.6872298706
 31
0.0
  0
ARC
  5
81
330
1F
100
AcDbEntity
  8
0
  6
Continuous
 62
     7
370
    25
100
AcDbCircle
 10
1996.0222404803
 20
7876.0664063885
 30
0.0
 40
39.93749999999979
100
AcDbArc
 50
5.7413392974
 51
174.2741026664
  0
ARC
  5
82
330
1F
100
AcDbEntity
  8
0
  6
Continuous
 62
     7
370
    25
100
AcDbCircle
 10
1996.0222404803
 20
7876.0664063885
 30
0.0
 40
39.93750000000011
100
AcDbArc
 50
185.7448800963
 51
354.2694149583
  0
ARC
  5
83
330
1F
100
AcDbEntity
  8
0
  6
Continuous
 62
     7
370
    25
100
AcDbCircle
 10
1996.0222404803
 20
7876.0664063885
 30
0.0
 40
37.00000000000021
100
AcDbArc
 50
186.2002662517
 51
353.7850840416
  0
ARC
  5
84
330
1F
100
AcDbEntity
  8
0
  6
Continuous
 62
     7
370
    25
100
AcDbCircle
 10
1996.0222404803
 20
7876.0664063885
 30
0.0
 40
36.99999999999991
100
AcDbArc
 50
6.2095148745
 51
173.8020791793
  0
LINE
  5
85
330
1F
100
AcDbEntity
  8
0
  6
Continuous
 62
     7
370
    25
100
AcDbLine
 10
1942.0222404803
 20
7880.0664063885
 30
0.0
 11
1942.0222404803
 21
7883.0664063885
 31
0.0
  0
LINE
  5
86
330
1F
100
AcDbEntity
  8
0
  6
Continuous
 62
     7
370
    25
100
AcDbLine
 10
1922.0222404803
 20
7883.0664063885
 30
0.0
 11
1922.0222404803
 21
7880.0664063885
 31
0.0
  0
ARC
  5
87
330
1F
100
AcDbEntity
  8
0
  6
Continuous
 62
     7
370
    25
100
AcDbCircle
 10
1926.0222404803
 20
7883.0664063885
 30
0.0
 40
4.0
100
AcDbArc
 50
90.0
 51
180.0
  0
ARC
  5
88
330
1F
100
AcDbEntity
  8
0
  6
Continuous
 62
     7
370
    25
100
AcDbCircle
 10
1938.0222404803
 20
7883.0664063885
 30
0.0
 40
4.0
100
AcDbArc
 50
0.0
 51
90.0
  0
ARC
  5
89
330
1F
100
AcDbEntity
  8
0
  6
Continuous
 62
     7
370
    25
100
AcDbCircle
 10
2054.0222404803
 20
7883.0664063885
 30
0.0
 40
4.0
100
AcDbArc
 50
90.0
 51
180.0
  0
ARC
  5
8A
330
1F
100
AcDbEntity
  8
0
  6
Continuous
 62
     7
370
    25
100
AcDbCircle
 10
2066.0222404803
 20
7883.0664063885
 30
0.0
 40
4.0
100
AcDbArc
 50
0.0
 51
90.0
  0
LINE
  5
8B
330
1F
100
AcDbEntity
  8
0
  6
Continuous
 62
     7
370
    25
100
AcDbLine
 10
2070.0222404803
 20
7880.0664063885
 30
0.0
 11
2070.0222404803
 21
7883.0664063885
 31
0.0
  0
LINE
  5
8C
330
1F
100
AcDbEntity
  8
0
  6
Continuous
 62
     7
370
    25
100
AcDbLine
 10
2050.0222404803
 20
7883.0664063885
 30
0.0
 11
2050.0222404803
 21
7880.0664063885
 31
0.0
  0
LINE
  5
8D
330
1F
100
AcDbEntity
  8
0
  6
Continuous
 62
     7
370
    25
100
AcDbLine
 10
2055.0222404803
 20
7872.0664063885
 30
0.0
 11
2055.0222404803
 21
7850.0664063885
 31
0.0
  0
LINE
  5
8E
330
1F
100
AcDbEntity
  8
0
  6
Continuous
 62
     7
370
    25
100
AcDbLine
 10
2065.0222404803
 20
7850.0664063885
 30
0.0
 11
2065.0222404803
 21
7872.0664063885
 31
0.0
  0
LINE
  5
8F
330
1F
100
AcDbEntity
  8
0
  6
Continuous
 62
     7
370
    25
100
AcDbLine
 10
1927.0222404803
 20
7872.0664063885
 30
0.0
 11
1927.0222404803
 21
7850.0664063885
 31
0.0
  0
LINE
  5
90
330
1F
100
AcDbEntity
  8
0
  6
Continuous
 62
     7
370
    25
100
AcDbLine
 10
1937.0222404803
 20
7850.0664063885
 30
0.0
 11
1937.0222404803
 21
7872.0664063885
 31
0.0
  0
ARC
  5
91
330
1F
100
AcDbEntity
  8
0
  6
Continuous
 62
     7
370
    25
100
AcDbCircle
 10
1996.0222404803
 20
7634.0664063885
 30
0.0
 40
109.9375000000002
100
AcDbArc
 50
2.0838208898
 51
177.9129706479
  0
ARC
  5
92
330
1F
100
AcDbEntity
  8
0
  6
Continuous
 62
     7
370
    25
100
AcDbCircle
 10
1996.0222404803
 20
7634.0664063885
 30
0.0
 40
109.9375000000002
100
AcDbArc
 50
182.0847665388
 51
357.9171165388
  0
ARC
  5
93
330
1F
100
AcDbEntity
  8
0
  6
Continuous
 62
     7
370
    25
100
AcDbCircle
 10
1996.0222404803
 20
7634.0664063885
 30
0.0
 40
107.0000000000002
100
AcDbArc
 50
2.1399092243
 51
177.8565448428
  0
ARC
  5
94
330
1F
100
AcDbEntity
  8
0
  6
Continuous
 62
     7
370
    25
100
AcDbCircle
 10
1996.0222404803
 20
7634.0664063885
 30
0.0
 40
107.0000000000002
100
AcDbArc
 50
182.1442436058
 51
357.8607280682
  0
LINE
  5
95
330
1F
100
AcDbEntity
  8
0
  6
Continuous
 62
     7
370
    25
100
AcDbLine
 10
1852.0222404803
 20
7630.0664063885
 30
0.0
 11
1852.0222404803
 21
7627.0664063885
 31
0.0
  0
LINE
  5
96
330
1F
100
AcDbEntity
  8
0
  6
Continuous
 62
     7
370
    25
100
AcDbLine
 10
1872.0222404803
 20
7627.0664063885
 30
0.0
 11
1872.0222404803
 21
7630.0664063885
 31
0.0
  0
ARC
  5
97
330
1F
100
AcDbEntity
  8
0
  6
Continuous
 62
     7
370
    25
100
AcDbCircle
 10
1868.0222404803
 20
7627.0664063885
 30
0.0
 40
4.0
100
AcDbArc
 50
270.0
 51
0.0
  0
ARC
  5
98
330
1F
100
AcDbEntity
  8
0
  6
Continuous
 62
     7
370
    25
100
AcDbCircle
 10
1856.0222404803
 20
7627.0664063885
 30
0.0
 40
4.0
100
AcDbArc
 50
180.0
 51
270.0
  0
ARC
  5
99
330
1F
100
AcDbEntity
  8
0
  6
Continuous
 62
     7
370
    25
100
AcDbCircle
 10
2136.0222404803
 20
7627.0664063885
 30
0.0
 40
4.0
100
AcDbArc
 50
270.0
 51
0.0
  0
ARC
  5
9A
330
1F
100
AcDbEntity
  8
0
  6
Continuous
 62
     7
370
    25
100
AcDbCircle
 10
2124.0222404803
 20
7627.0664063885
 30
0.0
 40
4.0
100
AcDbArc
 50
180.0
 51
270.0
  0
LINE
  5
9B
330
1F
100
AcDbEntity
  8
0
  6
Continuous
 62
     7
370
    25
100
AcDbLine
 10
2120.0222404803
 20
7630.0664063885
 30
0.0
 11
2120.0222404803
 21
7627.0664063885
 31
0.0
  0
LINE
  5
9C
330
1F
100
AcDbEntity
  8
0
  6
Continuous
 62
     7
370
    25
100
AcDbLine
 10
2140.0222404803
 20
7627.0664063885
 30
0.0
 11
2140.0222404803
 21
7630.0664063885
 31
0.0
  0
LINE
  5
9D
330
1F
100
AcDbEntity
  8
0
  6
Continuous
 62
     7
370
    25
100
AcDbLine
 10
1867.0222404803
 20
7638.0664063885
 30
0.0
 11
1867.0222404803
 21
7660.0664063885
 31
0.0
  0
LINE
  5
9E
330
1F
100
AcDbEntity
  8
0
  6
Continuous
 62
     7
370
    25
100
AcDbLine
 10
1857.0222404803
 20
7660.0664063885
 30
0.0
 11
1857.0222404803
 21
7638.0664063885
 31
0.0
  0
LINE
  5
9F
330
1F
100
AcDbEntity
  8
0
  6
Continuous
 62
     7
370
    25
100
AcDbLine
 10
2135.0222404803
 20
7638.0664063885
 30
0.0
 11
2135.0222404803
 21
7660.0664063885
 31
0.0
  0
LINE
  5
A0
330
1F
100
AcDbEntity
  8
0
  6
Continuous
 62
     7
370
    25
100
AcDbLine
 10
2125.0222404803
 20
7660.0664063885
 30
0.0
 11
2125.0222404803
 21
7638.0664063885
 31
0.0
  0
LINE
  5
A1
330
1F
100
AcDbEntity
  8
0
  6
Continuous
 62
     7
370
    25
100
AcDbLine
 10
1726.5222404803
 20
7970.2664063885
 30
0.0
 11
1726.5222404803
 21
6910.2664063885
 31
0.0
  0
LINE
  5
A2
330
1F
100
AcDbEntity
  8
0
  6
Continuous
 62
     7
370
    25
100
AcDbLine
 10
1726.5222404803
 20
7970.2664063885
 30
0.0
 11
1732.5222404803
 21
7970.2664063885
 31
0.0
  0
LINE
  5
A3
330
1F
100
AcDbEntity
  8
0
  6
Continuous
 62
     7
370
    25
100
AcDbLine
 10
1732.5222404803
 20
7970.2664063885
 30
0.0
 11
1732.5222404803
 21
6910.2664063885
 31
0.0
  0
LINE
  5
A4
330
1F
100
AcDbEntity
  8
0
  6
Continuous
 62
     7
370
    25
100
AcDbLine
 10
1840.5222404803
 20
7970.2664063885
 30
0.0
 11
1846.5222404803
 21
7970.2664063885
 31
0.0
  0
LINE
  5
A5
330
1F
100
AcDbEntity
  8
0
  6
Continuous
 62
     7
370
    25
100
AcDbLine
 10
1846.5222404803
 20
7970.2664063885
 30
0.0
 11
1846.5222404803
 21
7847.7324603018
 31
0.0
  0
LINE
  5
A6
330
1F
100
AcDbEntity
  8
0
  6
Continuous
 62
     7
370
    25
100
AcDbLine
 10
1846.5222404803
 20
7802.4003524752
 30
0.0
 11
1846.5222404803
 21
6910.2664063885
 31
0.0
  0
LINE
  5
A7
330
1F
100
AcDbEntity
  8
0
  6
Continuous
 62
     7
370
    25
100
AcDbLine
 10
1946.5222404803
 20
6904.2664063885
 30
0.0
 11
1946.5222404803
 21
6910.2664063885
 31
0.0
  0
LINE
  5
A8
330
1F
100
AcDbEntity
  8
0
  6
Continuous
 62
     7
370
    25
100
AcDbLine
 10
1946.5222404803
 20
6904.2664063885
 30
0.0
 11
1626.5222404803
 21
6904.2664063885
 31
0.0
  0
LINE
  5
A9
330
1F
100
AcDbEntity
  8
0
  6
Continuous
 62
     7
370
    25
100
AcDbLine
 10
1626.5222404803
 20
6904.2664063885
 30
0.0
 11
1626.5222404803
 21
6910.2664063885
 31
0.0
  0
LINE
  5
AA
330
1F
100
AcDbEntity
  8
0
  6
Continuous
 62
     7
370
    25
100
AcDbLine
 10
1732.5222404803
 20
7970.2664063885
 30
0.0
 11
1840.5222404803
 21
7970.2664063885
 31
0.0
  0
ARC
  5
AB
330
1F
100
AcDbEntity
  8
0
  6
Continuous
 62
     7
370
    25
100
AcDbCircle
 10
1814.5222404803
 20
7532.2664063885
 30
0.0
 40
12.0
100
AcDbArc
 50
180.0
 51
0.0
  0
LINE
  5
AC
330
1F
100
AcDbEntity
  8
0
  6
Continuous
 62
     7
370
    25
100
AcDbLine
 10
1826.5222404803
 20
7532.2664063885
 30
0.0
 11
1826.5222404803
 21
7788.5458642239
 31
0.0
  0
LINE
  5
AD
330
1F
100
AcDbEntity
  8
0
  6
Continuous
 62
     7
370
    25
100
AcDbLine
 10
1826.5222404803
 20
7861.5869485532
 30
0.0
 11
1826.5222404803
 21
7928.2664063885
 31
0.0
  0
ARC
  5
AE
330
1F
100
AcDbEntity
  8
0
  6
Continuous
 62
     7
370
    25
100
AcDbCircle
 10
1814.5222404803
 20
7928.2664063885
 30
0.0
 40
12.0
100
AcDbArc
 50
0.0
 51
180.0
  0
LINE
  5
AF
330
1F
100
AcDbEntity
  8
0
  6
Continuous
 62
     7
370
    25
100
AcDbLine
 10
1802.5222404803
 20
7928.2664063885
 30
0.0
 11
1802.5222404803
 21
7860.5875268663
 31
0.0
  0
LINE
  5
B0
330
1F
100
AcDbEntity
  8
0
  6
Continuous
 62
     7
370
    25
100
AcDbLine
 10
1802.5222404803
 20
7789.5452859107
 30
0.0
 11
1802.5222404803
 21
7532.2664063885
 31
0.0
  0
LINE
  5
B1
330
1F
100
AcDbEntity
  8
0
  6
Continuous
 62
     7
370
    25
100
AcDbLine
 10
1946.5222404803
 20
6910.2664063885
 30
0.0
 11
1840.5222404803
 21
6910.2664063885
 31
0.0
  0
LINE
  5
B2
330
1F
100
AcDbEntity
  8
0
  6
Continuous
 62
     7
370
    25
100
AcDbLine
 10
1732.5222404803
 20
6910.2664063885
 30
0.0
 11
1626.5222404803
 21
6910.2664063885
 31
0.0
  0
LINE
  5
B3
330
1F
100
AcDbEntity
  8
0
  6
Continuous
 62
     7
370
    25
100
AcDbLine
 10
1732.5222404803
 20
7972.0664063885
 30
0.0
 11
1840.5222404803
 21
7972.0664063885
 31
0.0
  0
LINE
  5
B4
330
1F
100
AcDbEntity
  8
0
  6
Continuous
 62
     7
370
    25
100
AcDbLine
 10
1732.5222404803
 20
7970.2664063885
 30
0.0
 11
1732.5222404803
 21
7972.0664063885
 31
0.0
  0
LINE
  5
B5
330
1F
100
AcDbEntity
  8
0
  6
Continuous
 62
     7
370
    25
100
AcDbLine
 10
1840.5222404803
 20
7970.2664063885
 30
0.0
 11
1840.5222404803
 21
7972.0664063885
 31
0.0
  0
LINE
  5
B6
330
1F
100
AcDbEntity
  8
0
  6
Continuous
 62
     7
370
    25
100
AcDbLine
 10
1794.5222404803
 20
8076.0664063885
 30
0.0
 11
1794.5222404803
 21
8120.2664063885
 31
0.0
  0
LINE
  5
B7
330
1F
100
AcDbEntity
  8
0
  6
Continuous
 62
     7
370
    25
100
AcDbLine
 10
1732.5222404803
 20
8158.2664063885
 30
0.0
 11
1840.5222404803
 21
8158.2664063885
 31
0.0
  0
LINE
  5
B8
330
1F
100
AcDbEntity
  8
0
  6
Continuous
 62
     7
370
    25
100
AcDbLine
 10
1778.5222404803
 20
8120.2664063885
 30
0.0
 11
1778.5222404803
 21
8076.0664063885
 31
0.0
  0
ARC
  5
B9
330
1F
100
AcDbEntity
  8
0
  6
Continuous
 62
     7
370
    25
100
AcDbCircle
 10
1786.5222404803
 20
8120.2664063885
 30
0.0
 40
8.000000000000227
100
AcDbArc
 50
0.0
 51
180.0
  0
LINE
  5
BA
330
1F
100
AcDbEntity
  8
0
  6
Continuous
 62
     7
370
    25
100
AcDbLine
 10
1732.5222404803
 20
7972.0664063885
 30
0.0
 11
1732.5222404803
 21
8006.0664063885
 31
0.0
  0
LINE
  5
BB
330
1F
100
AcDbEntity
  8
0
  6
Continuous
 62
     7
370
    25
100
AcDbLine
 10
1732.5222404803
 20
8076.0664063885
 30
0.0
 11
1732.5222404803
 21
8158.2664063885
 31
0.0
  0
LINE
  5
BC
330
1F
100
AcDbEntity
  8
0
  6
Continuous
 62
     7
370
    25
100
AcDbLine
 10
1840.5222404803
 20
7972.0664063885
 30
0.0
 11
1840.5222404803
 21
8006.0664063885
 31
0.0
  0
LINE
  5
BD
330
1F
100
AcDbEntity
  8
0
  6
Continuous
 62
     7
370
    25
100
AcDbLine
 10
1840.5222404803
 20
8076.0664063885
 30
0.0
 11
1840.5222404803
 21
8158.2664063885
 31
0.0
  0
LINE
  5
BE
330
1F
100
AcDbEntity
  8
0
  6
Continuous
 62
     7
370
    25
100
AcDbLine
 10
2365.5222404803
 20
6904.2664063885
 30
0.0
 11
2365.5222404803
 21
6910.2664063885
 31
0.0
  0
LINE
  5
BF
330
1F
100
AcDbEntity
  8
0
  6
Continuous
 62
     7
370
    25
100
AcDbLine
 10
2365.5222404803
 20
6904.2664063885
 30
0.0
 11
2045.5222404803
 21
6904.2664063885
 31
0.0
  0
LINE
  5
C0
330
1F
100
AcDbEntity
  8
0
  6
Continuous
 62
     7
370
    25
100
AcDbLine
 10
2045.5222404803
 20
6904.2664063885
 30
0.0
 11
2045.5222404803
 21
6910.2664063885
 31
0.0
  0
LINE
  5
C1
330
1F
100
AcDbEntity
  8
0
  6
Continuous
 62
     7
370
    25
100
AcDbLine
 10
2151.5222404803
 20
6910.2664063885
 30
0.0
 11
2045.5222404803
 21
6910.2664063885
 31
0.0
  0
LINE
  5
C2
330
1F
100
AcDbEntity
  8
0
  6
Continuous
 62
     7
370
    25
100
AcDbLine
 10
2151.5222404803
 20
7970.2664063885
 30
0.0
 11
2259.5222404803
 21
7970.2664063885
 31
0.0
  0
LINE
  5
C3
330
1F
100
AcDbEntity
  8
0
  6
Continuous
 62
     7
370
    25
100
AcDbLine
 10
2259.5222404803
 20
7970.2664063885
 30
0.0
 11
2259.5222404803
 21
6910.2664063885
 31
0.0
  0
LINE
  5
C4
330
1F
100
AcDbEntity
  8
0
  6
Continuous
 62
     7
370
    25
100
AcDbLine
 10
2365.5222404803
 20
6910.2664063885
 30
0.0
 11
2259.5222404803
 21
6910.2664063885
 31
0.0
  0
ARC
  5
C5
330
1F
100
AcDbEntity
  8
0
  6
Continuous
 62
     7
370
    25
100
AcDbCircle
 10
2177.5222404803
 20
7532.2664063885
 30
0.0
 40
12.0
100
AcDbArc
 50
180.0
 51
0.0
  0
LINE
  5
C6
330
1F
100
AcDbEntity
  8
0
  6
Continuous
 62
     7
370
    25
100
AcDbLine
 10
2189.5222404803
 20
7532.2664063885
 30
0.0
 11
2189.5222404803
 21
7789.5452859107
 31
0.0
  0
LINE
  5
C7
330
1F
100
AcDbEntity
  8
0
  6
Continuous
 62
     7
370
    25
100
AcDbLine
 10
2189.5222404803
 20
7860.5875268663
 30
0.0
 11
2189.5222404803
 21
7928.2664063885
 31
0.0
  0
ARC
  5
C8
330
1F
100
AcDbEntity
  8
0
  6
Continuous
 62
     7
370
    25
100
AcDbCircle
 10
2177.5222404803
 20
7928.2664063885
 30
0.0
 40
12.0
100
AcDbArc
 50
0.0
 51
180.0
  0
LINE
  5
C9
330
1F
100
AcDbEntity
  8
0
  6
Continuous
 62
     7
370
    25
100
AcDbLine
 10
2165.5222404803
 20
7928.2664063885
 30
0.0
 11
2165.5222404803
 21
7861.5869485532
 31
0.0
  0
LINE
  5
CA
330
1F
100
AcDbEntity
  8
0
  6
Continuous
 62
     7
370
    25
100
AcDbLine
 10
2165.5222404803
 20
7788.5458642239
 30
0.0
 11
2165.5222404803
 21
7532.2664063885
 31
0.0
  0
LINE
  5
CB
330
1F
100
AcDbEntity
  8
0
  6
Continuous
 62
     7
370
    25
100
AcDbLine
 10
2145.5222404803
 20
7970.2664063885
 30
0.0
 11
2145.5222404803
 21
7847.7324603018
 31
0.0
  0
LINE
  5
CC
330
1F
100
AcDbEntity
  8
0
  6
Continuous
 62
     7
370
    25
100
AcDbLine
 10
2145.5222404803
 20
7802.4003524752
 30
0.0
 11
2145.5222404803
 21
6910.2664063885
 31
0.0
  0
LINE
  5
CD
330
1F
100
AcDbEntity
  8
0
  6
Continuous
 62
     7
370
    25
100
AcDbLine
 10
2145.5222404803
 20
7970.2664063885
 30
0.0
 11
2151.5222404803
 21
7970.2664063885
 31
0.0
  0
LINE
  5
CE
330
1F
100
AcDbEntity
  8
0
  6
Continuous
 62
     7
370
    25
100
AcDbLine
 10
2259.5222404803
 20
7970.2664063885
 30
0.0
 11
2265.5222404803
 21
7970.2664063885
 31
0.0
  0
LINE
  5
CF
330
1F
100
AcDbEntity
  8
0
  6
Continuous
 62
     7
370
    25
100
AcDbLine
 10
2265.5222404803
 20
7970.2664063885
 30
0.0
 11
2265.5222404803
 21
6910.2664063885
 31
0.0
  0
LINE
  5
D0
330
1F
100
AcDbEntity
  8
0
  6
Continuous
 62
     7
370
    25
100
AcDbLine
 10
2151.5222404803
 20
7972.0664063885
 30
0.0
 11
2259.5222404803
 21
7972.0664063885
 31
0.0
  0
LINE
  5
D1
330
1F
100
AcDbEntity
  8
0
  6
Continuous
 62
     7
370
    25
100
AcDbLine
 10
2151.5222404803
 20
7970.2664063885
 30
0.0
 11
2151.5222404803
 21
7972.0664063885
 31
0.0
  0
LINE
  5
D2
330
1F
100
AcDbEntity
  8
0
  6
Continuous
 62
     7
370
    25
100
AcDbLine
 10
2259.5222404803
 20
7970.2664063885
 30
0.0
 11
2259.5222404803
 21
7972.0664063885
 31
0.0
  0
LINE
  5
D3
330
1F
100
AcDbEntity
  8
0
  6
Continuous
 62
     7
370
    25
100
AcDbLine
 10
2151.5222404803
 20
8158.2664063885
 30
0.0
 11
2259.5222404803
 21
8158.2664063885
 31
0.0
  0
ARC
  5
D4
330
1F
100
AcDbEntity
  8
0
  6
Continuous
 62
     7
370
    25
100
AcDbCircle
 10
2205.5222404803
 20
8120.2664063885
 30
0.0
 40
8.0
100
AcDbArc
 50
0.0
 51
180.0
  0
LINE
  5
D5
330
1F
100
AcDbEntity
  8
0
  6
Continuous
 62
     7
370
    25
100
AcDbLine
 10
2197.5222404803
 20
8120.2664063885
 30
0.0
 11
2197.5222404803
 21
8076.0664063885
 31
0.0
  0
LINE
  5
D6
330
1F
100
AcDbEntity
  8
0
  6
Continuous
 62
     7
370
    25
100
AcDbLine
 10
2213.5222404803
 20
8076.0664063885
 30
0.0
 11
2213.5222404803
 21
8120.2664063885
 31
0.0
  0
LINE
  5
D7
330
1F
100
AcDbEntity
  8
0
  6
Continuous
 62
     7
370
    25
100
AcDbLine
 10
2151.5222404803
 20
7972.0664063885
 30
0.0
 11
2151.5222404803
 21
8006.0664063885
 31
0.0
  0
LINE
  5
D8
330
1F
100
AcDbEntity
  8
0
  6
Continuous
 62
     7
370
    25
100
AcDbLine
 10
2151.5222404803
 20
8076.0664063885
 30
0.0
 11
2151.5222404803
 21
8158.2664063885
 31
0.0
  0
LINE
  5
D9
330
1F
100
AcDbEntity
  8
0
  6
Continuous
 62
     7
370
    25
100
AcDbLine
 10
2259.5222404803
 20
7972.0664063885
 30
0.0
 11
2259.5222404803
 21
8006.0664063885
 31
0.0
  0
LINE
  5
DA
330
1F
100
AcDbEntity
  8
0
  6
Continuous
 62
     7
370
    25
100
AcDbLine
 10
2259.5222404803
 20
8076.0664063885
 30
0.0
 11
2259.5222404803
 21
8158.2664063885
 31
0.0
  0
CIRCLE
  5
DB
330
1F
100
AcDbEntity
  8
0
  6
Continuous
 62
     7
370
    25
100
AcDbCircle
 10
1816.0222404803
 20
7825.0664063885
 30
0.0
 40
13.49999999999988
  0
CIRCLE
  5
DC
330
1F
100
AcDbEntity
  8
0
  6
Continuous
 62
     7
370
    25
100
AcDbCircle
 10
2176.0222404803
 20
7825.0664063885
 30
0.0
 40
13.49999999999988
  0
LINE
  5
DD
330
1F
100
AcDbEntity
  8
0
  6
Continuous
 62
     7
370
    25
100
AcDbLine
 10
1726.5222404803
 20
7810.0664063885
 30
0.0
 11
1666.0222404803
 21
7810.0664063885
 31
0.0
  0
LINE
  5
DE
330
1F
100
AcDbEntity
  8
0
  6
Continuous
 62
     7
370
    25
100
AcDbLine
 10
2141.1080599801
 20
7810.0664063885
 30
0.0
 11
1850.9364209805
 21
7810.0664063885
 31
0.0
  0
LINE
  5
DF
330
1F
100
AcDbEntity
  8
0
  6
Continuous
 62
     7
370
    25
100
AcDbLine
 10
2326.0222404803
 20
7810.0664063885
 30
0.0
 11
2265.5222404803
 21
7810.0664063885
 31
0.0
  0
LINE
  5
E0
330
1F
100
AcDbEntity
  8
0
  6
Continuous
 62
     7
370
    25
100
AcDbLine
 10
2326.0222404803
 20
7810.0664063885
 30
0.0
 11
2326.0222404803
 21
7804.0664063885
 31
0.0
  0
LINE
  5
E1
330
1F
100
AcDbEntity
  8
0
  6
Continuous
 62
     7
370
    25
100
AcDbLine
 10
1666.0222404803
 20
7810.0664063885
 30
0.0
 11
1666.0222404803
 21
7804.0664063885
 31
0.0
  0
LINE
  5
E2
330
1F
100
AcDbEntity
  8
0
  6
Continuous
 62
     7
370
    25
100
AcDbLine
 10
2326.0222404803
 20
7770.0664063885
 30
0.0
 11
2265.5222404803
 21
7770.0664063885
 31
0.0
  0
LINE
  5
E3
330
1F
100
AcDbEntity
  8
0
  6
Continuous
 62
     7
370
    25
100
AcDbLine
 10
2189.5222404803
 20
7770.0664063885
 30
0.0
 11
2165.5222404803
 21
7770.0664063885
 31
0.0
  0
LINE
  5
E4
330
1F
100
AcDbEntity
  8
0
  6
Continuous
 62
     7
370
    25
100
AcDbLine
 10
2145.5222404803
 20
7770.0664063885
 30
0.0
 11
1846.5222404803
 21
7770.0664063885
 31
0.0
  0
LINE
  5
E5
330
1F
100
AcDbEntity
  8
0
  6
Continuous
 62
     7
370
    25
100
AcDbLine
 10
1826.5222404803
 20
7770.0664063885
 30
0.0
 11
1802.5222404803
 21
7770.0664063885
 31
0.0
  0
LINE
  5
E6
330
1F
100
AcDbEntity
  8
0
  6
Continuous
 62
     7
370
    25
100
AcDbLine
 10
1726.5222404803
 20
7770.0664063885
 30
0.0
 11
1666.0222404803
 21
7770.0664063885
 31
0.0
  0
LINE
  5
E7
330
1F
100
AcDbEntity
  8
0
  6
Continuous
 62
     7
370
    25
100
AcDbLine
 10
1666.0222404803
 20
7776.0664063885
 30
0.0
 11
1666.0222404803
 21
7770.0664063885
 31
0.0
  0
LINE
  5
E8
330
1F
100
AcDbEntity
  8
0
  6
Continuous
 62
     7
370
    25
100
AcDbLine
 10
2326.0222404803
 20
7776.0664063885
 30
0.0
 11
2326.0222404803
 21
7770.0664063885
 31
0.0
  0
LINE
  5
E9
330
1F
100
AcDbEntity
  8
0
  6
Continuous
 62
     7
370
    25
100
AcDbLine
 10
1666.0222404803
 20
7804.0664063885
 30
0.0
 11
1666.0222404803
 21
7776.0664063885
 31
0.0
  0
LINE
  5
EA
330
1F
100
AcDbEntity
  8
0
  6
Continuous
 62
     7
370
    25
100
AcDbLine
 10
2326.0222404803
 20
7804.0664063885
 30
0.0
 11
2326.0222404803
 21
7776.0664063885
 31
0.0
  0
LINE
  5
EB
330
1F
100
AcDbEntity
  8
0
  6
Continuous
 62
     7
370
    25
100
AcDbLine
 10
1996.0222404803
 20
7740.0664063885
 30
0.0
 11
2005.0222404803
 21
7740.0664063885
 31
0.0
  0
LINE
  5
EC
330
1F
100
AcDbEntity
  8
0
  6
Continuous
 62
     7
370
    25
100
AcDbLine
 10
1987.0222404803
 20
7740.0664063885
 30
0.0
 11
1996.0222404803
 21
7740.0664063885
 31
0.0
  0
LINE
  5
ED
330
1F
100
AcDbEntity
  8
0
  6
Continuous
 62
     7
370
    25
100
AcDbLine
 10
1789.0125155561
 20
7822.4571741546
 30
0.0
 11
1804.7770394171
 21
7800.3706823379
 31
0.0
  0
LINE
  5
EE
330
1F
100
AcDbEntity
  8
0
  6
Continuous
 62
     7
370
    25
100
AcDbLine
 10
1800.2577166192
 20
7847.1528982052
 30
0.0
 11
1789.0125155561
 21
7822.4571741546
 31
0.0
  0
LINE
  5
EF
330
1F
100
AcDbEntity
  8
0
  6
Continuous
 62
     7
370
    25
100
AcDbLine
 10
1827.2674415434
 20
7849.7621304391
 30
0.0
 11
1800.2577166192
 21
7847.1528982052
 31
0.0
  0
LINE
  5
F0
330
1F
100
AcDbEntity
  8
0
  6
Continuous
 62
     7
370
    25
100
AcDbLine
 10
1831.7867643414
 20
7802.9799145719
 30
0.0
 11
1843.0319654045
 21
7827.6756386225
 31
0.0
  0
LINE
  5
F1
330
1F
100
AcDbEntity
  8
0
  6
Continuous
 62
     7
370
    25
100
AcDbLine
 10
1804.7770394171
 20
7800.3706823379
 30
0.0
 11
1831.7867643414
 21
7802.9799145719
 31
0.0
  0
CIRCLE
  5
F2
330
1F
100
AcDbEntity
  8
0
  6
Continuous
 62
     7
370
    25
100
AcDbCircle
 10
1816.0222404803
 20
7825.0664063885
 30
0.0
 40
13.9999999999996
  0
LINE
  5
F3
330
1F
100
AcDbEntity
  8
0
  6
Continuous
 62
     7
370
    25
100
AcDbLine
 10
1843.0319654045
 20
7827.6756386225
 30
0.0
 11
1827.2674415434
 21
7849.7621304391
 31
0.0
  0
CIRCLE
  5
F4
330
1F
100
AcDbEntity
  8
0
  6
Continuous
 62
     7
370
    25
100
AcDbCircle
 10
1816.0222404803
 20
7825.0664063885
 30
0.0
 40
37.99999999999934
  0
LINE
  5
F5
330
1F
100
AcDbEntity
  8
0
  6
Continuous
 62
     7
370
    25
100
AcDbLine
 10
2199.5222404803
 20
7811.4986750626
 30
0.0
 11
2199.5222404803
 21
7838.6341377145
 31
0.0
  0
LINE
  5
F6
330
1F
100
AcDbEntity
  8
0
  6
Continuous
 62
     7
370
    25
100
AcDbLine
 10
2152.5222404803
 20
7811.4986750626
 30
0.0
 11
2176.0222404803
 21
7797.9309437366
 31
0.0
  0
CIRCLE
  5
F7
330
1F
100
AcDbEntity
  8
0
  6
Continuous
 62
     7
370
    25
100
AcDbCircle
 10
2176.0222404803
 20
7825.0664063885
 30
0.0
 40
14.0
  0
LINE
  5
F8
330
1F
100
AcDbEntity
  8
0
  6
Continuous
 62
     7
370
    25
100
AcDbLine
 10
2176.0222404803
 20
7852.2018690404
 30
0.0
 11
2152.5222404803
 21
7838.6341377145
 31
0.0
  0
LINE
  5
F9
330
1F
100
AcDbEntity
  8
0
  6
Continuous
 62
     7
370
    25
100
AcDbLine
 10
2152.5222404803
 20
7838.6341377145
 30
0.0
 11
2152.5222404803
 21
7811.4986750626
 31
0.0
  0
LINE
  5
FA
330
1F
100
AcDbEntity
  8
0
  6
Continuous
 62
     7
370
    25
100
AcDbLine
 10
2199.5222404803
 20
7838.6341377145
 30
0.0
 11
2176.0222404803
 21
7852.2018690404
 31
0.0
  0
LINE
  5
FB
330
1F
100
AcDbEntity
  8
0
  6
Continuous
 62
     7
370
    25
100
AcDbLine
 10
2176.0222404803
 20
7797.9309437366
 30
0.0
 11
2199.5222404803
 21
7811.4986750626
 31
0.0
  0
CIRCLE
  5
FC
330
1F
100
AcDbEntity
  8
0
  6
Continuous
 62
     7
370
    25
100
AcDbCircle
 10
2176.0222404803
 20
7825.0664063885
 30
0.0
 40
38.0
  0
LINE
  5
FD
330
1F
100
AcDbEntity
  8
0
  6
Continuous
 62
     7
370
    25
100
AcDbLine
 10
2391.0222404803
 20
8855.0664063885
 30
0.0
 11
1601.0222404803
 21
8855.0664063885
 31
0.0
  0
LINE
  5
FE
330
1F
100
AcDbEntity
  8
0
  6
Continuous
 62
     7
370
    25
100
AcDbLine
 10
2391.0222404803
 20
8855.0664063885
 30
0.0
 11
2391.0222404803
 21
8827.0664063885
 31
0.0
  0
LINE
  5
FF
330
1F
100
AcDbEntity
  8
0
  6
Continuous
 62
     7
370
    25
100
AcDbLine
 10
2391.0222404803
 20
8827.0664063885
 30
0.0
 11
1601.0222404803
 21
8827.0664063885
 31
0.0
  0
LINE
  5
100
330
1F
100
AcDbEntity
  8
0
  6
Continuous
 62
     7
370
    25
100
AcDbLine
 10
1601.0222404803
 20
8855.0664063885
 30
0.0
 11
1601.0222404803
 21
8827.0664063885
 31
0.0
  0
LINE
  5
101
330
1F
100
AcDbEntity
  8
0
  6
Continuous
 62
     7
370
    25
100
AcDbLine
 10
2391.0222404803
 20
8827.0664063885
 30
0.0
 11
2391.0222404803
 21
8821.0664063885
 31
0.0
  0
LINE
  5
102
330
1F
100
AcDbEntity
  8
0
  6
Continuous
 62
     7
370
    25
100
AcDbLine
 10
2391.0222404803
 20
8821.0664063885
 30
0.0
 11
1601.0222404803
 21
8821.0664063885
 31
0.0
  0
LINE
  5
103
330
1F
100
AcDbEntity
  8
0
  6
Continuous
 62
     7
370
    25
100
AcDbLine
 10
1601.0222404803
 20
8827.0664063885
 30
0.0
 11
1601.0222404803
 21
8821.0664063885
 31
0.0
  0
LINE
  5
104
330
1F
100
AcDbEntity
  8
0
  6
Continuous
 62
     7
370
    25
100
AcDbLine
 10
2391.0222404803
 20
8861.0664063885
 30
0.0
 11
1601.0222404803
 21
8861.0664063885
 31
0.0
  0
LINE
  5
105
330
1F
100
AcDbEntity
  8
0
  6
Continuous
 62
     7
370
    25
100
AcDbLine
 10
2391.0222404803
 20
8861.0664063885
 30
0.0
 11
2391.0222404803
 21
8855.0664063885
 31
0.0
  0
LINE
  5
106
330
1F
100
AcDbEntity
  8
0
  6
Continuous
 62
     7
370
    25
100
AcDbLine
 10
1601.0222404803
 20
8861.0664063885
 30
0.0
 11
1601.0222404803
 21
8855.0664063885
 31
0.0
  0
LINE
  5
107
330
1F
100
AcDbEntity
  8
0
  6
Continuous
 62
     7
370
    25
100
AcDbLine
 10
2391.0222404803
 20
8404.0664063885
 30
0.0
 11
1601.0222404803
 21
8404.0664063885
 31
0.0
  0
LINE
  5
108
330
1F
100
AcDbEntity
  8
0
  6
Continuous
 62
     7
370
    25
100
AcDbLine
 10
2391.0222404803
 20
8404.0664063885
 30
0.0
 11
2391.0222404803
 21
8376.0664063885
 31
0.0
  0
LINE
  5
109
330
1F
100
AcDbEntity
  8
0
  6
Continuous
 62
     7
370
    25
100
AcDbLine
 10
2391.0222404803
 20
8376.0664063885
 30
0.0
 11
1601.0222404803
 21
8376.0664063885
 31
0.0
  0
LINE
  5
10A
330
1F
100
AcDbEntity
  8
0
  6
Continuous
 62
     7
370
    25
100
AcDbLine
 10
1601.0222404803
 20
8404.0664063885
 30
0.0
 11
1601.0222404803
 21
8376.0664063885
 31
0.0
  0
LINE
  5
10B
330
1F
100
AcDbEntity
  8
0
  6
Continuous
 62
     7
370
    25
100
AcDbLine
 10
2391.0222404803
 20
8376.0664063885
 30
0.0
 11
2391.0222404803
 21
8370.0664063885
 31
0.0
  0
LINE
  5
10C
330
1F
100
AcDbEntity
  8
0
  6
Continuous
 62
     7
370
    25
100
AcDbLine
 10
2391.0222404803
 20
8370.0664063885
 30
0.0
 11
1601.0222404803
 21
8370.0664063885
 31
0.0
  0
LINE
  5
10D
330
1F
100
AcDbEntity
  8
0
  6
Continuous
 62
     7
370
    25
100
AcDbLine
 10
1601.0222404803
 20
8376.0664063885
 30
0.0
 11
1601.0222404803
 21
8370.0664063885
 31
0.0
  0
LINE
  5
10E
330
1F
100
AcDbEntity
  8
0
  6
Continuous
 62
     7
370
    25
100
AcDbLine
 10
2391.0222404803
 20
8410.0664063885
 30
0.0
 11
1601.0222404803
 21
8410.0664063885
 31
0.0
  0
LINE
  5
10F
330
1F
100
AcDbEntity
  8
0
  6
Continuous
 62
     7
370
    25
100
AcDbLine
 10
2391.0222404803
 20
8410.0664063885
 30
0.0
 11
2391.0222404803
 21
8404.0664063885
 31
0.0
  0
LINE
  5
110
330
1F
100
AcDbEntity
  8
0
  6
Continuous
 62
     7
370
    25
100
AcDbLine
 10
1601.0222404803
 20
8410.0664063885
 30
0.0
 11
1601.0222404803
 21
8404.0664063885
 31
0.0
  0
LINE
  5
111
330
1F
100
AcDbEntity
  8
0
  6
Continuous
 62
     7
370
    25
100
AcDbLine
 10
1846.0222404803
 20
8865.0664063885
 30
0.0
 11
1806.0222404803
 21
8865.0664063885
 31
0.0
  0
LINE
  5
112
330
1F
100
AcDbEntity
  8
0
  6
Continuous
 62
     7
370
    25
100
AcDbLine
 10
1846.0222404803
 20
8817.0664063885
 30
0.0
 11
1846.0222404803
 21
8821.0664063885
 31
0.0
  0
LINE
  5
113
330
1F
100
AcDbEntity
  8
0
  6
Continuous
 62
     7
370
    25
100
AcDbLine
 10
1846.0222404803
 20
8861.0664063885
 30
0.0
 11
1846.0222404803
 21
8865.0664063885
 31
0.0
  0
LINE
  5
114
330
1F
100
AcDbEntity
  8
0
  6
Continuous
 62
     7
370
    25
100
AcDbLine
 10
1846.0222404803
 20
8817.0664063885
 30
0.0
 11
1806.0222404803
 21
8817.0664063885
 31
0.0
  0
LINE
  5
115
330
1F
100
AcDbEntity
  8
0
  6
Continuous
 62
     7
370
    25
100
AcDbLine
 10
1806.0222404803
 20
8817.0664063885
 30
0.0
 11
1806.0222404803
 21
8821.0664063885
 31
0.0
  0
LINE
  5
116
330
1F
100
AcDbEntity
  8
0
  6
Continuous
 62
     7
370
    25
100
AcDbLine
 10
1806.0222404803
 20
8861.0664063885
 30
0.0
 11
1806.0222404803
 21
8865.0664063885
 31
0.0
  0
LINE
  5
117
330
1F
100
AcDbEntity
  8
0
  6
Continuous
 62
     7
370
    25
100
AcDbLine
 10
1846.0222404803
 20
8811.0664063885
 30
0.0
 11
1846.0222404803
 21
8817.0664063885
 31
0.0
  0
LINE
  5
118
330
1F
100
AcDbEntity
  8
0
  6
Continuous
 62
     7
370
    25
100
AcDbLine
 10
1846.0222404803
 20
8811.0664063885
 30
0.0
 11
1806.0222404803
 21
8811.0664063885
 31
0.0
  0
LINE
  5
119
330
1F
100
AcDbEntity
  8
0
  6
Continuous
 62
     7
370
    25
100
AcDbLine
 10
1806.0222404803
 20
8811.0664063885
 30
0.0
 11
1806.0222404803
 21
8817.0664063885
 31
0.0
  0
LINE
  5
11A
330
1F
100
AcDbEntity
  8
0
  6
Continuous
 62
     7
370
    25
100
AcDbLine
 10
1846.0222404803
 20
8414.0664063885
 30
0.0
 11
1806.0222404803
 21
8414.0664063885
 31
0.0
  0
LINE
  5
11B
330
1F
100
AcDbEntity
  8
0
  6
Continuous
 62
     7
370
    25
100
AcDbLine
 10
1846.0222404803
 20
8366.0664063885
 30
0.0
 11
1846.0222404803
 21
8370.0664063885
 31
0.0
  0
LINE
  5
11C
330
1F
100
AcDbEntity
  8
0
  6
Continuous
 62
     7
370
    25
100
AcDbLine
 10
1846.0222404803
 20
8410.0664063885
 30
0.0
 11
1846.0222404803
 21
8414.0664063885
 31
0.0
  0
LINE
  5
11D
330
1F
100
AcDbEntity
  8
0
  6
Continuous
 62
     7
370
    25
100
AcDbLine
 10
1846.0222404803
 20
8366.0664063885
 30
0.0
 11
1806.0222404803
 21
8366.0664063885
 31
0.0
  0
LINE
  5
11E
330
1F
100
AcDbEntity
  8
0
  6
Continuous
 62
     7
370
    25
100
AcDbLine
 10
1806.0222404803
 20
8366.0664063885
 30
0.0
 11
1806.0222404803
 21
8370.0664063885
 31
0.0
  0
LINE
  5
11F
330
1F
100
AcDbEntity
  8
0
  6
Continuous
 62
     7
370
    25
100
AcDbLine
 10
1806.0222404803
 20
8410.0664063885
 30
0.0
 11
1806.0222404803
 21
8414.0664063885
 31
0.0
  0
LINE
  5
120
330
1F
100
AcDbEntity
  8
0
  6
Continuous
 62
     7
370
    25
100
AcDbLine
 10
1846.0222404803
 20
8420.0664063885
 30
0.0
 11
1806.0222404803
 21
8420.0664063885
 31
0.0
  0
LINE
  5
121
330
1F
100
AcDbEntity
  8
0
  6
Continuous
 62
     7
370
    25
100
AcDbLine
 10
1846.0222404803
 20
8414.0664063885
 30
0.0
 11
1846.0222404803
 21
8420.0664063885
 31
0.0
  0
LINE
  5
122
330
1F
100
AcDbEntity
  8
0
  6
Continuous
 62
     7
370
    25
100
AcDbLine
 10
1806.0222404803
 20
8414.0664063885
 30
0.0
 11
1806.0222404803
 21
8420.0664063885
 31
0.0
  0
LINE
  5
123
330
1F
100
AcDbEntity
  8
0
  6
Continuous
 62
     7
370
    25
100
AcDbLine
 10
1846.0222404803
 20
8809.0664063885
 30
0.0
 11
1846.0222404803
 21
8811.0664063885
 31
0.0
  0
LINE
  5
124
330
1F
100
AcDbEntity
  8
0
  6
Continuous
 62
     7
370
    25
100
AcDbLine
 10
1846.0222404803
 20
8809.0664063885
 30
0.0
 11
1806.0222404803
 21
8809.0664063885
 31
0.0
  0
LINE
  5
125
330
1F
100
AcDbEntity
  8
0
  6
Continuous
 62
     7
370
    25
100
AcDbLine
 10
1806.0222404803
 20
8809.0664063885
 30
0.0
 11
1806.0222404803
 21
8811.0664063885
 31
0.0
  0
LINE
  5
126
330
1F
100
AcDbEntity
  8
0
  6
Continuous
 62
     7
370
    25
100
AcDbLine
 10
1846.0222404803
 20
8422.0664063885
 30
0.0
 11
1806.0222404803
 21
8422.0664063885
 31
0.0
  0
LINE
  5
127
330
1F
100
AcDbEntity
  8
0
  6
Continuous
 62
     7
370
    25
100
AcDbLine
 10
1846.0222404803
 20
8420.0664063885
 30
0.0
 11
1846.0222404803
 21
8422.0664063885
 31
0.0
  0
LINE
  5
128
330
1F
100
AcDbEntity
  8
0
  6
Continuous
 62
     7
370
    25
100
AcDbLine
 10
1806.0222404803
 20
8420.0664063885
 30
0.0
 11
1806.0222404803
 21
8422.0664063885
 31
0.0
  0
LINE
  5
129
330
1F
100
AcDbEntity
  8
0
  6
Continuous
 62
     7
370
    25
100
AcDbLine
 10
1846.0222404803
 20
8422.0664063885
 30
0.0
 11
1846.0222404803
 21
8809.0664063885
 31
0.0
  0
LINE
  5
12A
330
1F
100
AcDbEntity
  8
0
  6
Continuous
 62
     7
370
    25
100
AcDbLine
 10
1831.0222404803
 20
8535.5664063885
 30
0.0
 11
1831.0222404803
 21
8435.5664063885
 31
0.0
  0
ARC
  5
12B
330
1F
100
AcDbEntity
  8
0
  6
Continuous
 62
     7
370
    25
100
AcDbCircle
 10
1826.0222404803
 20
8535.5664063885
 30
0.0
 40
5.000000000000227
100
AcDbArc
 50
0.0
 51
180.0
  0
LINE
  5
12C
330
1F
100
AcDbEntity
  8
0
  6
Continuous
 62
     7
370
    25
100
AcDbLine
 10
1821.0222404803
 20
8435.5664063885
 30
0.0
 11
1821.0222404803
 21
8535.5664063885
 31
0.0
  0
ARC
  5
12D
330
1F
100
AcDbEntity
  8
0
  6
Continuous
 62
     7
370
    25
100
AcDbCircle
 10
1826.0222404803
 20
8435.5664063885
 30
0.0
 40
5.000000000000227
100
AcDbArc
 50
180.0
 51
0.0
  0
LINE
  5
12E
330
1F
100
AcDbEntity
  8
0
  6
Continuous
 62
     7
370
    25
100
AcDbLine
 10
1831.0222404803
 20
8665.5664063885
 30
0.0
 11
1831.0222404803
 21
8565.5664063885
 31
0.0
  0
ARC
  5
12F
330
1F
100
AcDbEntity
  8
0
  6
Continuous
 62
     7
370
    25
100
AcDbCircle
 10
1826.0222404803
 20
8665.5664063885
 30
0.0
 40
5.000000000000227
100
AcDbArc
 50
0.0
 51
180.0
  0
LINE
  5
130
330
1F
100
AcDbEntity
  8
0
  6
Continuous
 62
     7
370
    25
100
AcDbLine
 10
1821.0222404803
 20
8565.5664063885
 30
0.0
 11
1821.0222404803
 21
8665.5664063885
 31
0.0
  0
ARC
  5
131
330
1F
100
AcDbEntity
  8
0
  6
Continuous
 62
     7
370
    25
100
AcDbCircle
 10
1826.0222404803
 20
8565.5664063885
 30
0.0
 40
5.000000000000227
100
AcDbArc
 50
180.0
 51
0.0
  0
LINE
  5
132
330
1F
100
AcDbEntity
  8
0
  6
Continuous
 62
     7
370
    25
100
AcDbLine
 10
1831.0222404803
 20
8795.5664063885
 30
0.0
 11
1831.0222404803
 21
8695.5664063885
 31
0.0
  0
ARC
  5
133
330
1F
100
AcDbEntity
  8
0
  6
Continuous
 62
     7
370
    25
100
AcDbCircle
 10
1826.0222404803
 20
8795.5664063885
 30
0.0
 40
5.000000000000227
100
AcDbArc
 50
0.0
 51
180.0
  0
LINE
  5
134
330
1F
100
AcDbEntity
  8
0
  6
Continuous
 62
     7
370
    25
100
AcDbLine
 10
1821.0222404803
 20
8695.5664063885
 30
0.0
 11
1821.0222404803
 21
8795.5664063885
 31
0.0
  0
ARC
  5
135
330
1F
100
AcDbEntity
  8
0
  6
Continuous
 62
     7
370
    25
100
AcDbCircle
 10
1826.0222404803
 20
8695.5664063885
 30
0.0
 40
5.000000000000227
100
AcDbArc
 50
180.0
 51
0.0
  0
LINE
  5
136
330
1F
100
AcDbEntity
  8
0
  6
Continuous
 62
     7
370
    25
100
AcDbLine
 10
1806.0222404803
 20
8422.0664063885
 30
0.0
 11
1806.0222404803
 21
8809.0664063885
 31
0.0
  0
LINE
  5
137
330
1F
100
AcDbEntity
  8
0
  6
Continuous
 62
     7
370
    25
100
AcDbLine
 10
2186.0222404803
 20
8865.0664063885
 30
0.0
 11
2146.0222404803
 21
8865.0664063885
 31
0.0
  0
LINE
  5
138
330
1F
100
AcDbEntity
  8
0
  6
Continuous
 62
     7
370
    25
100
AcDbLine
 10
2186.0222404803
 20
8817.0664063885
 30
0.0
 11
2186.0222404803
 21
8821.0664063885
 31
0.0
  0
LINE
  5
139
330
1F
100
AcDbEntity
  8
0
  6
Continuous
 62
     7
370
    25
100
AcDbLine
 10
2186.0222404803
 20
8861.0664063885
 30
0.0
 11
2186.0222404803
 21
8865.0664063885
 31
0.0
  0
LINE
  5
13A
330
1F
100
AcDbEntity
  8
0
  6
Continuous
 62
     7
370
    25
100
AcDbLine
 10
2186.0222404803
 20
8817.0664063885
 30
0.0
 11
2146.0222404803
 21
8817.0664063885
 31
0.0
  0
LINE
  5
13B
330
1F
100
AcDbEntity
  8
0
  6
Continuous
 62
     7
370
    25
100
AcDbLine
 10
2146.0222404803
 20
8817.0664063885
 30
0.0
 11
2146.0222404803
 21
8821.0664063885
 31
0.0
  0
LINE
  5
13C
330
1F
100
AcDbEntity
  8
0
  6
Continuous
 62
     7
370
    25
100
AcDbLine
 10
2146.0222404803
 20
8861.0664063885
 30
0.0
 11
2146.0222404803
 21
8865.0664063885
 31
0.0
  0
LINE
  5
13D
330
1F
100
AcDbEntity
  8
0
  6
Continuous
 62
     7
370
    25
100
AcDbLine
 10
2186.0222404803
 20
8811.0664063885
 30
0.0
 11
2186.0222404803
 21
8817.0664063885
 31
0.0
  0
LINE
  5
13E
330
1F
100
AcDbEntity
  8
0
  6
Continuous
 62
     7
370
    25
100
AcDbLine
 10
2186.0222404803
 20
8811.0664063885
 30
0.0
 11
2146.0222404803
 21
8811.0664063885
 31
0.0
  0
LINE
  5
13F
330
1F
100
AcDbEntity
  8
0
  6
Continuous
 62
     7
370
    25
100
AcDbLine
 10
2146.0222404803
 20
8811.0664063885
 30
0.0
 11
2146.0222404803
 21
8817.0664063885
 31
0.0
  0
LINE
  5
140
330
1F
100
AcDbEntity
  8
0
  6
Continuous
 62
     7
370
    25
100
AcDbLine
 10
2186.0222404803
 20
8414.0664063885
 30
0.0
 11
2146.0222404803
 21
8414.0664063885
 31
0.0
  0
LINE
  5
141
330
1F
100
AcDbEntity
  8
0
  6
Continuous
 62
     7
370
    25
100
AcDbLine
 10
2186.0222404803
 20
8366.0664063885
 30
0.0
 11
2186.0222404803
 21
8370.0664063885
 31
0.0
  0
LINE
  5
142
330
1F
100
AcDbEntity
  8
0
  6
Continuous
 62
     7
370
    25
100
AcDbLine
 10
2186.0222404803
 20
8410.0664063885
 30
0.0
 11
2186.0222404803
 21
8414.0664063885
 31
0.0
  0
LINE
  5
143
330
1F
100
AcDbEntity
  8
0
  6
Continuous
 62
     7
370
    25
100
AcDbLine
 10
2186.0222404803
 20
8366.0664063885
 30
0.0
 11
2146.0222404803
 21
8366.0664063885
 31
0.0
  0
LINE
  5
144
330
1F
100
AcDbEntity
  8
0
  6
Continuous
 62
     7
370
    25
100
AcDbLine
 10
2146.0222404803
 20
8366.0664063885
 30
0.0
 11
2146.0222404803
 21
8370.0664063885
 31
0.0
  0
LINE
  5
145
330
1F
100
AcDbEntity
  8
0
  6
Continuous
 62
     7
370
    25
100
AcDbLine
 10
2146.0222404803
 20
8410.0664063885
 30
0.0
 11
2146.0222404803
 21
8414.0664063885
 31
0.0
  0
LINE
  5
146
330
1F
100
AcDbEntity
  8
0
  6
Continuous
 62
     7
370
    25
100
AcDbLine
 10
2186.0222404803
 20
8420.0664063885
 30
0.0
 11
2146.0222404803
 21
8420.0664063885
 31
0.0
  0
LINE
  5
147
330
1F
100
AcDbEntity
  8
0
  6
Continuous
 62
     7
370
    25
100
AcDbLine
 10
2186.0222404803
 20
8414.0664063885
 30
0.0
 11
2186.0222404803
 21
8420.0664063885
 31
0.0
  0
LINE
  5
148
330
1F
100
AcDbEntity
  8
0
  6
Continuous
 62
     7
370
    25
100
AcDbLine
 10
2146.0222404803
 20
8414.0664063885
 30
0.0
 11
2146.0222404803
 21
8420.0664063885
 31
0.0
  0
LINE
  5
149
330
1F
100
AcDbEntity
  8
0
  6
Continuous
 62
     7
370
    25
100
AcDbLine
 10
2186.0222404803
 20
8809.0664063885
 30
0.0
 11
2186.0222404803
 21
8811.0664063885
 31
0.0
  0
LINE
  5
14A
330
1F
100
AcDbEntity
  8
0
  6
Continuous
 62
     7
370
    25
100
AcDbLine
 10
2186.0222404803
 20
8809.0664063885
 30
0.0
 11
2146.0222404803
 21
8809.0664063885
 31
0.0
  0
LINE
  5
14B
330
1F
100
AcDbEntity
  8
0
  6
Continuous
 62
     7
370
    25
100
AcDbLine
 10
2146.0222404803
 20
8809.0664063885
 30
0.0
 11
2146.0222404803
 21
8811.0664063885
 31
0.0
  0
LINE
  5
14C
330
1F
100
AcDbEntity
  8
0
  6
Continuous
 62
     7
370
    25
100
AcDbLine
 10
2186.0222404803
 20
8422.0664063885
 30
0.0
 11
2146.0222404803
 21
8422.0664063885
 31
0.0
  0
LINE
  5
14D
330
1F
100
AcDbEntity
  8
0
  6
Continuous
 62
     7
370
    25
100
AcDbLine
 10
2186.0222404803
 20
8420.0664063885
 30
0.0
 11
2186.0222404803
 21
8422.0664063885
 31
0.0
  0
LINE
  5
14E
330
1F
100
AcDbEntity
  8
0
  6
Continuous
 62
     7
370
    25
100
AcDbLine
 10
2146.0222404803
 20
8420.0664063885
 30
0.0
 11
2146.0222404803
 21
8422.0664063885
 31
0.0
  0
LINE
  5
14F
330
1F
100
AcDbEntity
  8
0
  6
Continuous
 62
     7
370
    25
100
AcDbLine
 10
2186.0222404803
 20
8422.0664063885
 30
0.0
 11
2186.0222404803
 21
8809.0664063885
 31
0.0
  0
LINE
  5
150
330
1F
100
AcDbEntity
  8
0
  6
Continuous
 62
     7
370
    25
100
AcDbLine
 10
2171.0222404803
 20
8535.5664063885
 30
0.0
 11
2171.0222404803
 21
8435.5664063885
 31
0.0
  0
ARC
  5
151
330
1F
100
AcDbEntity
  8
0
  6
Continuous
 62
     7
370
    25
100
AcDbCircle
 10
2166.0222404803
 20
8535.5664063885
 30
0.0
 40
5.0
100
AcDbArc
 50
0.0
 51
180.0
  0
LINE
  5
152
330
1F
100
AcDbEntity
  8
0
  6
Continuous
 62
     7
370
    25
100
AcDbLine
 10
2161.0222404803
 20
8435.5664063885
 30
0.0
 11
2161.0222404803
 21
8535.5664063885
 31
0.0
  0
ARC
  5
153
330
1F
100
AcDbEntity
  8
0
  6
Continuous
 62
     7
370
    25
100
AcDbCircle
 10
2166.0222404803
 20
8435.5664063885
 30
0.0
 40
5.0
100
AcDbArc
 50
180.0
 51
0.0
  0
LINE
  5
154
330
1F
100
AcDbEntity
  8
0
  6
Continuous
 62
     7
370
    25
100
AcDbLine
 10
2171.0222404803
 20
8665.5664063885
 30
0.0
 11
2171.0222404803
 21
8565.5664063885
 31
0.0
  0
ARC
  5
155
330
1F
100
AcDbEntity
  8
0
  6
Continuous
 62
     7
370
    25
100
AcDbCircle
 10
2166.0222404803
 20
8665.5664063885
 30
0.0
 40
5.0
100
AcDbArc
 50
0.0
 51
180.0
  0
LINE
  5
156
330
1F
100
AcDbEntity
  8
0
  6
Continuous
 62
     7
370
    25
100
AcDbLine
 10
2161.0222404803
 20
8565.5664063885
 30
0.0
 11
2161.0222404803
 21
8665.5664063885
 31
0.0
  0
ARC
  5
157
330
1F
100
AcDbEntity
  8
0
  6
Continuous
 62
     7
370
    25
100
AcDbCircle
 10
2166.0222404803
 20
8565.5664063885
 30
0.0
 40
5.0
100
AcDbArc
 50
180.0
 51
0.0
  0
LINE
  5
158
330
1F
100
AcDbEntity
  8
0
  6
Continuous
 62
     7
370
    25
100
AcDbLine
 10
2171.0222404803
 20
8795.5664063885
 30
0.0
 11
2171.0222404803
 21
8695.5664063885
 31
0.0
  0
ARC
  5
159
330
1F
100
AcDbEntity
  8
0
  6
Continuous
 62
     7
370
    25
100
AcDbCircle
 10
2166.0222404803
 20
8795.5664063885
 30
0.0
 40
5.0
100
AcDbArc
 50
0.0
 51
180.0
  0
LINE
  5
15A
330
1F
100
AcDbEntity
  8
0
  6
Continuous
 62
     7
370
    25
100
AcDbLine
 10
2161.0222404803
 20
8695.5664063885
 30
0.0
 11
2161.0222404803
 21
8795.5664063885
 31
0.0
  0
ARC
  5
15B
330
1F
100
AcDbEntity
  8
0
  6
Continuous
 62
     7
370
    25
100
AcDbCircle
 10
2166.0222404803
 20
8695.5664063885
 30
0.0
 40
5.0
100
AcDbArc
 50
180.0
 51
0.0
  0
LINE
  5
15C
330
1F
100
AcDbEntity
  8
0
  6
Continuous
 62
     7
370
    25
100
AcDbLine
 10
2146.0222404803
 20
8422.0664063885
 30
0.0
 11
2146.0222404803
 21
8809.0664063885
 31
0.0
  0
LINE
  5
15D
330
1F
100
AcDbEntity
  8
0
  6
Continuous
 62
     7
370
    25
100
AcDbLine
 10
1496.0222404803
 20
8365.0664063885
 30
0.0
 11
1502.0222404803
 21
8365.0664063885
 31
0.0
  0
LINE
  5
15E
330
1F
100
AcDbEntity
  8
0
  6
Continuous
 62
     7
370
    25
100
AcDbLine
 10
1496.0222404803
 20
8365.0664063885
 30
0.0
 11
1496.0222404803
 21
8865.0664063885
 31
0.0
  0
LINE
  5
15F
330
1F
100
AcDbEntity
  8
0
  6
Continuous
 62
     7
370
    25
100
AcDbLine
 10
1496.0222404803
 20
8865.0664063885
 30
0.0
 11
1502.0222404803
 21
8865.0664063885
 31
0.0
  0
LINE
  5
160
330
1F
100
AcDbEntity
  8
0
  6
Continuous
 62
     7
370
    25
100
AcDbLine
 10
1502.0222404803
 20
8365.0664063885
 30
0.0
 11
1502.0222404803
 21
8865.0664063885
 31
0.0
  0
LINE
  5
161
330
1F
100
AcDbEntity
  8
0
  6
Continuous
 62
     7
370
    25
100
AcDbLine
 10
1601.0222404803
 20
8406.0664063885
 30
0.0
 11
1502.0222404803
 21
8406.0664063885
 31
0.0
  0
LINE
  5
162
330
1F
100
AcDbEntity
  8
0
  6
Continuous
 62
     7
370
    25
100
AcDbLine
 10
1601.0222404803
 20
8375.0664063885
 30
0.0
 11
1502.0222404803
 21
8375.0664063885
 31
0.0
  0
LINE
  5
163
330
1F
100
AcDbEntity
  8
0
  6
Continuous
 62
     7
370
    25
100
AcDbLine
 10
1601.0222404803
 20
8824.0664063885
 30
0.0
 11
1502.0222404803
 21
8824.0664063885
 31
0.0
  0
LINE
  5
164
330
1F
100
AcDbEntity
  8
0
  6
Continuous
 62
     7
370
    25
100
AcDbLine
 10
1601.0222404803
 20
8855.0664063885
 30
0.0
 11
1502.0222404803
 21
8855.0664063885
 31
0.0
  0
LINE
  5
165
330
1F
100
AcDbEntity
  8
0
  6
Continuous
 62
     7
370
    25
100
AcDbLine
 10
2496.0222404795
 20
8865.0664063885
 30
0.0
 11
2490.0222404795
 21
8865.0664063885
 31
0.0
  0
LINE
  5
166
330
1F
100
AcDbEntity
  8
0
  6
Continuous
 62
     7
370
    25
100
AcDbLine
 10
2496.0222404795
 20
8865.0664063885
 30
0.0
 11
2496.0222404795
 21
8365.0664063885
 31
0.0
  0
LINE
  5
167
330
1F
100
AcDbEntity
  8
0
  6
Continuous
 62
     7
370
    25
100
AcDbLine
 10
2496.0222404795
 20
8365.0664063885
 30
0.0
 11
2490.0222404795
 21
8365.0664063885
 31
0.0
  0
LINE
  5
168
330
1F
100
AcDbEntity
  8
0
  6
Continuous
 62
     7
370
    25
100
AcDbLine
 10
2490.0222404795
 20
8865.0664063885
 30
0.0
 11
2490.0222404795
 21
8365.0664063885
 31
0.0
  0
LINE
  5
169
330
1F
100
AcDbEntity
  8
0
  6
Continuous
 62
     7
370
    25
100
AcDbLine
 10
2391.0222404803
 20
8824.0664063885
 30
0.0
 11
2490.0222404795
 21
8824.0664063885
 31
0.0
  0
LINE
  5
16A
330
1F
100
AcDbEntity
  8
0
  6
Continuous
 62
     7
370
    25
100
AcDbLine
 10
2391.0222404803
 20
8855.0664063885
 30
0.0
 11
2490.0222404795
 21
8855.0664063885
 31
0.0
  0
LINE
  5
16B
330
1F
100
AcDbEntity
  8
0
  6
Continuous
 62
     7
370
    25
100
AcDbLine
 10
2391.0222404803
 20
8375.0664063885
 30
0.0
 11
2490.0222404795
 21
8375.0664063885
 31
0.0
  0
LINE
  5
16C
330
1F
100
AcDbEntity
  8
0
  6
Continuous
 62
     7
370
    25
100
AcDbLine
 10
2391.0222404803
 20
8406.0664063885
 30
0.0
 11
2490.0222404795
 21
8406.0664063885
 31
0.0
  0
ARC
  5
16D
330
1F
100
AcDbEntity
  8
0
  6
Continuous
 62
     7
370
    25
100
AcDbCircle
 10
1996.0222404803
 20
7876.0664063885
 30
0.0
 40
46.99999999999983
100
AcDbArc
 50
4.8821423325
 51
175.1178576675
  0
SPLINE
  5
16E
330
1F
100
AcDbEntity
  8
0
  6
Continuous
 62
     7
370
    25
100
AcDbSpline
210
0.0
220
0.0
230
1.0
 70
    24
 71
     3
 72
    13
 73
     9
 74
     0
 42
0.00000001
 43
0.00000001
 40
0.0
 40
0.0
 40
0.0
 40
0.0
 40
0.1231848925454909
 40
0.3360848008156694
 40
0.549412154034171
 40
0.682700602728342
 40
0.8981872882217388
 40
1.0
 40
1.0
 40
1.0
 40
1.0
 10
1956.195059641169
 20
7880.066406388532
 30
0.0
 10
1956.205153238703
 20
7880.066406388532
 30
0.0
 10
1956.232691556486
 20
7880.066406388532
 30
0.0
 10
1955.412267467236
 20
7880.066406388532
 30
0.0
 10
1954.079678546584
 20
7880.066406388532
 30
0.0
 10
1952.352089241076
 20
7880.066406388532
 30
0.0
 10
1950.741847244889
 20
7880.066406388533
 30
0.0
 10
1949.569073615881
 20
7880.066406388532
 30
0.0
 10
1949.192762584413
 20
7880.066406388532
 30
0.0
  0
SPLINE
  5
16F
330
1F
100
AcDbEntity
  8
0
  6
Continuous
 62
     7
370
    25
100
AcDbSpline
210
0.0
220
0.0
230
1.0
 70
    24
 71
     3
 72
    13
 73
     9
 74
     0
 42
0.00000001
 43
0.00000001
 40
0.0
 40
0.0
 40
0.0
 40
0.0
 40
0.1417621080580696
 40
0.3575062485284192
 40
0.5731383408166123
 40
0.7880895002974235
 40
0.9222005179603783
 40
1.0
 40
1.0
 40
1.0
 40
1.0
 10
2042.851718376158
 20
7880.066406388532
 30
0.0
 10
2042.327637250787
 20
7880.066406388532
 30
0.0
 10
2041.005970413134
 20
7880.066406388532
 30
0.0
 10
2039.011251009938
 20
7880.066406388532
 30
0.0
 10
2037.188053647894
 20
7880.066406388532
 30
0.0
 10
2036.186856589248
 20
7880.066406388532
 30
0.0
 10
2035.770928460144
 20
7880.066406388533
 30
0.0
 10
2035.804447832312
 20
7880.066406388532
 30
0.0
 10
2035.816753922839
 20
7880.066406388532
 30
0.0
  0
SPLINE
  5
170
330
1F
100
AcDbEntity
  8
0
  6
Continuous
 62
     7
370
    25
100
AcDbSpline
210
0.0
220
0.0
230
1.0
 70
    24
 71
     3
 72
    13
 73
     9
 74
     0
 42
0.00000001
 43
0.00000001
 40
0.0
 40
0.0
 40
0.0
 40
0.0
 40
0.0784588150963841
 40
0.2920664442154042
 40
0.5056495865385006
 40
0.7198780154868976
 40
0.9350401417521212
 40
1.0
 40
1.0
 40
1.0
 40
1.0
 10
2035.796241579745
 20
7872.066406388532
 30
0.0
 10
2035.792784118727
 20
7872.066406388532
 30
0.0
 10
2035.779913565634
 20
7872.066406388532
 30
0.0
 10
2036.388968866236
 20
7872.066406388533
 30
0.0
 10
2037.789249561124
 20
7872.066406388532
 30
0.0
 10
2039.782240289626
 20
7872.066406388532
 30
0.0
 10
2041.577854636974
 20
7872.066406388532
 30
0.0
 10
2042.611920166949
 20
7872.066406388533
 30
0.0
 10
2042.851718376158
 20
7872.066406388532
 30
0.0
  0
ARC
  5
171
330
1F
100
AcDbEntity
  8
0
  6
Continuous
 62
     7
370
    25
100
AcDbCircle
 10
1996.0222404803
 20
7876.0664063885
 30
0.0
 40
46.99999999999999
100
AcDbArc
 50
184.8821423325
 51
355.1178576675
  0
SPLINE
  5
172
330
1F
100
AcDbEntity
  8
0
  6
Continuous
 62
     7
370
    25
100
AcDbSpline
210
0.0
220
0.0
230
1.0
 70
    24
 71
     3
 72
    13
 73
     9
 74
     0
 42
0.00000001
 43
0.00000001
 40
0.0
 40
0.0
 40
0.0
 40
0.0
 40
0.1818474394621926
 40
0.3180856532968198
 40
0.5330456486046714
 40
0.7480336484150515
 40
0.9623139486528344
 40
1.0
 40
1.0
 40
1.0
 40
1.0
 10
1949.192762584413
 20
7872.066406388532
 30
0.0
 10
1949.866203789531
 20
7872.066406388532
 30
0.0
 10
1951.044180154338
 20
7872.066406388532
 30
0.0
 10
1952.873356546435
 20
7872.066406388533
 30
0.0
 10
1954.559390956654
 20
7872.066406388532
 30
0.0
 10
1955.833031556399
 20
7872.066406388532
 30
0.0
 10
1956.314364323068
 20
7872.066406388533
 30
0.0
 10
1956.26484570753
 20
7872.066406388532
 30
0.0
 10
1956.257439317446
 20
7872.066406388532
 30
0.0
  0
ARC
  5
173
330
1F
100
AcDbEntity
  8
0
  6
Continuous
 62
     7
370
    25
100
AcDbCircle
 10
1996.0222404803
 20
7876.0664063885
 30
0.0
 40
51.00000000000026
100
AcDbArc
 50
184.4984066689
 51
355.5015933311
  0
LINE
  5
174
330
1F
100
AcDbEntity
  8
0
  6
Continuous
 62
     7
370
    25
100
AcDbLine
 10
2042.8517183762
 20
7872.0664063885
 30
0.0
 11
2046.8651357558
 21
7872.0664063885
 31
0.0
  0
LINE
  5
175
330
1F
100
AcDbEntity
  8
0
  6
Continuous
 62
     7
370
    25
100
AcDbLine
 10
1945.1793452047
 20
7872.0664063885
 30
0.0
 11
1949.1927625844
 21
7872.0664063885
 31
0.0
  0
ARC
  5
176
330
1F
100
AcDbEntity
  8
0
  6
Continuous
 62
     7
370
    25
100
AcDbCircle
 10
1996.0222404803
 20
7876.0664063885
 30
0.0
 40
51.00000000000011
100
AcDbArc
 50
4.4984066689
 51
175.5015933311
  0
LINE
  5
177
330
1F
100
AcDbEntity
  8
0
  6
Continuous
 62
     7
370
    25
100
AcDbLine
 10
1949.1927625844
 20
7880.0664063885
 30
0.0
 11
1945.1793452047
 21
7880.0664063885
 31
0.0
  0
LINE
  5
178
330
1F
100
AcDbEntity
  8
0
  6
Continuous
 62
     7
370
    25
100
AcDbLine
 10
2046.8651357558
 20
7880.0664063885
 30
0.0
 11
2042.8517183762
 21
7880.0664063885
 31
0.0
  0
LINE
  5
179
330
1F
100
AcDbEntity
  8
0
  6
Continuous
 62
     7
370
    25
100
AcDbLine
 10
2037.8217379646
 20
7880.0664063885
 30
0.0
 11
2037.8217379646
 21
7872.0664063885
 31
0.0
  0
LINE
  5
17A
330
1F
100
AcDbEntity
  8
0
  6
Continuous
 62
     7
370
    25
100
AcDbLine
 10
2076.0222404803
 20
7872.0664063885
 30
0.0
 11
2076.0222404803
 21
7880.0664063885
 31
0.0
  0
LINE
  5
17B
330
1F
100
AcDbEntity
  8
0
  6
Continuous
 62
     7
370
    25
100
AcDbLine
 10
2076.0222404803
 20
7880.0664063885
 30
0.0
 11
2046.8651357558
 21
7880.0664063885
 31
0.0
  0
LINE
  5
17C
330
1F
100
AcDbEntity
  8
0
  6
Continuous
 62
     7
370
    25
100
AcDbLine
 10
2046.8651357558
 20
7872.0664063885
 30
0.0
 11
2076.0222404803
 21
7872.0664063885
 31
0.0
  0
LINE
  5
17D
330
1F
100
AcDbEntity
  8
0
  6
Continuous
 62
     7
370
    25
100
AcDbLine
 10
1954.222742996
 20
7872.0664063885
 30
0.0
 11
1954.222742996
 21
7880.0664063885
 31
0.0
  0
LINE
  5
17E
330
1F
100
AcDbEntity
  8
0
  6
Continuous
 62
     7
370
    25
100
AcDbLine
 10
1945.1793452047
 20
7880.0664063885
 30
0.0
 11
1916.0222404803
 21
7880.0664063885
 31
0.0
  0
LINE
  5
17F
330
1F
100
AcDbEntity
  8
0
  6
Continuous
 62
     7
370
    25
100
AcDbLine
 10
1916.0222404803
 20
7880.0664063885
 30
0.0
 11
1916.0222404803
 21
7872.0664063885
 31
0.0
  0
LINE
  5
180
330
1F
100
AcDbEntity
  8
0
  6
Continuous
 62
     7
370
    25
100
AcDbLine
 10
1916.0222404803
 20
7872.0664063885
 30
0.0
 11
1945.1793452047
 21
7872.0664063885
 31
0.0
  0
SPLINE
  5
181
330
1F
100
AcDbEntity
  8
0
  6
Continuous
 62
     7
370
    25
100
AcDbSpline
210
0.0
220
0.0
230
1.0
 70
    24
 71
     3
 72
    12
 73
     8
 74
     0
 42
0.00000001
 43
0.00000001
 40
0.0
 40
0.0
 40
0.0
 40
0.0
 40
0.1758719409581293
 40
0.3877622556744059
 40
0.6002947995117855
 40
0.8139607665523937
 40
1.0
 40
1.0
 40
1.0
 40
1.0
 10
2032.829395986082
 20
7872.066406388532
 30
0.0
 10
2032.840216659777
 20
7872.066406388532
 30
0.0
 10
2032.864074068849
 20
7872.066406388532
 30
0.0
 10
2033.301964612403
 20
7872.066406388532
 30
0.0
 10
2034.012250411666
 20
7872.066406388533
 30
0.0
 10
2034.896039309113
 20
7872.066406388532
 30
0.0
 10
2035.527725323058
 20
7872.066406388532
 30
0.0
 10
2035.82173796455
 20
7872.066406388532
 30
0.0
  0
SPLINE
  5
182
330
1F
100
AcDbEntity
  8
0
  6
Continuous
 62
     7
370
    25
100
AcDbSpline
210
0.0
220
0.0
230
1.0
 70
    24
 71
     3
 72
    12
 73
     8
 74
     0
 42
0.00000001
 43
0.00000001
 40
0.0
 40
0.0
 40
0.0
 40
0.0
 40
0.1935454308525557
 40
0.4089403131263543
 40
0.6238535848116171
 40
0.8377097165290266
 40
1.0
 40
1.0
 40
1.0
 40
1.0
 10
1956.222742996021
 20
7872.066406388532
 30
0.0
 10
1956.528443917288
 20
7872.066406388532
 30
0.0
 10
1957.174356506985
 20
7872.066406388532
 30
0.0
 10
1958.0688439634
 20
7872.066406388533
 30
0.0
 10
1958.772665216767
 20
7872.066406388532
 30
0.0
 10
1959.190943742332
 20
7872.066406388532
 30
0.0
 10
1959.203033309387
 20
7872.066406388532
 30
0.0
 10
1959.208249414565
 20
7872.066406388532
 30
0.0
  0
SPLINE
  5
183
330
1F
100
AcDbEntity
  8
0
  6
Continuous
 62
     7
370
    25
100
AcDbSpline
210
0.0
220
0.0
230
1.0
 70
    24
 71
     3
 72
    13
 73
     9
 74
     0
 42
0.00000001
 43
0.00000001
 40
0.0
 40
0.0
 40
0.0
 40
0.0
 40
0.021155762020804
 40
0.2359852580768382
 40
0.4509126190996361
 40
0.6667139368468172
 40
0.8837029123728685
 40
1.0
 40
1.0
 40
1.0
 40
1.0
 10
1959.223756986645
 20
7880.066406388532
 30
0.0
 10
1959.228216079867
 20
7880.066406388532
 30
0.0
 10
1959.27795573301
 20
7880.066406388532
 30
0.0
 10
1959.052146411848
 20
7880.066406388532
 30
0.0
 10
1958.543103845491
 20
7880.066406388532
 30
0.0
 10
1957.73978249812
 20
7880.066406388532
 30
0.0
 10
1956.922348622149
 20
7880.066406388533
 30
0.0
 10
1956.40371529595
 20
7880.066406388532
 30
0.0
 10
1956.222742996021
 20
7880.066406388532
 30
0.0
  0
SPLINE
  5
184
330
1F
100
AcDbEntity
  8
0
  6
Continuous
 62
     7
370
    25
100
AcDbSpline
210
0.0
220
0.0
230
1.0
 70
    24
 71
     3
 72
    13
 73
     9
 74
     0
 42
0.00000001
 43
0.00000001
 40
0.0
 40
0.0
 40
0.0
 40
0.0
 40
0.0474579152412527
 40
0.2637207359384281
 40
0.4800008417005271
 40
0.6955774928850756
 40
0.9099986978850995
 40
1.0
 40
1.0
 40
1.0
 40
1.0
 10
2035.821737964548
 20
7880.066406388532
 30
0.0
 10
2035.7473557896
 20
7880.066406388532
 30
0.0
 10
2035.33401858719
 20
7880.066406388533
 30
0.0
 10
2034.588632577922
 20
7880.066406388532
 30
0.0
 10
2033.718659156662
 20
7880.066406388532
 30
0.0
 10
2033.108085049485
 20
7880.066406388532
 30
0.0
 10
2032.803704407881
 20
7880.066406388532
 30
0.0
 10
2032.836996313315
 20
7880.066406388532
 30
0.0
 10
2032.846838932599
 20
7880.066406388532
 30
0.0
  0
LINE
  5
185
330
1F
100
AcDbEntity
  8
0
  6
Continuous
 62
     7
370
    25
100
AcDbLine
 10
2003.5277939798
 20
7810.0664063885
 30
0.0
 11
2003.5277939798
 21
7825.6217172066
 31
0.0
  0
LINE
  5
186
330
1F
100
AcDbEntity
  8
0
  6
Continuous
 62
     7
370
    25
100
AcDbLine
 10
1988.5166869808
 20
7810.0664063885
 30
0.0
 11
1988.5166869808
 21
7825.6217172066
 31
0.0
  0
LINE
  5
187
330
1F
100
AcDbEntity
  8
0
  6
Continuous
 62
     7
370
    25
100
AcDbLine
 10
1981.0111334814
 20
7810.0664063885
 30
0.0
 11
1981.0111334814
 21
7827.3255952887
 31
0.0
  0
LINE
  5
188
330
1F
100
AcDbEntity
  8
0
  6
Continuous
 62
     7
370
    25
100
AcDbLine
 10
2011.0333474792
 20
7810.0664063885
 30
0.0
 11
2011.0333474792
 21
7827.3255952887
 31
0.0
  0
LINE
  5
189
330
1F
100
AcDbEntity
  8
0
  6
Continuous
 62
     7
370
    25
100
AcDbLine
 10
1932.0222404803
 20
7887.0664063885
 30
0.0
 11
1938.0222404803
 21
7887.0664063885
 31
0.0
  0
LINE
  5
18A
330
1F
100
AcDbEntity
  8
0
  6
Continuous
 62
     7
370
    25
100
AcDbLine
 10
1926.0222404803
 20
7887.0664063885
 30
0.0
 11
1932.0222404803
 21
7887.0664063885
 31
0.0
  0
LINE
  5
18B
330
1F
100
AcDbEntity
  8
0
  6
Continuous
 62
     7
370
    25
100
AcDbLine
 10
2060.0222404803
 20
7887.0664063885
 30
0.0
 11
2066.0222404803
 21
7887.0664063885
 31
0.0
  0
LINE
  5
18C
330
1F
100
AcDbEntity
  8
0
  6
Continuous
 62
     7
370
    25
100
AcDbLine
 10
2054.0222404803
 20
7887.0664063885
 30
0.0
 11
2060.0222404803
 21
7887.0664063885
 31
0.0
  0
LINE
  5
18D
330
1F
100
AcDbEntity
  8
0
  6
Continuous
 62
     7
370
    25
100
AcDbLine
 10
2055.0222404803
 20
7850.0664063885
 30
0.0
 11
2065.0222404803
 21
7850.0664063885
 31
0.0
  0
LINE
  5
18E
330
1F
100
AcDbEntity
  8
0
  6
Continuous
 62
     7
370
    25
100
AcDbLine
 10
1937.0222404803
 20
7850.0664063885
 30
0.0
 11
1927.0222404803
 21
7850.0664063885
 31
0.0
  0
SPLINE
  5
18F
330
1F
100
AcDbEntity
  8
0
  6
Continuous
 62
     7
370
    25
100
AcDbSpline
210
0.0
220
0.0
230
1.0
 70
    24
 71
     3
 72
    13
 73
     9
 74
     0
 42
0.00000001
 43
0.00000001
 40
0.0
 40
0.0
 40
0.0
 40
0.0
 40
0.0745177978999313
 40
0.2890152813359997
 40
0.5035097011462907
 40
0.7180863997498378
 40
0.9327965194340481
 40
1.0
 40
1.0
 40
1.0
 40
1.0
 10
1886.118979390953
 20
7638.066406388532
 30
0.0
 10
1886.123833148826
 20
7638.066406388532
 30
0.0
 10
1886.14265831861
 20
7638.066406388532
 30
0.0
 10
1885.54637355572
 20
7638.066406388532
 30
0.0
 10
1884.158591190939
 20
7638.066406388532
 30
0.0
 10
1882.174198959818
 20
7638.066406388533
 30
0.0
 10
1880.37673509678
 20
7638.066406388532
 30
0.0
 10
1879.338204774765
 20
7638.066406388532
 30
0.0
 10
1879.090636540205
 20
7638.066406388532
 30
0.0
  0
ARC
  5
190
330
1F
100
AcDbEntity
  8
0
  6
Continuous
 62
     7
370
    25
100
AcDbCircle
 10
1996.0222404803
 20
7634.0664063885
 30
0.0
 40
117.0000000000001
100
AcDbArc
 50
1.9592118568
 51
178.0407881432
  0
SPLINE
  5
191
330
1F
100
AcDbEntity
  8
0
  6
Continuous
 62
     7
370
    25
100
AcDbSpline
210
0.0
220
0.0
230
1.0
 70
    24
 71
     3
 72
    13
 73
     9
 74
     0
 42
0.00000001
 43
0.00000001
 40
0.0
 40
0.0
 40
0.0
 40
0.0
 40
0.0980970133289242
 40
0.3128414415589758
 40
0.5275643279599829
 40
0.7421887148094174
 40
0.8764928439390891
 40
1.0
 40
1.0
 40
1.0
 40
1.0
 10
2112.953844420367
 20
7638.066406388532
 30
0.0
 10
2112.592162221522
 20
7638.066406388532
 30
0.0
 10
2111.43872057602
 20
7638.066406388532
 30
0.0
 10
2109.557477889075
 20
7638.066406388532
 30
0.0
 10
2107.639767610799
 20
7638.066406388532
 30
0.0
 10
2106.514362226349
 20
7638.066406388532
 30
0.0
 10
2105.940702961624
 20
7638.066406388532
 30
0.0
 10
2105.965832099705
 20
7638.066406388532
 30
0.0
 10
2105.977870472565
 20
7638.066406388532
 30
0.0
  0
ARC
  5
192
330
1F
100
AcDbEntity
  8
0
  6
Continuous
 62
     7
370
    25
100
AcDbCircle
 10
1996.0222404803
 20
7634.0664063885
 30
0.0
 40
117.0000000000001
100
AcDbArc
 50
181.9592118568
 51
358.0407881432
  0
SPLINE
  5
193
330
1F
100
AcDbEntity
  8
0
  6
Continuous
 62
     7
370
    25
100
AcDbSpline
210
0.0
220
0.0
230
1.0
 70
    24
 71
     3
 72
    13
 73
     9
 74
     0
 42
0.00000001
 43
0.00000001
 40
0.0
 40
0.0
 40
0.0
 40
0.0
 40
0.1473788430927366
 40
0.3622000333006478
 40
0.5769803736310494
 40
0.7916490770706932
 40
0.9259461522496555
 40
1.0
 40
1.0
 40
1.0
 40
1.0
 10
1879.090636540205
 20
7630.066406388532
 30
0.0
 10
1879.634582598477
 20
7630.066406388532
 30
0.0
 10
1880.971391032344
 20
7630.066406388532
 30
0.0
 10
1882.967299574845
 20
7630.066406388532
 30
0.0
 10
1884.765768003686
 20
7630.066406388532
 30
0.0
 10
1885.747548867042
 20
7630.066406388532
 30
0.0
 10
1886.148501572725
 20
7630.066406388532
 30
0.0
 10
1886.114761927622
 20
7630.066406388532
 30
0.0
 10
1886.10276989751
 20
7630.066406388532
 30
0.0
  0
SPLINE
  5
194
330
1F
100
AcDbEntity
  8
0
  6
Continuous
 62
     7
370
    25
100
AcDbSpline
210
0.0
220
0.0
230
1.0
 70
    24
 71
     3
 72
    13
 73
     9
 74
     0
 42
0.00000001
 43
0.00000001
 40
0.0
 40
0.0
 40
0.0
 40
0.0
 40
0.1254487736883995
 40
0.3395835364447149
 40
0.5537148520230648
 40
0.7679358935785491
 40
0.9822859279055611
 40
1.0
 40
1.0
 40
1.0
 40
1.0
 10
2105.896158278059
 20
7630.066406388532
 30
0.0
 10
2105.918367176345
 20
7630.066406388532
 30
0.0
 10
2105.978485549753
 20
7630.066406388533
 30
0.0
 10
2106.752562005784
 20
7630.066406388532
 30
0.0
 10
2108.299081435497
 20
7630.066406388533
 30
0.0
 10
2110.381414410243
 20
7630.066406388532
 30
0.0
 10
2112.032171690064
 20
7630.066406388534
 30
0.0
 10
2112.88848011477
 20
7630.066406388532
 30
0.0
 10
2112.953844420367
 20
7630.066406388532
 30
0.0
  0
ARC
  5
195
330
1F
100
AcDbEntity
  8
0
  6
Continuous
 62
     7
370
    25
100
AcDbCircle
 10
1996.0222404803
 20
7634.0664063885
 30
0.0
 40
121.0000000000001
100
AcDbArc
 50
181.8944205066
 51
358.1055794934
  0
LINE
  5
196
330
1F
100
AcDbEntity
  8
0
  6
Continuous
 62
     7
370
    25
100
AcDbLine
 10
2112.9538444204
 20
7630.0664063885
 30
0.0
 11
2116.9561067048
 21
7630.0664063885
 31
0.0
  0
LINE
  5
197
330
1F
100
AcDbEntity
  8
0
  6
Continuous
 62
     7
370
    25
100
AcDbLine
 10
1875.0883742558
 20
7630.0664063885
 30
0.0
 11
1879.0906365402
 21
7630.0664063885
 31
0.0
  0
ARC
  5
198
330
1F
100
AcDbEntity
  8
0
  6
Continuous
 62
     7
370
    25
100
AcDbCircle
 10
1996.0222404803
 20
7634.0664063885
 30
0.0
 40
121.0000000000001
100
AcDbArc
 50
1.8944205066
 51
178.1055794934
  0
LINE
  5
199
330
1F
100
AcDbEntity
  8
0
  6
Continuous
 62
     7
370
    25
100
AcDbLine
 10
1879.0906365402
 20
7638.0664063885
 30
0.0
 11
1875.0883742558
 21
7638.0664063885
 31
0.0
  0
LINE
  5
19A
330
1F
100
AcDbEntity
  8
0
  6
Continuous
 62
     7
370
    25
100
AcDbLine
 10
2116.9561067048
 20
7638.0664063885
 30
0.0
 11
2112.9538444204
 21
7638.0664063885
 31
0.0
  0
LINE
  5
19B
330
1F
100
AcDbEntity
  8
0
  6
Continuous
 62
     7
370
    25
100
AcDbLine
 10
1846.5222404803
 20
7630.0664063885
 30
0.0
 11
1875.0883742558
 21
7630.0664063885
 31
0.0
  0
LINE
  5
19C
330
1F
100
AcDbEntity
  8
0
  6
Continuous
 62
     7
370
    25
100
AcDbLine
 10
1875.0883742558
 20
7638.0664063885
 30
0.0
 11
1846.5222404803
 21
7638.0664063885
 31
0.0
  0
LINE
  5
19D
330
1F
100
AcDbEntity
  8
0
  6
Continuous
 62
     7
370
    25
100
AcDbLine
 10
1884.094991811
 20
7630.0664063885
 30
0.0
 11
1884.094991811
 21
7638.0664063885
 31
0.0
  0
LINE
  5
19E
330
1F
100
AcDbEntity
  8
0
  6
Continuous
 62
     7
370
    25
100
AcDbLine
 10
2116.9561067048
 20
7630.0664063885
 30
0.0
 11
2145.5222404803
 21
7630.0664063885
 31
0.0
  0
LINE
  5
19F
330
1F
100
AcDbEntity
  8
0
  6
Continuous
 62
     7
370
    25
100
AcDbLine
 10
2107.9494891496
 20
7638.0664063885
 30
0.0
 11
2107.9494891496
 21
7630.0664063885
 31
0.0
  0
LINE
  5
1A0
330
1F
100
AcDbEntity
  8
0
  6
Continuous
 62
     7
370
    25
100
AcDbLine
 10
2145.5222404803
 20
7638.0664063885
 30
0.0
 11
2116.9561067048
 21
7638.0664063885
 31
0.0
  0
SPLINE
  5
1A1
330
1F
100
AcDbEntity
  8
0
  6
Continuous
 62
     7
370
    25
100
AcDbSpline
210
0.0
220
0.0
230
1.0
 70
    24
 71
     3
 72
    13
 73
     9
 74
     0
 42
0.00000001
 43
0.00000001
 40
0.0
 40
0.0
 40
0.0
 40
0.0
 40
0.0834118896568885
 40
0.2984354197463052
 40
0.5134962037385986
 40
0.7286756180893574
 40
0.9439993141879103
 40
1.0
 40
1.0
 40
1.0
 40
1.0
 10
1889.056595314794
 20
7638.066406388532
 30
0.0
 10
1889.066396809564
 20
7638.066406388532
 30
0.0
 10
1889.101465109994
 20
7638.066406388532
 30
0.0
 10
1888.806868823736
 20
7638.066406388533
 30
0.0
 10
1888.210410241773
 20
7638.066406388532
 30
0.0
 10
1887.355087488904
 20
7638.066406388532
 30
0.0
 10
1886.605748009109
 20
7638.066406388532
 30
0.0
 10
1886.182374966756
 20
7638.066406388532
 30
0.0
 10
1886.094991810995
 20
7638.066406388532
 30
0.0
  0
SPLINE
  5
1A2
330
1F
100
AcDbEntity
  8
0
  6
Continuous
 62
     7
370
    25
100
AcDbSpline
210
0.0
220
0.0
230
1.0
 70
    24
 71
     3
 72
    13
 73
     9
 74
     0
 42
0.00000001
 43
0.00000001
 40
0.0
 40
0.0
 40
0.0
 40
0.0
 40
0.0559112814837513
 40
0.2711725196822988
 40
0.4864193463903768
 40
0.7015657449436606
 40
0.9165683674167657
 40
1.0
 40
1.0
 40
1.0
 40
1.0
 10
2105.949489149576
 20
7638.066406388532
 30
0.0
 10
2105.862170623469
 20
7638.066406388532
 30
0.0
 10
2105.438671391989
 20
7638.066406388532
 30
0.0
 10
2104.688806389967
 20
7638.066406388532
 30
0.0
 10
2103.832779575519
 20
7638.066406388533
 30
0.0
 10
2103.236263981599
 20
7638.066406388532
 30
0.0
 10
2102.942237839174
 20
7638.066406388532
 30
0.0
 10
2102.977914157072
 20
7638.066406388532
 30
0.0
 10
2102.987887990157
 20
7638.066406388532
 30
0.0
  0
SPLINE
  5
1A3
330
1F
100
AcDbEntity
  8
0
  6
Continuous
 62
     7
370
    25
100
AcDbSpline
210
0.0
220
0.0
230
1.0
 70
    24
 71
     3
 72
    12
 73
     8
 74
     0
 42
0.00000001
 43
0.00000001
 40
0.0
 40
0.0
 40
0.0
 40
0.0
 40
0.1703155586286169
 40
0.3837488871269872
 40
0.5972540404987768
 40
0.8108942242239667
 40
1.0
 40
1.0
 40
1.0
 40
1.0
 10
2102.974943501861
 20
7630.066406388532
 30
0.0
 10
2102.98282943497
 20
7630.066406388532
 30
0.0
 10
2103.000597735642
 20
7630.066406388532
 30
0.0
 10
2103.427771699731
 20
7630.066406388532
 30
0.0
 10
2104.131867232532
 20
7630.066406388532
 30
0.0
 10
2105.016177704541
 20
7630.066406388532
 30
0.0
 10
2105.651281719684
 20
7630.066406388532
 30
0.0
 10
2105.949489149576
 20
7630.066406388532
 30
0.0
  0
SPLINE
  5
1A4
330
1F
100
AcDbEntity
  8
0
  6
Continuous
 62
     7
370
    25
100
AcDbSpline
210
0.0
220
0.0
230
1.0
 70
    24
 71
     3
 72
    12
 73
     8
 74
     0
 42
0.00000001
 43
0.00000001
 40
0.0
 40
0.0
 40
0.0
 40
0.0
 40
0.1368630439924574
 40
0.3527821178117777
 40
0.5686519021279176
 40
0.784397910714092
 40
1.0
 40
1.0
 40
1.0
 40
1.0
 10
1886.094991811001
 20
7630.066406388532
 30
0.0
 10
1886.308347046123
 20
7630.066406388532
 30
0.0
 10
1886.858297635389
 20
7630.066406388532
 30
0.0
 10
1887.698072530188
 20
7630.066406388532
 30
0.0
 10
1888.465450516976
 20
7630.066406388532
 30
0.0
 10
1888.989894700872
 20
7630.066406388532
 30
0.0
 10
1889.061273300254
 20
7630.066406388532
 30
0.0
 10
1889.096950692209
 20
7630.066406388532
 30
0.0
  0
LINE
  5
1A5
330
1F
100
AcDbEntity
  8
0
  6
Continuous
 62
     7
370
    25
100
AcDbLine
 10
1988.5166869808
 20
7770.0664063885
 30
0.0
 11
1988.5166869808
 21
7754.8333996717
 31
0.0
  0
LINE
  5
1A6
330
1F
100
AcDbEntity
  8
0
  6
Continuous
 62
     7
370
    25
100
AcDbLine
 10
2003.5277939798
 20
7770.0664063885
 30
0.0
 11
2003.5277939798
 21
7754.8333996717
 31
0.0
  0
LINE
  5
1A7
330
1F
100
AcDbEntity
  8
0
  6
Continuous
 62
     7
370
    25
100
AcDbLine
 10
1981.0111334814
 20
7770.0664063885
 30
0.0
 11
1981.0111334814
 21
7754.131666421
 31
0.0
  0
LINE
  5
1A8
330
1F
100
AcDbEntity
  8
0
  6
Continuous
 62
     7
370
    25
100
AcDbLine
 10
2011.0333474792
 20
7770.0664063885
 30
0.0
 11
2011.0333474792
 21
7754.131666421
 31
0.0
  0
LINE
  5
1A9
330
1F
100
AcDbEntity
  8
0
  6
Continuous
 62
     7
370
    25
100
AcDbLine
 10
1862.0222404803
 20
7623.0664063885
 30
0.0
 11
1856.0222404803
 21
7623.0664063885
 31
0.0
  0
LINE
  5
1AA
330
1F
100
AcDbEntity
  8
0
  6
Continuous
 62
     7
370
    25
100
AcDbLine
 10
1868.0222404803
 20
7623.0664063885
 30
0.0
 11
1862.0222404803
 21
7623.0664063885
 31
0.0
  0
LINE
  5
1AB
330
1F
100
AcDbEntity
  8
0
  6
Continuous
 62
     7
370
    25
100
AcDbLine
 10
2130.0222404803
 20
7623.0664063885
 30
0.0
 11
2124.0222404803
 21
7623.0664063885
 31
0.0
  0
LINE
  5
1AC
330
1F
100
AcDbEntity
  8
0
  6
Continuous
 62
     7
370
    25
100
AcDbLine
 10
2136.0222404803
 20
7623.0664063885
 30
0.0
 11
2130.0222404803
 21
7623.0664063885
 31
0.0
  0
LINE
  5
1AD
330
1F
100
AcDbEntity
  8
0
  6
Continuous
 62
     7
370
    25
100
AcDbLine
 10
1867.0222404803
 20
7660.0664063885
 30
0.0
 11
1857.0222404803
 21
7660.0664063885
 31
0.0
  0
LINE
  5
1AE
330
1F
100
AcDbEntity
  8
0
  6
Continuous
 62
     7
370
    25
100
AcDbLine
 10
2125.0222404803
 20
7660.0664063885
 30
0.0
 11
2135.0222404803
 21
7660.0664063885
 31
0.0
  0
LINE
  5
1AF
330
1F
100
AcDbEntity
  8
0
  6
Continuous
 62
     7
370
    25
100
AcDbLine
 10
1886.0222404803
 20
8070.0664063885
 30
0.0
 11
2106.0222404795
 21
8070.0664063885
 31
0.0
  0
LINE
  5
1B0
330
1F
100
AcDbEntity
  8
0
  6
Continuous
 62
     7
370
    25
100
AcDbLine
 10
1886.0222404803
 20
8010.0664063885
 30
0.0
 11
2106.0222404795
 21
8010.0664063885
 31
0.0
  0
LINE
  5
1B1
330
1F
100
AcDbEntity
  8
0
  6
Continuous
 62
     7
370
    25
100
AcDbLine
 10
2106.0222404795
 20
8070.0664063885
 30
0.0
 11
2490.0222404795
 21
8070.0664063885
 31
0.0
  0
LINE
  5
1B2
330
1F
100
AcDbEntity
  8
0
  6
Continuous
 62
     7
370
    25
100
AcDbLine
 10
2106.0222404795
 20
8070.0664063885
 30
0.0
 11
2106.0222404795
 21
8076.0664063885
 31
0.0
  0
LINE
  5
1B3
330
1F
100
AcDbEntity
  8
0
  6
Continuous
 62
     7
370
    25
100
AcDbLine
 10
2106.0222404795
 20
8076.0664063885
 30
0.0
 11
2490.0222404795
 21
8076.0664063885
 31
0.0
  0
LINE
  5
1B4
330
1F
100
AcDbEntity
  8
0
  6
Continuous
 62
     7
370
    25
100
AcDbLine
 10
2490.0222404795
 20
8070.0664063885
 30
0.0
 11
2490.0222404795
 21
8076.0664063885
 31
0.0
  0
LINE
  5
1B5
330
1F
100
AcDbEntity
  8
0
  6
Continuous
 62
     7
370
    25
100
AcDbLine
 10
2106.0222404795
 20
8012.0664063885
 30
0.0
 11
2490.0222404795
 21
8012.0664063885
 31
0.0
  0
LINE
  5
1B6
330
1F
100
AcDbEntity
  8
0
  6
Continuous
 62
     7
370
    25
100
AcDbLine
 10
2106.0222404795
 20
8012.0664063885
 30
0.0
 11
2106.0222404795
 21
8070.0664063885
 31
0.0
  0
LINE
  5
1B7
330
1F
100
AcDbEntity
  8
0
  6
Continuous
 62
     7
370
    25
100
AcDbLine
 10
2490.0222404795
 20
8012.0664063885
 30
0.0
 11
2490.0222404795
 21
8070.0664063885
 31
0.0
  0
LINE
  5
1B8
330
1F
100
AcDbEntity
  8
0
  6
Continuous
 62
     7
370
    25
100
AcDbLine
 10
2106.0222404795
 20
8006.0664063885
 30
0.0
 11
2490.0222404795
 21
8006.0664063885
 31
0.0
  0
LINE
  5
1B9
330
1F
100
AcDbEntity
  8
0
  6
Continuous
 62
     7
370
    25
100
AcDbLine
 10
2106.0222404795
 20
8006.0664063885
 30
0.0
 11
2106.0222404795
 21
8012.0664063885
 31
0.0
  0
LINE
  5
1BA
330
1F
100
AcDbEntity
  8
0
  6
Continuous
 62
     7
370
    25
100
AcDbLine
 10
2490.0222404795
 20
8006.0664063885
 30
0.0
 11
2490.0222404795
 21
8012.0664063885
 31
0.0
  0
LINE
  5
1BB
330
1F
100
AcDbEntity
  8
0
  6
Continuous
 62
     7
370
    25
100
AcDbLine
 10
2496.0222404795
 20
8161.0664063885
 30
0.0
 11
2490.0222404795
 21
8161.0664063885
 31
0.0
  0
LINE
  5
1BC
330
1F
100
AcDbEntity
  8
0
  6
Continuous
 62
     7
370
    25
100
AcDbLine
 10
2496.0222404795
 20
8161.0664063885
 30
0.0
 11
2496.0222404795
 21
7921.0664063885
 31
0.0
  0
LINE
  5
1BD
330
1F
100
AcDbEntity
  8
0
  6
Continuous
 62
     7
370
    25
100
AcDbLine
 10
2496.0222404795
 20
7921.0664063885
 30
0.0
 11
2490.0222404795
 21
7921.0664063885
 31
0.0
  0
LINE
  5
1BE
330
1F
100
AcDbEntity
  8
0
  6
Continuous
 62
     7
370
    25
100
AcDbLine
 10
2490.0222404795
 20
8006.0664063885
 30
0.0
 11
2490.0222404795
 21
7921.0664063885
 31
0.0
  0
LINE
  5
1BF
330
1F
100
AcDbEntity
  8
0
  6
Continuous
 62
     7
370
    25
100
AcDbLine
 10
2490.0222404795
 20
8161.0664063885
 30
0.0
 11
2490.0222404795
 21
8076.0664063885
 31
0.0
  0
LINE
  5
1C0
330
1F
100
AcDbEntity
  8
0
  6
Continuous
 62
     7
370
    25
100
AcDbLine
 10
1886.0222404803
 20
8076.0664063885
 30
0.0
 11
1502.0222404803
 21
8076.0664063885
 31
0.0
  0
LINE
  5
1C1
330
1F
100
AcDbEntity
  8
0
  6
Continuous
 62
     7
370
    25
100
AcDbLine
 10
1886.0222404803
 20
8076.0664063885
 30
0.0
 11
1886.0222404803
 21
8070.0664063885
 31
0.0
  0
LINE
  5
1C2
330
1F
100
AcDbEntity
  8
0
  6
Continuous
 62
     7
370
    25
100
AcDbLine
 10
1886.0222404803
 20
8070.0664063885
 30
0.0
 11
1502.0222404803
 21
8070.0664063885
 31
0.0
  0
LINE
  5
1C3
330
1F
100
AcDbEntity
  8
0
  6
Continuous
 62
     7
370
    25
100
AcDbLine
 10
1502.0222404803
 20
8076.0664063885
 30
0.0
 11
1502.0222404803
 21
8070.0664063885
 31
0.0
  0
LINE
  5
1C4
330
1F
100
AcDbEntity
  8
0
  6
Continuous
 62
     7
370
    25
100
AcDbLine
 10
1886.0222404803
 20
8012.0664063885
 30
0.0
 11
1502.0222404803
 21
8012.0664063885
 31
0.0
  0
LINE
  5
1C5
330
1F
100
AcDbEntity
  8
0
  6
Continuous
 62
     7
370
    25
100
AcDbLine
 10
1886.0222404803
 20
8006.0664063885
 30
0.0
 11
1502.0222404803
 21
8006.0664063885
 31
0.0
  0
LINE
  5
1C6
330
1F
100
AcDbEntity
  8
0
  6
Continuous
 62
     7
370
    25
100
AcDbLine
 10
1502.0222404803
 20
8012.0664063885
 30
0.0
 11
1502.0222404803
 21
8006.0664063885
 31
0.0
  0
LINE
  5
1C7
330
1F
100
AcDbEntity
  8
0
  6
Continuous
 62
     7
370
    25
100
AcDbLine
 10
1886.0222404803
 20
8012.0664063885
 30
0.0
 11
1886.0222404803
 21
8006.0664063885
 31
0.0
  0
LINE
  5
1C8
330
1F
100
AcDbEntity
  8
0
  6
Continuous
 62
     7
370
    25
100
AcDbLine
 10
1502.0222404803
 20
8070.0664063885
 30
0.0
 11
1502.0222404803
 21
8012.0664063885
 31
0.0
  0
LINE
  5
1C9
330
1F
100
AcDbEntity
  8
0
  6
Continuous
 62
     7
370
    25
100
AcDbLine
 10
1886.0222404803
 20
8070.0664063885
 30
0.0
 11
1886.0222404803
 21
8012.0664063885
 31
0.0
  0
LINE
  5
1CA
330
1F
100
AcDbEntity
  8
0
  6
Continuous
 62
     7
370
    25
100
AcDbLine
 10
1496.0222404803
 20
7921.0664063885
 30
0.0
 11
1502.0222404803
 21
7921.0664063885
 31
0.0
  0
LINE
  5
1CB
330
1F
100
AcDbEntity
  8
0
  6
Continuous
 62
     7
370
    25
100
AcDbLine
 10
1496.0222404803
 20
7921.0664063885
 30
0.0
 11
1496.0222404803
 21
8161.0664063885
 31
0.0
  0
LINE
  5
1CC
330
1F
100
AcDbEntity
  8
0
  6
Continuous
 62
     7
370
    25
100
AcDbLine
 10
1496.0222404803
 20
8161.0664063885
 30
0.0
 11
1502.0222404803
 21
8161.0664063885
 31
0.0
  0
LINE
  5
1CD
330
1F
100
AcDbEntity
  8
0
  6
Continuous
 62
     7
370
    25
100
AcDbLine
 10
1502.0222404803
 20
8076.0664063885
 30
0.0
 11
1502.0222404803
 21
8161.0664063885
 31
0.0
  0
LINE
  5
1CE
330
1F
100
AcDbEntity
  8
0
  6
Continuous
 62
     7
370
    25
100
AcDbLine
 10
1502.0222404803
 20
7921.0664063885
 30
0.0
 11
1502.0222404803
 21
8006.0664063885
 31
0.0
  0
LINE
  5
1CF
330
1F
100
AcDbEntity
  8
0
  6
Continuous
 62
     8
370
    25
100
AcDbLine
 10
1840.5222404803
 20
7970.2664063885
 30
0.0
 11
1840.5222404803
 21
7854.1137814851
 31
0.0
  0
LINE
  5
1D0
330
1F
100
AcDbEntity
  8
0
  6
Continuous
 62
     8
370
    25
100
AcDbLine
 10
1840.5222404803
 20
7796.019031292
 30
0.0
 11
1840.5222404803
 21
6910.2664063885
 31
0.0
  0
LINE
  5
1D1
330
1F
100
AcDbEntity
  8
0
  6
Continuous
 62
     8
370
    25
100
AcDbLine
 10
2151.5222404803
 20
7970.2664063885
 30
0.0
 11
2151.5222404803
 21
7854.1137814851
 31
0.0
  0
LINE
  5
1D2
330
1F
100
AcDbEntity
  8
0
  6
Continuous
 62
     8
370
    25
100
AcDbLine
 10
2151.5222404803
 20
7796.019031292
 30
0.0
 11
2151.5222404803
 21
6910.2664063885
 31
0.0
  0
LINE
  5
1D3
330
1F
100
AcDbEntity
  8
0
  6
Continuous
 62
     8
370
    25
100
AcDbLine
 10
2326.0222404803
 20
7804.0664063885
 30
0.0
 11
2265.5222404803
 21
7804.0664063885
 31
0.0
  0
LINE
  5
1D4
330
1F
100
AcDbEntity
  8
0
  6
Continuous
 62
     8
370
    25
100
AcDbLine
 10
2144.3520652361
 20
7804.0664063885
 30
0.0
 11
1847.6924157245
 21
7804.0664063885
 31
0.0
  0
LINE
  5
1D5
330
1F
100
AcDbEntity
  8
0
  6
Continuous
 62
     8
370
    25
100
AcDbLine
 10
1726.5222404803
 20
7804.0664063885
 30
0.0
 11
1666.0222404803
 21
7804.0664063885
 31
0.0
  0
LINE
  5
1D6
330
1F
100
AcDbEntity
  8
0
  6
Continuous
 62
     8
370
    25
100
AcDbLine
 10
2326.0222404803
 20
7776.0664063885
 30
0.0
 11
2265.5222404803
 21
7776.0664063885
 31
0.0
  0
LINE
  5
1D7
330
1F
100
AcDbEntity
  8
0
  6
Continuous
 62
     8
370
    25
100
AcDbLine
 10
2189.5222404803
 20
7776.0664063885
 30
0.0
 11
2165.5222404803
 21
7776.0664063885
 31
0.0
  0
LINE
  5
1D8
330
1F
100
AcDbEntity
  8
0
  6
Continuous
 62
     8
370
    25
100
AcDbLine
 10
2145.5222404803
 20
7776.0664063885
 30
0.0
 11
1846.5222404803
 21
7776.0664063885
 31
0.0
  0
LINE
  5
1D9
330
1F
100
AcDbEntity
  8
0
  6
Continuous
 62
     8
370
    25
100
AcDbLine
 10
1826.5222404803
 20
7776.0664063885
 30
0.0
 11
1802.5222404803
 21
7776.0664063885
 31
0.0
  0
LINE
  5
1DA
330
1F
100
AcDbEntity
  8
0
  6
Continuous
 62
     8
370
    25
100
AcDbLine
 10
1726.5222404803
 20
7776.0664063885
 30
0.0
 11
1666.0222404803
 21
7776.0664063885
 31
0.0
  0
LINE
  5
1DB
330
1F
100
AcDbEntity
  8
0
  6
Continuous
 62
     8
370
    25
100
AcDbLine
 10
1932.0222404803
 20
7883.0664063885
 30
0.0
 11
1922.0222404803
 21
7883.0664063885
 31
0.0
  0
LINE
  5
1DC
330
1F
100
AcDbEntity
  8
0
  6
Continuous
 62
     8
370
    25
100
AcDbLine
 10
1942.0222404803
 20
7883.0664063885
 30
0.0
 11
1932.0222404803
 21
7883.0664063885
 31
0.0
  0
LINE
  5
1DD
330
1F
100
AcDbEntity
  8
0
  6
Continuous
 62
     8
370
    25
100
AcDbLine
 10
2060.0222404803
 20
7883.0664063885
 30
0.0
 11
2050.0222404803
 21
7883.0664063885
 31
0.0
  0
LINE
  5
1DE
330
1F
100
AcDbEntity
  8
0
  6
Continuous
 62
     8
370
    25
100
AcDbLine
 10
2070.0222404803
 20
7883.0664063885
 30
0.0
 11
2060.0222404803
 21
7883.0664063885
 31
0.0
  0
LINE
  5
1DF
330
1F
100
AcDbEntity
  8
0
  6
Continuous
 62
     8
370
    25
100
AcDbLine
 10
1862.0222404803
 20
7627.0664063885
 30
0.0
 11
1872.0222404803
 21
7627.0664063885
 31
0.0
  0
LINE
  5
1E0
330
1F
100
AcDbEntity
  8
0
  6
Continuous
 62
     8
370
    25
100
AcDbLine
 10
1852.0222404803
 20
7627.0664063885
 30
0.0
 11
1862.0222404803
 21
7627.0664063885
 31
0.0
  0
LINE
  5
1E1
330
1F
100
AcDbEntity
  8
0
  6
Continuous
 62
     8
370
    25
100
AcDbLine
 10
2130.0222404803
 20
7627.0664063885
 30
0.0
 11
2140.0222404803
 21
7627.0664063885
 31
0.0
  0
LINE
  5
1E2
330
1F
100
AcDbEntity
  8
0
  6
Continuous
 62
     8
370
    25
100
AcDbLine
 10
2120.0222404803
 20
7627.0664063885
 30
0.0
 11
2130.0222404803
 21
7627.0664063885
 31
0.0
  0
LINE
  5
1E3
330
1F
100
AcDbEntity
  8
0
  6
Continuous
 62
     8
370
    25
100
AcDbLine
 10
1886.0222404803
 20
8016.0664063885
 30
0.0
 11
2106.0222404795
 21
8016.0664063885
 31
0.0
  0
LINE
  5
1E4
330
1F
100
AcDbEntity
  8
0
  6
Continuous
 62
     8
370
    25
100
AcDbLine
 10
1886.0222404803
 20
8064.0664063885
 30
0.0
 11
2106.0222404795
 21
8064.0664063885
 31
0.0
  0
LINE
  5
1E5
330
1F
100
AcDbEntity
  8
0
  6
Continuous
 62
     7
370
    25
100
AcDbLine
 10
3248.2377819016
 20
8050.0664063885
 30
0.0
 11
3247.2377819016
 21
8052.0775133874
 31
0.0
  0
LINE
  5
1E6
330
1F
100
AcDbEntity
  8
0
  6
Continuous
 62
     7
370
    25
100
AcDbLine
 10
3236.2377819016
 20
8052.0775133874
 30
0.0
 11
3235.2377819016
 21
8050.0664063885
 31
0.0
  0
LINE
  5
1E7
330
1F
100
AcDbEntity
  8
0
  6
Continuous
 62
     7
370
    25
100
AcDbLine
 10
3247.2377819016
 20
8022.0552993896
 30
0.0
 11
3248.2377819016
 21
8024.0664063885
 31
0.0
  0
LINE
  5
1E8
330
1F
100
AcDbEntity
  8
0
  6
Continuous
 62
     7
370
    25
100
AcDbLine
 10
3235.2377819016
 20
8024.0664063885
 30
0.0
 11
3236.2377819016
 21
8022.0552993896
 31
0.0
  0
LINE
  5
1E9
330
1F
100
AcDbEntity
  8
0
  6
Continuous
 62
     7
370
    25
100
AcDbLine
 10
3318.2377819016
 20
7790.0664063885
 30
0.0
 11
3323.2377819016
 21
7790.0664063885
 31
0.0
  0
LINE
  5
1EA
330
1F
100
AcDbEntity
  8
0
  6
Continuous
 62
     7
370
    25
100
AcDbLine
 10
3323.2377819016
 20
7860.0664063885
 30
0.0
 11
3318.2377819016
 21
7860.0664063885
 31
0.0
  0
LINE
  5
1EB
330
1F
100
AcDbEntity
  8
0
  6
Continuous
 62
     7
370
    25
100
AcDbLine
 10
3342.2377819016
 20
7811.5664063885
 30
0.0
 11
3525.2377819016
 21
7811.5664063885
 31
0.0
  0
LINE
  5
1EC
330
1F
100
AcDbEntity
  8
0
  6
Continuous
 62
     7
370
    25
100
AcDbLine
 10
3582.2377819016
 20
7811.5664063885
 30
0.0
 11
3628.2377819016
 21
7811.5664063885
 31
0.0
  0
LINE
  5
1ED
330
1F
100
AcDbEntity
  8
0
  6
Continuous
 62
     7
370
    25
100
AcDbLine
 10
3628.2377819016
 20
7838.5664063885
 30
0.0
 11
3582.2377819016
 21
7838.5664063885
 31
0.0
  0
LINE
  5
1EE
330
1F
100
AcDbEntity
  8
0
  6
Continuous
 62
     7
370
    25
100
AcDbLine
 10
3525.2377819016
 20
7838.5664063885
 30
0.0
 11
3342.2377819016
 21
7838.5664063885
 31
0.0
  0
LINE
  5
1EF
330
1F
100
AcDbEntity
  8
0
  6
Continuous
 62
     7
370
    25
100
AcDbLine
 10
3258.2377819016
 20
7840.0664063885
 30
0.0
 11
3198.2377819016
 21
7840.0664063885
 31
0.0
  0
LINE
  5
1F0
330
1F
100
AcDbEntity
  8
0
  6
Continuous
 62
     7
370
    25
100
AcDbLine
 10
3209.2377819016
 20
7807.0664063885
 30
0.0
 11
3209.2377819016
 21
7773.0664063885
 31
0.0
  0
LINE
  5
1F1
330
1F
100
AcDbEntity
  8
0
  6
Continuous
 62
     7
370
    25
100
AcDbLine
 10
3227.2377819016
 20
7773.0664063885
 30
0.0
 11
3227.2377819016
 21
7807.0664063885
 31
0.0
  0
LINE
  5
1F2
330
1F
100
AcDbEntity
  8
0
  6
Continuous
 62
     7
370
    25
100
AcDbLine
 10
3547.2377819016
 20
7787.0664063885
 30
0.0
 11
3557.2377819016
 21
7787.0664063885
 31
0.0
  0
LINE
  5
1F3
330
1F
100
AcDbEntity
  8
0
  6
Continuous
 62
     7
370
    25
100
AcDbLine
 10
3557.2377819016
 20
7863.0664063885
 30
0.0
 11
3547.2377819016
 21
7863.0664063885
 31
0.0
  0
LINE
  5
1F4
330
1F
100
AcDbEntity
  8
0
  6
Continuous
 62
     7
370
    25
100
AcDbLine
 10
3547.2377819016
 20
7860.0664063885
 30
0.0
 11
3542.2377819016
 21
7860.0664063885
 31
0.0
  0
LINE
  5
1F5
330
1F
100
AcDbEntity
  8
0
  6
Continuous
 62
     7
370
    25
100
AcDbLine
 10
3542.2377819016
 20
7790.0664063885
 30
0.0
 11
3547.2377819016
 21
7790.0664063885
 31
0.0
  0
LINE
  5
1F6
330
1F
100
AcDbEntity
  8
0
  6
Continuous
 62
     7
370
    25
100
AcDbLine
 10
3542.2377819016
 20
7841.0664063885
 30
0.0
 11
3525.2377819016
 21
7841.0664063885
 31
0.0
  0
LINE
  5
1F7
330
1F
100
AcDbEntity
  8
0
  6
Continuous
 62
     7
370
    25
100
AcDbLine
 10
3525.2377819016
 20
7809.0664063885
 30
0.0
 11
3542.2377819016
 21
7809.0664063885
 31
0.0
  0
LINE
  5
1F8
330
1F
100
AcDbEntity
  8
0
  6
Continuous
 62
     7
370
    25
100
AcDbLine
 10
3256.2377819016
 20
8845.0664063885
 30
0.0
 11
3254.2377819016
 21
8845.0664063885
 31
0.0
  0
LINE
  5
1F9
330
1F
100
AcDbEntity
  8
0
  6
Continuous
 62
     7
370
    25
100
AcDbLine
 10
3256.2377819016
 20
8396.0664063885
 30
0.0
 11
3254.2377819016
 21
8396.0664063885
 31
0.0
  0
LINE
  5
1FA
330
1F
100
AcDbEntity
  8
0
  6
Continuous
 62
     7
370
    25
100
AcDbLine
 10
3256.2377819016
 20
8395.5664063885
 30
0.0
 11
3254.2377819016
 21
8395.5664063885
 31
0.0
  0
LINE
  5
1FB
330
1F
100
AcDbEntity
  8
0
  6
Continuous
 62
     7
370
    25
100
AcDbLine
 10
3254.2377819016
 20
8385.5664063885
 30
0.0
 11
3256.2377819016
 21
8385.5664063885
 31
0.0
  0
LINE
  5
1FC
330
1F
100
AcDbEntity
  8
0
  6
Continuous
 62
     7
370
    25
100
AcDbLine
 10
3256.2377819016
 20
8844.5664063885
 30
0.0
 11
3254.2377819016
 21
8844.5664063885
 31
0.0
  0
LINE
  5
1FD
330
1F
100
AcDbEntity
  8
0
  6
Continuous
 62
     7
370
    25
100
AcDbLine
 10
3254.2377819016
 20
8834.5664063885
 30
0.0
 11
3256.2377819016
 21
8834.5664063885
 31
0.0
  0
LINE
  5
1FE
330
1F
100
AcDbEntity
  8
0
  6
Continuous
 62
     7
370
    25
100
AcDbLine
 10
3252.2377819016
 20
8067.0664063885
 30
0.0
 11
3248.2377819016
 21
8067.0664063885
 31
0.0
  0
LINE
  5
1FF
330
1F
100
AcDbEntity
  8
0
  6
Continuous
 62
     7
370
    25
100
AcDbLine
 10
3248.2377819016
 20
8007.0664063885
 30
0.0
 11
3252.2377819016
 21
8007.0664063885
 31
0.0
  0
LINE
  5
200
330
1F
100
AcDbEntity
  8
0
  6
Continuous
 62
     7
370
    25
100
AcDbLine
 10
3228.2377819016
 20
7880.0664063885
 30
0.0
 11
3228.2377819016
 21
7883.0664063885
 31
0.0
  0
LINE
  5
201
330
1F
100
AcDbEntity
  8
0
  6
Continuous
 62
     7
370
    25
100
AcDbLine
 10
3208.2377819016
 20
7883.0664063885
 30
0.0
 11
3208.2377819016
 21
7880.0664063885
 31
0.0
  0
ARC
  5
202
330
1F
100
AcDbEntity
  8
0
  6
Continuous
 62
     7
370
    25
100
AcDbCircle
 10
3212.2377819016
 20
7883.0664063885
 30
0.0
 40
4.0
100
AcDbArc
 50
90.0
 51
180.0
  0
ARC
  5
203
330
1F
100
AcDbEntity
  8
0
  6
Continuous
 62
     7
370
    25
100
AcDbCircle
 10
3224.2377819016
 20
7883.0664063885
 30
0.0
 40
4.0
100
AcDbArc
 50
0.0
 51
90.0
  0
LINE
  5
204
330
1F
100
AcDbEntity
  8
0
  6
Continuous
 62
     7
370
    25
100
AcDbLine
 10
3213.2377819016
 20
7872.0664063885
 30
0.0
 11
3213.2377819016
 21
7850.0664063885
 31
0.0
  0
LINE
  5
205
330
1F
100
AcDbEntity
  8
0
  6
Continuous
 62
     7
370
    25
100
AcDbLine
 10
3223.2377819016
 20
7850.0664063885
 30
0.0
 11
3223.2377819016
 21
7872.0664063885
 31
0.0
  0
LINE
  5
206
330
1F
100
AcDbEntity
  8
0
  6
Continuous
 62
     7
370
    25
100
AcDbLine
 10
3195.9377819016
 20
7825.0664063885
 30
0.0
 11
3198.2377819016
 21
7825.5592635314
 31
0.0
  0
LINE
  5
207
330
1F
100
AcDbEntity
  8
0
  6
Continuous
 62
     7
370
    25
100
AcDbLine
 10
3209.9377819016
 20
7924.0664063885
 30
0.0
 11
3195.9377819016
 21
7927.0664063885
 31
0.0
  0
LINE
  5
208
330
1F
100
AcDbEntity
  8
0
  6
Continuous
 62
     7
370
    25
100
AcDbLine
 10
3240.5377819016
 20
7927.0664063885
 30
0.0
 11
3226.5377819016
 21
7924.0664063885
 31
0.0
  0
LINE
  5
209
330
1F
100
AcDbEntity
  8
0
  6
Continuous
 62
     7
370
    25
100
AcDbLine
 10
3226.5377819016
 20
7922.0664063885
 30
0.0
 11
3209.9377819016
 21
7922.0664063885
 31
0.0
  0
ARC
  5
20A
330
1F
100
AcDbEntity
  8
0
  6
Continuous
 62
     7
370
    25
100
AcDbCircle
 10
3224.2377819016
 20
7627.0664063885
 30
0.0
 40
4.0
100
AcDbArc
 50
270.0
 51
0.0
  0
ARC
  5
20B
330
1F
100
AcDbEntity
  8
0
  6
Continuous
 62
     7
370
    25
100
AcDbCircle
 10
3212.2377819016
 20
7627.0664063885
 30
0.0
 40
4.0
100
AcDbArc
 50
180.0
 51
270.0
  0
LINE
  5
20C
330
1F
100
AcDbEntity
  8
0
  6
Continuous
 62
     7
370
    25
100
AcDbLine
 10
3208.2377819016
 20
7630.0664063885
 30
0.0
 11
3208.2377819016
 21
7627.0664063885
 31
0.0
  0
LINE
  5
20D
330
1F
100
AcDbEntity
  8
0
  6
Continuous
 62
     7
370
    25
100
AcDbLine
 10
3228.2377819016
 20
7627.0664063885
 30
0.0
 11
3228.2377819016
 21
7630.0664063885
 31
0.0
  0
LINE
  5
20E
330
1F
100
AcDbEntity
  8
0
  6
Continuous
 62
     7
370
    25
100
AcDbLine
 10
3223.2377819016
 20
7638.0664063885
 30
0.0
 11
3223.2377819016
 21
7660.0664063885
 31
0.0
  0
LINE
  5
20F
330
1F
100
AcDbEntity
  8
0
  6
Continuous
 62
     7
370
    25
100
AcDbLine
 10
3213.2377819016
 20
7660.0664063885
 30
0.0
 11
3213.2377819016
 21
7638.0664063885
 31
0.0
  0
LINE
  5
210
330
1F
100
AcDbEntity
  8
0
  6
Continuous
 62
     7
370
    25
100
AcDbLine
 10
3205.2377819016
 20
7753.0735492457
 30
0.0
 11
3195.9377819016
 21
7755.0664063885
 31
0.0
  0
LINE
  5
211
330
1F
100
AcDbEntity
  8
0
  6
Continuous
 62
     7
370
    25
100
AcDbLine
 10
3195.9377819016
 20
7513.0664063885
 30
0.0
 11
3209.9377819016
 21
7516.0664063885
 31
0.0
  0
LINE
  5
212
330
1F
100
AcDbEntity
  8
0
  6
Continuous
 62
     7
370
    25
100
AcDbLine
 10
3226.5377819016
 20
7516.0664063885
 30
0.0
 11
3240.5377819016
 21
7513.0664063885
 31
0.0
  0
LINE
  5
213
330
1F
100
AcDbEntity
  8
0
  6
Continuous
 62
     7
370
    25
100
AcDbLine
 10
3240.5377819016
 20
7755.0664063885
 30
0.0
 11
3231.2377819016
 21
7753.0735492457
 31
0.0
  0
LINE
  5
214
330
1F
100
AcDbEntity
  8
0
  6
Continuous
 62
     7
370
    25
100
AcDbLine
 10
3209.9377819016
 20
7518.0664063885
 30
0.0
 11
3226.5377819016
 21
7518.0664063885
 31
0.0
  0
LINE
  5
215
330
1F
100
AcDbEntity
  8
0
  6
Continuous
 62
     7
370
    25
100
AcDbLine
 10
3235.2377819016
 20
8045.0664063885
 30
0.0
 11
3070.6377819016
 21
8045.0664063885
 31
0.0
  0
LINE
  5
216
330
1F
100
AcDbEntity
  8
0
  6
Continuous
 62
     7
370
    25
100
AcDbLine
 10
3070.6377819016
 20
8029.0664063885
 30
0.0
 11
3235.2377819016
 21
8029.0664063885
 31
0.0
  0
SPLINE
  5
217
330
1F
100
AcDbEntity
  8
0
  6
Continuous
 62
     7
370
    25
100
AcDbSpline
210
0.0
220
0.0
230
1.0
 70
     8
 71
     3
 72
     9
 73
     5
 74
     0
 42
0.00000001
 43
0.00000001
 40
0.0
 40
0.0
 40
0.0
 40
0.0
 40
0.5156102819445848
 40
0.9999999999999999
 40
0.9999999999999999
 40
0.9999999999999999
 40
0.9999999999999999
 10
3235.237781901597
 20
8037.066406388519
 30
0.0
 10
3235.291758475937
 20
8038.372324836262
 30
0.0
 10
3235.396443305215
 20
8040.905087454602
 30
0.0
 10
3235.96323421339
 20
8043.375377021271
 30
0.0
 10
3236.237781901597
 20
8044.571959887984
 30
0.0
  0
LINE
  5
218
330
1F
100
AcDbEntity
  8
0
  6
Continuous
 62
     7
370
    25
100
AcDbLine
 10
3247.2377819016
 20
8044.571959888
 30
0.0
 11
3236.2377819016
 21
8044.571959888
 31
0.0
  0
SPLINE
  5
219
330
1F
100
AcDbEntity
  8
0
  6
Continuous
 62
     7
370
    25
100
AcDbSpline
210
0.0
220
0.0
230
1.0
 70
     8
 71
     3
 72
     9
 73
     5
 74
     0
 42
0.00000001
 43
0.00000001
 40
0.0
 40
0.0
 40
0.0
 40
0.0
 40
0.484389718055651
 40
0.9999999999999999
 40
0.9999999999999999
 40
0.9999999999999999
 40
0.9999999999999999
 10
3247.237781901597
 20
8044.571959887985
 30
0.0
 10
3247.512329589805
 20
8043.375377021271
 30
0.0
 10
3248.079120497981
 20
8040.905087454602
 30
0.0
 10
3248.183805327258
 20
8038.37232483626
 30
0.0
 10
3248.237781901597
 20
8037.066406388519
 30
0.0
  0
SPLINE
  5
21A
330
1F
100
AcDbEntity
  8
0
  6
Continuous
 62
     7
370
    25
100
AcDbSpline
210
0.0
220
0.0
230
1.0
 70
     8
 71
     3
 72
     9
 73
     5
 74
     0
 42
0.00000001
 43
0.00000001
 40
0.0
 40
0.0
 40
0.0
 40
0.0
 40
0.7443471667480476
 40
1.0
 40
1.0
 40
1.0
 40
1.0
 10
3248.237781901597
 20
8037.066406388519
 30
0.0
 10
3248.126665294294
 20
8035.181881261544
 30
0.0
 10
3247.977384673277
 20
8032.650098766542
 30
0.0
 10
3247.388366154707
 20
8030.189828064578
 30
0.0
 10
3247.237781901597
 20
8029.560852889055
 30
0.0
  0
LINE
  5
21B
330
1F
100
AcDbEntity
  8
0
  6
Continuous
 62
     7
370
    25
100
AcDbLine
 10
3247.2377819016
 20
8029.5608528891
 30
0.0
 11
3236.2377819016
 21
8029.5608528891
 31
0.0
  0
SPLINE
  5
21C
330
1F
100
AcDbEntity
  8
0
  6
Continuous
 62
     7
370
    25
100
AcDbSpline
210
0.0
220
0.0
230
1.0
 70
     8
 71
     3
 72
     9
 73
     5
 74
     0
 42
0.00000001
 43
0.00000001
 40
0.0
 40
0.0
 40
0.0
 40
0.0
 40
0.2556528332520024
 40
1.0
 40
1.0
 40
1.0
 40
1.0
 10
3236.237781901597
 20
8029.560852889053
 30
0.0
 10
3236.087197648487
 20
8030.189828064578
 30
0.0
 10
3235.498179129919
 20
8032.650098766542
 30
0.0
 10
3235.348898508902
 20
8035.181881261544
 30
0.0
 10
3235.237781901597
 20
8037.066406388519
 30
0.0
  0
SPLINE
  5
21D
330
1F
100
AcDbEntity
  8
0
  6
Continuous
 62
     7
370
    25
100
AcDbSpline
210
0.0
220
0.0
230
1.0
 70
     8
 71
     3
 72
     9
 73
     5
 74
     0
 42
0.00000001
 43
0.00000001
 40
0.0
 40
0.0
 40
0.0
 40
0.0
 40
0.3722772596762049
 40
1.0
 40
1.0
 40
1.0
 40
1.0
 10
3235.237781901597
 20
8025.808076139322
 30
0.0
 10
3235.265960972436
 20
8026.279371167891
 30
0.0
 10
3235.341654746646
 20
8027.545349726401
 30
0.0
 10
3235.892195162867
 20
8028.78358466207
 30
0.0
 10
3236.237781901597
 20
8029.560852889053
 30
0.0
  0
LINE
  5
21E
330
1F
100
AcDbEntity
  8
0
  6
Continuous
 62
     7
370
    25
100
AcDbLine
 10
3235.2377819016
 20
8037.0664063885
 30
0.0
 11
3235.2377819016
 21
8025.8080761393
 31
0.0
  0
LINE
  5
21F
330
1F
100
AcDbEntity
  8
0
  6
Continuous
 62
     7
370
    25
100
AcDbLine
 10
3235.2377819016
 20
8048.3247366377
 30
0.0
 11
3235.2377819016
 21
8037.0664063885
 31
0.0
  0
LINE
  5
220
330
1F
100
AcDbEntity
  8
0
  6
Continuous
 62
     7
370
    25
100
AcDbLine
 10
3236.2377819016
 20
8044.571959888
 30
0.0
 11
3235.2377819016
 21
8048.3247366377
 31
0.0
  0
SPLINE
  5
221
330
1F
100
AcDbEntity
  8
0
  6
Continuous
 62
     7
370
    25
100
AcDbSpline
210
0.0
220
0.0
230
1.0
 70
     8
 71
     3
 72
     9
 73
     5
 74
     0
 42
0.00000001
 43
0.00000001
 40
0.0
 40
0.0
 40
0.0
 40
0.0
 40
0.372277259676211
 40
1.0
 40
1.0
 40
1.0
 40
1.0
 10
3235.237781901597
 20
8048.324736637717
 30
0.0
 10
3235.265960972435
 20
8048.796031666288
 30
0.0
 10
3235.341654746647
 20
8050.062010224798
 30
0.0
 10
3235.892195162868
 20
8051.300245160465
 30
0.0
 10
3236.237781901597
 20
8052.077513387449
 30
0.0
  0
LINE
  5
222
330
1F
100
AcDbEntity
  8
0
  6
Continuous
 62
     7
370
    25
100
AcDbLine
 10
3247.2377819016
 20
8052.0775133874
 30
0.0
 11
3236.2377819016
 21
8052.0775133874
 31
0.0
  0
LINE
  5
223
330
1F
100
AcDbEntity
  8
0
  6
Continuous
 62
     7
370
    25
100
AcDbLine
 10
3247.2377819016
 20
8052.0775133874
 30
0.0
 11
3248.2377819016
 21
8048.3247366377
 31
0.0
  0
SPLINE
  5
224
330
1F
100
AcDbEntity
  8
0
  6
Continuous
 62
     7
370
    25
100
AcDbSpline
210
0.0
220
0.0
230
1.0
 70
     8
 71
     3
 72
     9
 73
     5
 74
     0
 42
0.00000001
 43
0.00000001
 40
0.0
 40
0.0
 40
0.0
 40
0.0
 40
0.3722772596761831
 40
1.0
 40
1.0
 40
1.0
 40
1.0
 10
3248.237781901597
 20
8048.324736637717
 30
0.0
 10
3248.20960283076
 20
8047.853441609145
 30
0.0
 10
3248.133909056549
 20
8046.587463050637
 30
0.0
 10
3247.583368640327
 20
8045.349228114967
 30
0.0
 10
3247.237781901597
 20
8044.571959887985
 30
0.0
  0
LINE
  5
225
330
1F
100
AcDbEntity
  8
0
  6
Continuous
 62
     7
370
    25
100
AcDbLine
 10
3247.2377819016
 20
8029.5608528891
 30
0.0
 11
3248.2377819016
 21
8025.8080761393
 31
0.0
  0
SPLINE
  5
226
330
1F
100
AcDbEntity
  8
0
  6
Continuous
 62
     7
370
    25
100
AcDbSpline
210
0.0
220
0.0
230
1.0
 70
     8
 71
     3
 72
     9
 73
     5
 74
     0
 42
0.00000001
 43
0.00000001
 40
0.0
 40
0.0
 40
0.0
 40
0.0
 40
0.3722772596761444
 40
1.0
 40
1.0
 40
1.0
 40
1.0
 10
3248.237781901597
 20
8025.80807613932
 30
0.0
 10
3248.209602830759
 20
8025.336781110751
 30
0.0
 10
3248.133909056548
 20
8024.070802552242
 30
0.0
 10
3247.583368640327
 20
8022.832567616571
 30
0.0
 10
3247.237781901597
 20
8022.055299389589
 30
0.0
  0
LINE
  5
227
330
1F
100
AcDbEntity
  8
0
  6
Continuous
 62
     7
370
    25
100
AcDbLine
 10
3247.2377819016
 20
8022.0552993896
 30
0.0
 11
3236.2377819016
 21
8022.0552993896
 31
0.0
  0
LINE
  5
228
330
1F
100
AcDbEntity
  8
0
  6
Continuous
 62
     7
370
    25
100
AcDbLine
 10
3236.2377819016
 20
8022.0552993896
 30
0.0
 11
3235.2377819016
 21
8025.8080761393
 31
0.0
  0
LINE
  5
229
330
1F
100
AcDbEntity
  8
0
  6
Continuous
 62
     7
370
    25
100
AcDbLine
 10
3235.2377819016
 20
8050.0664063885
 30
0.0
 11
3235.2377819016
 21
8048.3247366377
 31
0.0
  0
LINE
  5
22A
330
1F
100
AcDbEntity
  8
0
  6
Continuous
 62
     7
370
    25
100
AcDbLine
 10
3235.2377819016
 20
8025.8080761393
 30
0.0
 11
3235.2377819016
 21
8024.0664063885
 31
0.0
  0
LINE
  5
22B
330
1F
100
AcDbEntity
  8
0
  6
Continuous
 62
     7
370
    25
100
AcDbLine
 10
3342.2377819016
 20
7829.8087217325
 30
0.0
 11
3342.2377819016
 21
7839.3240910446
 31
0.0
  0
LINE
  5
22C
330
1F
100
AcDbEntity
  8
0
  6
Continuous
 62
     7
370
    25
100
AcDbLine
 10
3342.2377819016
 20
7829.8087217325
 30
0.0
 11
3341.2377819016
 21
7825.0664063885
 31
0.0
  0
LINE
  5
22D
330
1F
100
AcDbEntity
  8
0
  6
Continuous
 62
     7
370
    25
100
AcDbLine
 10
3324.2377819016
 20
7825.0664063885
 30
0.0
 11
3341.2377819016
 21
7825.0664063885
 31
0.0
  0
LINE
  5
22E
330
1F
100
AcDbEntity
  8
0
  6
Continuous
 62
     7
370
    25
100
AcDbLine
 10
3324.2377819016
 20
7825.0664063885
 30
0.0
 11
3323.2377819016
 21
7829.8087217325
 31
0.0
  0
LINE
  5
22F
330
1F
100
AcDbEntity
  8
0
  6
Continuous
 62
     7
370
    25
100
AcDbLine
 10
3323.2377819016
 20
7839.3240910446
 30
0.0
 11
3324.2377819016
 21
7844.0664063885
 31
0.0
  0
LINE
  5
230
330
1F
100
AcDbEntity
  8
0
  6
Continuous
 62
     7
370
    25
100
AcDbLine
 10
3324.2377819016
 20
7844.0664063885
 30
0.0
 11
3341.2377819016
 21
7844.0664063885
 31
0.0
  0
LINE
  5
231
330
1F
100
AcDbEntity
  8
0
  6
Continuous
 62
     7
370
    25
100
AcDbLine
 10
3341.2377819016
 20
7844.0664063885
 30
0.0
 11
3342.2377819016
 21
7839.3240910446
 31
0.0
  0
LINE
  5
232
330
1F
100
AcDbEntity
  8
0
  6
Continuous
 62
     7
370
    25
100
AcDbLine
 10
3342.2377819016
 20
7810.8087217325
 30
0.0
 11
3342.2377819016
 21
7820.3240910446
 31
0.0
  0
LINE
  5
233
330
1F
100
AcDbEntity
  8
0
  6
Continuous
 62
     7
370
    25
100
AcDbLine
 10
3342.2377819016
 20
7810.8087217325
 30
0.0
 11
3341.2377819016
 21
7806.0664063885
 31
0.0
  0
LINE
  5
234
330
1F
100
AcDbEntity
  8
0
  6
Continuous
 62
     7
370
    25
100
AcDbLine
 10
3324.2377819016
 20
7806.0664063885
 30
0.0
 11
3341.2377819016
 21
7806.0664063885
 31
0.0
  0
LINE
  5
235
330
1F
100
AcDbEntity
  8
0
  6
Continuous
 62
     7
370
    25
100
AcDbLine
 10
3324.2377819016
 20
7806.0664063885
 30
0.0
 11
3323.2377819016
 21
7810.8087217325
 31
0.0
  0
LINE
  5
236
330
1F
100
AcDbEntity
  8
0
  6
Continuous
 62
     7
370
    25
100
AcDbLine
 10
3323.2377819016
 20
7820.3240910446
 30
0.0
 11
3324.2377819016
 21
7825.0664063885
 31
0.0
  0
LINE
  5
237
330
1F
100
AcDbEntity
  8
0
  6
Continuous
 62
     7
370
    25
100
AcDbLine
 10
3341.2377819016
 20
7825.0664063885
 30
0.0
 11
3342.2377819016
 21
7820.3240910446
 31
0.0
  0
LINE
  5
238
330
1F
100
AcDbEntity
  8
0
  6
Continuous
 62
     7
370
    25
100
AcDbLine
 10
3342.2377819016
 20
7820.3240910446
 30
0.0
 11
3342.2377819016
 21
7829.8087217325
 31
0.0
  0
SPLINE
  5
239
330
1F
100
AcDbEntity
  8
0
  6
Continuous
 62
     7
370
    25
100
AcDbSpline
210
0.0
220
0.0
230
1.0
 70
    24
 71
     3
 72
     9
 73
     5
 74
     0
 42
0.00000001
 43
0.00000001
 40
0.0
 40
0.0
 40
0.0
 40
0.0
 40
0.6091707704042624
 40
1.0
 40
1.0
 40
1.0
 40
1.0
 10
3324.237781901596
 20
7844.066406388525
 30
0.0
 10
3323.930879849654
 20
7844.066406388525
 30
0.0
 10
3323.427076865577
 20
7844.066406388525
 30
0.0
 10
3323.290974632497
 20
7844.066406388524
 30
0.0
 10
3323.237781901596
 20
7844.066406388524
 30
0.0
  0
SPLINE
  5
23A
330
1F
100
AcDbEntity
  8
0
  6
Continuous
 62
     7
370
    25
100
AcDbSpline
210
0.0
220
0.0
230
1.0
 70
    24
 71
     3
 72
     9
 73
     5
 74
     0
 42
0.00000001
 43
0.00000001
 40
0.0
 40
0.0
 40
0.0
 40
0.0
 40
0.6224528575934103
 40
1.0
 40
1.0
 40
1.0
 40
1.0
 10
3323.237781901596
 20
7806.066406388525
 30
0.0
 10
3323.3306414672
 20
7806.066406388525
 30
0.0
 10
3323.479824757904
 20
7806.066406388525
 30
0.0
 10
3324.030047048204
 20
7806.066406388525
 30
0.0
 10
3324.237781901596
 20
7806.066406388525
 30
0.0
  0
SPLINE
  5
23B
330
1F
100
AcDbEntity
  8
0
  6
Continuous
 62
     7
370
    25
100
AcDbSpline
210
0.0
220
0.0
230
1.0
 70
    24
 71
     3
 72
     9
 73
     5
 74
     0
 42
0.00000001
 43
0.00000001
 40
0.0
 40
0.0
 40
0.0
 40
0.0
 40
0.6224528575934102
 40
1.0
 40
1.0
 40
1.0
 40
1.0
 10
3342.237781901596
 20
7844.066406388525
 30
0.0
 10
3342.144922335992
 20
7844.066406388525
 30
0.0
 10
3341.995739045288
 20
7844.066406388524
 30
0.0
 10
3341.445516754988
 20
7844.066406388525
 30
0.0
 10
3341.237781901596
 20
7844.066406388525
 30
0.0
  0
LINE
  5
23C
330
1F
100
AcDbEntity
  8
0
  6
Continuous
 62
     7
370
    25
100
AcDbLine
 10
3342.2377819016
 20
7839.3240910446
 30
0.0
 11
3342.2377819016
 21
7844.0664063885
 31
0.0
  0
SPLINE
  5
23D
330
1F
100
AcDbEntity
  8
0
  6
Continuous
 62
     7
370
    25
100
AcDbSpline
210
0.0
220
0.0
230
1.0
 70
    24
 71
     3
 72
     9
 73
     5
 74
     0
 42
0.00000001
 43
0.00000001
 40
0.0
 40
0.0
 40
0.0
 40
0.0
 40
0.6091707704041772
 40
1.0
 40
1.0
 40
1.0
 40
1.0
 10
3341.237781901596
 20
7806.066406388525
 30
0.0
 10
3341.544683953538
 20
7806.066406388525
 30
0.0
 10
3342.048486937616
 20
7806.066406388525
 30
0.0
 10
3342.184589170695
 20
7806.066406388525
 30
0.0
 10
3342.237781901596
 20
7806.066406388525
 30
0.0
  0
LINE
  5
23E
330
1F
100
AcDbEntity
  8
0
  6
Continuous
 62
     7
370
    25
100
AcDbLine
 10
3342.2377819016
 20
7806.0664063885
 30
0.0
 11
3342.2377819016
 21
7810.8087217325
 31
0.0
  0
LINE
  5
23F
330
1F
100
AcDbEntity
  8
0
  6
Continuous
 62
     7
370
    25
100
AcDbLine
 10
3323.2377819016
 20
7860.0664063885
 30
0.0
 11
3323.2377819016
 21
7790.0664063885
 31
0.0
  0
LINE
  5
240
330
1F
100
AcDbEntity
  8
0
  6
Continuous
 62
     7
370
    25
100
AcDbLine
 10
3318.2377819016
 20
6904.2664063885
 30
0.0
 11
3258.2377819016
 21
6904.2664063885
 31
0.0
  0
LINE
  5
241
330
1F
100
AcDbEntity
  8
0
  6
Continuous
 62
     7
370
    25
100
AcDbLine
 10
3318.2377819016
 20
6904.2664063885
 30
0.0
 11
3318.2377819016
 21
6910.2664063885
 31
0.0
  0
LINE
  5
242
330
1F
100
AcDbEntity
  8
0
  6
Continuous
 62
     7
370
    25
100
AcDbLine
 10
3258.2377819016
 20
6904.2664063885
 30
0.0
 11
3258.2377819016
 21
6910.2664063885
 31
0.0
  0
LINE
  5
243
330
1F
100
AcDbEntity
  8
0
  6
Continuous
 62
     7
370
    25
100
AcDbLine
 10
3318.2377819016
 20
6910.2664063885
 30
0.0
 11
3258.2377819016
 21
6910.2664063885
 31
0.0
  0
LINE
  5
244
330
1F
100
AcDbEntity
  8
0
  6
Continuous
 62
     7
370
    25
100
AcDbLine
 10
3277.6961193
 20
7970.2664063885
 30
0.0
 11
3294.7794445032
 21
7970.2664063885
 31
0.0
  0
LINE
  5
245
330
1F
100
AcDbEntity
  8
0
  6
Continuous
 62
     7
370
    25
100
AcDbLine
 10
3258.2377819016
 20
7921.0664063885
 30
0.0
 11
3258.2377819016
 21
7804.0664063885
 31
0.0
  0
LINE
  5
246
330
1F
100
AcDbEntity
  8
0
  6
Continuous
 62
     7
370
    25
100
AcDbLine
 10
3258.2377819016
 20
7776.0664063885
 30
0.0
 11
3258.2377819016
 21
6910.2664063885
 31
0.0
  0
LINE
  5
247
330
1F
100
AcDbEntity
  8
0
  6
Continuous
 62
     7
370
    25
100
AcDbLine
 10
3316.2377819016
 20
7970.2664063885
 30
0.0
 11
3318.2377819016
 21
7970.2664063885
 31
0.0
  0
LINE
  5
248
330
1F
100
AcDbEntity
  8
0
  6
Continuous
 62
     7
370
    25
100
AcDbLine
 10
3318.2377819016
 20
7970.2664063885
 30
0.0
 11
3318.2377819016
 21
6910.2664063885
 31
0.0
  0
LINE
  5
249
330
1F
100
AcDbEntity
  8
0
  6
Continuous
 62
     7
370
    25
100
AcDbLine
 10
3252.2377819016
 20
8158.2664063885
 30
0.0
 11
3252.2377819016
 21
7972.0664063885
 31
0.0
  0
LINE
  5
24A
330
1F
100
AcDbEntity
  8
0
  6
Continuous
 62
     7
370
    25
100
AcDbLine
 10
3256.2377819016
 20
8158.2664063885
 30
0.0
 11
3252.2377819016
 21
8158.2664063885
 31
0.0
  0
ARC
  5
24B
330
1F
100
AcDbEntity
  8
0
  6
Continuous
 62
     7
370
    25
100
AcDbCircle
 10
3258.2377819016
 20
7972.0664063885
 30
0.0
 40
5.999999999999589
100
AcDbArc
 50
180.0
 51
250.5287793655
  0
LINE
  5
24C
330
1F
100
AcDbEntity
  8
0
  6
Continuous
 62
     7
370
    25
100
AcDbLine
 10
3628.2377819016
 20
7838.5664063885
 30
0.0
 11
3628.2377819016
 21
7811.5664063885
 31
0.0
  0
ARC
  5
24D
330
1F
100
AcDbEntity
  8
0
  6
Continuous
 62
     7
370
    25
100
AcDbCircle
 10
3184.2377819016
 20
7776.0664063885
 30
0.0
 40
3.000000000000455
100
AcDbArc
 50
180.0
 51
270.0
  0
LINE
  5
24E
330
1F
100
AcDbEntity
  8
0
  6
Continuous
 62
     7
370
    25
100
AcDbLine
 10
3252.2377819016
 20
7773.0664063885
 30
0.0
 11
3184.2377819016
 21
7773.0664063885
 31
0.0
  0
ARC
  5
24F
330
1F
100
AcDbEntity
  8
0
  6
Continuous
 62
     7
370
    25
100
AcDbCircle
 10
3252.2377819016
 20
7776.0664063885
 30
0.0
 40
3.0
100
AcDbArc
 50
270.0
 51
0.0
  0
LINE
  5
250
330
1F
100
AcDbEntity
  8
0
  6
Continuous
 62
     7
370
    25
100
AcDbLine
 10
3255.2377819016
 20
7804.0664063885
 30
0.0
 11
3255.2377819016
 21
7776.0664063885
 31
0.0
  0
ARC
  5
251
330
1F
100
AcDbEntity
  8
0
  6
Continuous
 62
     7
370
    25
100
AcDbCircle
 10
3252.2377819016
 20
7804.0664063885
 30
0.0
 40
3.0
100
AcDbArc
 50
0.0
 51
90.0
  0
LINE
  5
252
330
1F
100
AcDbEntity
  8
0
  6
Continuous
 62
     7
370
    25
100
AcDbLine
 10
3184.2377819016
 20
7807.0664063885
 30
0.0
 11
3252.2377819016
 21
7807.0664063885
 31
0.0
  0
ARC
  5
253
330
1F
100
AcDbEntity
  8
0
  6
Continuous
 62
     7
370
    25
100
AcDbCircle
 10
3184.2377819016
 20
7804.0664063885
 30
0.0
 40
3.000000000000455
100
AcDbArc
 50
90.0
 51
180.0
  0
LINE
  5
254
330
1F
100
AcDbEntity
  8
0
  6
Continuous
 62
     7
370
    25
100
AcDbLine
 10
3184.2377819016
 20
7810.0664063885
 30
0.0
 11
3252.2377819016
 21
7810.0664063885
 31
0.0
  0
ARC
  5
255
330
1F
100
AcDbEntity
  8
0
  6
Continuous
 62
     7
370
    25
100
AcDbCircle
 10
3252.2377819016
 20
7804.0664063885
 30
0.0
 40
6.0
100
AcDbArc
 50
0.0
 51
90.0
  0
LINE
  5
256
330
1F
100
AcDbEntity
  8
0
  6
Continuous
 62
     7
370
    25
100
AcDbLine
 10
3258.2377819016
 20
7804.0664063885
 30
0.0
 11
3258.2377819016
 21
7776.0664063885
 31
0.0
  0
ARC
  5
257
330
1F
100
AcDbEntity
  8
0
  6
Continuous
 62
     7
370
    25
100
AcDbCircle
 10
3252.2377819016
 20
7776.0664063885
 30
0.0
 40
6.0
100
AcDbArc
 50
270.0
 51
0.0
  0
LINE
  5
258
330
1F
100
AcDbEntity
  8
0
  6
Continuous
 62
     7
370
    25
100
AcDbLine
 10
3252.2377819016
 20
7770.0664063885
 30
0.0
 11
3184.2377819016
 21
7770.0664063885
 31
0.0
  0
ARC
  5
259
330
1F
100
AcDbEntity
  8
0
  6
Continuous
 62
     7
370
    25
100
AcDbCircle
 10
3184.2377819016
 20
7776.0664063885
 30
0.0
 40
6.0
100
AcDbArc
 50
180.0
 51
270.0
  0
ARC
  5
25A
330
1F
100
AcDbEntity
  8
0
  6
Continuous
 62
     7
370
    25
100
AcDbCircle
 10
3184.2377819016
 20
7804.0664063885
 30
0.0
 40
6.0
100
AcDbArc
 50
90.0
 51
180.0
  0
LINE
  5
25B
330
1F
100
AcDbEntity
  8
0
  6
Continuous
 62
     7
370
    25
100
AcDbLine
 10
3178.2377819016
 20
7776.0664063885
 30
0.0
 11
3178.2377819016
 21
7804.0664063885
 31
0.0
  0
LINE
  5
25C
330
1F
100
AcDbEntity
  8
0
  6
Continuous
 62
     7
370
    25
100
AcDbLine
 10
3181.2377819016
 20
7776.0664063885
 30
0.0
 11
3181.2377819016
 21
7804.0664063885
 31
0.0
  0
LINE
  5
25D
330
1F
100
AcDbEntity
  8
0
  6
Continuous
 62
     7
370
    25
100
AcDbLine
 10
3198.2377819016
 20
7816.3821958622
 30
0.0
 11
3198.2377819016
 21
7810.0664063885
 31
0.0
  0
LINE
  5
25E
330
1F
100
AcDbEntity
  8
0
  6
Continuous
 62
     7
370
    25
100
AcDbLine
 10
3198.2377819016
 20
7816.3821958622
 30
0.0
 11
3258.2377819016
 21
7816.3821958622
 31
0.0
  0
LINE
  5
25F
330
1F
100
AcDbEntity
  8
0
  6
Continuous
 62
     7
370
    25
100
AcDbLine
 10
3252.2377819016
 20
7810.0664063885
 30
0.0
 11
3258.2377819016
 21
7810.0664063885
 31
0.0
  0
LINE
  5
260
330
1F
100
AcDbEntity
  8
0
  6
Continuous
 62
     7
370
    25
100
AcDbLine
 10
3198.2377819016
 20
7840.0664063885
 30
0.0
 11
3198.2377819016
 21
7816.3821958622
 31
0.0
  0
LINE
  5
261
330
1F
100
AcDbEntity
  8
0
  6
Continuous
 62
     7
370
    25
100
AcDbLine
 10
3547.2377819016
 20
7855.9959210166
 30
0.0
 11
3547.2377819016
 21
7787.0664063885
 31
0.0
  0
LINE
  5
262
330
1F
100
AcDbEntity
  8
0
  6
Continuous
 62
     7
370
    25
100
AcDbLine
 10
3547.2377819016
 20
7863.0664063885
 30
0.0
 11
3547.2377819016
 21
7855.9959210166
 31
0.0
  0
LINE
  5
263
330
1F
100
AcDbEntity
  8
0
  6
Continuous
 62
     7
370
    25
100
AcDbLine
 10
3557.2377819016
 20
7855.9959210166
 30
0.0
 11
3557.2377819016
 21
7787.0664063885
 31
0.0
  0
LINE
  5
264
330
1F
100
AcDbEntity
  8
0
  6
Continuous
 62
     7
370
    25
100
AcDbLine
 10
3557.2377819016
 20
7863.0664063885
 30
0.0
 11
3557.2377819016
 21
7855.9959210166
 31
0.0
  0
LINE
  5
265
330
1F
100
AcDbEntity
  8
0
  6
Continuous
 62
     7
370
    25
100
AcDbLine
 10
3542.2377819016
 20
7790.0664063885
 30
0.0
 11
3542.2377819016
 21
7860.0664063885
 31
0.0
  0
LINE
  5
266
330
1F
100
AcDbEntity
  8
0
  6
Continuous
 62
     7
370
    25
100
AcDbLine
 10
3582.2377819016
 20
7847.1528982052
 30
0.0
 11
3557.2377819016
 21
7847.1528982052
 31
0.0
  0
LINE
  5
267
330
1F
100
AcDbEntity
  8
0
  6
Continuous
 62
     7
370
    25
100
AcDbLine
 10
3582.2377819016
 20
7847.1528982052
 30
0.0
 11
3582.2377819016
 21
7822.4571741546
 31
0.0
  0
LINE
  5
268
330
1F
100
AcDbEntity
  8
0
  6
Continuous
 62
     7
370
    25
100
AcDbLine
 10
3582.2377819016
 20
7822.4571741546
 30
0.0
 11
3557.2377819016
 21
7822.4571741546
 31
0.0
  0
LINE
  5
269
330
1F
100
AcDbEntity
  8
0
  6
Continuous
 62
     7
370
    25
100
AcDbLine
 10
3582.2377819016
 20
7800.3706823379
 30
0.0
 11
3557.2377819016
 21
7800.3706823379
 31
0.0
  0
LINE
  5
26A
330
1F
100
AcDbEntity
  8
0
  6
Continuous
 62
     7
370
    25
100
AcDbLine
 10
3582.2377819016
 20
7822.4571741546
 30
0.0
 11
3582.2377819016
 21
7800.3706823379
 31
0.0
  0
LINE
  5
26B
330
1F
100
AcDbEntity
  8
0
  6
Continuous
 62
     7
370
    25
100
AcDbLine
 10
3525.2377819016
 20
7809.0664063885
 30
0.0
 11
3525.2377819016
 21
7841.0664063885
 31
0.0
  0
LINE
  5
26C
330
1F
100
AcDbEntity
  8
0
  6
Continuous
 62
     7
370
    25
100
AcDbLine
 10
3582.2377819016
 20
7849.7621304391
 30
0.0
 11
3557.2377819016
 21
7849.7621304391
 31
0.0
  0
LINE
  5
26D
330
1F
100
AcDbEntity
  8
0
  6
Continuous
 62
     7
370
    25
100
AcDbLine
 10
3582.2377819016
 20
7849.7621304391
 30
0.0
 11
3582.2377819016
 21
7847.1528982052
 31
0.0
  0
LINE
  5
26E
330
1F
100
AcDbEntity
  8
0
  6
Continuous
 62
     7
370
    25
100
AcDbLine
 10
3582.2377819016
 20
7800.3706823379
 30
0.0
 11
3582.2377819016
 21
7797.9309437366
 31
0.0
  0
LINE
  5
26F
330
1F
100
AcDbEntity
  8
0
  6
Continuous
 62
     7
370
    25
100
AcDbLine
 10
3582.2377819016
 20
7797.9309437366
 30
0.0
 11
3557.2377819016
 21
7797.9309437366
 31
0.0
  0
LINE
  5
270
330
1F
100
AcDbEntity
  8
0
  6
Continuous
 62
     7
370
    25
100
AcDbLine
 10
3582.2377819016
 20
7852.2018690404
 30
0.0
 11
3557.2377819016
 21
7852.2018690404
 31
0.0
  0
LINE
  5
271
330
1F
100
AcDbEntity
  8
0
  6
Continuous
 62
     7
370
    25
100
AcDbLine
 10
3582.2377819016
 20
7852.2018690404
 30
0.0
 11
3582.2377819016
 21
7849.7621304391
 31
0.0
  0
LINE
  5
272
330
1F
100
AcDbEntity
  8
0
  6
Continuous
 62
     7
370
    25
100
AcDbLine
 10
3254.2377819016
 20
8844.5664063885
 30
0.0
 11
3254.2377819016
 21
8845.0664063885
 31
0.0
  0
LINE
  5
273
330
1F
100
AcDbEntity
  8
0
  6
Continuous
 62
     7
370
    25
100
AcDbLine
 10
3254.2377819016
 20
8395.5664063885
 30
0.0
 11
3254.2377819016
 21
8396.0664063885
 31
0.0
  0
LINE
  5
274
330
1F
100
AcDbEntity
  8
0
  6
Continuous
 62
     7
370
    25
100
AcDbLine
 10
3191.2377819016
 20
8422.0664063885
 30
0.0
 11
3195.2377819016
 21
8422.0664063885
 31
0.0
  0
LINE
  5
275
330
1F
100
AcDbEntity
  8
0
  6
Continuous
 62
     7
370
    25
100
AcDbLine
 10
3191.2377819016
 20
8422.0664063885
 30
0.0
 11
3191.2377819016
 21
8809.0664063885
 31
0.0
  0
LINE
  5
276
330
1F
100
AcDbEntity
  8
0
  6
Continuous
 62
     7
370
    25
100
AcDbLine
 10
3195.2377819016
 20
8809.0664063885
 30
0.0
 11
3191.2377819016
 21
8809.0664063885
 31
0.0
  0
LINE
  5
277
330
1F
100
AcDbEntity
  8
0
  6
Continuous
 62
     7
370
    25
100
AcDbLine
 10
3195.2377819016
 20
8422.0664063885
 30
0.0
 11
3195.2377819016
 21
8809.0664063885
 31
0.0
  0
LINE
  5
278
330
1F
100
AcDbEntity
  8
0
  6
Continuous
 62
     7
370
    25
100
AcDbLine
 10
3197.2377819016
 20
8815.0664063885
 30
0.0
 11
3197.2377819016
 21
8811.0664063885
 31
0.0
  0
ARC
  5
279
330
1F
100
AcDbEntity
  8
0
  6
Continuous
 62
     7
370
    25
100
AcDbCircle
 10
3197.2377819016
 20
8809.0664063885
 30
0.0
 40
2.000000000001819
100
AcDbArc
 50
90.0
 51
180.0
  0
ARC
  5
27A
330
1F
100
AcDbEntity
  8
0
  6
Continuous
 62
     7
370
    25
100
AcDbCircle
 10
3197.2377819016
 20
8809.0664063885
 30
0.0
 40
6.000000000001819
100
AcDbArc
 50
90.0
 51
180.0
  0
ARC
  5
27B
330
1F
100
AcDbEntity
  8
0
  6
Continuous
 62
     7
370
    25
100
AcDbCircle
 10
3197.2377819016
 20
8422.0664063885
 30
0.0
 40
2.0
100
AcDbArc
 50
180.0
 51
270.0
  0
LINE
  5
27C
330
1F
100
AcDbEntity
  8
0
  6
Continuous
 62
     7
370
    25
100
AcDbLine
 10
3197.2377819016
 20
8420.0664063885
 30
0.0
 11
3197.2377819016
 21
8416.0664063885
 31
0.0
  0
ARC
  5
27D
330
1F
100
AcDbEntity
  8
0
  6
Continuous
 62
     7
370
    25
100
AcDbCircle
 10
3197.2377819016
 20
8422.0664063885
 30
0.0
 40
6.0
100
AcDbArc
 50
180.0
 51
270.0
  0
LINE
  5
27E
330
1F
100
AcDbEntity
  8
0
  6
Continuous
 62
     7
370
    25
100
AcDbLine
 10
3256.2377819016
 20
8420.0664063885
 30
0.0
 11
3197.2377819016
 21
8420.0664063885
 31
0.0
  0
LINE
  5
27F
330
1F
100
AcDbEntity
  8
0
  6
Continuous
 62
     7
370
    25
100
AcDbLine
 10
3256.2377819016
 20
8416.0664063885
 30
0.0
 11
3197.2377819016
 21
8416.0664063885
 31
0.0
  0
LINE
  5
280
330
1F
100
AcDbEntity
  8
0
  6
Continuous
 62
     7
370
    25
100
AcDbLine
 10
3197.2377819016
 20
8815.0664063885
 30
0.0
 11
3256.2377819016
 21
8815.0664063885
 31
0.0
  0
LINE
  5
281
330
1F
100
AcDbEntity
  8
0
  6
Continuous
 62
     7
370
    25
100
AcDbLine
 10
3197.2377819016
 20
8811.0664063885
 30
0.0
 11
3256.2377819016
 21
8811.0664063885
 31
0.0
  0
CIRCLE
  5
282
330
1F
100
AcDbEntity
  8
0
  6
Continuous
 62
     7
370
    25
100
AcDbCircle
 10
3286.2377819016
 20
8455.0664063885
 30
0.0
 40
10.0
  0
LINE
  5
283
330
1F
100
AcDbEntity
  8
0
  6
Continuous
 62
     7
370
    25
100
AcDbLine
 10
3256.2377819016
 20
8865.0664063885
 30
0.0
 11
3256.2377819016
 21
8365.0664063885
 31
0.0
  0
LINE
  5
284
330
1F
100
AcDbEntity
  8
0
  6
Continuous
 62
     7
370
    25
100
AcDbLine
 10
3316.2377819016
 20
8865.0664063885
 30
0.0
 11
3256.2377819016
 21
8865.0664063885
 31
0.0
  0
LINE
  5
285
330
1F
100
AcDbEntity
  8
0
  6
Continuous
 62
     7
370
    25
100
AcDbLine
 10
3316.2377819016
 20
8365.0664063885
 30
0.0
 11
3316.2377819016
 21
8865.0664063885
 31
0.0
  0
CIRCLE
  5
286
330
1F
100
AcDbEntity
  8
0
  6
Continuous
 62
     7
370
    25
100
AcDbCircle
 10
3286.2377819016
 20
8775.0664063885
 30
0.0
 40
10.0
  0
LINE
  5
287
330
1F
100
AcDbEntity
  8
0
  6
Continuous
 62
     7
370
    25
100
AcDbLine
 10
3256.2377819016
 20
8365.0664063885
 30
0.0
 11
3316.2377819016
 21
8365.0664063885
 31
0.0
  0
LINE
  5
288
330
1F
100
AcDbEntity
  8
0
  6
Continuous
 62
     7
370
    25
100
AcDbLine
 10
3254.2377819016
 20
8395.5664063885
 30
0.0
 11
3254.2377819016
 21
8385.5664063885
 31
0.0
  0
LINE
  5
289
330
1F
100
AcDbEntity
  8
0
  6
Continuous
 62
     7
370
    25
100
AcDbLine
 10
3254.2377819016
 20
8834.5664063885
 30
0.0
 11
3254.2377819016
 21
8844.5664063885
 31
0.0
  0
LINE
  5
28A
330
1F
100
AcDbEntity
  8
0
  6
Continuous
 62
     7
370
    25
100
AcDbLine
 10
3248.2377819016
 20
8066.6645792692
 30
0.0
 11
3248.2377819016
 21
8067.0664063885
 31
0.0
  0
LINE
  5
28B
330
1F
100
AcDbEntity
  8
0
  6
Continuous
 62
     7
370
    25
100
AcDbLine
 10
3248.2377819016
 20
8007.0664063885
 30
0.0
 11
3248.2377819016
 21
8066.6645792692
 31
0.0
  0
LINE
  5
28C
330
1F
100
AcDbEntity
  8
0
  6
Continuous
 62
     7
370
    25
100
AcDbLine
 10
3238.2377819016
 20
7880.0664063885
 30
0.0
 11
3238.2377819016
 21
7872.0664063885
 31
0.0
  0
LINE
  5
28D
330
1F
100
AcDbEntity
  8
0
  6
Continuous
 62
     7
370
    25
100
AcDbLine
 10
3238.2377819016
 20
7872.0664063885
 30
0.0
 11
3198.2377819016
 21
7872.0664063885
 31
0.0
  0
LINE
  5
28E
330
1F
100
AcDbEntity
  8
0
  6
Continuous
 62
     7
370
    25
100
AcDbLine
 10
3238.2377819016
 20
7880.0664063885
 30
0.0
 11
3198.2377819016
 21
7880.0664063885
 31
0.0
  0
LINE
  5
28F
330
1F
100
AcDbEntity
  8
0
  6
Continuous
 62
     7
370
    25
100
AcDbLine
 10
3198.2377819016
 20
7880.0664063885
 30
0.0
 11
3198.2377819016
 21
7872.0664063885
 31
0.0
  0
LINE
  5
290
330
1F
100
AcDbEntity
  8
0
  6
Continuous
 62
     7
370
    25
100
AcDbLine
 10
3212.2377826243
 20
7887.0664063885
 30
0.0
 11
3224.2377819016
 21
7887.0664063885
 31
0.0
  0
LINE
  5
291
330
1F
100
AcDbEntity
  8
0
  6
Continuous
 62
     7
370
    25
100
AcDbLine
 10
3223.2377819016
 20
7850.0664063885
 30
0.0
 11
3213.2377819016
 21
7850.0664063885
 31
0.0
  0
LINE
  5
292
330
1F
100
AcDbEntity
  8
0
  6
Continuous
 62
     7
370
    25
100
AcDbLine
 10
3209.9377819016
 20
7840.0664063885
 30
0.0
 11
3209.9377819016
 21
7872.0664063885
 31
0.0
  0
LINE
  5
293
330
1F
100
AcDbEntity
  8
0
  6
Continuous
 62
     7
370
    25
100
AcDbLine
 10
3195.9377819016
 20
7825.0664063885
 30
0.0
 11
3195.9377819016
 21
7872.0664063885
 31
0.0
  0
LINE
  5
294
330
1F
100
AcDbEntity
  8
0
  6
Continuous
 62
     7
370
    25
100
AcDbLine
 10
3195.9377819016
 20
7872.0664063885
 30
0.0
 11
3198.2377819016
 21
7872.0664063885
 31
0.0
  0
LINE
  5
295
330
1F
100
AcDbEntity
  8
0
  6
Continuous
 62
     7
370
    25
100
AcDbLine
 10
3209.9377819016
 20
7886.3390200229
 30
0.0
 11
3209.9377819016
 21
7924.0664063885
 31
0.0
  0
LINE
  5
296
330
1F
100
AcDbEntity
  8
0
  6
Continuous
 62
     7
370
    25
100
AcDbLine
 10
3195.9377819016
 20
7880.0664063885
 30
0.0
 11
3195.9377819016
 21
7927.0664063885
 31
0.0
  0
LINE
  5
297
330
1F
100
AcDbEntity
  8
0
  6
Continuous
 62
     7
370
    25
100
AcDbLine
 10
3198.2377819016
 20
7880.0664063885
 30
0.0
 11
3195.9377819016
 21
7880.0664063885
 31
0.0
  0
LINE
  5
298
330
1F
100
AcDbEntity
  8
0
  6
Continuous
 62
     7
370
    25
100
AcDbLine
 10
3226.5377819016
 20
7840.0664063885
 30
0.0
 11
3226.5377819016
 21
7872.0664063885
 31
0.0
  0
LINE
  5
299
330
1F
100
AcDbEntity
  8
0
  6
Continuous
 62
     7
370
    25
100
AcDbLine
 10
3240.5377819016
 20
7840.0664063885
 30
0.0
 11
3240.5377819016
 21
7872.0664063885
 31
0.0
  0
LINE
  5
29A
330
1F
100
AcDbEntity
  8
0
  6
Continuous
 62
     7
370
    25
100
AcDbLine
 10
3238.2377819016
 20
7872.0664063885
 30
0.0
 11
3240.5377819016
 21
7872.0664063885
 31
0.0
  0
LINE
  5
29B
330
1F
100
AcDbEntity
  8
0
  6
Continuous
 62
     7
370
    25
100
AcDbLine
 10
3226.5377819016
 20
7886.3390200229
 30
0.0
 11
3226.5377819016
 21
7924.0664063885
 31
0.0
  0
LINE
  5
29C
330
1F
100
AcDbEntity
  8
0
  6
Continuous
 62
     7
370
    25
100
AcDbLine
 10
3240.5377819016
 20
7880.0664063885
 30
0.0
 11
3240.5377819016
 21
7927.0664063885
 31
0.0
  0
LINE
  5
29D
330
1F
100
AcDbEntity
  8
0
  6
Continuous
 62
     7
370
    25
100
AcDbLine
 10
3240.5377819016
 20
7880.0664063885
 30
0.0
 11
3238.2377819016
 21
7880.0664063885
 31
0.0
  0
LINE
  5
29E
330
1F
100
AcDbEntity
  8
0
  6
Continuous
 62
     7
370
    25
100
AcDbLine
 10
3238.2377819016
 20
7638.0664063885
 30
0.0
 11
3198.2377819016
 21
7638.0664063885
 31
0.0
  0
LINE
  5
29F
330
1F
100
AcDbEntity
  8
0
  6
Continuous
 62
     7
370
    25
100
AcDbLine
 10
3238.2377819016
 20
7638.0664063885
 30
0.0
 11
3238.2377819016
 21
7630.0664063885
 31
0.0
  0
LINE
  5
2A0
330
1F
100
AcDbEntity
  8
0
  6
Continuous
 62
     7
370
    25
100
AcDbLine
 10
3238.2377819016
 20
7630.0664063885
 30
0.0
 11
3198.2377819016
 21
7630.0664063885
 31
0.0
  0
LINE
  5
2A1
330
1F
100
AcDbEntity
  8
0
  6
Continuous
 62
     7
370
    25
100
AcDbLine
 10
3198.2377819016
 20
7638.0664063885
 30
0.0
 11
3198.2377819016
 21
7630.0664063885
 31
0.0
  0
LINE
  5
2A2
330
1F
100
AcDbEntity
  8
0
  6
Continuous
 62
     7
370
    25
100
AcDbLine
 10
3224.2377819016
 20
7623.0664063885
 30
0.0
 11
3212.2377819016
 21
7623.0664063885
 31
0.0
  0
LINE
  5
2A3
330
1F
100
AcDbEntity
  8
0
  6
Continuous
 62
     7
370
    25
100
AcDbLine
 10
3223.2377819016
 20
7660.0664063885
 30
0.0
 11
3213.2377819016
 21
7660.0664063885
 31
0.0
  0
ELLIPSE
  5
2A4
330
1F
100
AcDbEntity
  8
0
  6
Continuous
 62
     7
370
    25
100
AcDbEllipse
 10
3101.4336398898
 20
7634.0664063885
 30
0.0
 11
244.6537138923076
 21
0.0
 31
0.0
210
0.0
220
0.0
230
1.0
 40
0.5361109642
 41
1.111295352113251
 42
1.132618579605601
  0
LINE
  5
2A5
330
1F
100
AcDbEntity
  8
0
  6
Continuous
 62
     7
370
    25
100
AcDbLine
 10
3209.9377819016
 20
7638.0664063885
 30
0.0
 11
3209.9377819016
 21
7751.623073575
 31
0.0
  0
LINE
  5
2A6
330
1F
100
AcDbEntity
  8
0
  6
Continuous
 62
     7
370
    25
100
AcDbLine
 10
3198.2377819016
 20
7638.0664063885
 30
0.0
 11
3195.9377819016
 21
7638.0664063885
 31
0.0
  0
LINE
  5
2A7
330
1F
100
AcDbEntity
  8
0
  6
Continuous
 62
     7
370
    25
100
AcDbLine
 10
3195.9377819016
 20
7638.0664063885
 30
0.0
 11
3195.9377819016
 21
7755.0664063885
 31
0.0
  0
LINE
  5
2A8
330
1F
100
AcDbEntity
  8
0
  6
Continuous
 62
     7
370
    25
100
AcDbLine
 10
3195.9377819016
 20
7513.0664063885
 30
0.0
 11
3195.9377819016
 21
7630.0664063885
 31
0.0
  0
LINE
  5
2A9
330
1F
100
AcDbEntity
  8
0
  6
Continuous
 62
     7
370
    25
100
AcDbLine
 10
3195.9377819016
 20
7630.0664063885
 30
0.0
 11
3198.2377819016
 21
7630.0664063885
 31
0.0
  0
LINE
  5
2AA
330
1F
100
AcDbEntity
  8
0
  6
Continuous
 62
     7
370
    25
100
AcDbLine
 10
3209.9377819016
 20
7516.0664063885
 30
0.0
 11
3209.9377819016
 21
7623.7937927541
 31
0.0
  0
LINE
  5
2AB
330
1F
100
AcDbEntity
  8
0
  6
Continuous
 62
     7
370
    25
100
AcDbLine
 10
3226.5377819016
 20
7516.0664063885
 30
0.0
 11
3226.5377819016
 21
7623.7937927541
 31
0.0
  0
LINE
  5
2AC
330
1F
100
AcDbEntity
  8
0
  6
Continuous
 62
     7
370
    25
100
AcDbLine
 10
3240.5377819016
 20
7513.0664063885
 30
0.0
 11
3240.5377819016
 21
7630.0664063885
 31
0.0
  0
LINE
  5
2AD
330
1F
100
AcDbEntity
  8
0
  6
Continuous
 62
     7
370
    25
100
AcDbLine
 10
3238.2377819016
 20
7630.0664063885
 30
0.0
 11
3240.5377819016
 21
7630.0664063885
 31
0.0
  0
LINE
  5
2AE
330
1F
100
AcDbEntity
  8
0
  6
Continuous
 62
     7
370
    25
100
AcDbLine
 10
3240.5377819016
 20
7638.0664063885
 30
0.0
 11
3240.5377819016
 21
7755.0664063885
 31
0.0
  0
LINE
  5
2AF
330
1F
100
AcDbEntity
  8
0
  6
Continuous
 62
     7
370
    25
100
AcDbLine
 10
3226.5377819016
 20
7638.0664063885
 30
0.0
 11
3226.5377819016
 21
7751.623073575
 31
0.0
  0
ELLIPSE
  5
2B0
330
1F
100
AcDbEntity
  8
0
  6
Continuous
 62
     7
370
    25
100
AcDbEllipse
 10
3335.0419239134
 20
7634.0664063885
 30
0.0
 11
244.6537138923072
 21
0.0
 31
0.0
210
0.0
220
0.0
230
1.0
 40
0.5361109642
 41
2.008974073984189
 42
2.030297301476541
  0
LINE
  5
2B1
330
1F
100
AcDbEntity
  8
0
  6
Continuous
 62
     7
370
    25
100
AcDbLine
 10
3240.5377819016
 20
7638.0664063885
 30
0.0
 11
3238.2377819016
 21
7638.0664063885
 31
0.0
  0
ELLIPSE
  5
2B2
330
1F
100
AcDbEntity
  8
0
  6
Continuous
 62
     7
370
    25
100
AcDbEllipse
 10
3192.2377819016
 20
7634.0664063885
 30
0.0
 11
200.9178936779899
 21
0.0
 31
0.0
210
0.0
220
0.0
230
1.0
 40
0.5773502692
 41
1.441026311807846
 42
1.482586289792735
  0
ELLIPSE
  5
2B3
330
1F
100
AcDbEntity
  8
0
  6
Continuous
 62
     7
370
    25
100
AcDbEllipse
 10
3244.2377819016
 20
7634.0664063885
 30
0.0
 11
200.9178936779899
 21
0.0
 31
0.0
210
0.0
220
0.0
230
1.0
 40
0.5773502692
 41
1.65900636379706
 42
1.700566341781952
  0
LINE
  5
2B4
330
1F
100
AcDbEntity
  8
0
  6
Continuous
 62
     7
370
    25
100
AcDbLine
 10
3205.2377819016
 20
7770.0664063885
 30
0.0
 11
3205.2377819016
 21
7752.8366329509
 31
0.0
  0
LINE
  5
2B5
330
1F
100
AcDbEntity
  8
0
  6
Continuous
 62
     7
370
    25
100
AcDbLine
 10
3218.2377819016
 20
7770.0664063885
 30
0.0
 11
3218.2377819016
 21
7749.0910414311
 31
0.0
  0
LINE
  5
2B6
330
1F
100
AcDbEntity
  8
0
  6
Continuous
 62
     7
370
    25
100
AcDbLine
 10
3231.2377819016
 20
7770.0664063885
 30
0.0
 11
3231.2377819016
 21
7752.8366329509
 31
0.0
  0
ARC
  5
2B7
330
1F
100
AcDbEntity
  8
0
  6
Continuous
 62
     7
370
    25
100
AcDbCircle
 10
3316.2377819016
 20
8064.0664063885
 30
0.0
 40
6.000000000000455
100
AcDbArc
 50
0.0
 51
90.0
  0
ARC
  5
2B8
330
1F
100
AcDbEntity
  8
0
  6
Continuous
 62
     7
370
    25
100
AcDbCircle
 10
3316.2377819016
 20
8016.0664063885
 30
0.0
 40
6.000000000000455
100
AcDbArc
 50
270.0
 51
0.0
  0
ARC
  5
2B9
330
1F
100
AcDbEntity
  8
0
  6
Continuous
 62
     7
370
    25
100
AcDbCircle
 10
3316.2377819016
 20
8016.0664063885
 30
0.0
 40
2.000000000000455
100
AcDbArc
 50
270.0
 51
0.0000000001
  0
LINE
  5
2BA
330
1F
100
AcDbEntity
  8
0
  6
Continuous
 62
     7
370
    25
100
AcDbLine
 10
3318.2377819016
 20
8064.0664063885
 30
0.0
 11
3318.2377819016
 21
8016.0664063885
 31
0.0
  0
ARC
  5
2BB
330
1F
100
AcDbEntity
  8
0
  6
Continuous
 62
     7
370
    25
100
AcDbCircle
 10
3316.2377819016
 20
8064.0664063885
 30
0.0
 40
2.0
100
AcDbArc
 50
0.0
 51
90.0
  0
LINE
  5
2BC
330
1F
100
AcDbEntity
  8
0
  6
Continuous
 62
     7
370
    25
100
AcDbLine
 10
3316.2377819016
 20
8060.0664063885
 30
0.0
 11
3318.2377819016
 21
8060.0664063885
 31
0.0
  0
LINE
  5
2BD
330
1F
100
AcDbEntity
  8
0
  6
Continuous
 62
     7
370
    25
100
AcDbLine
 10
3070.6377819016
 20
8045.0664063885
 30
0.0
 11
3070.6377819016
 21
8029.0664063885
 31
0.0
  0
CIRCLE
  5
2BE
330
1F
100
AcDbEntity
  8
0
  6
Continuous
 62
     7
370
    25
100
AcDbCircle
 10
3286.2377819016
 20
8117.0664063885
 30
0.0
 40
10.0
  0
LINE
  5
2BF
330
1F
100
AcDbEntity
  8
0
  6
Continuous
 62
     7
370
    25
100
AcDbLine
 10
3316.2377819016
 20
8161.0664063885
 30
0.0
 11
3256.2377819016
 21
8161.0664063885
 31
0.0
  0
LINE
  5
2C0
330
1F
100
AcDbEntity
  8
0
  6
Continuous
 62
     7
370
    25
100
AcDbLine
 10
3316.2377819016
 20
7921.0664063885
 30
0.0
 11
3316.2377819016
 21
8161.0664063885
 31
0.0
  0
LINE
  5
2C1
330
1F
100
AcDbEntity
  8
0
  6
Continuous
 62
     7
370
    25
100
AcDbLine
 10
3256.2377819016
 20
7921.0664063885
 30
0.0
 11
3316.2377819016
 21
7921.0664063885
 31
0.0
  0
LINE
  5
2C2
330
1F
100
AcDbEntity
  8
0
  6
Continuous
 62
     7
370
    25
100
AcDbLine
 10
3256.2377819016
 20
8161.0664063885
 30
0.0
 11
3256.2377819016
 21
7921.0664063885
 31
0.0
  0
CIRCLE
  5
2C3
330
1F
100
AcDbEntity
  8
0
  6
Continuous
 62
     7
370
    25
100
AcDbCircle
 10
3286.2377819016
 20
7965.0664063885
 30
0.0
 40
10.0
  0
LINE
  5
2C4
330
1F
100
AcDbEntity
  8
0
  6
Continuous
 62
     7
370
    25
100
AcDbLine
 10
3326.2377819016
 20
8070.0664063885
 30
0.0
 11
3326.2377819016
 21
8012.0664063885
 31
0.0
  0
ARC
  5
2C5
330
1F
100
AcDbEntity
  8
0
  6
Continuous
 62
     7
370
    25
100
AcDbCircle
 10
3320.2377819016
 20
8070.0664063885
 30
0.0
 40
2.000000000000909
100
AcDbArc
 50
0.0
 51
90.0
  0
ARC
  5
2C6
330
1F
100
AcDbEntity
  8
0
  6
Continuous
 62
     7
370
    25
100
AcDbCircle
 10
3320.2377819016
 20
8012.0664063885
 30
0.0
 40
6.000000000000909
100
AcDbArc
 50
270.0
 51
0.0
  0
ARC
  5
2C7
330
1F
100
AcDbEntity
  8
0
  6
Continuous
 62
     7
370
    25
100
AcDbCircle
 10
3320.2377819016
 20
8070.0664063885
 30
0.0
 40
6.000000000000909
100
AcDbArc
 50
0.0
 51
90.0
  0
LINE
  5
2C8
330
1F
100
AcDbEntity
  8
0
  6
Continuous
 62
     7
370
    25
100
AcDbLine
 10
3322.2377819016
 20
8012.0664063885
 30
0.0
 11
3322.2377819016
 21
8070.0664063885
 31
0.0
  0
ARC
  5
2C9
330
1F
100
AcDbEntity
  8
0
  6
Continuous
 62
     7
370
    25
100
AcDbCircle
 10
3320.2377819016
 20
8012.0664063885
 30
0.0
 40
2.000000000000909
100
AcDbArc
 50
270.0
 51
0.0
  0
LINE
  5
2CA
330
1F
100
AcDbEntity
  8
0
  6
Continuous
 62
     7
370
    25
100
AcDbLine
 10
3320.2377819016
 20
8006.0664063885
 30
0.0
 11
3316.2377819016
 21
8006.0664063885
 31
0.0
  0
LINE
  5
2CB
330
1F
100
AcDbEntity
  8
0
  6
Continuous
 62
     7
370
    25
100
AcDbLine
 10
3316.2377819016
 20
8076.0664063885
 30
0.0
 11
3320.2377819016
 21
8076.0664063885
 31
0.0
  0
LINE
  5
2CC
330
1F
100
AcDbEntity
  8
0
  6
Continuous
 62
     7
370
    25
100
AcDbLine
 10
3320.2377819016
 20
8072.0664063885
 30
0.0
 11
3316.2377819016
 21
8072.0664063885
 31
0.0
  0
LINE
  5
2CD
330
1F
100
AcDbEntity
  8
0
  6
Continuous
 62
     7
370
    25
100
AcDbLine
 10
3316.2377819016
 20
8010.0664063885
 30
0.0
 11
3320.2377819016
 21
8010.0664063885
 31
0.0
  0
LINE
  5
2CE
330
1F
100
AcDbEntity
  8
0
  6
Continuous
 62
     8
370
    25
100
AcDbLine
 10
3312.2377819016
 20
7921.0664063885
 30
0.0
 11
3312.2377819016
 21
6910.2664063885
 31
0.0
  0
LINE
  5
2CF
330
1F
100
AcDbEntity
  8
0
  6
Continuous
 62
     8
370
    25
100
AcDbLine
 10
3228.2377819016
 20
7883.0664063885
 30
0.0
 11
3208.2377819016
 21
7883.0664063885
 31
0.0
  0
LINE
  5
2D0
330
1F
100
AcDbEntity
  8
0
  6
Continuous
 62
     8
370
    25
100
AcDbLine
 10
3208.2377819016
 20
7627.0664063885
 30
0.0
 11
3228.2377819016
 21
7627.0664063885
 31
0.0
  0
LINE
  5
2D1
330
1F
100
AcDbEntity
  8
0
  6
Continuous
 62
     8
370
    25
100
AcDbLine
 10
3316.2377819016
 20
8022.0664063885
 30
0.0
 11
3318.2377819016
 21
8022.0664063885
 31
0.0
  0
LINE
  5
2D2
330
1F
100
AcDbEntity
  8
0
  6
Continuous
 62
     8
370
    25
100
AcDbLine
 10
3316.2377819016
 20
8052.0664063885
 30
0.0
 11
3318.2377819016
 21
8052.0664063885
 31
0.0
  0
ARC
  5
2D3
330
1F
100
AcDbEntity
  8
0
  6
Continuous
 62
     7
370
    25
100
AcDbCircle
 10
2259.1410704796
 20
6195.1279058335
 30
0.0
 40
6.000000000000244
100
AcDbArc
 50
223.5756298267
 51
238.6808278062
  0
ARC
  5
2D4
330
1F
100
AcDbEntity
  8
0
  6
Continuous
 62
     7
370
    25
100
AcDbCircle
 10
2268.9034104794
 20
6195.1279058335
 30
0.0
 40
5.999999999999802
100
AcDbArc
 50
301.3191721938
 51
316.5295682622
  0
ARC
  5
2D5
330
1F
100
AcDbEntity
  8
0
  6
Continuous
 62
     7
370
    25
100
AcDbCircle
 10
2259.1410704796
 20
6194.2764865307
 30
0.0
 40
5.999999999999854
100
AcDbArc
 50
121.3191721938
 51
136.5295682622
  0
ARC
  5
2D6
330
1F
100
AcDbEntity
  8
0
  6
Continuous
 62
     7
370
    25
100
AcDbCircle
 10
2268.9034104794
 20
6194.2764865307
 30
0.0
 40
5.999999999999617
100
AcDbArc
 50
43.5756298267
 51
58.6808278062
  0
ARC
  5
2D7
330
1F
100
AcDbEntity
  8
0
  6
Continuous
 62
     7
370
    25
100
AcDbCircle
 10
2170.9034104802
 20
6198.2764865307
 30
0.0
 40
6.000000000000878
100
AcDbArc
 50
57.7083025434
 51
58.6808278062
  0
ARC
  5
2D8
330
1F
100
AcDbEntity
  8
0
  6
Continuous
 62
     7
370
    25
100
AcDbCircle
 10
2170.9034104802
 20
6199.1279058335
 30
0.0
 40
6.000000000000058
100
AcDbArc
 50
301.3191721938
 51
302.3544441536
  0
ARC
  5
2D9
330
1F
100
AcDbEntity
  8
0
  6
Continuous
 62
     7
370
    25
100
AcDbCircle
 10
2161.1410704804
 20
6198.2764865307
 30
0.0
 40
6.000000000001021
100
AcDbArc
 50
121.3191721938
 51
122.2870633086
  0
ARC
  5
2DA
330
1F
100
AcDbEntity
  8
0
  6
Continuous
 62
     7
370
    25
100
AcDbCircle
 10
2161.1410704804
 20
6199.1279058335
 30
0.0
 40
6.000000000000199
100
AcDbArc
 50
237.6472411645
 51
238.6808278062
  0
ARC
  5
2DB
330
1F
100
AcDbEntity
  8
0
  6
Continuous
 62
     7
370
    25
100
AcDbCircle
 10
1830.9034104802
 20
6198.2764865307
 30
0.0
 40
6.000000000000513
100
AcDbArc
 50
57.7083025434
 51
58.6808278062
  0
ARC
  5
2DC
330
1F
100
AcDbEntity
  8
0
  6
Continuous
 62
     7
370
    25
100
AcDbCircle
 10
1830.9034104802
 20
6199.1279058335
 30
0.0
 40
5.999999999999814
100
AcDbArc
 50
301.3191721938
 51
302.3544441536
  0
ARC
  5
2DD
330
1F
100
AcDbEntity
  8
0
  6
Continuous
 62
     7
370
    25
100
AcDbCircle
 10
1821.1410704804
 20
6198.2764865307
 30
0.0
 40
6.0000000000009
100
AcDbArc
 50
121.3191721938
 51
122.2870633086
  0
ARC
  5
2DE
330
1F
100
AcDbEntity
  8
0
  6
Continuous
 62
     7
370
    25
100
AcDbCircle
 10
1821.1410704804
 20
6199.1279058335
 30
0.0
 40
6.000000000000199
100
AcDbArc
 50
237.6472411645
 51
238.6808278062
  0
ARC
  5
2DF
330
1F
100
AcDbEntity
  8
0
  6
Continuous
 62
     7
370
    25
100
AcDbCircle
 10
1723.1410704804
 20
6195.1279058335
 30
0.0
 40
6.000000000000079
100
AcDbArc
 50
223.5756298267
 51
238.6808278062
  0
ARC
  5
2E0
330
1F
100
AcDbEntity
  8
0
  6
Continuous
 62
     7
370
    25
100
AcDbCircle
 10
1732.9034104802
 20
6195.1279058335
 30
0.0
 40
5.999999999999967
100
AcDbArc
 50
301.3191721938
 51
316.5295682622
  0
ARC
  5
2E1
330
1F
100
AcDbEntity
  8
0
  6
Continuous
 62
     7
370
    25
100
AcDbCircle
 10
1732.9034104802
 20
6194.2764865307
 30
0.0
 40
5.999999999999736
100
AcDbArc
 50
43.5756298267
 51
58.6808278062
  0
ARC
  5
2E2
330
1F
100
AcDbEntity
  8
0
  6
Continuous
 62
     7
370
    25
100
AcDbCircle
 10
1723.1410704804
 20
6194.2764865307
 30
0.0
 40
5.999999999999967
100
AcDbArc
 50
121.3191721938
 51
136.5295682622
  0
ARC
  5
2E3
330
1F
100
AcDbEntity
  8
0
  6
Continuous
 62
     7
370
    25
100
AcDbCircle
 10
1834.4113854262
 20
6146.4391711109
 30
0.0
 40
6.000000000001115
100
AcDbArc
 50
283.3868218968
 51
306.1896287418
  0
ARC
  5
2E4
330
1F
100
AcDbEntity
  8
0
  6
Continuous
 62
     7
370
    25
100
AcDbCircle
 10
1797.6330955343
 20
6146.4391711109
 30
0.0
 40
6.000000000001062
100
AcDbArc
 50
233.7547623122
 51
256.6131781032
  0
ARC
  5
2E5
330
1F
100
AcDbEntity
  8
0
  6
Continuous
 62
     7
370
    25
100
AcDbCircle
 10
2194.4113854262
 20
6146.4391711109
 30
0.0
 40
6.00000000000101
100
AcDbArc
 50
283.3868218968
 51
306.1896287418
  0
ARC
  5
2E6
330
1F
100
AcDbEntity
  8
0
  6
Continuous
 62
     7
370
    25
100
AcDbCircle
 10
2157.6330955343
 20
6146.4391711109
 30
0.0
 40
6.00000000000101
100
AcDbArc
 50
233.7547623122
 51
256.6131781032
  0
LINE
  5
2E7
330
1F
100
AcDbEntity
  8
0
  6
Continuous
 62
     7
370
    25
100
AcDbLine
 10
1802.5222404803
 20
6140.6021961821
 30
0.0
 11
1802.5222404803
 21
5957.6021961821
 31
0.0
  0
LINE
  5
2E8
330
1F
100
AcDbEntity
  8
0
  6
Continuous
 62
     7
370
    25
100
AcDbLine
 10
1802.5222404803
 20
5900.6021961821
 30
0.0
 11
1802.5222404803
 21
5854.6021961821
 31
0.0
  0
LINE
  5
2E9
330
1F
100
AcDbEntity
  8
0
  6
Continuous
 62
     7
370
    25
100
AcDbLine
 10
1829.5222404803
 20
5854.6021961821
 30
0.0
 11
1829.5222404803
 21
5900.6021961821
 31
0.0
  0
LINE
  5
2EA
330
1F
100
AcDbEntity
  8
0
  6
Continuous
 62
     7
370
    25
100
AcDbLine
 10
1829.5222404803
 20
5957.6021961821
 30
0.0
 11
1829.5222404803
 21
6140.6021961821
 31
0.0
  0
LINE
  5
2EB
330
1F
100
AcDbEntity
  8
0
  6
Continuous
 62
     7
370
    25
100
AcDbLine
 10
2162.5222404803
 20
6140.6021961821
 30
0.0
 11
2162.5222404803
 21
5957.6021961821
 31
0.0
  0
LINE
  5
2EC
330
1F
100
AcDbEntity
  8
0
  6
Continuous
 62
     7
370
    25
100
AcDbLine
 10
2162.5222404803
 20
5900.6021961821
 30
0.0
 11
2162.5222404803
 21
5854.6021961821
 31
0.0
  0
LINE
  5
2ED
330
1F
100
AcDbEntity
  8
0
  6
Continuous
 62
     7
370
    25
100
AcDbLine
 10
2189.5222404803
 20
5854.6021961821
 30
0.0
 11
2189.5222404803
 21
5900.6021961821
 31
0.0
  0
LINE
  5
2EE
330
1F
100
AcDbEntity
  8
0
  6
Continuous
 62
     7
370
    25
100
AcDbLine
 10
2189.5222404803
 20
5957.6021961821
 30
0.0
 11
2189.5222404803
 21
6140.6021961821
 31
0.0
  0
LINE
  5
2EF
330
1F
100
AcDbEntity
  8
0
  6
Continuous
 62
     7
370
    25
100
AcDbLine
 10
1801.0222404803
 20
6284.6021961821
 30
0.0
 11
1801.0222404803
 21
6234.6021961821
 31
0.0
  0
LINE
  5
2F0
330
1F
100
AcDbEntity
  8
0
  6
Continuous
 62
     7
370
    25
100
AcDbLine
 10
2191.0222404803
 20
6234.6021961821
 30
0.0
 11
2191.0222404803
 21
6284.6021961821
 31
0.0
  0
LINE
  5
2F1
330
1F
100
AcDbEntity
  8
0
  6
Continuous
 62
     7
370
    25
100
AcDbLine
 10
1778.0222404803
 20
5935.6021961821
 30
0.0
 11
1778.0222404803
 21
5925.6021961821
 31
0.0
  0
LINE
  5
2F2
330
1F
100
AcDbEntity
  8
0
  6
Continuous
 62
     7
370
    25
100
AcDbLine
 10
1854.0222404803
 20
5925.6021961821
 30
0.0
 11
1854.0222404803
 21
5935.6021961821
 31
0.0
  0
LINE
  5
2F3
330
1F
100
AcDbEntity
  8
0
  6
Continuous
 62
     7
370
    25
100
AcDbLine
 10
1851.0222404803
 20
5935.6021961821
 30
0.0
 11
1851.0222404803
 21
5940.6021961821
 31
0.0
  0
LINE
  5
2F4
330
1F
100
AcDbEntity
  8
0
  6
Continuous
 62
     7
370
    25
100
AcDbLine
 10
1781.0222404803
 20
5940.6021961821
 30
0.0
 11
1781.0222404803
 21
5935.6021961821
 31
0.0
  0
LINE
  5
2F5
330
1F
100
AcDbEntity
  8
0
  6
Continuous
 62
     7
370
    25
100
AcDbLine
 10
1832.0222404803
 20
5940.6021961821
 30
0.0
 11
1832.0222404803
 21
5957.6021961821
 31
0.0
  0
LINE
  5
2F6
330
1F
100
AcDbEntity
  8
0
  6
Continuous
 62
     7
370
    25
100
AcDbLine
 10
1800.0222404803
 20
5957.6021961821
 30
0.0
 11
1800.0222404803
 21
5940.6021961821
 31
0.0
  0
LINE
  5
2F7
330
1F
100
AcDbEntity
  8
0
  6
Continuous
 62
     7
370
    25
100
AcDbLine
 10
2138.0222404803
 20
5935.6021961821
 30
0.0
 11
2138.0222404803
 21
5925.6021961821
 31
0.0
  0
LINE
  5
2F8
330
1F
100
AcDbEntity
  8
0
  6
Continuous
 62
     7
370
    25
100
AcDbLine
 10
2214.0222404803
 20
5925.6021961821
 30
0.0
 11
2214.0222404803
 21
5935.6021961821
 31
0.0
  0
LINE
  5
2F9
330
1F
100
AcDbEntity
  8
0
  6
Continuous
 62
     7
370
    25
100
AcDbLine
 10
2211.0222404803
 20
5935.6021961821
 30
0.0
 11
2211.0222404803
 21
5940.6021961821
 31
0.0
  0
LINE
  5
2FA
330
1F
100
AcDbEntity
  8
0
  6
Continuous
 62
     7
370
    25
100
AcDbLine
 10
2141.0222404803
 20
5940.6021961821
 30
0.0
 11
2141.0222404803
 21
5935.6021961821
 31
0.0
  0
LINE
  5
2FB
330
1F
100
AcDbEntity
  8
0
  6
Continuous
 62
     7
370
    25
100
AcDbLine
 10
2192.0222404803
 20
5940.6021961821
 30
0.0
 11
2192.0222404803
 21
5957.6021961821
 31
0.0
  0
LINE
  5
2FC
330
1F
100
AcDbEntity
  8
0
  6
Continuous
 62
     7
370
    25
100
AcDbLine
 10
2160.0222404803
 20
5957.6021961821
 30
0.0
 11
2160.0222404803
 21
5940.6021961821
 31
0.0
  0
LINE
  5
2FD
330
1F
100
AcDbEntity
  8
0
  6
Continuous
 62
     7
370
    25
100
AcDbLine
 10
1831.0222404803
 20
6203.4021961821
 30
0.0
 11
1831.0222404803
 21
6228.6021961821
 31
0.0
  0
LINE
  5
2FE
330
1F
100
AcDbEntity
  8
0
  6
Continuous
 62
     7
370
    25
100
AcDbLine
 10
1821.0222404803
 20
6228.6021961821
 30
0.0
 11
1821.0222404803
 21
6203.4021961821
 31
0.0
  0
LINE
  5
2FF
330
1F
100
AcDbEntity
  8
0
  6
Continuous
 62
     7
370
    25
100
AcDbLine
 10
2171.0222404803
 20
6203.4021961821
 30
0.0
 11
2171.0222404803
 21
6228.6021961821
 31
0.0
  0
LINE
  5
300
330
1F
100
AcDbEntity
  8
0
  6
Continuous
 62
     7
370
    25
100
AcDbLine
 10
2161.0222404803
 20
6228.6021961821
 30
0.0
 11
2161.0222404803
 21
6203.4021961821
 31
0.0
  0
LINE
  5
301
330
1F
100
AcDbEntity
  8
0
  6
Continuous
 62
     7
370
    25
100
AcDbLine
 10
1733.0222404803
 20
6199.4021961821
 30
0.0
 11
1733.0222404803
 21
6228.6021961821
 31
0.0
  0
LINE
  5
302
330
1F
100
AcDbEntity
  8
0
  6
Continuous
 62
     7
370
    25
100
AcDbLine
 10
1723.0222404803
 20
6228.6021961821
 30
0.0
 11
1723.0222404803
 21
6199.4021961821
 31
0.0
  0
LINE
  5
303
330
1F
100
AcDbEntity
  8
0
  6
Continuous
 62
     7
370
    25
100
AcDbLine
 10
2269.0222404795
 20
6199.4021961821
 30
0.0
 11
2269.0222404795
 21
6228.6021961821
 31
0.0
  0
LINE
  5
304
330
1F
100
AcDbEntity
  8
0
  6
Continuous
 62
     7
370
    25
100
AcDbLine
 10
2259.0222404795
 20
6228.6021961821
 30
0.0
 11
2259.0222404795
 21
6199.4021961821
 31
0.0
  0
LINE
  5
305
330
1F
100
AcDbEntity
  8
0
  6
Continuous
 62
     7
370
    25
100
AcDbLine
 10
2235.5222404803
 20
6230.6021961821
 30
0.0
 11
2235.5222404803
 21
6234.6021961821
 31
0.0
  0
LINE
  5
306
330
1F
100
AcDbEntity
  8
0
  6
Continuous
 62
     7
370
    25
100
AcDbLine
 10
1756.5222404803
 20
6234.6021961821
 30
0.0
 11
1756.5222404803
 21
6230.6021961821
 31
0.0
  0
LINE
  5
307
330
1F
100
AcDbEntity
  8
0
  6
Continuous
 62
     7
370
    25
100
AcDbLine
 10
2151.0222404803
 20
6194.0021961821
 30
0.0
 11
2151.0222404803
 21
6191.6021961821
 31
0.0
  0
LINE
  5
308
330
1F
100
AcDbEntity
  8
0
  6
Continuous
 62
     7
370
    25
100
AcDbLine
 10
2181.0222404803
 20
6191.6021961821
 30
0.0
 11
2181.0222404803
 21
6194.0021961821
 31
0.0
  0
LINE
  5
309
330
1F
100
AcDbEntity
  8
0
  6
Continuous
 62
     7
370
    25
100
AcDbLine
 10
1811.0222404803
 20
6194.0021961821
 30
0.0
 11
1811.0222404803
 21
6191.6021961821
 31
0.0
  0
LINE
  5
30A
330
1F
100
AcDbEntity
  8
0
  6
Continuous
 62
     7
370
    25
100
AcDbLine
 10
1841.0222404803
 20
6191.6021961821
 30
0.0
 11
1841.0222404803
 21
6194.0021961821
 31
0.0
  0
LINE
  5
30B
330
1F
100
AcDbEntity
  8
0
  6
Continuous
 62
     7
370
    25
100
AcDbLine
 10
2249.0222404795
 20
6190.0021961821
 30
0.0
 11
2249.0222404795
 21
6187.6021961821
 31
0.0
  0
LINE
  5
30C
330
1F
100
AcDbEntity
  8
0
  6
Continuous
 62
     7
370
    25
100
AcDbLine
 10
2279.0222404795
 20
6187.6021961821
 30
0.0
 11
2279.0222404795
 21
6190.0021961821
 31
0.0
  0
LINE
  5
30D
330
1F
100
AcDbEntity
  8
0
  6
Continuous
 62
     7
370
    25
100
AcDbLine
 10
1713.0222404803
 20
6190.0021961821
 30
0.0
 11
1713.0222404803
 21
6187.6021961821
 31
0.0
  0
LINE
  5
30E
330
1F
100
AcDbEntity
  8
0
  6
Continuous
 62
     7
370
    25
100
AcDbLine
 10
1743.0222404803
 20
6187.6021961821
 30
0.0
 11
1743.0222404803
 21
6190.0021961821
 31
0.0
  0
LINE
  5
30F
330
1F
100
AcDbEntity
  8
0
  6
Continuous
 62
     7
370
    25
100
AcDbLine
 10
1794.5222404803
 20
6247.6021961821
 30
0.0
 11
1794.5222404803
 21
6412.2021961821
 31
0.0
  0
LINE
  5
310
330
1F
100
AcDbEntity
  8
0
  6
Continuous
 62
     7
370
    25
100
AcDbLine
 10
1778.5222404803
 20
6412.2021961821
 30
0.0
 11
1778.5222404803
 21
6247.6021961821
 31
0.0
  0
LINE
  5
311
330
1F
100
AcDbEntity
  8
0
  6
Continuous
 62
     7
370
    25
100
AcDbLine
 10
2213.5222404803
 20
6247.6021961821
 30
0.0
 11
2213.5222404803
 21
6412.2021961821
 31
0.0
  0
LINE
  5
312
330
1F
100
AcDbEntity
  8
0
  6
Continuous
 62
     7
370
    25
100
AcDbLine
 10
2197.5222404803
 20
6412.2021961821
 30
0.0
 11
2197.5222404803
 21
6247.6021961821
 31
0.0
  0
SPLINE
  5
313
330
1F
100
AcDbEntity
  8
0
  6
Continuous
 62
     7
370
    25
100
AcDbSpline
210
0.0
220
0.0
230
1.0
 70
     8
 71
     3
 72
     9
 73
     5
 74
     0
 42
0.00000001
 43
0.00000001
 40
0.0
 40
0.0
 40
0.0
 40
0.0
 40
0.5843443298746018
 40
1.0
 40
1.0
 40
1.0
 40
1.0
 10
2268.641042633036
 20
6198.402196182108
 30
0.0
 10
2269.076283695111
 20
6198.745800480295
 30
0.0
 10
2269.821120326225
 20
6199.333817306368
 30
0.0
 10
2270.618859075415
 20
6199.382119218466
 30
0.0
 10
2270.950443709794
 20
6199.402196182108
 30
0.0
  0
SPLINE
  5
314
330
1F
100
AcDbEntity
  8
0
  6
Continuous
 62
     7
370
    25
100
AcDbSpline
210
0.0
220
0.0
230
1.0
 70
     8
 71
     3
 72
     9
 73
     5
 74
     0
 42
0.00000001
 43
0.00000001
 40
0.0
 40
0.0
 40
0.0
 40
0.0
 40
0.865960471897649
 40
1.0
 40
1.0
 40
1.0
 40
1.0
 10
2264.022240479519
 20
6199.402196182108
 30
0.0
 10
2265.417251282889
 20
6199.306820682153
 30
0.0
 10
2267.028191791887
 20
6199.196682283172
 30
0.0
 10
2268.450409273008
 20
6198.496101676081
 30
0.0
 10
2268.641042633036
 20
6198.402196182108
 30
0.0
  0
LINE
  5
315
330
1F
100
AcDbEntity
  8
0
  6
Continuous
 62
     7
370
    25
100
AcDbLine
 10
2264.0222404795
 20
6199.4021961821
 30
0.0
 11
2270.9504437098
 21
6199.4021961821
 31
0.0
  0
SPLINE
  5
316
330
1F
100
AcDbEntity
  8
0
  6
Continuous
 62
     7
370
    25
100
AcDbSpline
210
0.0
220
0.0
230
1.0
 70
     8
 71
     3
 72
     9
 73
     5
 74
     0
 42
0.00000001
 43
0.00000001
 40
0.0
 40
0.0
 40
0.0
 40
0.0
 40
0.3219001480456889
 40
1.0
 40
1.0
 40
1.0
 40
1.0
 10
2259.403438326001
 20
6198.402196182107
 30
0.0
 10
2259.872000905747
 20
6198.612096003593
 30
0.0
 10
2261.327615581886
 20
6199.264161008097
 30
0.0
 10
2262.933375152447
 20
6199.346417837957
 30
0.0
 10
2264.022240479518
 20
6199.402196182108
 30
0.0
  0
SPLINE
  5
317
330
1F
100
AcDbEntity
  8
0
  6
Continuous
 62
     7
370
    25
100
AcDbSpline
210
0.0
220
0.0
230
1.0
 70
     8
 71
     3
 72
     9
 73
     5
 74
     0
 42
0.00000001
 43
0.00000001
 40
0.0
 40
0.0
 40
0.0
 40
0.0
 40
0.4726592242542993
 40
1.0
 40
1.0
 40
1.0
 40
1.0
 10
2257.094037249243
 20
6199.402196182109
 30
0.0
 10
2257.471673596122
 20
6199.37606332971
 30
0.0
 10
2258.270634723929
 20
6199.320774337009
 30
0.0
 10
2259.012318322024
 20
6198.719351151372
 30
0.0
 10
2259.403438326001
 20
6198.402196182107
 30
0.0
  0
LINE
  5
318
330
1F
100
AcDbEntity
  8
0
  6
Continuous
 62
     7
370
    25
100
AcDbLine
 10
2264.0222404795
 20
6199.4021961821
 30
0.0
 11
2257.0940372492
 21
6199.4021961821
 31
0.0
  0
SPLINE
  5
319
330
1F
100
AcDbEntity
  8
0
  6
Continuous
 62
     7
370
    25
100
AcDbSpline
210
0.0
220
0.0
230
1.0
 70
     8
 71
     3
 72
     9
 73
     5
 74
     0
 42
0.00000001
 43
0.00000001
 40
0.0
 40
0.0
 40
0.0
 40
0.0
 40
0.4726592242541577
 40
1.0
 40
1.0
 40
1.0
 40
1.0
 10
2270.950443709795
 20
6190.002196182108
 30
0.0
 10
2270.572807362916
 20
6190.028329034507
 30
0.0
 10
2269.773846235109
 20
6190.083618027207
 30
0.0
 10
2269.032162637013
 20
6190.685041212843
 30
0.0
 10
2268.641042633035
 20
6191.002196182108
 30
0.0
  0
SPLINE
  5
31A
330
1F
100
AcDbEntity
  8
0
  6
Continuous
 62
     7
370
    25
100
AcDbSpline
210
0.0
220
0.0
230
1.0
 70
     8
 71
     3
 72
     9
 73
     5
 74
     0
 42
0.00000001
 43
0.00000001
 40
0.0
 40
0.0
 40
0.0
 40
0.0
 40
0.321900148045442
 40
1.0
 40
1.0
 40
1.0
 40
1.0
 10
2268.641042633035
 20
6191.002196182108
 30
0.0
 10
2268.172480053289
 20
6190.792296360623
 30
0.0
 10
2266.716865377151
 20
6190.140231356118
 30
0.0
 10
2265.111105806591
 20
6190.057974526259
 30
0.0
 10
2264.022240479519
 20
6190.002196182108
 30
0.0
  0
LINE
  5
31B
330
1F
100
AcDbEntity
  8
0
  6
Continuous
 62
     7
370
    25
100
AcDbLine
 10
2268.641042633
 20
6191.0021961821
 30
0.0
 11
2268.641042633
 21
6198.4021961821
 31
0.0
  0
SPLINE
  5
31C
330
1F
100
AcDbEntity
  8
0
  6
Continuous
 62
     7
370
    25
100
AcDbSpline
210
0.0
220
0.0
230
1.0
 70
     8
 71
     3
 72
     9
 73
     5
 74
     0
 42
0.00000001
 43
0.00000001
 40
0.0
 40
0.0
 40
0.0
 40
0.0
 40
0.8659604718975985
 40
1.0
 40
1.0
 40
1.0
 40
1.0
 10
2264.022240479519
 20
6190.002196182108
 30
0.0
 10
2262.627229676149
 20
6190.097571682064
 30
0.0
 10
2261.01628916715
 20
6190.207710081045
 30
0.0
 10
2259.59407168603
 20
6190.908290688136
 30
0.0
 10
2259.403438326001
 20
6191.002196182108
 30
0.0
  0
LINE
  5
31D
330
1F
100
AcDbEntity
  8
0
  6
Continuous
 62
     7
370
    25
100
AcDbLine
 10
2259.403438326
 20
6191.0021961821
 30
0.0
 11
2259.403438326
 21
6198.4021961821
 31
0.0
  0
SPLINE
  5
31E
330
1F
100
AcDbEntity
  8
0
  6
Continuous
 62
     7
370
    25
100
AcDbSpline
210
0.0
220
0.0
230
1.0
 70
     8
 71
     3
 72
     9
 73
     5
 74
     0
 42
0.00000001
 43
0.00000001
 40
0.0
 40
0.0
 40
0.0
 40
0.0
 40
0.4726592242541459
 40
1.0
 40
1.0
 40
1.0
 40
1.0
 10
2270.950443709794
 20
6199.402196182108
 30
0.0
 10
2271.328080056672
 20
6199.376063329709
 30
0.0
 10
2272.127041184479
 20
6199.320774337009
 30
0.0
 10
2272.868724782575
 20
6198.719351151373
 30
0.0
 10
2273.259844786552
 20
6198.402196182108
 30
0.0
  0
LINE
  5
31F
330
1F
100
AcDbEntity
  8
0
  6
Continuous
 62
     7
370
    25
100
AcDbLine
 10
2273.2598447866
 20
6191.0021961821
 30
0.0
 11
2273.2598447866
 21
6198.4021961821
 31
0.0
  0
SPLINE
  5
320
330
1F
100
AcDbEntity
  8
0
  6
Continuous
 62
     7
370
    25
100
AcDbSpline
210
0.0
220
0.0
230
1.0
 70
     8
 71
     3
 72
     9
 73
     5
 74
     0
 42
0.00000001
 43
0.00000001
 40
0.0
 40
0.0
 40
0.0
 40
0.0
 40
0.5843443298745876
 40
1.0
 40
1.0
 40
1.0
 40
1.0
 10
2273.259844786553
 20
6191.002196182108
 30
0.0
 10
2272.824603724478
 20
6190.658591883922
 30
0.0
 10
2272.079767093364
 20
6190.070575057849
 30
0.0
 10
2271.282028344174
 20
6190.022273145751
 30
0.0
 10
2270.950443709795
 20
6190.002196182108
 30
0.0
  0
SPLINE
  5
321
330
1F
100
AcDbEntity
  8
0
  6
Continuous
 62
     7
370
    25
100
AcDbSpline
210
0.0
220
0.0
230
1.0
 70
     8
 71
     3
 72
     9
 73
     5
 74
     0
 42
0.00000001
 43
0.00000001
 40
0.0
 40
0.0
 40
0.0
 40
0.0
 40
0.5843443298746264
 40
1.0
 40
1.0
 40
1.0
 40
1.0
 10
2259.403438326001
 20
6191.002196182108
 30
0.0
 10
2258.968197263927
 20
6190.658591883922
 30
0.0
 10
2258.223360632813
 20
6190.07057505785
 30
0.0
 10
2257.425621883623
 20
6190.022273145751
 30
0.0
 10
2257.094037249243
 20
6190.002196182108
 30
0.0
  0
SPLINE
  5
322
330
1F
100
AcDbEntity
  8
0
  6
Continuous
 62
     7
370
    25
100
AcDbSpline
210
0.0
220
0.0
230
1.0
 70
     8
 71
     3
 72
     9
 73
     5
 74
     0
 42
0.00000001
 43
0.00000001
 40
0.0
 40
0.0
 40
0.0
 40
0.0
 40
0.4726592242540478
 40
1.0
 40
1.0
 40
1.0
 40
1.0
 10
2257.094037249243
 20
6190.002196182108
 30
0.0
 10
2256.716400902365
 20
6190.028329034508
 30
0.0
 10
2255.91743977456
 20
6190.083618027207
 30
0.0
 10
2255.175756176463
 20
6190.685041212843
 30
0.0
 10
2254.784636172485
 20
6191.002196182108
 30
0.0
  0
LINE
  5
323
330
1F
100
AcDbEntity
  8
0
  6
Continuous
 62
     7
370
    25
100
AcDbLine
 10
2254.7846361725
 20
6191.0021961821
 30
0.0
 11
2254.7846361725
 21
6198.4021961821
 31
0.0
  0
SPLINE
  5
324
330
1F
100
AcDbEntity
  8
0
  6
Continuous
 62
     7
370
    25
100
AcDbSpline
210
0.0
220
0.0
230
1.0
 70
     8
 71
     3
 72
     9
 73
     5
 74
     0
 42
0.00000001
 43
0.00000001
 40
0.0
 40
0.0
 40
0.0
 40
0.0
 40
0.5843443298745883
 40
0.9999999999999999
 40
0.9999999999999999
 40
0.9999999999999999
 40
0.9999999999999999
 10
2254.784636172484
 20
6198.402196182108
 30
0.0
 10
2255.219877234559
 20
6198.745800480295
 30
0.0
 10
2255.964713865673
 20
6199.333817306368
 30
0.0
 10
2256.762452614863
 20
6199.382119218467
 30
0.0
 10
2257.094037249243
 20
6199.402196182109
 30
0.0
  0
LINE
  5
325
330
1F
100
AcDbEntity
  8
0
  6
Continuous
 62
     7
370
    25
100
AcDbLine
 10
2257.0940372492
 20
6199.4021961821
 30
0.0
 11
2256.0222404795
 21
6199.4021961821
 31
0.0
  0
LINE
  5
326
330
1F
100
AcDbEntity
  8
0
  6
Continuous
 62
     7
370
    25
100
AcDbLine
 10
2272.0222404795
 20
6199.4021961821
 30
0.0
 11
2270.9504437098
 21
6199.4021961821
 31
0.0
  0
SPLINE
  5
327
330
1F
100
AcDbEntity
  8
0
  6
Continuous
 62
     7
370
    25
100
AcDbSpline
210
0.0
220
0.0
230
1.0
 70
     8
 71
     3
 72
     9
 73
     5
 74
     0
 42
0.00000001
 43
0.00000001
 40
0.0
 40
0.0
 40
0.0
 40
0.0
 40
0.4726592242539977
 40
1.0
 40
1.0
 40
1.0
 40
1.0
 10
2170.889819909426
 20
6203.402196182108
 30
0.0
 10
2171.48919992543
 20
6203.37606332971
 30
0.0
 10
2172.757301731652
 20
6203.32077433701
 30
0.0
 10
2173.934493309137
 20
6202.719351151374
 30
0.0
 10
2174.55527442881
 20
6202.402196182109
 30
0.0
  0
LINE
  5
328
330
1F
100
AcDbEntity
  8
0
  6
Continuous
 62
     7
370
    25
100
AcDbLine
 10
2174.5552744288
 20
6195.0021961821
 30
0.0
 11
2174.5552744288
 21
6202.4021961821
 31
0.0
  0
SPLINE
  5
329
330
1F
100
AcDbEntity
  8
0
  6
Continuous
 62
     7
370
    25
100
AcDbSpline
210
0.0
220
0.0
230
1.0
 70
     8
 71
     3
 72
     9
 73
     5
 74
     0
 42
0.00000001
 43
0.00000001
 40
0.0
 40
0.0
 40
0.0
 40
0.0
 40
0.5843443298746605
 40
1.0
 40
1.0
 40
1.0
 40
1.0
 10
2174.555274428809
 20
6195.002196182109
 30
0.0
 10
2173.86446487907
 20
6194.658591883923
 30
0.0
 10
2172.682268844264
 20
6194.07057505785
 30
0.0
 10
2171.41610718316
 20
6194.022273145751
 30
0.0
 10
2170.889819909426
 20
6194.00219618211
 30
0.0
  0
SPLINE
  5
32A
330
1F
100
AcDbEntity
  8
0
  6
Continuous
 62
     7
370
    25
100
AcDbSpline
210
0.0
220
0.0
230
1.0
 70
     8
 71
     3
 72
     9
 73
     5
 74
     0
 42
0.00000001
 43
0.00000001
 40
0.0
 40
0.0
 40
0.0
 40
0.0
 40
0.472659224254123
 40
1.0
 40
1.0
 40
1.0
 40
1.0
 10
2170.889819909426
 20
6194.00219618211
 30
0.0
 10
2170.290439893422
 20
6194.028329034509
 30
0.0
 10
2169.022338087198
 20
6194.083618027208
 30
0.0
 10
2167.845146509714
 20
6194.685041212844
 30
0.0
 10
2167.224365390041
 20
6195.002196182109
 30
0.0
  0
LINE
  5
32B
330
1F
100
AcDbEntity
  8
0
  6
Continuous
 62
     7
370
    25
100
AcDbLine
 10
2167.22436539
 20
6195.0021961821
 30
0.0
 11
2167.22436539
 21
6202.4021961821
 31
0.0
  0
SPLINE
  5
32C
330
1F
100
AcDbEntity
  8
0
  6
Continuous
 62
     7
370
    25
100
AcDbSpline
210
0.0
220
0.0
230
1.0
 70
     8
 71
     3
 72
     9
 73
     5
 74
     0
 42
0.00000001
 43
0.00000001
 40
0.0
 40
0.0
 40
0.0
 40
0.0
 40
0.5843443298746219
 40
1.0
 40
1.0
 40
1.0
 40
1.0
 10
2167.224365390042
 20
6202.402196182109
 30
0.0
 10
2167.915174939782
 20
6202.745800480296
 30
0.0
 10
2169.097370974588
 20
6203.333817306368
 30
0.0
 10
2170.363532635693
 20
6203.382119218467
 30
0.0
 10
2170.889819909426
 20
6203.402196182108
 30
0.0
  0
SPLINE
  5
32D
330
1F
100
AcDbEntity
  8
0
  6
Continuous
 62
     7
370
    25
100
AcDbSpline
210
0.0
220
0.0
230
1.0
 70
     8
 71
     3
 72
     9
 73
     5
 74
     0
 42
0.00000001
 43
0.00000001
 40
0.0
 40
0.0
 40
0.0
 40
0.0
 40
0.3219001480455957
 40
1.0
 40
1.0
 40
1.0
 40
1.0
 10
2167.224365390041
 20
6195.002196182109
 30
0.0
 10
2166.791541005375
 20
6194.792296360623
 30
0.0
 10
2165.446948940742
 20
6194.14023135612
 30
0.0
 10
2163.963663829869
 20
6194.057974526259
 30
0.0
 10
2162.957848415779
 20
6194.002196182109
 30
0.0
  0
SPLINE
  5
32E
330
1F
100
AcDbEntity
  8
0
  6
Continuous
 62
     7
370
    25
100
AcDbSpline
210
0.0
220
0.0
230
1.0
 70
     8
 71
     3
 72
     9
 73
     5
 74
     0
 42
0.00000001
 43
0.00000001
 40
0.0
 40
0.0
 40
0.0
 40
0.0
 40
0.8659604718976509
 40
1.0
 40
1.0
 40
1.0
 40
1.0
 10
2162.95784841578
 20
6203.402196182108
 30
0.0
 10
2164.246458984935
 20
6203.306820682153
 30
0.0
 10
2165.734529873819
 20
6203.196682283172
 30
0.0
 10
2167.04827201358
 20
6202.496101676081
 30
0.0
 10
2167.224365390042
 20
6202.402196182109
 30
0.0
  0
LINE
  5
32F
330
1F
100
AcDbEntity
  8
0
  6
Continuous
 62
     7
370
    25
100
AcDbLine
 10
2170.8898199094
 20
6203.4021961821
 30
0.0
 11
2162.9578484158
 21
6203.4021961821
 31
0.0
  0
SPLINE
  5
330
330
1F
100
AcDbEntity
  8
0
  6
Continuous
 62
     7
370
    25
100
AcDbSpline
210
0.0
220
0.0
230
1.0
 70
     8
 71
     3
 72
     9
 73
     5
 74
     0
 42
0.00000001
 43
0.00000001
 40
0.0
 40
0.0
 40
0.0
 40
0.0
 40
0.8659604718977045
 40
1.0
 40
1.0
 40
1.0
 40
1.0
 10
2162.957848415779
 20
6194.002196182109
 30
0.0
 10
2161.669237846624
 20
6194.097571682064
 30
0.0
 10
2160.18116695774
 20
6194.207710081043
 30
0.0
 10
2158.86742481798
 20
6194.908290688137
 30
0.0
 10
2158.691331441518
 20
6195.002196182108
 30
0.0
  0
LINE
  5
331
330
1F
100
AcDbEntity
  8
0
  6
Continuous
 62
     7
370
    25
100
AcDbLine
 10
2158.6913314415
 20
6195.0021961821
 30
0.0
 11
2158.6913314415
 21
6202.4021961821
 31
0.0
  0
SPLINE
  5
332
330
1F
100
AcDbEntity
  8
0
  6
Continuous
 62
     7
370
    25
100
AcDbSpline
210
0.0
220
0.0
230
1.0
 70
     8
 71
     3
 72
     9
 73
     5
 74
     0
 42
0.00000001
 43
0.00000001
 40
0.0
 40
0.0
 40
0.0
 40
0.0
 40
0.3219001480455822
 40
1.0
 40
1.0
 40
1.0
 40
1.0
 10
2158.691331441517
 20
6202.40219618211
 30
0.0
 10
2159.124155826184
 20
6202.612096003595
 30
0.0
 10
2160.468747890817
 20
6203.264161008097
 30
0.0
 10
2161.952033001691
 20
6203.346417837958
 30
0.0
 10
2162.95784841578
 20
6203.402196182108
 30
0.0
  0
SPLINE
  5
333
330
1F
100
AcDbEntity
  8
0
  6
Continuous
 62
     7
370
    25
100
AcDbSpline
210
0.0
220
0.0
230
1.0
 70
     8
 71
     3
 72
     9
 73
     5
 74
     0
 42
0.00000001
 43
0.00000001
 40
0.0
 40
0.0
 40
0.0
 40
0.0
 40
0.4726592242541567
 40
1.0
 40
1.0
 40
1.0
 40
1.0
 10
2158.090268986641
 20
6203.402196182108
 30
0.0
 10
2158.188555521617
 20
6203.37606332971
 30
0.0
 10
2158.396499278837
 20
6203.32077433701
 30
0.0
 10
2158.589535546422
 20
6202.719351151375
 30
0.0
 10
2158.691331441517
 20
6202.40219618211
 30
0.0
  0
LINE
  5
334
330
1F
100
AcDbEntity
  8
0
  6
Continuous
 62
     7
370
    25
100
AcDbLine
 10
2162.9578484158
 20
6203.4021961821
 30
0.0
 11
2158.0902689866
 21
6203.4021961821
 31
0.0
  0
SPLINE
  5
335
330
1F
100
AcDbEntity
  8
0
  6
Continuous
 62
     7
370
    25
100
AcDbSpline
210
0.0
220
0.0
230
1.0
 70
     8
 71
     3
 72
     9
 73
     5
 74
     0
 42
0.00000001
 43
0.00000001
 40
0.0
 40
0.0
 40
0.0
 40
0.0
 40
0.584344329874651
 40
1.0
 40
1.0
 40
1.0
 40
1.0
 10
2158.691331441518
 20
6195.002196182108
 30
0.0
 10
2158.578052261099
 20
6194.658591883923
 30
0.0
 10
2158.384195360932
 20
6194.070575057849
 30
0.0
 10
2158.176569749355
 20
6194.022273145751
 30
0.0
 10
2158.09026898664
 20
6194.002196182109
 30
0.0
  0
SPLINE
  5
336
330
1F
100
AcDbEntity
  8
0
  6
Continuous
 62
     7
370
    25
100
AcDbSpline
210
0.0
220
0.0
230
1.0
 70
     8
 71
     3
 72
     9
 73
     5
 74
     0
 42
0.00000001
 43
0.00000001
 40
0.0
 40
0.0
 40
0.0
 40
0.0
 40
0.7505156471202115
 40
1.0
 40
1.0
 40
1.0
 40
1.0
 10
2174.55527442881
 20
6202.402196182109
 30
0.0
 10
2174.442440901499
 20
6202.763269480954
 30
0.0
 10
2174.292099562522
 20
6203.244369775441
 30
0.0
 10
2174.131038036066
 20
6203.30525318179
 30
0.0
 10
2174.090855705364
 20
6203.320442639025
 30
0.0
  0
LINE
  5
337
330
1F
100
AcDbEntity
  8
0
  6
Continuous
 62
     7
370
    25
100
AcDbLine
 10
2174.0222404803
 20
6203.4021961821
 30
0.0
 11
2170.8898199094
 21
6203.4021961821
 31
0.0
  0
SPLINE
  5
338
330
1F
100
AcDbEntity
  8
0
  6
Continuous
 62
     7
370
    25
100
AcDbSpline
210
0.0
220
0.0
230
1.0
 70
     8
 71
     3
 72
     9
 73
     5
 74
     0
 42
0.00000001
 43
0.00000001
 40
0.0
 40
0.0
 40
0.0
 40
0.0
 40
0.322584950941727
 40
1.0
 40
1.0
 40
1.0
 40
1.0
 10
2174.090854313333
 20
6194.096129500328
 30
0.0
 10
2174.142885796293
 20
6194.116874295726
 30
0.0
 10
2174.304181240511
 20
6194.18118230308
 30
0.0
 10
2174.4538717947
 20
6194.670634141187
 30
0.0
 10
2174.555274428809
 20
6195.002196182109
 30
0.0
  0
LINE
  5
339
330
1F
100
AcDbEntity
  8
0
  6
Continuous
 62
     7
370
    25
100
AcDbLine
 10
2157.7987398154
 20
6194.2026048002
 30
0.0
 11
2157.4892065318
 21
6195.0021961821
 31
0.0
  0
LINE
  5
33A
330
1F
100
AcDbEntity
  8
0
  6
Continuous
 62
     7
370
    25
100
AcDbLine
 10
2157.4892065318
 20
6195.0021961821
 30
0.0
 11
2157.4892065318
 21
6202.4021961821
 31
0.0
  0
LINE
  5
33B
330
1F
100
AcDbEntity
  8
0
  6
Continuous
 62
     7
370
    25
100
AcDbLine
 10
2157.4892065318
 20
6202.4021961821
 30
0.0
 11
2157.8337455138
 21
6203.2487189419
 31
0.0
  0
LINE
  5
33C
330
1F
100
AcDbEntity
  8
0
  6
Continuous
 62
     7
370
    25
100
AcDbLine
 10
2157.9537308682
 20
6203.320505827
 30
0.0
 11
2158.0902689866
 21
6203.4021961821
 31
0.0
  0
LINE
  5
33D
330
1F
100
AcDbEntity
  8
0
  6
Continuous
 62
     7
370
    25
100
AcDbLine
 10
2158.0902689866
 20
6203.4021961821
 30
0.0
 11
2158.0222404803
 21
6203.4021961821
 31
0.0
  0
SPLINE
  5
33E
330
1F
100
AcDbEntity
  8
0
  6
Continuous
 62
     7
370
    25
100
AcDbSpline
210
0.0
220
0.0
230
1.0
 70
     8
 71
     3
 72
     9
 73
     5
 74
     0
 42
0.00000001
 43
0.00000001
 40
0.0
 40
0.0
 40
0.0
 40
0.0
 40
0.4726592242539977
 40
1.0
 40
1.0
 40
1.0
 40
1.0
 10
1830.889819909426
 20
6203.402196182108
 30
0.0
 10
1831.48919992543
 20
6203.37606332971
 30
0.0
 10
1832.757301731652
 20
6203.32077433701
 30
0.0
 10
1833.934493309137
 20
6202.719351151374
 30
0.0
 10
1834.55527442881
 20
6202.402196182109
 30
0.0
  0
LINE
  5
33F
330
1F
100
AcDbEntity
  8
0
  6
Continuous
 62
     7
370
    25
100
AcDbLine
 10
1834.5552744288
 20
6195.0021961821
 30
0.0
 11
1834.5552744288
 21
6202.4021961821
 31
0.0
  0
SPLINE
  5
340
330
1F
100
AcDbEntity
  8
0
  6
Continuous
 62
     7
370
    25
100
AcDbSpline
210
0.0
220
0.0
230
1.0
 70
     8
 71
     3
 72
     9
 73
     5
 74
     0
 42
0.00000001
 43
0.00000001
 40
0.0
 40
0.0
 40
0.0
 40
0.0
 40
0.5843443298746605
 40
1.0
 40
1.0
 40
1.0
 40
1.0
 10
1834.555274428809
 20
6195.002196182108
 30
0.0
 10
1833.86446487907
 20
6194.658591883923
 30
0.0
 10
1832.682268844264
 20
6194.07057505785
 30
0.0
 10
1831.416107183159
 20
6194.022273145751
 30
0.0
 10
1830.889819909426
 20
6194.002196182109
 30
0.0
  0
SPLINE
  5
341
330
1F
100
AcDbEntity
  8
0
  6
Continuous
 62
     7
370
    25
100
AcDbSpline
210
0.0
220
0.0
230
1.0
 70
     8
 71
     3
 72
     9
 73
     5
 74
     0
 42
0.00000001
 43
0.00000001
 40
0.0
 40
0.0
 40
0.0
 40
0.0
 40
0.4726592242541198
 40
1.0
 40
1.0
 40
1.0
 40
1.0
 10
1830.889819909426
 20
6194.002196182109
 30
0.0
 10
1830.290439893422
 20
6194.028329034509
 30
0.0
 10
1829.022338087199
 20
6194.083618027208
 30
0.0
 10
1827.845146509714
 20
6194.685041212844
 30
0.0
 10
1827.224365390041
 20
6195.002196182109
 30
0.0
  0
LINE
  5
342
330
1F
100
AcDbEntity
  8
0
  6
Continuous
 62
     7
370
    25
100
AcDbLine
 10
1827.22436539
 20
6195.0021961821
 30
0.0
 11
1827.22436539
 21
6202.4021961821
 31
0.0
  0
SPLINE
  5
343
330
1F
100
AcDbEntity
  8
0
  6
Continuous
 62
     7
370
    25
100
AcDbSpline
210
0.0
220
0.0
230
1.0
 70
     8
 71
     3
 72
     9
 73
     5
 74
     0
 42
0.00000001
 43
0.00000001
 40
0.0
 40
0.0
 40
0.0
 40
0.0
 40
0.5843443298746219
 40
1.0
 40
1.0
 40
1.0
 40
1.0
 10
1827.224365390042
 20
6202.402196182109
 30
0.0
 10
1827.915174939781
 20
6202.745800480296
 30
0.0
 10
1829.097370974588
 20
6203.333817306368
 30
0.0
 10
1830.363532635692
 20
6203.382119218467
 30
0.0
 10
1830.889819909426
 20
6203.402196182108
 30
0.0
  0
SPLINE
  5
344
330
1F
100
AcDbEntity
  8
0
  6
Continuous
 62
     7
370
    25
100
AcDbSpline
210
0.0
220
0.0
230
1.0
 70
     8
 71
     3
 72
     9
 73
     5
 74
     0
 42
0.00000001
 43
0.00000001
 40
0.0
 40
0.0
 40
0.0
 40
0.0
 40
0.3219001480455985
 40
1.0
 40
1.0
 40
1.0
 40
1.0
 10
1827.224365390041
 20
6195.002196182109
 30
0.0
 10
1826.791541005375
 20
6194.792296360623
 30
0.0
 10
1825.446948940742
 20
6194.14023135612
 30
0.0
 10
1823.963663829869
 20
6194.057974526259
 30
0.0
 10
1822.957848415779
 20
6194.002196182109
 30
0.0
  0
SPLINE
  5
345
330
1F
100
AcDbEntity
  8
0
  6
Continuous
 62
     7
370
    25
100
AcDbSpline
210
0.0
220
0.0
230
1.0
 70
     8
 71
     3
 72
     9
 73
     5
 74
     0
 42
0.00000001
 43
0.00000001
 40
0.0
 40
0.0
 40
0.0
 40
0.0
 40
0.8659604718976509
 40
1.0
 40
1.0
 40
1.0
 40
1.0
 10
1822.95784841578
 20
6203.402196182108
 30
0.0
 10
1824.246458984935
 20
6203.306820682153
 30
0.0
 10
1825.734529873819
 20
6203.196682283172
 30
0.0
 10
1827.04827201358
 20
6202.496101676081
 30
0.0
 10
1827.224365390042
 20
6202.402196182109
 30
0.0
  0
LINE
  5
346
330
1F
100
AcDbEntity
  8
0
  6
Continuous
 62
     7
370
    25
100
AcDbLine
 10
1830.8898199094
 20
6203.4021961821
 30
0.0
 11
1822.9578484158
 21
6203.4021961821
 31
0.0
  0
SPLINE
  5
347
330
1F
100
AcDbEntity
  8
0
  6
Continuous
 62
     7
370
    25
100
AcDbSpline
210
0.0
220
0.0
230
1.0
 70
     8
 71
     3
 72
     9
 73
     5
 74
     0
 42
0.00000001
 43
0.00000001
 40
0.0
 40
0.0
 40
0.0
 40
0.0
 40
0.8659604718977045
 40
1.0
 40
1.0
 40
1.0
 40
1.0
 10
1822.957848415779
 20
6194.002196182109
 30
0.0
 10
1821.669237846624
 20
6194.097571682064
 30
0.0
 10
1820.18116695774
 20
6194.207710081043
 30
0.0
 10
1818.86742481798
 20
6194.908290688137
 30
0.0
 10
1818.691331441519
 20
6195.002196182108
 30
0.0
  0
LINE
  5
348
330
1F
100
AcDbEntity
  8
0
  6
Continuous
 62
     7
370
    25
100
AcDbLine
 10
1818.6913314415
 20
6195.0021961821
 30
0.0
 11
1818.6913314415
 21
6202.4021961821
 31
0.0
  0
SPLINE
  5
349
330
1F
100
AcDbEntity
  8
0
  6
Continuous
 62
     7
370
    25
100
AcDbSpline
210
0.0
220
0.0
230
1.0
 70
     8
 71
     3
 72
     9
 73
     5
 74
     0
 42
0.00000001
 43
0.00000001
 40
0.0
 40
0.0
 40
0.0
 40
0.0
 40
0.3219001480455822
 40
1.0
 40
1.0
 40
1.0
 40
1.0
 10
1818.691331441517
 20
6202.40219618211
 30
0.0
 10
1819.124155826184
 20
6202.612096003595
 30
0.0
 10
1820.468747890817
 20
6203.264161008097
 30
0.0
 10
1821.95203300169
 20
6203.346417837958
 30
0.0
 10
1822.95784841578
 20
6203.402196182108
 30
0.0
  0
SPLINE
  5
34A
330
1F
100
AcDbEntity
  8
0
  6
Continuous
 62
     7
370
    25
100
AcDbSpline
210
0.0
220
0.0
230
1.0
 70
     8
 71
     3
 72
     9
 73
     5
 74
     0
 42
0.00000001
 43
0.00000001
 40
0.0
 40
0.0
 40
0.0
 40
0.0
 40
0.4726592242541567
 40
1.0
 40
1.0
 40
1.0
 40
1.0
 10
1818.090268986641
 20
6203.402196182108
 30
0.0
 10
1818.188555521617
 20
6203.37606332971
 30
0.0
 10
1818.396499278837
 20
6203.32077433701
 30
0.0
 10
1818.589535546422
 20
6202.719351151375
 30
0.0
 10
1818.691331441517
 20
6202.40219618211
 30
0.0
  0
LINE
  5
34B
330
1F
100
AcDbEntity
  8
0
  6
Continuous
 62
     7
370
    25
100
AcDbLine
 10
1822.9578484158
 20
6203.4021961821
 30
0.0
 11
1818.0902689866
 21
6203.4021961821
 31
0.0
  0
SPLINE
  5
34C
330
1F
100
AcDbEntity
  8
0
  6
Continuous
 62
     7
370
    25
100
AcDbSpline
210
0.0
220
0.0
230
1.0
 70
     8
 71
     3
 72
     9
 73
     5
 74
     0
 42
0.00000001
 43
0.00000001
 40
0.0
 40
0.0
 40
0.0
 40
0.0
 40
0.5843443298746508
 40
1.0
 40
1.0
 40
1.0
 40
1.0
 10
1818.691331441519
 20
6195.002196182108
 30
0.0
 10
1818.578052261099
 20
6194.658591883923
 30
0.0
 10
1818.384195360932
 20
6194.070575057849
 30
0.0
 10
1818.176569749355
 20
6194.022273145751
 30
0.0
 10
1818.09026898664
 20
6194.002196182109
 30
0.0
  0
SPLINE
  5
34D
330
1F
100
AcDbEntity
  8
0
  6
Continuous
 62
     7
370
    25
100
AcDbSpline
210
0.0
220
0.0
230
1.0
 70
     8
 71
     3
 72
     9
 73
     5
 74
     0
 42
0.00000001
 43
0.00000001
 40
0.0
 40
0.0
 40
0.0
 40
0.0
 40
0.7505156471202115
 40
1.0
 40
1.0
 40
1.0
 40
1.0
 10
1834.55527442881
 20
6202.402196182109
 30
0.0
 10
1834.442440901498
 20
6202.763269480954
 30
0.0
 10
1834.292099562522
 20
6203.244369775441
 30
0.0
 10
1834.131038036065
 20
6203.30525318179
 30
0.0
 10
1834.090855705364
 20
6203.320442639025
 30
0.0
  0
LINE
  5
34E
330
1F
100
AcDbEntity
  8
0
  6
Continuous
 62
     7
370
    25
100
AcDbLine
 10
1834.0222404803
 20
6203.4021961821
 30
0.0
 11
1830.8898199094
 21
6203.4021961821
 31
0.0
  0
SPLINE
  5
34F
330
1F
100
AcDbEntity
  8
0
  6
Continuous
 62
     7
370
    25
100
AcDbSpline
210
0.0
220
0.0
230
1.0
 70
     8
 71
     3
 72
     9
 73
     5
 74
     0
 42
0.00000001
 43
0.00000001
 40
0.0
 40
0.0
 40
0.0
 40
0.0
 40
0.322584950941727
 40
1.0
 40
1.0
 40
1.0
 40
1.0
 10
1834.090854313333
 20
6194.096129500328
 30
0.0
 10
1834.142885796293
 20
6194.116874295726
 30
0.0
 10
1834.304181240511
 20
6194.18118230308
 30
0.0
 10
1834.4538717947
 20
6194.670634141187
 30
0.0
 10
1834.555274428809
 20
6195.002196182108
 30
0.0
  0
LINE
  5
350
330
1F
100
AcDbEntity
  8
0
  6
Continuous
 62
     7
370
    25
100
AcDbLine
 10
1817.7987398154
 20
6194.2026048002
 30
0.0
 11
1817.4892065318
 21
6195.0021961821
 31
0.0
  0
LINE
  5
351
330
1F
100
AcDbEntity
  8
0
  6
Continuous
 62
     7
370
    25
100
AcDbLine
 10
1817.4892065318
 20
6195.0021961821
 30
0.0
 11
1817.4892065318
 21
6202.4021961821
 31
0.0
  0
LINE
  5
352
330
1F
100
AcDbEntity
  8
0
  6
Continuous
 62
     7
370
    25
100
AcDbLine
 10
1817.4892065318
 20
6202.4021961821
 30
0.0
 11
1817.8337455138
 21
6203.2487189419
 31
0.0
  0
LINE
  5
353
330
1F
100
AcDbEntity
  8
0
  6
Continuous
 62
     7
370
    25
100
AcDbLine
 10
1817.9537308682
 20
6203.320505827
 30
0.0
 11
1818.0902689866
 21
6203.4021961821
 31
0.0
  0
LINE
  5
354
330
1F
100
AcDbEntity
  8
0
  6
Continuous
 62
     7
370
    25
100
AcDbLine
 10
1818.0902689866
 20
6203.4021961821
 30
0.0
 11
1818.0222404803
 21
6203.4021961821
 31
0.0
  0
LINE
  5
355
330
1F
100
AcDbEntity
  8
0
  6
Continuous
 62
     7
370
    25
100
AcDbLine
 10
1728.0222404803
 20
6199.4021961821
 30
0.0
 11
1734.9504437106
 21
6199.4021961821
 31
0.0
  0
SPLINE
  5
356
330
1F
100
AcDbEntity
  8
0
  6
Continuous
 62
     7
370
    25
100
AcDbSpline
210
0.0
220
0.0
230
1.0
 70
     8
 71
     3
 72
     9
 73
     5
 74
     0
 42
0.00000001
 43
0.00000001
 40
0.0
 40
0.0
 40
0.0
 40
0.0
 40
0.5843443298746015
 40
1.0
 40
1.0
 40
1.0
 40
1.0
 10
1732.641042633804
 20
6198.402196182108
 30
0.0
 10
1733.076283695878
 20
6198.745800480295
 30
0.0
 10
1733.821120326993
 20
6199.333817306368
 30
0.0
 10
1734.618859076182
 20
6199.382119218466
 30
0.0
 10
1734.950443710561
 20
6199.402196182108
 30
0.0
  0
SPLINE
  5
357
330
1F
100
AcDbEntity
  8
0
  6
Continuous
 62
     7
370
    25
100
AcDbSpline
210
0.0
220
0.0
230
1.0
 70
     8
 71
     3
 72
     9
 73
     5
 74
     0
 42
0.00000001
 43
0.00000001
 40
0.0
 40
0.0
 40
0.0
 40
0.0
 40
0.865960471897649
 40
1.0
 40
1.0
 40
1.0
 40
1.0
 10
1728.022240480286
 20
6199.402196182108
 30
0.0
 10
1729.417251283656
 20
6199.306820682153
 30
0.0
 10
1731.028191792654
 20
6199.196682283172
 30
0.0
 10
1732.450409273775
 20
6198.496101676081
 30
0.0
 10
1732.641042633804
 20
6198.402196182108
 30
0.0
  0
LINE
  5
358
330
1F
100
AcDbEntity
  8
0
  6
Continuous
 62
     7
370
    25
100
AcDbLine
 10
1728.0222404803
 20
6199.4021961821
 30
0.0
 11
1721.09403725
 21
6199.4021961821
 31
0.0
  0
SPLINE
  5
359
330
1F
100
AcDbEntity
  8
0
  6
Continuous
 62
     7
370
    25
100
AcDbSpline
210
0.0
220
0.0
230
1.0
 70
     8
 71
     3
 72
     9
 73
     5
 74
     0
 42
0.00000001
 43
0.00000001
 40
0.0
 40
0.0
 40
0.0
 40
0.0
 40
0.3219001480456889
 40
1.0
 40
1.0
 40
1.0
 40
1.0
 10
1723.403438326769
 20
6198.402196182107
 30
0.0
 10
1723.872000906515
 20
6198.612096003593
 30
0.0
 10
1725.327615582654
 20
6199.264161008097
 30
0.0
 10
1726.933375153214
 20
6199.346417837957
 30
0.0
 10
1728.022240480286
 20
6199.402196182108
 30
0.0
  0
SPLINE
  5
35A
330
1F
100
AcDbEntity
  8
0
  6
Continuous
 62
     7
370
    25
100
AcDbSpline
210
0.0
220
0.0
230
1.0
 70
     8
 71
     3
 72
     9
 73
     5
 74
     0
 42
0.00000001
 43
0.00000001
 40
0.0
 40
0.0
 40
0.0
 40
0.0
 40
0.4726592242542998
 40
1.0
 40
1.0
 40
1.0
 40
1.0
 10
1721.094037250011
 20
6199.402196182109
 30
0.0
 10
1721.471673596889
 20
6199.37606332971
 30
0.0
 10
1722.270634724696
 20
6199.320774337009
 30
0.0
 10
1723.012318322791
 20
6198.719351151372
 30
0.0
 10
1723.403438326769
 20
6198.402196182107
 30
0.0
  0
SPLINE
  5
35B
330
1F
100
AcDbEntity
  8
0
  6
Continuous
 62
     7
370
    25
100
AcDbSpline
210
0.0
220
0.0
230
1.0
 70
     8
 71
     3
 72
     9
 73
     5
 74
     0
 42
0.00000001
 43
0.00000001
 40
0.0
 40
0.0
 40
0.0
 40
0.0
 40
0.4726592242541577
 40
1.0
 40
1.0
 40
1.0
 40
1.0
 10
1734.950443710562
 20
6190.002196182108
 30
0.0
 10
1734.572807363684
 20
6190.028329034507
 30
0.0
 10
1733.773846235876
 20
6190.083618027207
 30
0.0
 10
1733.03216263778
 20
6190.685041212843
 30
0.0
 10
1732.641042633802
 20
6191.002196182108
 30
0.0
  0
SPLINE
  5
35C
330
1F
100
AcDbEntity
  8
0
  6
Continuous
 62
     7
370
    25
100
AcDbSpline
210
0.0
220
0.0
230
1.0
 70
     8
 71
     3
 72
     9
 73
     5
 74
     0
 42
0.00000001
 43
0.00000001
 40
0.0
 40
0.0
 40
0.0
 40
0.0
 40
0.321900148045442
 40
1.0
 40
1.0
 40
1.0
 40
1.0
 10
1732.641042633802
 20
6191.002196182108
 30
0.0
 10
1732.172480054056
 20
6190.792296360623
 30
0.0
 10
1730.716865377919
 20
6190.140231356118
 30
0.0
 10
1729.111105807358
 20
6190.057974526259
 30
0.0
 10
1728.022240480287
 20
6190.002196182108
 30
0.0
  0
SPLINE
  5
35D
330
1F
100
AcDbEntity
  8
0
  6
Continuous
 62
     7
370
    25
100
AcDbSpline
210
0.0
220
0.0
230
1.0
 70
     8
 71
     3
 72
     9
 73
     5
 74
     0
 42
0.00000001
 43
0.00000001
 40
0.0
 40
0.0
 40
0.0
 40
0.0
 40
0.8659604718975985
 40
1.0
 40
1.0
 40
1.0
 40
1.0
 10
1728.022240480287
 20
6190.002196182108
 30
0.0
 10
1726.627229676916
 20
6190.097571682064
 30
0.0
 10
1725.016289167918
 20
6190.207710081045
 30
0.0
 10
1723.594071686797
 20
6190.908290688136
 30
0.0
 10
1723.403438326769
 20
6191.002196182108
 30
0.0
  0
SPLINE
  5
35E
330
1F
100
AcDbEntity
  8
0
  6
Continuous
 62
     7
370
    25
100
AcDbSpline
210
0.0
220
0.0
230
1.0
 70
     8
 71
     3
 72
     9
 73
     5
 74
     0
 42
0.00000001
 43
0.00000001
 40
0.0
 40
0.0
 40
0.0
 40
0.0
 40
0.5843443298746264
 40
1.0
 40
1.0
 40
1.0
 40
1.0
 10
1723.403438326769
 20
6191.002196182108
 30
0.0
 10
1722.968197264694
 20
6190.658591883922
 30
0.0
 10
1722.22336063358
 20
6190.07057505785
 30
0.0
 10
1721.42562188439
 20
6190.022273145751
 30
0.0
 10
1721.094037250011
 20
6190.002196182108
 30
0.0
  0
LINE
  5
35F
330
1F
100
AcDbEntity
  8
0
  6
Continuous
 62
     7
370
    25
100
AcDbLine
 10
1732.6410426338
 20
6191.0021961821
 30
0.0
 11
1732.6410426338
 21
6198.4021961821
 31
0.0
  0
LINE
  5
360
330
1F
100
AcDbEntity
  8
0
  6
Continuous
 62
     7
370
    25
100
AcDbLine
 10
1723.4034383268
 20
6191.0021961821
 30
0.0
 11
1723.4034383268
 21
6198.4021961821
 31
0.0
  0
SPLINE
  5
361
330
1F
100
AcDbEntity
  8
0
  6
Continuous
 62
     7
370
    25
100
AcDbSpline
210
0.0
220
0.0
230
1.0
 70
     8
 71
     3
 72
     9
 73
     5
 74
     0
 42
0.00000001
 43
0.00000001
 40
0.0
 40
0.0
 40
0.0
 40
0.0
 40
0.4726592242541464
 40
1.0
 40
1.0
 40
1.0
 40
1.0
 10
1734.950443710561
 20
6199.402196182108
 30
0.0
 10
1735.32808005744
 20
6199.376063329709
 30
0.0
 10
1736.127041185247
 20
6199.320774337009
 30
0.0
 10
1736.868724783342
 20
6198.719351151373
 30
0.0
 10
1737.25984478732
 20
6198.402196182108
 30
0.0
  0
LINE
  5
362
330
1F
100
AcDbEntity
  8
0
  6
Continuous
 62
     7
370
    25
100
AcDbLine
 10
1737.2598447873
 20
6191.0021961821
 30
0.0
 11
1737.2598447873
 21
6198.4021961821
 31
0.0
  0
SPLINE
  5
363
330
1F
100
AcDbEntity
  8
0
  6
Continuous
 62
     7
370
    25
100
AcDbSpline
210
0.0
220
0.0
230
1.0
 70
     8
 71
     3
 72
     9
 73
     5
 74
     0
 42
0.00000001
 43
0.00000001
 40
0.0
 40
0.0
 40
0.0
 40
0.0
 40
0.5843443298745876
 40
1.0
 40
1.0
 40
1.0
 40
1.0
 10
1737.25984478732
 20
6191.002196182108
 30
0.0
 10
1736.824603725246
 20
6190.658591883922
 30
0.0
 10
1736.079767094131
 20
6190.070575057849
 30
0.0
 10
1735.282028344941
 20
6190.022273145751
 30
0.0
 10
1734.950443710562
 20
6190.002196182108
 30
0.0
  0
SPLINE
  5
364
330
1F
100
AcDbEntity
  8
0
  6
Continuous
 62
     7
370
    25
100
AcDbSpline
210
0.0
220
0.0
230
1.0
 70
     8
 71
     3
 72
     9
 73
     5
 74
     0
 42
0.00000001
 43
0.00000001
 40
0.0
 40
0.0
 40
0.0
 40
0.0
 40
0.4726592242540475
 40
0.9999999999999999
 40
0.9999999999999999
 40
0.9999999999999999
 40
0.9999999999999999
 10
1721.094037250011
 20
6190.002196182108
 30
0.0
 10
1720.716400903133
 20
6190.028329034508
 30
0.0
 10
1719.917439775327
 20
6190.083618027207
 30
0.0
 10
1719.175756177231
 20
6190.685041212843
 30
0.0
 10
1718.784636173252
 20
6191.002196182108
 30
0.0
  0
LINE
  5
365
330
1F
100
AcDbEntity
  8
0
  6
Continuous
 62
     7
370
    25
100
AcDbLine
 10
1718.7846361733
 20
6191.0021961821
 30
0.0
 11
1718.7846361733
 21
6198.4021961821
 31
0.0
  0
SPLINE
  5
366
330
1F
100
AcDbEntity
  8
0
  6
Continuous
 62
     7
370
    25
100
AcDbSpline
210
0.0
220
0.0
230
1.0
 70
     8
 71
     3
 72
     9
 73
     5
 74
     0
 42
0.00000001
 43
0.00000001
 40
0.0
 40
0.0
 40
0.0
 40
0.0
 40
0.5843443298745883
 40
0.9999999999999999
 40
0.9999999999999999
 40
0.9999999999999999
 40
0.9999999999999999
 10
1718.784636173252
 20
6198.402196182108
 30
0.0
 10
1719.219877235326
 20
6198.745800480295
 30
0.0
 10
1719.96471386644
 20
6199.333817306368
 30
0.0
 10
1720.762452615631
 20
6199.382119218467
 30
0.0
 10
1721.094037250011
 20
6199.402196182109
 30
0.0
  0
LINE
  5
367
330
1F
100
AcDbEntity
  8
0
  6
Continuous
 62
     7
370
    25
100
AcDbLine
 10
1736.0222404803
 20
6199.4021961821
 30
0.0
 11
1734.9504437106
 21
6199.4021961821
 31
0.0
  0
LINE
  5
368
330
1F
100
AcDbEntity
  8
0
  6
Continuous
 62
     7
370
    25
100
AcDbLine
 10
1721.09403725
 20
6199.4021961821
 30
0.0
 11
1720.0222404803
 21
6199.4021961821
 31
0.0
  0
SPLINE
  5
369
330
1F
100
AcDbEntity
  8
0
  6
Continuous
 62
     7
370
    25
100
AcDbSpline
210
0.0
220
0.0
230
1.0
 70
     8
 71
     3
 72
     9
 73
     5
 74
     0
 42
0.00000001
 43
0.00000001
 40
0.0
 40
0.0
 40
0.0
 40
0.0
 40
0.3722772596760524
 40
1.0
 40
1.0
 40
1.0
 40
1.0
 10
1793.022240480285
 20
6247.602196182109
 30
0.0
 10
1793.838547415124
 20
6247.574017111271
 30
0.0
 10
1796.031286599754
 20
6247.498323337059
 30
0.0
 10
1798.175972420041
 20
6246.947782920838
 30
0.0
 10
1799.522240480285
 20
6246.602196182108
 30
0.0
  0
LINE
  5
36A
330
1F
100
AcDbEntity
  8
0
  6
Continuous
 62
     7
370
    25
100
AcDbLine
 10
1799.5222404803
 20
6235.6021961821
 30
0.0
 11
1799.5222404803
 21
6246.6021961821
 31
0.0
  0
LINE
  5
36B
330
1F
100
AcDbEntity
  8
0
  6
Continuous
 62
     7
370
    25
100
AcDbLine
 10
1799.5222404803
 20
6235.6021961821
 30
0.0
 11
1793.0222404803
 21
6234.6021961821
 31
0.0
  0
SPLINE
  5
36C
330
1F
100
AcDbEntity
  8
0
  6
Continuous
 62
     7
370
    25
100
AcDbSpline
210
0.0
220
0.0
230
1.0
 70
     8
 71
     3
 72
     9
 73
     5
 74
     0
 42
0.00000001
 43
0.00000001
 40
0.0
 40
0.0
 40
0.0
 40
0.0
 40
0.3722772596761814
 40
1.0
 40
1.0
 40
1.0
 40
1.0
 10
1793.022240480285
 20
6234.602196182108
 30
0.0
 10
1792.205933545447
 20
6234.630375252947
 30
0.0
 10
1790.013194360818
 20
6234.706069027157
 30
0.0
 10
1787.86850854053
 20
6235.256609443378
 30
0.0
 10
1786.522240480285
 20
6235.602196182108
 30
0.0
  0
LINE
  5
36D
330
1F
100
AcDbEntity
  8
0
  6
Continuous
 62
     7
370
    25
100
AcDbLine
 10
1786.5222404803
 20
6235.6021961821
 30
0.0
 11
1786.5222404803
 21
6246.6021961821
 31
0.0
  0
LINE
  5
36E
330
1F
100
AcDbEntity
  8
0
  6
Continuous
 62
     7
370
    25
100
AcDbLine
 10
1786.5222404803
 20
6246.6021961821
 30
0.0
 11
1793.0222404803
 21
6247.6021961821
 31
0.0
  0
SPLINE
  5
36F
330
1F
100
AcDbEntity
  8
0
  6
Continuous
 62
     7
370
    25
100
AcDbSpline
210
0.0
220
0.0
230
1.0
 70
     8
 71
     3
 72
     9
 73
     5
 74
     0
 42
0.00000001
 43
0.00000001
 40
0.0
 40
0.0
 40
0.0
 40
0.0
 40
0.372277259676211
 40
1.0
 40
1.0
 40
1.0
 40
1.0
 10
1780.022240480286
 20
6247.602196182109
 30
0.0
 10
1780.838547415124
 20
6247.574017111271
 30
0.0
 10
1783.031286599753
 20
6247.498323337059
 30
0.0
 10
1785.175972420041
 20
6246.947782920837
 30
0.0
 10
1786.522240480286
 20
6246.602196182108
 30
0.0
  0
LINE
  5
370
330
1F
100
AcDbEntity
  8
0
  6
Continuous
 62
     7
370
    25
100
AcDbLine
 10
1786.5222404803
 20
6235.6021961821
 30
0.0
 11
1780.0222404803
 21
6234.6021961821
 31
0.0
  0
SPLINE
  5
371
330
1F
100
AcDbEntity
  8
0
  6
Continuous
 62
     7
370
    25
100
AcDbSpline
210
0.0
220
0.0
230
1.0
 70
     8
 71
     3
 72
     9
 73
     5
 74
     0
 42
0.00000001
 43
0.00000001
 40
0.0
 40
0.0
 40
0.0
 40
0.0
 40
0.3722772596761831
 40
1.0
 40
1.0
 40
1.0
 40
1.0
 10
1780.022240480286
 20
6234.602196182108
 30
0.0
 10
1779.205933545447
 20
6234.630375252947
 30
0.0
 10
1777.013194360818
 20
6234.706069027156
 30
0.0
 10
1774.86850854053
 20
6235.256609443378
 30
0.0
 10
1773.522240480285
 20
6235.602196182108
 30
0.0
  0
LINE
  5
372
330
1F
100
AcDbEntity
  8
0
  6
Continuous
 62
     7
370
    25
100
AcDbLine
 10
1773.5222404803
 20
6235.6021961821
 30
0.0
 11
1773.5222404803
 21
6246.6021961821
 31
0.0
  0
LINE
  5
373
330
1F
100
AcDbEntity
  8
0
  6
Continuous
 62
     7
370
    25
100
AcDbLine
 10
1773.5222404803
 20
6246.6021961821
 30
0.0
 11
1780.0222404803
 21
6247.6021961821
 31
0.0
  0
LINE
  5
374
330
1F
100
AcDbEntity
  8
0
  6
Continuous
 62
     7
370
    25
100
AcDbLine
 10
1793.0222404803
 20
6247.6021961821
 30
0.0
 11
1780.0222404803
 21
6247.6021961821
 31
0.0
  0
SPLINE
  5
375
330
1F
100
AcDbEntity
  8
0
  6
Continuous
 62
     7
370
    25
100
AcDbSpline
210
0.0
220
0.0
230
1.0
 70
    24
 71
     3
 72
     9
 73
     5
 74
     0
 42
0.00000001
 43
0.00000001
 40
0.0
 40
0.0
 40
0.0
 40
0.0
 40
0.5156102819445848
 40
0.9999999999999999
 40
0.9999999999999999
 40
0.9999999999999999
 40
0.9999999999999999
 10
1773.522240480286
 20
6247.602196182109
 30
0.0
 10
1773.522240480285
 20
6247.548219607768
 30
0.0
 10
1773.522240480285
 20
6247.443534778491
 30
0.0
 10
1773.522240480285
 20
6246.876743870316
 30
0.0
 10
1773.522240480285
 20
6246.602196182108
 30
0.0
  0
LINE
  5
376
330
1F
100
AcDbEntity
  8
0
  6
Continuous
 62
     7
370
    25
100
AcDbLine
 10
1780.0222404803
 20
6247.6021961821
 30
0.0
 11
1773.5222404803
 21
6247.6021961821
 31
0.0
  0
SPLINE
  5
377
330
1F
100
AcDbEntity
  8
0
  6
Continuous
 62
     7
370
    25
100
AcDbSpline
210
0.0
220
0.0
230
1.0
 70
    24
 71
     3
 72
     9
 73
     5
 74
     0
 42
0.00000001
 43
0.00000001
 40
0.0
 40
0.0
 40
0.0
 40
0.0
 40
0.484389718055651
 40
0.9999999999999999
 40
0.9999999999999999
 40
0.9999999999999999
 40
0.9999999999999999
 10
1773.522240480285
 20
6235.602196182108
 30
0.0
 10
1773.522240480285
 20
6235.327648493901
 30
0.0
 10
1773.522240480285
 20
6234.760857585725
 30
0.0
 10
1773.522240480285
 20
6234.656172756448
 30
0.0
 10
1773.522240480285
 20
6234.602196182109
 30
0.0
  0
SPLINE
  5
378
330
1F
100
AcDbEntity
  8
0
  6
Continuous
 62
     7
370
    25
100
AcDbSpline
210
0.0
220
0.0
230
1.0
 70
    24
 71
     3
 72
     9
 73
     5
 74
     0
 42
0.00000001
 43
0.00000001
 40
0.0
 40
0.0
 40
0.0
 40
0.0
 40
0.5156102819444079
 40
0.9999999999999999
 40
0.9999999999999999
 40
0.9999999999999999
 40
0.9999999999999999
 10
1799.522240480285
 20
6234.602196182108
 30
0.0
 10
1799.522240480285
 20
6234.656172756448
 30
0.0
 10
1799.522240480285
 20
6234.760857585725
 30
0.0
 10
1799.522240480285
 20
6235.327648493901
 30
0.0
 10
1799.522240480285
 20
6235.602196182108
 30
0.0
  0
SPLINE
  5
379
330
1F
100
AcDbEntity
  8
0
  6
Continuous
 62
     7
370
    25
100
AcDbSpline
210
0.0
220
0.0
230
1.0
 70
    24
 71
     3
 72
     9
 73
     5
 74
     0
 42
0.00000001
 43
0.00000001
 40
0.0
 40
0.0
 40
0.0
 40
0.0
 40
0.4843897180554445
 40
1.0
 40
1.0
 40
1.0
 40
1.0
 10
1799.522240480285
 20
6246.602196182108
 30
0.0
 10
1799.522240480285
 20
6246.876743870316
 30
0.0
 10
1799.522240480285
 20
6247.443534778491
 30
0.0
 10
1799.522240480285
 20
6247.548219607768
 30
0.0
 10
1799.522240480285
 20
6247.602196182108
 30
0.0
  0
LINE
  5
37A
330
1F
100
AcDbEntity
  8
0
  6
Continuous
 62
     7
370
    25
100
AcDbLine
 10
1799.5222404803
 20
6247.6021961821
 30
0.0
 11
1793.0222404803
 21
6247.6021961821
 31
0.0
  0
SPLINE
  5
37B
330
1F
100
AcDbEntity
  8
0
  6
Continuous
 62
     7
370
    25
100
AcDbSpline
210
0.0
220
0.0
230
1.0
 70
     8
 71
     3
 72
     9
 73
     5
 74
     0
 42
0.00000001
 43
0.00000001
 40
0.0
 40
0.0
 40
0.0
 40
0.0
 40
0.372277259676211
 40
1.0
 40
1.0
 40
1.0
 40
1.0
 10
2199.022240480286
 20
6247.602196182109
 30
0.0
 10
2199.838547415124
 20
6247.574017111271
 30
0.0
 10
2202.031286599753
 20
6247.498323337059
 30
0.0
 10
2204.175972420041
 20
6246.947782920837
 30
0.0
 10
2205.522240480286
 20
6246.602196182108
 30
0.0
  0
LINE
  5
37C
330
1F
100
AcDbEntity
  8
0
  6
Continuous
 62
     7
370
    25
100
AcDbLine
 10
2205.5222404803
 20
6235.6021961821
 30
0.0
 11
2205.5222404803
 21
6246.6021961821
 31
0.0
  0
LINE
  5
37D
330
1F
100
AcDbEntity
  8
0
  6
Continuous
 62
     7
370
    25
100
AcDbLine
 10
2205.5222404803
 20
6235.6021961821
 30
0.0
 11
2199.0222404803
 21
6234.6021961821
 31
0.0
  0
SPLINE
  5
37E
330
1F
100
AcDbEntity
  8
0
  6
Continuous
 62
     7
370
    25
100
AcDbSpline
210
0.0
220
0.0
230
1.0
 70
     8
 71
     3
 72
     9
 73
     5
 74
     0
 42
0.00000001
 43
0.00000001
 40
0.0
 40
0.0
 40
0.0
 40
0.0
 40
0.3722772596761831
 40
1.0
 40
1.0
 40
1.0
 40
1.0
 10
2199.022240480286
 20
6234.602196182108
 30
0.0
 10
2198.205933545447
 20
6234.630375252947
 30
0.0
 10
2196.013194360818
 20
6234.706069027156
 30
0.0
 10
2193.86850854053
 20
6235.256609443378
 30
0.0
 10
2192.522240480285
 20
6235.602196182108
 30
0.0
  0
LINE
  5
37F
330
1F
100
AcDbEntity
  8
0
  6
Continuous
 62
     7
370
    25
100
AcDbLine
 10
2192.5222404803
 20
6235.6021961821
 30
0.0
 11
2192.5222404803
 21
6246.6021961821
 31
0.0
  0
LINE
  5
380
330
1F
100
AcDbEntity
  8
0
  6
Continuous
 62
     7
370
    25
100
AcDbLine
 10
2192.5222404803
 20
6246.6021961821
 30
0.0
 11
2199.0222404803
 21
6247.6021961821
 31
0.0
  0
SPLINE
  5
381
330
1F
100
AcDbEntity
  8
0
  6
Continuous
 62
     7
370
    25
100
AcDbSpline
210
0.0
220
0.0
230
1.0
 70
     8
 71
     3
 72
     9
 73
     5
 74
     0
 42
0.00000001
 43
0.00000001
 40
0.0
 40
0.0
 40
0.0
 40
0.0
 40
0.3722772596760524
 40
1.0
 40
1.0
 40
1.0
 40
1.0
 10
2212.022240480286
 20
6247.602196182109
 30
0.0
 10
2212.838547415124
 20
6247.574017111271
 30
0.0
 10
2215.031286599754
 20
6247.498323337059
 30
0.0
 10
2217.175972420041
 20
6246.947782920838
 30
0.0
 10
2218.522240480286
 20
6246.602196182108
 30
0.0
  0
LINE
  5
382
330
1F
100
AcDbEntity
  8
0
  6
Continuous
 62
     7
370
    25
100
AcDbLine
 10
2218.5222404803
 20
6235.6021961821
 30
0.0
 11
2218.5222404803
 21
6246.6021961821
 31
0.0
  0
LINE
  5
383
330
1F
100
AcDbEntity
  8
0
  6
Continuous
 62
     7
370
    25
100
AcDbLine
 10
2218.5222404803
 20
6235.6021961821
 30
0.0
 11
2212.0222404803
 21
6234.6021961821
 31
0.0
  0
SPLINE
  5
384
330
1F
100
AcDbEntity
  8
0
  6
Continuous
 62
     7
370
    25
100
AcDbSpline
210
0.0
220
0.0
230
1.0
 70
     8
 71
     3
 72
     9
 73
     5
 74
     0
 42
0.00000001
 43
0.00000001
 40
0.0
 40
0.0
 40
0.0
 40
0.0
 40
0.3722772596761814
 40
1.0
 40
1.0
 40
1.0
 40
1.0
 10
2212.022240480286
 20
6234.602196182108
 30
0.0
 10
2211.205933545447
 20
6234.630375252947
 30
0.0
 10
2209.013194360818
 20
6234.706069027157
 30
0.0
 10
2206.86850854053
 20
6235.256609443378
 30
0.0
 10
2205.522240480286
 20
6235.602196182108
 30
0.0
  0
LINE
  5
385
330
1F
100
AcDbEntity
  8
0
  6
Continuous
 62
     7
370
    25
100
AcDbLine
 10
2205.5222404803
 20
6246.6021961821
 30
0.0
 11
2212.0222404803
 21
6247.6021961821
 31
0.0
  0
LINE
  5
386
330
1F
100
AcDbEntity
  8
0
  6
Continuous
 62
     7
370
    25
100
AcDbLine
 10
2212.0222404803
 20
6247.6021961821
 30
0.0
 11
2199.0222404803
 21
6247.6021961821
 31
0.0
  0
SPLINE
  5
387
330
1F
100
AcDbEntity
  8
0
  6
Continuous
 62
     7
370
    25
100
AcDbSpline
210
0.0
220
0.0
230
1.0
 70
    24
 71
     3
 72
     9
 73
     5
 74
     0
 42
0.00000001
 43
0.00000001
 40
0.0
 40
0.0
 40
0.0
 40
0.0
 40
0.5156102819445848
 40
0.9999999999999999
 40
0.9999999999999999
 40
0.9999999999999999
 40
0.9999999999999999
 10
2192.522240480286
 20
6247.602196182109
 30
0.0
 10
2192.522240480285
 20
6247.548219607768
 30
0.0
 10
2192.522240480285
 20
6247.443534778491
 30
0.0
 10
2192.522240480285
 20
6246.876743870316
 30
0.0
 10
2192.522240480285
 20
6246.602196182108
 30
0.0
  0
LINE
  5
388
330
1F
100
AcDbEntity
  8
0
  6
Continuous
 62
     7
370
    25
100
AcDbLine
 10
2199.0222404803
 20
6247.6021961821
 30
0.0
 11
2192.5222404803
 21
6247.6021961821
 31
0.0
  0
SPLINE
  5
389
330
1F
100
AcDbEntity
  8
0
  6
Continuous
 62
     7
370
    25
100
AcDbSpline
210
0.0
220
0.0
230
1.0
 70
    24
 71
     3
 72
     9
 73
     5
 74
     0
 42
0.00000001
 43
0.00000001
 40
0.0
 40
0.0
 40
0.0
 40
0.0
 40
0.484389718055651
 40
0.9999999999999999
 40
0.9999999999999999
 40
0.9999999999999999
 40
0.9999999999999999
 10
2192.522240480285
 20
6235.602196182108
 30
0.0
 10
2192.522240480285
 20
6235.327648493901
 30
0.0
 10
2192.522240480285
 20
6234.760857585725
 30
0.0
 10
2192.522240480285
 20
6234.656172756448
 30
0.0
 10
2192.522240480285
 20
6234.602196182109
 30
0.0
  0
SPLINE
  5
38A
330
1F
100
AcDbEntity
  8
0
  6
Continuous
 62
     7
370
    25
100
AcDbSpline
210
0.0
220
0.0
230
1.0
 70
    24
 71
     3
 72
     9
 73
     5
 74
     0
 42
0.00000001
 43
0.00000001
 40
0.0
 40
0.0
 40
0.0
 40
0.0
 40
0.5156102819444079
 40
0.9999999999999999
 40
0.9999999999999999
 40
0.9999999999999999
 40
0.9999999999999999
 10
2218.522240480286
 20
6234.602196182108
 30
0.0
 10
2218.522240480286
 20
6234.656172756448
 30
0.0
 10
2218.522240480286
 20
6234.760857585725
 30
0.0
 10
2218.522240480286
 20
6235.327648493901
 30
0.0
 10
2218.522240480286
 20
6235.602196182108
 30
0.0
  0
SPLINE
  5
38B
330
1F
100
AcDbEntity
  8
0
  6
Continuous
 62
     7
370
    25
100
AcDbSpline
210
0.0
220
0.0
230
1.0
 70
    24
 71
     3
 72
     9
 73
     5
 74
     0
 42
0.00000001
 43
0.00000001
 40
0.0
 40
0.0
 40
0.0
 40
0.0
 40
0.4843897180554445
 40
1.0
 40
1.0
 40
1.0
 40
1.0
 10
2218.522240480286
 20
6246.602196182108
 30
0.0
 10
2218.522240480286
 20
6246.876743870316
 30
0.0
 10
2218.522240480286
 20
6247.443534778491
 30
0.0
 10
2218.522240480286
 20
6247.548219607768
 30
0.0
 10
2218.522240480286
 20
6247.602196182108
 30
0.0
  0
LINE
  5
38C
330
1F
100
AcDbEntity
  8
0
  6
Continuous
 62
     7
370
    25
100
AcDbLine
 10
2218.5222404803
 20
6247.6021961821
 30
0.0
 11
2212.0222404803
 21
6247.6021961821
 31
0.0
  0
LINE
  5
38D
330
1F
100
AcDbEntity
  8
0
  6
Continuous
 62
     7
370
    25
100
AcDbLine
 10
1796.8209072915
 20
6140.6021961821
 30
0.0
 11
1802.3146083253
 21
6140.6021961821
 31
0.0
  0
LINE
  5
38E
330
1F
100
AcDbEntity
  8
0
  6
Continuous
 62
     7
370
    25
100
AcDbLine
 10
1796.8209072915
 20
6140.6021961821
 30
0.0
 11
1794.0829302511
 21
6141.6021961821
 31
0.0
  0
LINE
  5
38F
330
1F
100
AcDbEntity
  8
0
  6
Continuous
 62
     7
370
    25
100
AcDbLine
 10
1794.0829302511
 20
6156.6021961821
 30
0.0
 11
1794.0829302511
 21
6141.6021961821
 31
0.0
  0
LINE
  5
390
330
1F
100
AcDbEntity
  8
0
  6
Continuous
 62
     7
370
    25
100
AcDbLine
 10
1805.0525853657
 20
6156.6021961821
 30
0.0
 11
1805.0525853657
 21
6141.6021961821
 31
0.0
  0
LINE
  5
391
330
1F
100
AcDbEntity
  8
0
  6
Continuous
 62
     7
370
    25
100
AcDbLine
 10
1805.0525853657
 20
6141.6021961821
 30
0.0
 11
1802.3146083253
 21
6140.6021961821
 31
0.0
  0
LINE
  5
392
330
1F
100
AcDbEntity
  8
0
  6
Continuous
 62
     7
370
    25
100
AcDbLine
 10
1829.7298726353
 20
6140.6021961821
 30
0.0
 11
1826.9918955949
 21
6141.6021961821
 31
0.0
  0
LINE
  5
393
330
1F
100
AcDbEntity
  8
0
  6
Continuous
 62
     7
370
    25
100
AcDbLine
 10
1821.515941514
 20
6140.6021961821
 30
0.0
 11
1829.7298726353
 21
6140.6021961821
 31
0.0
  0
SPLINE
  5
394
330
1F
100
AcDbEntity
  8
0
  6
Continuous
 62
     7
370
    25
100
AcDbSpline
210
0.0
220
0.0
230
1.0
 70
     8
 71
     3
 72
     9
 73
     5
 74
     0
 42
0.00000001
 43
0.00000001
 40
0.0
 40
0.0
 40
0.0
 40
0.0
 40
0.6091707704042255
 40
1.0
 40
1.0
 40
1.0
 40
1.0
 10
1826.991895594889
 20
6141.60219618211
 30
0.0
 10
1825.897363810599
 20
6141.295294130166
 30
0.0
 10
1824.10060691177
 20
6140.79149114609
 30
0.0
 10
1822.242244042533
 20
6140.65538891301
 30
0.0
 10
1821.515941514039
 20
6140.602196182109
 30
0.0
  0
LINE
  5
395
330
1F
100
AcDbEntity
  8
0
  6
Continuous
 62
     7
370
    25
100
AcDbLine
 10
1826.9918955949
 20
6156.6021961821
 30
0.0
 11
1826.9918955949
 21
6141.6021961821
 31
0.0
  0
LINE
  5
396
330
1F
100
AcDbEntity
  8
0
  6
Continuous
 62
     7
370
    25
100
AcDbLine
 10
1810.5285394465
 20
6140.6021961821
 30
0.0
 11
1821.515941514
 21
6140.6021961821
 31
0.0
  0
SPLINE
  5
397
330
1F
100
AcDbEntity
  8
0
  6
Continuous
 62
     7
370
    25
100
AcDbSpline
210
0.0
220
0.0
230
1.0
 70
     8
 71
     3
 72
     9
 73
     5
 74
     0
 42
0.00000001
 43
0.00000001
 40
0.0
 40
0.0
 40
0.0
 40
0.0
 40
0.6224528575934102
 40
1.0
 40
1.0
 40
1.0
 40
1.0
 10
1810.528539446532
 20
6140.602196182109
 30
0.0
 10
1809.369293449012
 20
6140.695055747713
 30
0.0
 10
1807.506909842963
 20
6140.844239038417
 30
0.0
 10
1805.725247058637
 20
6141.394461328719
 30
0.0
 10
1805.052585365683
 20
6141.60219618211
 30
0.0
  0
LINE
  5
398
330
1F
100
AcDbEntity
  8
0
  6
Continuous
 62
     7
370
    25
100
AcDbLine
 10
1829.7298726353
 20
6140.6021961821
 30
0.0
 11
1835.2235736691
 21
6140.6021961821
 31
0.0
  0
LINE
  5
399
330
1F
100
AcDbEntity
  8
0
  6
Continuous
 62
     7
370
    25
100
AcDbLine
 10
1837.9615507095
 20
6156.6021961821
 30
0.0
 11
1837.9615507095
 21
6141.6021961821
 31
0.0
  0
LINE
  5
39A
330
1F
100
AcDbEntity
  8
0
  6
Continuous
 62
     7
370
    25
100
AcDbLine
 10
1837.9615507095
 20
6141.6021961821
 30
0.0
 11
1835.2235736691
 21
6140.6021961821
 31
0.0
  0
LINE
  5
39B
330
1F
100
AcDbEntity
  8
0
  6
Continuous
 62
     7
370
    25
100
AcDbLine
 10
1802.3146083253
 20
6140.6021961821
 30
0.0
 11
1810.5285394465
 21
6140.6021961821
 31
0.0
  0
LINE
  5
39C
330
1F
100
AcDbEntity
  8
0
  6
Continuous
 62
     7
370
    25
100
AcDbLine
 10
2156.8209072915
 20
6140.6021961821
 30
0.0
 11
2162.3146083253
 21
6140.6021961821
 31
0.0
  0
LINE
  5
39D
330
1F
100
AcDbEntity
  8
0
  6
Continuous
 62
     7
370
    25
100
AcDbLine
 10
2156.8209072915
 20
6140.6021961821
 30
0.0
 11
2154.0829302511
 21
6141.6021961821
 31
0.0
  0
LINE
  5
39E
330
1F
100
AcDbEntity
  8
0
  6
Continuous
 62
     7
370
    25
100
AcDbLine
 10
2154.0829302511
 20
6156.6021961821
 30
0.0
 11
2154.0829302511
 21
6141.6021961821
 31
0.0
  0
LINE
  5
39F
330
1F
100
AcDbEntity
  8
0
  6
Continuous
 62
     7
370
    25
100
AcDbLine
 10
2165.0525853657
 20
6156.6021961821
 30
0.0
 11
2165.0525853657
 21
6141.6021961821
 31
0.0
  0
LINE
  5
3A0
330
1F
100
AcDbEntity
  8
0
  6
Continuous
 62
     7
370
    25
100
AcDbLine
 10
2165.0525853657
 20
6141.6021961821
 30
0.0
 11
2162.3146083253
 21
6140.6021961821
 31
0.0
  0
LINE
  5
3A1
330
1F
100
AcDbEntity
  8
0
  6
Continuous
 62
     7
370
    25
100
AcDbLine
 10
2186.9918955949
 20
6156.6021961821
 30
0.0
 11
2186.9918955949
 21
6141.6021961821
 31
0.0
  0
SPLINE
  5
3A2
330
1F
100
AcDbEntity
  8
0
  6
Continuous
 62
     7
370
    25
100
AcDbSpline
210
0.0
220
0.0
230
1.0
 70
     8
 71
     3
 72
     9
 73
     5
 74
     0
 42
0.00000001
 43
0.00000001
 40
0.0
 40
0.0
 40
0.0
 40
0.0
 40
0.6091707704042255
 40
1.0
 40
1.0
 40
1.0
 40
1.0
 10
2186.991895594888
 20
6141.60219618211
 30
0.0
 10
2185.897363810599
 20
6141.295294130166
 30
0.0
 10
2184.10060691177
 20
6140.79149114609
 30
0.0
 10
2182.242244042533
 20
6140.65538891301
 30
0.0
 10
2181.515941514039
 20
6140.602196182109
 30
0.0
  0
LINE
  5
3A3
330
1F
100
AcDbEntity
  8
0
  6
Continuous
 62
     7
370
    25
100
AcDbLine
 10
2170.5285394465
 20
6140.6021961821
 30
0.0
 11
2181.515941514
 21
6140.6021961821
 31
0.0
  0
SPLINE
  5
3A4
330
1F
100
AcDbEntity
  8
0
  6
Continuous
 62
     7
370
    25
100
AcDbSpline
210
0.0
220
0.0
230
1.0
 70
     8
 71
     3
 72
     9
 73
     5
 74
     0
 42
0.00000001
 43
0.00000001
 40
0.0
 40
0.0
 40
0.0
 40
0.0
 40
0.6224528575934102
 40
1.0
 40
1.0
 40
1.0
 40
1.0
 10
2170.528539446532
 20
6140.602196182109
 30
0.0
 10
2169.369293449012
 20
6140.695055747713
 30
0.0
 10
2167.506909842963
 20
6140.844239038417
 30
0.0
 10
2165.725247058637
 20
6141.394461328719
 30
0.0
 10
2165.052585365683
 20
6141.60219618211
 30
0.0
  0
LINE
  5
3A5
330
1F
100
AcDbEntity
  8
0
  6
Continuous
 62
     7
370
    25
100
AcDbLine
 10
2189.7298726353
 20
6140.6021961821
 30
0.0
 11
2186.9918955949
 21
6141.6021961821
 31
0.0
  0
LINE
  5
3A6
330
1F
100
AcDbEntity
  8
0
  6
Continuous
 62
     7
370
    25
100
AcDbLine
 10
2181.515941514
 20
6140.6021961821
 30
0.0
 11
2189.7298726353
 21
6140.6021961821
 31
0.0
  0
LINE
  5
3A7
330
1F
100
AcDbEntity
  8
0
  6
Continuous
 62
     7
370
    25
100
AcDbLine
 10
2162.3146083253
 20
6140.6021961821
 30
0.0
 11
2170.5285394465
 21
6140.6021961821
 31
0.0
  0
LINE
  5
3A8
330
1F
100
AcDbEntity
  8
0
  6
Continuous
 62
     7
370
    25
100
AcDbLine
 10
2197.9615507095
 20
6156.6021961821
 30
0.0
 11
2197.9615507095
 21
6141.6021961821
 31
0.0
  0
LINE
  5
3A9
330
1F
100
AcDbEntity
  8
0
  6
Continuous
 62
     7
370
    25
100
AcDbLine
 10
2197.9615507095
 20
6141.6021961821
 30
0.0
 11
2195.2235736691
 21
6140.6021961821
 31
0.0
  0
LINE
  5
3AA
330
1F
100
AcDbEntity
  8
0
  6
Continuous
 62
     7
370
    25
100
AcDbLine
 10
2189.7298726353
 20
6140.6021961821
 30
0.0
 11
2195.2235736691
 21
6140.6021961821
 31
0.0
  0
LINE
  5
3AB
330
1F
100
AcDbEntity
  8
0
  6
Continuous
 62
     7
370
    25
100
AcDbLine
 10
2195.2235736691
 20
6140.6021961821
 30
0.0
 11
2195.8005303722
 21
6140.6021961821
 31
0.0
  0
LINE
  5
3AC
330
1F
100
AcDbEntity
  8
0
  6
Continuous
 62
     7
370
    25
100
AcDbLine
 10
1733.0222404803
 20
6226.6021961821
 30
0.0
 11
1806.0222404803
 21
6226.6021961821
 31
0.0
  0
LINE
  5
3AD
330
1F
100
AcDbEntity
  8
0
  6
Continuous
 62
     7
370
    25
100
AcDbLine
 10
1732.5222404803
 20
6228.6021961821
 30
0.0
 11
1732.5222404803
 21
6230.6021961821
 31
0.0
  0
LINE
  5
3AE
330
1F
100
AcDbEntity
  8
0
  6
Continuous
 62
     7
370
    25
100
AcDbLine
 10
1732.5222404803
 20
6230.6021961821
 30
0.0
 11
1806.0222404803
 21
6230.6021961821
 31
0.0
  0
LINE
  5
3AF
330
1F
100
AcDbEntity
  8
0
  6
Continuous
 62
     7
370
    25
100
AcDbLine
 10
1946.5222404803
 20
6224.6021961821
 30
0.0
 11
1946.5222404803
 21
6220.6021961821
 31
0.0
  0
LINE
  5
3B0
330
1F
100
AcDbEntity
  8
0
  6
Continuous
 62
     7
370
    25
100
AcDbLine
 10
2186.0222404803
 20
6226.6021961821
 30
0.0
 11
2259.0222404795
 21
6226.6021961821
 31
0.0
  0
LINE
  5
3B1
330
1F
100
AcDbEntity
  8
0
  6
Continuous
 62
     7
370
    25
100
AcDbLine
 10
2259.5222404803
 20
6228.6021961821
 30
0.0
 11
2259.5222404803
 21
6230.6021961821
 31
0.0
  0
LINE
  5
3B2
330
1F
100
AcDbEntity
  8
0
  6
Continuous
 62
     7
370
    25
100
AcDbLine
 10
2186.0222404803
 20
6230.6021961821
 30
0.0
 11
2259.5222404803
 21
6230.6021961821
 31
0.0
  0
LINE
  5
3B3
330
1F
100
AcDbEntity
  8
0
  6
Continuous
 62
     7
370
    25
100
AcDbLine
 10
2045.5222404803
 20
6220.6021961821
 30
0.0
 11
2045.5222404803
 21
6224.6021961821
 31
0.0
  0
LINE
  5
3B4
330
1F
100
AcDbEntity
  8
0
  6
Continuous
 62
     7
370
    25
100
AcDbLine
 10
1829.5222404803
 20
5854.6021961821
 30
0.0
 11
1802.5222404803
 21
5854.6021961821
 31
0.0
  0
LINE
  5
3B5
330
1F
100
AcDbEntity
  8
0
  6
Continuous
 62
     7
370
    25
100
AcDbLine
 10
2189.5222404803
 20
5854.6021961821
 30
0.0
 11
2162.5222404803
 21
5854.6021961821
 31
0.0
  0
LINE
  5
3B6
330
1F
100
AcDbEntity
  8
0
  6
Continuous
 62
     7
370
    25
100
AcDbLine
 10
1806.0222404803
 20
6284.6021961821
 30
0.0
 11
1801.0222404803
 21
6284.6021961821
 31
0.0
  0
LINE
  5
3B7
330
1F
100
AcDbEntity
  8
0
  6
Continuous
 62
     7
370
    25
100
AcDbLine
 10
2191.0222404803
 20
6284.6021961821
 30
0.0
 11
2186.0222404803
 21
6284.6021961821
 31
0.0
  0
LINE
  5
3B8
330
1F
100
AcDbEntity
  8
0
  6
Continuous
 62
     7
370
    25
100
AcDbLine
 10
2191.5141738651
 20
6284.6021961821
 30
0.0
 11
2191.0222404803
 21
6284.6021961821
 31
0.0
  0
LINE
  5
3B9
330
1F
100
AcDbEntity
  8
0
  6
Continuous
 62
     7
370
    25
100
AcDbLine
 10
1801.0222404803
 20
6284.6021961821
 30
0.0
 11
1800.5303070955
 21
6284.6021961821
 31
0.0
  0
LINE
  5
3BA
330
1F
100
AcDbEntity
  8
0
  6
Continuous
 62
     7
370
    25
100
AcDbLine
 10
2326.0222404803
 20
6304.6021961821
 30
0.0
 11
2213.5222404803
 21
6304.6021961821
 31
0.0
  0
LINE
  5
3BB
330
1F
100
AcDbEntity
  8
0
  6
Continuous
 62
     7
370
    25
100
AcDbLine
 10
2197.5222404803
 20
6304.6021961821
 30
0.0
 11
1794.5222404803
 21
6304.6021961821
 31
0.0
  0
LINE
  5
3BC
330
1F
100
AcDbEntity
  8
0
  6
Continuous
 62
     7
370
    25
100
AcDbLine
 10
1778.5222404803
 20
6304.6021961821
 30
0.0
 11
1666.0222404803
 21
6304.6021961821
 31
0.0
  0
LINE
  5
3BD
330
1F
100
AcDbEntity
  8
0
  6
Continuous
 62
     7
370
    25
100
AcDbLine
 10
2326.0222404803
 20
6304.6021961821
 30
0.0
 11
2326.0222404803
 21
6298.6021961821
 31
0.0
  0
LINE
  5
3BE
330
1F
100
AcDbEntity
  8
0
  6
Continuous
 62
     7
370
    25
100
AcDbLine
 10
1666.0222404803
 20
6304.6021961821
 30
0.0
 11
1666.0222404803
 21
6298.6021961821
 31
0.0
  0
LINE
  5
3BF
330
1F
100
AcDbEntity
  8
0
  6
Continuous
 62
     7
370
    25
100
AcDbLine
 10
2326.0222404803
 20
6298.6021961821
 30
0.0
 11
2326.0222404803
 21
6230.6021961821
 31
0.0
  0
LINE
  5
3C0
330
1F
100
AcDbEntity
  8
0
  6
Continuous
 62
     7
370
    25
100
AcDbLine
 10
1666.0222404803
 20
6298.6021961821
 30
0.0
 11
1666.0222404803
 21
6230.6021961821
 31
0.0
  0
LINE
  5
3C1
330
1F
100
AcDbEntity
  8
0
  6
Continuous
 62
     7
370
    25
100
AcDbLine
 10
2106.0222404795
 20
6224.6021961821
 30
0.0
 11
1886.0222404803
 21
6224.6021961821
 31
0.0
  0
LINE
  5
3C2
330
1F
100
AcDbEntity
  8
0
  6
Continuous
 62
     7
370
    25
100
AcDbLine
 10
2326.0222404803
 20
6230.6021961821
 30
0.0
 11
2326.0222404803
 21
6226.6021961821
 31
0.0
  0
LINE
  5
3C3
330
1F
100
AcDbEntity
  8
0
  6
Continuous
 62
     7
370
    25
100
AcDbLine
 10
1666.0222404803
 20
6230.6021961821
 30
0.0
 11
1666.0222404803
 21
6226.6021961821
 31
0.0
  0
LINE
  5
3C4
330
1F
100
AcDbEntity
  8
0
  6
Continuous
 62
     7
370
    25
100
AcDbLine
 10
1793.945892846
 20
5935.6021961821
 30
0.0
 11
1778.0222404803
 21
5935.6021961821
 31
0.0
  0
LINE
  5
3C5
330
1F
100
AcDbEntity
  8
0
  6
Continuous
 62
     7
370
    25
100
AcDbLine
 10
1854.0222404803
 20
5935.6021961821
 30
0.0
 11
1793.945892846
 21
5935.6021961821
 31
0.0
  0
LINE
  5
3C6
330
1F
100
AcDbEntity
  8
0
  6
Continuous
 62
     7
370
    25
100
AcDbLine
 10
1793.945892846
 20
5925.6021961821
 30
0.0
 11
1778.0222404803
 21
5925.6021961821
 31
0.0
  0
LINE
  5
3C7
330
1F
100
AcDbEntity
  8
0
  6
Continuous
 62
     7
370
    25
100
AcDbLine
 10
1854.0222404803
 20
5925.6021961821
 30
0.0
 11
1793.945892846
 21
5925.6021961821
 31
0.0
  0
LINE
  5
3C8
330
1F
100
AcDbEntity
  8
0
  6
Continuous
 62
     7
370
    25
100
AcDbLine
 10
1781.0222404803
 20
5940.6021961821
 30
0.0
 11
1851.0222404803
 21
5940.6021961821
 31
0.0
  0
LINE
  5
3C9
330
1F
100
AcDbEntity
  8
0
  6
Continuous
 62
     7
370
    25
100
AcDbLine
 10
1827.2674415434
 20
5900.6021961821
 30
0.0
 11
1827.2674415434
 21
5925.6021961821
 31
0.0
  0
LINE
  5
3CA
330
1F
100
AcDbEntity
  8
0
  6
Continuous
 62
     7
370
    25
100
AcDbLine
 10
1827.2674415434
 20
5900.6021961821
 30
0.0
 11
1800.2577166192
 21
5900.6021961821
 31
0.0
  0
LINE
  5
3CB
330
1F
100
AcDbEntity
  8
0
  6
Continuous
 62
     7
370
    25
100
AcDbLine
 10
1800.2577166192
 20
5900.6021961821
 30
0.0
 11
1800.2577166192
 21
5925.6021961821
 31
0.0
  0
LINE
  5
3CC
330
1F
100
AcDbEntity
  8
0
  6
Continuous
 62
     7
370
    25
100
AcDbLine
 10
1843.0319654045
 20
5900.6021961821
 30
0.0
 11
1843.0319654045
 21
5925.6021961821
 31
0.0
  0
LINE
  5
3CD
330
1F
100
AcDbEntity
  8
0
  6
Continuous
 62
     7
370
    25
100
AcDbLine
 10
1843.0319654045
 20
5900.6021961821
 30
0.0
 11
1827.2674415434
 21
5900.6021961821
 31
0.0
  0
LINE
  5
3CE
330
1F
100
AcDbEntity
  8
0
  6
Continuous
 62
     7
370
    25
100
AcDbLine
 10
1800.0222404803
 20
5957.6021961821
 30
0.0
 11
1832.0222404803
 21
5957.6021961821
 31
0.0
  0
LINE
  5
3CF
330
1F
100
AcDbEntity
  8
0
  6
Continuous
 62
     7
370
    25
100
AcDbLine
 10
1789.0125155561
 20
5900.6021961821
 30
0.0
 11
1789.0125155561
 21
5925.6021961821
 31
0.0
  0
LINE
  5
3D0
330
1F
100
AcDbEntity
  8
0
  6
Continuous
 62
     7
370
    25
100
AcDbLine
 10
1800.2577166192
 20
5900.6021961821
 30
0.0
 11
1789.0125155561
 21
5900.6021961821
 31
0.0
  0
LINE
  5
3D1
330
1F
100
AcDbEntity
  8
0
  6
Continuous
 62
     7
370
    25
100
AcDbLine
 10
2214.0222404803
 20
5935.6021961821
 30
0.0
 11
2138.0222404803
 21
5935.6021961821
 31
0.0
  0
LINE
  5
3D2
330
1F
100
AcDbEntity
  8
0
  6
Continuous
 62
     7
370
    25
100
AcDbLine
 10
2214.0222404803
 20
5925.6021961821
 30
0.0
 11
2138.0222404803
 21
5925.6021961821
 31
0.0
  0
LINE
  5
3D3
330
1F
100
AcDbEntity
  8
0
  6
Continuous
 62
     7
370
    25
100
AcDbLine
 10
2176.0222404803
 20
5940.6021961821
 30
0.0
 11
2211.0222404803
 21
5940.6021961821
 31
0.0
  0
LINE
  5
3D4
330
1F
100
AcDbEntity
  8
0
  6
Continuous
 62
     7
370
    25
100
AcDbLine
 10
2141.0222404803
 20
5940.6021961821
 30
0.0
 11
2176.0222404803
 21
5940.6021961821
 31
0.0
  0
LINE
  5
3D5
330
1F
100
AcDbEntity
  8
0
  6
Continuous
 62
     7
370
    25
100
AcDbLine
 10
2199.5222404803
 20
5900.6021961821
 30
0.0
 11
2199.5222404803
 21
5925.6021961821
 31
0.0
  0
LINE
  5
3D6
330
1F
100
AcDbEntity
  8
0
  6
Continuous
 62
     7
370
    25
100
AcDbLine
 10
2199.5222404803
 20
5900.6021961821
 30
0.0
 11
2176.0222404803
 21
5900.6021961821
 31
0.0
  0
LINE
  5
3D7
330
1F
100
AcDbEntity
  8
0
  6
Continuous
 62
     7
370
    25
100
AcDbLine
 10
2176.0222404803
 20
5900.6021961821
 30
0.0
 11
2176.0222404803
 21
5925.6021961821
 31
0.0
  0
LINE
  5
3D8
330
1F
100
AcDbEntity
  8
0
  6
Continuous
 62
     7
370
    25
100
AcDbLine
 10
2176.0222404803
 20
5900.6021961821
 30
0.0
 11
2152.5222404803
 21
5900.6021961821
 31
0.0
  0
LINE
  5
3D9
330
1F
100
AcDbEntity
  8
0
  6
Continuous
 62
     7
370
    25
100
AcDbLine
 10
2152.5222404803
 20
5900.6021961821
 30
0.0
 11
2152.5222404803
 21
5925.6021961821
 31
0.0
  0
LINE
  5
3DA
330
1F
100
AcDbEntity
  8
0
  6
Continuous
 62
     7
370
    25
100
AcDbLine
 10
2176.0222404803
 20
5957.6021961821
 30
0.0
 11
2192.0222404803
 21
5957.6021961821
 31
0.0
  0
LINE
  5
3DB
330
1F
100
AcDbEntity
  8
0
  6
Continuous
 62
     7
370
    25
100
AcDbLine
 10
2160.0222404803
 20
5957.6021961821
 30
0.0
 11
2176.0222404803
 21
5957.6021961821
 31
0.0
  0
LINE
  5
3DC
330
1F
100
AcDbEntity
  8
0
  6
Continuous
 62
     7
370
    25
100
AcDbLine
 10
1826.0222404803
 20
6228.6021961821
 30
0.0
 11
1831.0222404803
 21
6228.6021961821
 31
0.0
  0
LINE
  5
3DD
330
1F
100
AcDbEntity
  8
0
  6
Continuous
 62
     7
370
    25
100
AcDbLine
 10
1821.0222404803
 20
6228.6021961821
 30
0.0
 11
1826.0222404803
 21
6228.6021961821
 31
0.0
  0
LINE
  5
3DE
330
1F
100
AcDbEntity
  8
0
  6
Continuous
 62
     7
370
    25
100
AcDbLine
 10
2166.0222404803
 20
6228.6021961821
 30
0.0
 11
2171.0222404803
 21
6228.6021961821
 31
0.0
  0
LINE
  5
3DF
330
1F
100
AcDbEntity
  8
0
  6
Continuous
 62
     7
370
    25
100
AcDbLine
 10
2161.0222404803
 20
6228.6021961821
 30
0.0
 11
2166.0222404803
 21
6228.6021961821
 31
0.0
  0
LINE
  5
3E0
330
1F
100
AcDbEntity
  8
0
  6
Continuous
 62
     7
370
    25
100
AcDbLine
 10
2391.0222404803
 20
6187.6021961821
 30
0.0
 11
2186.0222404803
 21
6187.6021961821
 31
0.0
  0
LINE
  5
3E1
330
1F
100
AcDbEntity
  8
0
  6
Continuous
 62
     7
370
    25
100
AcDbLine
 10
2146.0222404803
 20
6187.6021961821
 30
0.0
 11
1846.0222404803
 21
6187.6021961821
 31
0.0
  0
LINE
  5
3E2
330
1F
100
AcDbEntity
  8
0
  6
Continuous
 62
     7
370
    25
100
AcDbLine
 10
1806.0222404803
 20
6187.6021961821
 30
0.0
 11
1601.0222404803
 21
6187.6021961821
 31
0.0
  0
LINE
  5
3E3
330
1F
100
AcDbEntity
  8
0
  6
Continuous
 62
     7
370
    25
100
AcDbLine
 10
2391.0222404803
 20
6187.6021961821
 30
0.0
 11
2391.0222404803
 21
6181.6021961821
 31
0.0
  0
LINE
  5
3E4
330
1F
100
AcDbEntity
  8
0
  6
Continuous
 62
     7
370
    25
100
AcDbLine
 10
2391.0222404803
 20
6181.6021961821
 30
0.0
 11
1601.0222404803
 21
6181.6021961821
 31
0.0
  0
LINE
  5
3E5
330
1F
100
AcDbEntity
  8
0
  6
Continuous
 62
     7
370
    25
100
AcDbLine
 10
1601.0222404803
 20
6187.6021961821
 30
0.0
 11
1601.0222404803
 21
6181.6021961821
 31
0.0
  0
LINE
  5
3E6
330
1F
100
AcDbEntity
  8
0
  6
Continuous
 62
     7
370
    25
100
AcDbLine
 10
2391.0222404803
 20
6181.6021961821
 30
0.0
 11
2391.0222404803
 21
6173.6021961821
 31
0.0
  0
LINE
  5
3E7
330
1F
100
AcDbEntity
  8
0
  6
Continuous
 62
     7
370
    25
100
AcDbLine
 10
2391.0222404803
 20
6173.6021961821
 30
0.0
 11
1601.0222404803
 21
6173.6021961821
 31
0.0
  0
LINE
  5
3E8
330
1F
100
AcDbEntity
  8
0
  6
Continuous
 62
     7
370
    25
100
AcDbLine
 10
1601.0222404803
 20
6181.6021961821
 30
0.0
 11
1601.0222404803
 21
6173.6021961821
 31
0.0
  0
LINE
  5
3E9
330
1F
100
AcDbEntity
  8
0
  6
Continuous
 62
     7
370
    25
100
AcDbLine
 10
2391.0222404803
 20
6173.6021961821
 30
0.0
 11
2391.0222404803
 21
6167.6021961821
 31
0.0
  0
LINE
  5
3EA
330
1F
100
AcDbEntity
  8
0
  6
Continuous
 62
     7
370
    25
100
AcDbLine
 10
2391.0222404803
 20
6167.6021961821
 30
0.0
 11
1601.0222404803
 21
6167.6021961821
 31
0.0
  0
LINE
  5
3EB
330
1F
100
AcDbEntity
  8
0
  6
Continuous
 62
     7
370
    25
100
AcDbLine
 10
1601.0222404803
 20
6173.6021961821
 30
0.0
 11
1601.0222404803
 21
6167.6021961821
 31
0.0
  0
LINE
  5
3EC
330
1F
100
AcDbEntity
  8
0
  6
Continuous
 62
     7
370
    25
100
AcDbLine
 10
1846.0222404803
 20
6191.6021961821
 30
0.0
 11
1806.0222404803
 21
6191.6021961821
 31
0.0
  0
LINE
  5
3ED
330
1F
100
AcDbEntity
  8
0
  6
Continuous
 62
     7
370
    25
100
AcDbLine
 10
1846.0222404803
 20
6187.6021961821
 30
0.0
 11
1846.0222404803
 21
6191.6021961821
 31
0.0
  0
LINE
  5
3EE
330
1F
100
AcDbEntity
  8
0
  6
Continuous
 62
     7
370
    25
100
AcDbLine
 10
1846.0222404803
 20
6187.6021961821
 30
0.0
 11
1806.0222404803
 21
6187.6021961821
 31
0.0
  0
LINE
  5
3EF
330
1F
100
AcDbEntity
  8
0
  6
Continuous
 62
     7
370
    25
100
AcDbLine
 10
1806.0222404803
 20
6187.6021961821
 30
0.0
 11
1806.0222404803
 21
6191.6021961821
 31
0.0
  0
LINE
  5
3F0
330
1F
100
AcDbEntity
  8
0
  6
Continuous
 62
     7
370
    25
100
AcDbLine
 10
1846.0222404803
 20
6193.6021961821
 30
0.0
 11
1846.0222404803
 21
6191.6021961821
 31
0.0
  0
LINE
  5
3F1
330
1F
100
AcDbEntity
  8
0
  6
Continuous
 62
     7
370
    25
100
AcDbLine
 10
1806.0222404803
 20
6193.6021961821
 30
0.0
 11
1806.0222404803
 21
6191.6021961821
 31
0.0
  0
LINE
  5
3F2
330
1F
100
AcDbEntity
  8
0
  6
Continuous
 62
     7
370
    25
100
AcDbLine
 10
1846.0222404803
 20
6285.6021961821
 30
0.0
 11
1806.0222404803
 21
6285.6021961821
 31
0.0
  0
LINE
  5
3F3
330
1F
100
AcDbEntity
  8
0
  6
Continuous
 62
     7
370
    25
100
AcDbLine
 10
1846.0222404803
 20
6285.6021961821
 30
0.0
 11
1846.0222404803
 21
6193.6021961821
 31
0.0
  0
LINE
  5
3F4
330
1F
100
AcDbEntity
  8
0
  6
Continuous
 62
     7
370
    25
100
AcDbLine
 10
1806.0222404803
 20
6285.6021961821
 30
0.0
 11
1806.0222404803
 21
6193.6021961821
 31
0.0
  0
LINE
  5
3F5
330
1F
100
AcDbEntity
  8
0
  6
Continuous
 62
     7
370
    25
100
AcDbLine
 10
1846.0222404803
 20
6291.6021961821
 30
0.0
 11
1806.0222404803
 21
6291.6021961821
 31
0.0
  0
LINE
  5
3F6
330
1F
100
AcDbEntity
  8
0
  6
Continuous
 62
     7
370
    25
100
AcDbLine
 10
1846.0222404803
 20
6291.6021961821
 30
0.0
 11
1846.0222404803
 21
6285.6021961821
 31
0.0
  0
LINE
  5
3F7
330
1F
100
AcDbEntity
  8
0
  6
Continuous
 62
     7
370
    25
100
AcDbLine
 10
1806.0222404803
 20
6291.6021961821
 30
0.0
 11
1806.0222404803
 21
6285.6021961821
 31
0.0
  0
LINE
  5
3F8
330
1F
100
AcDbEntity
  8
0
  6
Continuous
 62
     7
370
    25
100
AcDbLine
 10
2186.0222404803
 20
6191.6021961821
 30
0.0
 11
2146.0222404803
 21
6191.6021961821
 31
0.0
  0
LINE
  5
3F9
330
1F
100
AcDbEntity
  8
0
  6
Continuous
 62
     7
370
    25
100
AcDbLine
 10
2186.0222404803
 20
6187.6021961821
 30
0.0
 11
2146.0222404803
 21
6187.6021961821
 31
0.0
  0
LINE
  5
3FA
330
1F
100
AcDbEntity
  8
0
  6
Continuous
 62
     7
370
    25
100
AcDbLine
 10
2146.0222404803
 20
6187.6021961821
 30
0.0
 11
2146.0222404803
 21
6191.6021961821
 31
0.0
  0
LINE
  5
3FB
330
1F
100
AcDbEntity
  8
0
  6
Continuous
 62
     7
370
    25
100
AcDbLine
 10
2186.0222404803
 20
6187.6021961821
 30
0.0
 11
2186.0222404803
 21
6191.6021961821
 31
0.0
  0
LINE
  5
3FC
330
1F
100
AcDbEntity
  8
0
  6
Continuous
 62
     7
370
    25
100
AcDbLine
 10
2146.0222404803
 20
6193.6021961821
 30
0.0
 11
2146.0222404803
 21
6191.6021961821
 31
0.0
  0
LINE
  5
3FD
330
1F
100
AcDbEntity
  8
0
  6
Continuous
 62
     7
370
    25
100
AcDbLine
 10
2186.0222404803
 20
6193.6021961821
 30
0.0
 11
2186.0222404803
 21
6191.6021961821
 31
0.0
  0
LINE
  5
3FE
330
1F
100
AcDbEntity
  8
0
  6
Continuous
 62
     7
370
    25
100
AcDbLine
 10
2186.0222404803
 20
6285.6021961821
 30
0.0
 11
2146.0222404803
 21
6285.6021961821
 31
0.0
  0
LINE
  5
3FF
330
1F
100
AcDbEntity
  8
0
  6
Continuous
 62
     7
370
    25
100
AcDbLine
 10
2186.0222404803
 20
6285.6021961821
 30
0.0
 11
2186.0222404803
 21
6193.6021961821
 31
0.0
  0
LINE
  5
400
330
1F
100
AcDbEntity
  8
0
  6
Continuous
 62
     7
370
    25
100
AcDbLine
 10
2146.0222404803
 20
6285.6021961821
 30
0.0
 11
2146.0222404803
 21
6193.6021961821
 31
0.0
  0
LINE
  5
401
330
1F
100
AcDbEntity
  8
0
  6
Continuous
 62
     7
370
    25
100
AcDbLine
 10
2186.0222404803
 20
6291.6021961821
 30
0.0
 11
2146.0222404803
 21
6291.6021961821
 31
0.0
  0
LINE
  5
402
330
1F
100
AcDbEntity
  8
0
  6
Continuous
 62
     7
370
    25
100
AcDbLine
 10
2146.0222404803
 20
6291.6021961821
 30
0.0
 11
2146.0222404803
 21
6285.6021961821
 31
0.0
  0
LINE
  5
403
330
1F
100
AcDbEntity
  8
0
  6
Continuous
 62
     7
370
    25
100
AcDbLine
 10
2186.0222404803
 20
6291.6021961821
 30
0.0
 11
2186.0222404803
 21
6285.6021961821
 31
0.0
  0
LINE
  5
404
330
1F
100
AcDbEntity
  8
0
  6
Continuous
 62
     7
370
    25
100
AcDbLine
 10
1496.0222404803
 20
6166.6021961821
 30
0.0
 11
1502.0222404803
 21
6166.6021961821
 31
0.0
  0
LINE
  5
405
330
1F
100
AcDbEntity
  8
0
  6
Continuous
 62
     7
370
    25
100
AcDbLine
 10
1496.0222404803
 20
6166.6021961821
 30
0.0
 11
1496.0222404803
 21
6226.6021961821
 31
0.0
  0
LINE
  5
406
330
1F
100
AcDbEntity
  8
0
  6
Continuous
 62
     7
370
    25
100
AcDbLine
 10
1496.0222404803
 20
6226.6021961821
 30
0.0
 11
1502.0222404803
 21
6226.6021961821
 31
0.0
  0
LINE
  5
407
330
1F
100
AcDbEntity
  8
0
  6
Continuous
 62
     7
370
    25
100
AcDbLine
 10
1502.0222404803
 20
6166.6021961821
 30
0.0
 11
1502.0222404803
 21
6226.6021961821
 31
0.0
  0
LINE
  5
408
330
1F
100
AcDbEntity
  8
0
  6
Continuous
 62
     7
370
    25
100
AcDbLine
 10
1601.0222404803
 20
6178.6021961821
 30
0.0
 11
1502.0222404803
 21
6178.6021961821
 31
0.0
  0
LINE
  5
409
330
1F
100
AcDbEntity
  8
0
  6
Continuous
 62
     7
370
    25
100
AcDbLine
 10
1601.0222404803
 20
6172.6021961821
 30
0.0
 11
1502.0222404803
 21
6172.6021961821
 31
0.0
  0
LINE
  5
40A
330
1F
100
AcDbEntity
  8
0
  6
Continuous
 62
     7
370
    25
100
AcDbLine
 10
1723.0222404803
 20
6228.6021961821
 30
0.0
 11
1733.0222404803
 21
6228.6021961821
 31
0.0
  0
LINE
  5
40B
330
1F
100
AcDbEntity
  8
0
  6
Continuous
 62
     7
370
    25
100
AcDbLine
 10
1684.0222404803
 20
6203.6021961821
 30
0.0
 11
1502.0222404803
 21
6203.6021961821
 31
0.0
  0
LINE
  5
40C
330
1F
100
AcDbEntity
  8
0
  6
Continuous
 62
     7
370
    25
100
AcDbLine
 10
1684.0222404803
 20
6203.6021961821
 30
0.0
 11
1684.0222404803
 21
6187.6021961821
 31
0.0
  0
LINE
  5
40D
330
1F
100
AcDbEntity
  8
0
  6
Continuous
 62
     7
370
    25
100
AcDbLine
 10
2496.0222404795
 20
6226.6021961821
 30
0.0
 11
2496.0222404795
 21
6166.6021961821
 31
0.0
  0
LINE
  5
40E
330
1F
100
AcDbEntity
  8
0
  6
Continuous
 62
     7
370
    25
100
AcDbLine
 10
2496.0222404795
 20
6166.6021961821
 30
0.0
 11
2490.0222404795
 21
6166.6021961821
 31
0.0
  0
LINE
  5
40F
330
1F
100
AcDbEntity
  8
0
  6
Continuous
 62
     7
370
    25
100
AcDbLine
 10
2496.0222404795
 20
6226.6021961821
 30
0.0
 11
2490.0222404795
 21
6226.6021961821
 31
0.0
  0
LINE
  5
410
330
1F
100
AcDbEntity
  8
0
  6
Continuous
 62
     7
370
    25
100
AcDbLine
 10
2490.0222404795
 20
6226.6021961821
 30
0.0
 11
2490.0222404795
 21
6166.6021961821
 31
0.0
  0
LINE
  5
411
330
1F
100
AcDbEntity
  8
0
  6
Continuous
 62
     7
370
    25
100
AcDbLine
 10
2391.0222404803
 20
6172.6021961821
 30
0.0
 11
2490.0222404795
 21
6172.6021961821
 31
0.0
  0
LINE
  5
412
330
1F
100
AcDbEntity
  8
0
  6
Continuous
 62
     7
370
    25
100
AcDbLine
 10
2391.0222404803
 20
6178.6021961821
 30
0.0
 11
2490.0222404795
 21
6178.6021961821
 31
0.0
  0
LINE
  5
413
330
1F
100
AcDbEntity
  8
0
  6
Continuous
 62
     7
370
    25
100
AcDbLine
 10
2269.0222404795
 20
6228.6021961821
 30
0.0
 11
2259.0222404795
 21
6228.6021961821
 31
0.0
  0
LINE
  5
414
330
1F
100
AcDbEntity
  8
0
  6
Continuous
 62
     7
370
    25
100
AcDbLine
 10
2308.0222404795
 20
6187.6021961821
 30
0.0
 11
2308.0222404795
 21
6203.6021961821
 31
0.0
  0
LINE
  5
415
330
1F
100
AcDbEntity
  8
0
  6
Continuous
 62
     7
370
    25
100
AcDbLine
 10
2308.0222404795
 20
6203.6021961821
 30
0.0
 11
2490.0222404795
 21
6203.6021961821
 31
0.0
  0
LINE
  5
416
330
1F
100
AcDbEntity
  8
0
  6
Continuous
 62
     7
370
    25
100
AcDbLine
 10
2205.5222404803
 20
6234.6021961821
 30
0.0
 11
2235.5222404803
 21
6234.6021961821
 31
0.0
  0
LINE
  5
417
330
1F
100
AcDbEntity
  8
0
  6
Continuous
 62
     7
370
    25
100
AcDbLine
 10
2186.0222404803
 20
6234.6021961821
 30
0.0
 11
2205.5222404803
 21
6234.6021961821
 31
0.0
  0
LINE
  5
418
330
1F
100
AcDbEntity
  8
0
  6
Continuous
 62
     7
370
    25
100
AcDbLine
 10
1781.6285545356
 20
6234.6021961821
 30
0.0
 11
1806.0222404803
 21
6234.6021961821
 31
0.0
  0
LINE
  5
419
330
1F
100
AcDbEntity
  8
0
  6
Continuous
 62
     7
370
    25
100
AcDbLine
 10
1756.5222404803
 20
6234.6021961821
 30
0.0
 11
1781.6285545356
 21
6234.6021961821
 31
0.0
  0
LINE
  5
41A
330
1F
100
AcDbEntity
  8
0
  6
Continuous
 62
     7
370
    25
100
AcDbLine
 10
2181.0222404803
 20
6194.0021961821
 30
0.0
 11
2151.0222404803
 21
6194.0021961821
 31
0.0
  0
LINE
  5
41B
330
1F
100
AcDbEntity
  8
0
  6
Continuous
 62
     7
370
    25
100
AcDbLine
 10
1841.0222404803
 20
6194.0021961821
 30
0.0
 11
1811.0222404803
 21
6194.0021961821
 31
0.0
  0
LINE
  5
41C
330
1F
100
AcDbEntity
  8
0
  6
Continuous
 62
     7
370
    25
100
AcDbLine
 10
2251.1139029802
 20
6190.0021961821
 30
0.0
 11
2249.0222404795
 21
6190.0021961821
 31
0.0
  0
LINE
  5
41D
330
1F
100
AcDbEntity
  8
0
  6
Continuous
 62
     7
370
    25
100
AcDbLine
 10
2279.0222404795
 20
6190.0021961821
 30
0.0
 11
2251.1139029802
 21
6190.0021961821
 31
0.0
  0
LINE
  5
41E
330
1F
100
AcDbEntity
  8
0
  6
Continuous
 62
     7
370
    25
100
AcDbLine
 10
1743.0222404803
 20
6190.0021961821
 30
0.0
 11
1713.0222404803
 21
6190.0021961821
 31
0.0
  0
LINE
  5
41F
330
1F
100
AcDbEntity
  8
0
  6
Continuous
 62
     7
370
    25
100
AcDbLine
 10
1945.6737402088
 20
6284.6021961821
 30
0.0
 11
1945.1793452047
 21
6286.9021961821
 31
0.0
  0
LINE
  5
420
330
1F
100
AcDbEntity
  8
0
  6
Continuous
 62
     7
370
    25
100
AcDbLine
 10
1945.1793452047
 20
6286.9021961821
 30
0.0
 11
2046.8651357558
 21
6286.9021961821
 31
0.0
  0
LINE
  5
421
330
1F
100
AcDbEntity
  8
0
  6
Continuous
 62
     7
370
    25
100
AcDbLine
 10
2046.8651357558
 20
6286.9021961821
 30
0.0
 11
2046.3707407518
 21
6284.6021961821
 31
0.0
  0
LWPOLYLINE
  5
422
330
1F
100
AcDbEntity
  8
0
  6
Continuous
 62
     7
370
    25
100
AcDbPolyline
 90
        3
 70
   128
 43
0.0
 10
2046.3707407518
 20
6284.6021961821
 10
2044.8695130459
 20
6277.6191448013
 10
2043.8552834527
 20
6272.9021961821
  0
LINE
  5
423
330
1F
100
AcDbEntity
  8
0
  6
Continuous
 62
     7
370
    25
100
AcDbLine
 10
1948.1891975079
 20
6272.9021961821
 30
0.0
 11
2043.8552834527
 21
6272.9021961821
 31
0.0
  0
LWPOLYLINE
  5
424
330
1F
100
AcDbEntity
  8
0
  6
Continuous
 62
     7
370
    25
100
AcDbPolyline
 90
        3
 70
   128
 43
0.0
 10
1948.1891975079
 20
6272.9021961821
 10
1947.1749679147
 20
6277.6191448013
 10
1945.6737402088
 20
6284.6021961821
  0
LWPOLYLINE
  5
425
330
1F
100
AcDbEntity
  8
0
  6
Continuous
 62
     7
370
    25
100
AcDbPolyline
 90
        3
 70
   128
 43
0.0
 10
1945.6737402088
 20
6244.6021961821
 10
1947.1749679147
 20
6251.585247563
 10
1948.1891975079
 20
6256.3021961821
  0
LINE
  5
426
330
1F
100
AcDbEntity
  8
0
  6
Continuous
 62
     7
370
    25
100
AcDbLine
 10
1948.1891975079
 20
6256.3021961821
 30
0.0
 11
2043.8552834527
 21
6256.3021961821
 31
0.0
  0
LWPOLYLINE
  5
427
330
1F
100
AcDbEntity
  8
0
  6
Continuous
 62
     7
370
    25
100
AcDbPolyline
 90
        3
 70
   128
 43
0.0
 10
2043.8552834527
 20
6256.3021961821
 10
2044.8695130459
 20
6251.585247563
 10
2046.3707407518
 20
6244.6021961821
  0
LINE
  5
428
330
1F
100
AcDbEntity
  8
0
  6
Continuous
 62
     7
370
    25
100
AcDbLine
 10
2046.3707407518
 20
6244.6021961821
 30
0.0
 11
2046.8651357558
 21
6242.3021961821
 31
0.0
  0
LINE
  5
429
330
1F
100
AcDbEntity
  8
0
  6
Continuous
 62
     7
370
    25
100
AcDbLine
 10
1945.1793452047
 20
6242.3021961821
 30
0.0
 11
2046.8651357558
 21
6242.3021961821
 31
0.0
  0
LINE
  5
42A
330
1F
100
AcDbEntity
  8
0
  6
Continuous
 62
     7
370
    25
100
AcDbLine
 10
1945.1793452047
 20
6242.3021961821
 30
0.0
 11
1945.6737402088
 21
6244.6021961821
 31
0.0
  0
LINE
  5
42B
330
1F
100
AcDbEntity
  8
0
  6
Continuous
 62
     7
370
    25
100
AcDbLine
 10
1950.1964835307
 20
6256.3021961821
 30
0.0
 11
1950.1964835307
 21
6272.9021961821
 31
0.0
  0
LINE
  5
42C
330
1F
100
AcDbEntity
  8
0
  6
Continuous
 62
     7
370
    25
100
AcDbLine
 10
2041.8479974298
 20
6272.9021961821
 30
0.0
 11
2041.8479974298
 21
6256.3021961821
 31
0.0
  0
LINE
  5
42D
330
1F
100
AcDbEntity
  8
0
  6
Continuous
 62
     7
370
    25
100
AcDbLine
 10
2059.0222404803
 20
6265.6021961821
 30
0.0
 11
2059.0222404803
 21
6269.6021961821
 31
0.0
  0
LINE
  5
42E
330
1F
100
AcDbEntity
  8
0
  6
Continuous
 62
     7
370
    25
100
AcDbLine
 10
2059.0222404803
 20
6263.6021961821
 30
0.0
 11
2055.0222404803
 21
6263.6021961821
 31
0.0
  0
LINE
  5
42F
330
1F
100
AcDbEntity
  8
0
  6
Continuous
 62
     7
370
    25
100
AcDbLine
 10
2059.0222404803
 20
6259.6021961821
 30
0.0
 11
2059.0222404803
 21
6263.6021961821
 31
0.0
  0
LINE
  5
430
330
1F
100
AcDbEntity
  8
0
  6
Continuous
 62
     7
370
    25
100
AcDbLine
 10
2061.0222404803
 20
6259.6021961821
 30
0.0
 11
2059.0222404803
 21
6259.6021961821
 31
0.0
  0
LINE
  5
431
330
1F
100
AcDbEntity
  8
0
  6
Continuous
 62
     7
370
    25
100
AcDbLine
 10
2061.0222404803
 20
6263.6021961821
 30
0.0
 11
2061.0222404803
 21
6259.6021961821
 31
0.0
  0
LINE
  5
432
330
1F
100
AcDbEntity
  8
0
  6
Continuous
 62
     7
370
    25
100
AcDbLine
 10
2065.0222404803
 20
6263.6021961821
 30
0.0
 11
2061.0222404803
 21
6263.6021961821
 31
0.0
  0
LINE
  5
433
330
1F
100
AcDbEntity
  8
0
  6
Continuous
 62
     7
370
    25
100
AcDbLine
 10
2065.0222404803
 20
6265.6021961821
 30
0.0
 11
2065.0222404803
 21
6263.6021961821
 31
0.0
  0
LINE
  5
434
330
1F
100
AcDbEntity
  8
0
  6
Continuous
 62
     7
370
    25
100
AcDbLine
 10
2061.0222404803
 20
6265.6021961821
 30
0.0
 11
2065.0222404803
 21
6265.6021961821
 31
0.0
  0
CIRCLE
  5
435
330
1F
100
AcDbEntity
  8
0
  6
Continuous
 62
     7
370
    25
100
AcDbCircle
 10
2060.0222404803
 20
6264.6021961821
 30
0.0
 40
5.999999999999091
  0
LINE
  5
436
330
1F
100
AcDbEntity
  8
0
  6
Continuous
 62
     7
370
    25
100
AcDbLine
 10
2059.0222404803
 20
6269.6021961821
 30
0.0
 11
2061.0222404803
 21
6269.6021961821
 31
0.0
  0
LINE
  5
437
330
1F
100
AcDbEntity
  8
0
  6
Continuous
 62
     7
370
    25
100
AcDbLine
 10
2055.0222404803
 20
6265.6021961821
 30
0.0
 11
2059.0222404803
 21
6265.6021961821
 31
0.0
  0
LINE
  5
438
330
1F
100
AcDbEntity
  8
0
  6
Continuous
 62
     7
370
    25
100
AcDbLine
 10
2055.0222404803
 20
6263.6021961821
 30
0.0
 11
2055.0222404803
 21
6265.6021961821
 31
0.0
  0
LINE
  5
439
330
1F
100
AcDbEntity
  8
0
  6
Continuous
 62
     7
370
    25
100
AcDbLine
 10
2061.0222404803
 20
6269.6021961821
 30
0.0
 11
2061.0222404803
 21
6265.6021961821
 31
0.0
  0
CIRCLE
  5
43A
330
1F
100
AcDbEntity
  8
0
  6
Continuous
 62
     7
370
    25
100
AcDbCircle
 10
1932.0222404803
 20
6264.6021961821
 30
0.0
 40
5.999999999999091
  0
LINE
  5
43B
330
1F
100
AcDbEntity
  8
0
  6
Continuous
 62
     7
370
    25
100
AcDbLine
 10
1933.0222404803
 20
6259.6021961821
 30
0.0
 11
1933.0222404803
 21
6263.6021961821
 31
0.0
  0
LINE
  5
43C
330
1F
100
AcDbEntity
  8
0
  6
Continuous
 62
     7
370
    25
100
AcDbLine
 10
1933.0222404803
 20
6263.6021961821
 30
0.0
 11
1937.0222404803
 21
6263.6021961821
 31
0.0
  0
LINE
  5
43D
330
1F
100
AcDbEntity
  8
0
  6
Continuous
 62
     7
370
    25
100
AcDbLine
 10
1933.0222404803
 20
6265.6021961821
 30
0.0
 11
1933.0222404803
 21
6269.6021961821
 31
0.0
  0
LINE
  5
43E
330
1F
100
AcDbEntity
  8
0
  6
Continuous
 62
     7
370
    25
100
AcDbLine
 10
1933.0222404803
 20
6269.6021961821
 30
0.0
 11
1931.0222404803
 21
6269.6021961821
 31
0.0
  0
LINE
  5
43F
330
1F
100
AcDbEntity
  8
0
  6
Continuous
 62
     7
370
    25
100
AcDbLine
 10
1927.0222404803
 20
6265.6021961821
 30
0.0
 11
1927.0222404803
 21
6263.6021961821
 31
0.0
  0
LINE
  5
440
330
1F
100
AcDbEntity
  8
0
  6
Continuous
 62
     7
370
    25
100
AcDbLine
 10
1927.0222404803
 20
6263.6021961821
 30
0.0
 11
1931.0222404803
 21
6263.6021961821
 31
0.0
  0
LINE
  5
441
330
1F
100
AcDbEntity
  8
0
  6
Continuous
 62
     7
370
    25
100
AcDbLine
 10
1931.0222404803
 20
6263.6021961821
 30
0.0
 11
1931.0222404803
 21
6259.6021961821
 31
0.0
  0
LINE
  5
442
330
1F
100
AcDbEntity
  8
0
  6
Continuous
 62
     7
370
    25
100
AcDbLine
 10
1931.0222404803
 20
6259.6021961821
 30
0.0
 11
1933.0222404803
 21
6259.6021961821
 31
0.0
  0
LINE
  5
443
330
1F
100
AcDbEntity
  8
0
  6
Continuous
 62
     7
370
    25
100
AcDbLine
 10
1937.0222404803
 20
6263.6021961821
 30
0.0
 11
1937.0222404803
 21
6265.6021961821
 31
0.0
  0
LINE
  5
444
330
1F
100
AcDbEntity
  8
0
  6
Continuous
 62
     7
370
    25
100
AcDbLine
 10
1931.0222404803
 20
6269.6021961821
 30
0.0
 11
1931.0222404803
 21
6265.6021961821
 31
0.0
  0
LINE
  5
445
330
1F
100
AcDbEntity
  8
0
  6
Continuous
 62
     7
370
    25
100
AcDbLine
 10
1931.0222404803
 20
6265.6021961821
 30
0.0
 11
1927.0222404803
 21
6265.6021961821
 31
0.0
  0
LINE
  5
446
330
1F
100
AcDbEntity
  8
0
  6
Continuous
 62
     7
370
    25
100
AcDbLine
 10
1937.0222404803
 20
6265.6021961821
 30
0.0
 11
1933.0222404803
 21
6265.6021961821
 31
0.0
  0
CIRCLE
  5
447
330
1F
100
AcDbEntity
  8
0
  6
Continuous
 62
     7
370
    25
100
AcDbCircle
 10
1932.0222404803
 20
6264.6021961821
 30
0.0
 40
10.0
  0
CIRCLE
  5
448
330
1F
100
AcDbEntity
  8
0
  6
Continuous
 62
     7
370
    25
100
AcDbCircle
 10
2060.0222404803
 20
6264.6021961821
 30
0.0
 40
10.0
  0
LINE
  5
449
330
1F
100
AcDbEntity
  8
0
  6
Continuous
 62
     7
370
    25
100
AcDbLine
 10
2076.0222404803
 20
6244.6021961821
 30
0.0
 11
2076.0222404803
 21
6284.6021961821
 31
0.0
  0
LINE
  5
44A
330
1F
100
AcDbEntity
  8
0
  6
Continuous
 62
     7
370
    25
100
AcDbLine
 10
2076.0222404803
 20
6244.6021961821
 30
0.0
 11
2046.3707407518
 21
6244.6021961821
 31
0.0
  0
LINE
  5
44B
330
1F
100
AcDbEntity
  8
0
  6
Continuous
 62
     7
370
    25
100
AcDbLine
 10
2076.0222404803
 20
6284.6021961821
 30
0.0
 11
2046.3707407518
 21
6284.6021961821
 31
0.0
  0
LINE
  5
44C
330
1F
100
AcDbEntity
  8
0
  6
Continuous
 62
     7
370
    25
100
AcDbLine
 10
1945.6737402088
 20
6244.6021961821
 30
0.0
 11
1916.0222404803
 21
6244.6021961821
 31
0.0
  0
LINE
  5
44D
330
1F
100
AcDbEntity
  8
0
  6
Continuous
 62
     7
370
    25
100
AcDbLine
 10
1945.6737402088
 20
6284.6021961821
 30
0.0
 11
1916.0222404803
 21
6284.6021961821
 31
0.0
  0
LINE
  5
44E
330
1F
100
AcDbEntity
  8
0
  6
Continuous
 62
     7
370
    25
100
AcDbLine
 10
1916.0222404803
 20
6244.6021961821
 30
0.0
 11
1916.0222404803
 21
6284.6021961821
 31
0.0
  0
LINE
  5
44F
330
1F
100
AcDbEntity
  8
0
  6
Continuous
 62
     7
370
    25
100
AcDbLine
 10
1886.0222404803
 20
6160.6021961821
 30
0.0
 11
2106.0222404795
 21
6160.6021961821
 31
0.0
  0
LINE
  5
450
330
1F
100
AcDbEntity
  8
0
  6
Continuous
 62
     7
370
    25
100
AcDbLine
 10
1886.0222404803
 20
6220.6021961821
 30
0.0
 11
2106.0222404795
 21
6220.6021961821
 31
0.0
  0
LINE
  5
451
330
1F
100
AcDbEntity
  8
0
  6
Continuous
 62
     7
370
    25
100
AcDbLine
 10
1794.5222404803
 20
6412.2021961821
 30
0.0
 11
1778.5222404803
 21
6412.2021961821
 31
0.0
  0
LINE
  5
452
330
1F
100
AcDbEntity
  8
0
  6
Continuous
 62
     7
370
    25
100
AcDbLine
 10
2213.5222404803
 20
6412.2021961821
 30
0.0
 11
2197.5222404803
 21
6412.2021961821
 31
0.0
  0
LINE
  5
453
330
1F
100
AcDbEntity
  8
0
  6
Continuous
 62
     7
370
    25
100
AcDbLine
 10
2106.0222404795
 20
6220.6021961821
 30
0.0
 11
2106.0222404795
 21
6226.6021961821
 31
0.0
  0
LINE
  5
454
330
1F
100
AcDbEntity
  8
0
  6
Continuous
 62
     7
370
    25
100
AcDbLine
 10
2106.0222404795
 20
6226.6021961821
 30
0.0
 11
2146.0222404803
 21
6226.6021961821
 31
0.0
  0
LINE
  5
455
330
1F
100
AcDbEntity
  8
0
  6
Continuous
 62
     7
370
    25
100
AcDbLine
 10
2269.0222404795
 20
6226.6021961821
 30
0.0
 11
2490.0222404795
 21
6226.6021961821
 31
0.0
  0
LINE
  5
456
330
1F
100
AcDbEntity
  8
0
  6
Continuous
 62
     7
370
    25
100
AcDbLine
 10
2106.0222404795
 20
6162.6021961821
 30
0.0
 11
2490.0222404795
 21
6162.6021961821
 31
0.0
  0
LINE
  5
457
330
1F
100
AcDbEntity
  8
0
  6
Continuous
 62
     7
370
    25
100
AcDbLine
 10
2490.0222404795
 20
6162.6021961821
 30
0.0
 11
2490.0222404795
 21
6166.6021961821
 31
0.0
  0
LINE
  5
458
330
1F
100
AcDbEntity
  8
0
  6
Continuous
 62
     7
370
    25
100
AcDbLine
 10
2106.0222404795
 20
6162.6021961821
 30
0.0
 11
2106.0222404795
 21
6167.6021961821
 31
0.0
  0
LINE
  5
459
330
1F
100
AcDbEntity
  8
0
  6
Continuous
 62
     7
370
    25
100
AcDbLine
 10
2106.0222404795
 20
6187.6021961821
 30
0.0
 11
2106.0222404795
 21
6220.6021961821
 31
0.0
  0
LINE
  5
45A
330
1F
100
AcDbEntity
  8
0
  6
Continuous
 62
     7
370
    25
100
AcDbLine
 10
2106.0222404795
 20
6156.6021961821
 30
0.0
 11
2490.0222404795
 21
6156.6021961821
 31
0.0
  0
LINE
  5
45B
330
1F
100
AcDbEntity
  8
0
  6
Continuous
 62
     7
370
    25
100
AcDbLine
 10
2490.0222404795
 20
6156.6021961821
 30
0.0
 11
2490.0222404795
 21
6162.6021961821
 31
0.0
  0
LINE
  5
45C
330
1F
100
AcDbEntity
  8
0
  6
Continuous
 62
     7
370
    25
100
AcDbLine
 10
2106.0222404795
 20
6156.6021961821
 30
0.0
 11
2106.0222404795
 21
6162.6021961821
 31
0.0
  0
LINE
  5
45D
330
1F
100
AcDbEntity
  8
0
  6
Continuous
 62
     7
370
    25
100
AcDbLine
 10
1886.0222404803
 20
6226.6021961821
 30
0.0
 11
1886.0222404803
 21
6220.6021961821
 31
0.0
  0
LINE
  5
45E
330
1F
100
AcDbEntity
  8
0
  6
Continuous
 62
     7
370
    25
100
AcDbLine
 10
1886.0222404803
 20
6226.6021961821
 30
0.0
 11
1846.0222404803
 21
6226.6021961821
 31
0.0
  0
LINE
  5
45F
330
1F
100
AcDbEntity
  8
0
  6
Continuous
 62
     7
370
    25
100
AcDbLine
 10
1723.0222404803
 20
6226.6021961821
 30
0.0
 11
1502.0222404803
 21
6226.6021961821
 31
0.0
  0
LINE
  5
460
330
1F
100
AcDbEntity
  8
0
  6
Continuous
 62
     7
370
    25
100
AcDbLine
 10
1886.0222404803
 20
6162.6021961821
 30
0.0
 11
1502.0222404803
 21
6162.6021961821
 31
0.0
  0
LINE
  5
461
330
1F
100
AcDbEntity
  8
0
  6
Continuous
 62
     7
370
    25
100
AcDbLine
 10
1502.0222404803
 20
6166.6021961821
 30
0.0
 11
1502.0222404803
 21
6162.6021961821
 31
0.0
  0
LINE
  5
462
330
1F
100
AcDbEntity
  8
0
  6
Continuous
 62
     7
370
    25
100
AcDbLine
 10
1886.0222404803
 20
6220.6021961821
 30
0.0
 11
1886.0222404803
 21
6187.6021961821
 31
0.0
  0
LINE
  5
463
330
1F
100
AcDbEntity
  8
0
  6
Continuous
 62
     7
370
    25
100
AcDbLine
 10
1886.0222404803
 20
6167.6021961821
 30
0.0
 11
1886.0222404803
 21
6162.6021961821
 31
0.0
  0
LINE
  5
464
330
1F
100
AcDbEntity
  8
0
  6
Continuous
 62
     7
370
    25
100
AcDbLine
 10
1886.0222404803
 20
6156.6021961821
 30
0.0
 11
1502.0222404803
 21
6156.6021961821
 31
0.0
  0
LINE
  5
465
330
1F
100
AcDbEntity
  8
0
  6
Continuous
 62
     7
370
    25
100
AcDbLine
 10
1502.0222404803
 20
6162.6021961821
 30
0.0
 11
1502.0222404803
 21
6156.6021961821
 31
0.0
  0
LINE
  5
466
330
1F
100
AcDbEntity
  8
0
  6
Continuous
 62
     7
370
    25
100
AcDbLine
 10
1886.0222404803
 20
6162.6021961821
 30
0.0
 11
1886.0222404803
 21
6156.6021961821
 31
0.0
  0
LINE
  5
467
330
1F
100
AcDbEntity
  8
0
  6
Continuous
 62
     8
370
    25
100
AcDbLine
 10
2191.5141738651
 20
6284.6021961821
 30
0.0
 11
2191.5141738651
 21
6234.6021961821
 31
0.0
  0
LINE
  5
468
330
1F
100
AcDbEntity
  8
0
  6
Continuous
 62
     8
370
    25
100
AcDbLine
 10
1800.5303070955
 20
6284.6021961821
 30
0.0
 11
1800.5303070955
 21
6234.6021961821
 31
0.0
  0
LINE
  5
469
330
1F
100
AcDbEntity
  8
0
  6
Continuous
 62
     8
370
    25
100
AcDbLine
 10
2326.0222404803
 20
6298.6021961821
 30
0.0
 11
2213.5222404803
 21
6298.6021961821
 31
0.0
  0
LINE
  5
46A
330
1F
100
AcDbEntity
  8
0
  6
Continuous
 62
     8
370
    25
100
AcDbLine
 10
2197.5222404803
 20
6298.6021961821
 30
0.0
 11
1794.5222404803
 21
6298.6021961821
 31
0.0
  0
LINE
  5
46B
330
1F
100
AcDbEntity
  8
0
  6
Continuous
 62
     8
370
    25
100
AcDbLine
 10
1778.5222404803
 20
6298.6021961821
 30
0.0
 11
1666.0222404803
 21
6298.6021961821
 31
0.0
  0
LINE
  5
46C
330
1F
100
AcDbEntity
  8
0
  6
Continuous
 62
     8
370
    25
100
AcDbLine
 10
1732.5222404803
 20
6230.6021961821
 30
0.0
 11
1666.0222404803
 21
6230.6021961821
 31
0.0
  0
LINE
  5
46D
330
1F
100
AcDbEntity
  8
0
  6
Continuous
 62
     8
370
    25
100
AcDbLine
 10
2326.0222404803
 20
6230.6021961821
 30
0.0
 11
2259.5222404803
 21
6230.6021961821
 31
0.0
  0
LINE
  5
46E
330
1F
100
AcDbEntity
  8
0
  6
Continuous
 62
     8
370
    25
100
AcDbLine
 10
2146.0222404803
 20
6230.6021961821
 30
0.0
 11
1846.0222404803
 21
6230.6021961821
 31
0.0
  0
LINE
  5
46F
330
1F
100
AcDbEntity
  8
0
  6
Continuous
 62
     8
370
    25
100
AcDbLine
 10
1846.0222404803
 20
6193.6021961821
 30
0.0
 11
1841.0222404803
 21
6193.6021961821
 31
0.0
  0
LINE
  5
470
330
1F
100
AcDbEntity
  8
0
  6
Continuous
 62
     8
370
    25
100
AcDbLine
 10
1811.0222404803
 20
6193.6021961821
 30
0.0
 11
1806.0222404803
 21
6193.6021961821
 31
0.0
  0
LINE
  5
471
330
1F
100
AcDbEntity
  8
0
  6
Continuous
 62
     8
370
    25
100
AcDbLine
 10
2186.0222404803
 20
6193.6021961821
 30
0.0
 11
2181.0222404803
 21
6193.6021961821
 31
0.0
  0
LINE
  5
472
330
1F
100
AcDbEntity
  8
0
  6
Continuous
 62
     8
370
    25
100
AcDbLine
 10
2151.0222404803
 20
6193.6021961821
 30
0.0
 11
2146.0222404803
 21
6193.6021961821
 31
0.0
  0
LINE
  5
473
330
1F
100
AcDbEntity
  8
0
  6
Continuous
 62
     8
370
    25
100
AcDbLine
 10
1886.0222404803
 20
6166.6021961821
 30
0.0
 11
2106.0222404795
 21
6166.6021961821
 31
0.0
  0
LINE
  5
474
330
1F
100
AcDbEntity
  8
0
  6
Continuous
 62
     8
370
    25
100
AcDbLine
 10
1886.0222404803
 20
6214.6021961821
 30
0.0
 11
2106.0222404795
 21
6214.6021961821
 31
0.0
  0
LINE
  5
475
330
1F
100
AcDbEntity
  8
0
  6
Continuous
 62
     8
370
    25
100
AcDbLine
 10
2106.0222404795
 20
6220.6021961821
 30
0.0
 11
2146.0222404803
 21
6220.6021961821
 31
0.0
  0
LINE
  5
476
330
1F
100
AcDbEntity
  8
0
  6
Continuous
 62
     8
370
    25
100
AcDbLine
 10
2186.0222404803
 20
6220.6021961821
 30
0.0
 11
2259.0222404795
 21
6220.6021961821
 31
0.0
  0
LINE
  5
477
330
1F
100
AcDbEntity
  8
0
  6
Continuous
 62
     8
370
    25
100
AcDbLine
 10
2269.0222404795
 20
6220.6021961821
 30
0.0
 11
2490.0222404795
 21
6220.6021961821
 31
0.0
  0
LINE
  5
478
330
1F
100
AcDbEntity
  8
0
  6
Continuous
 62
     8
370
    25
100
AcDbLine
 10
1886.0222404803
 20
6220.6021961821
 30
0.0
 11
1846.0222404803
 21
6220.6021961821
 31
0.0
  0
LINE
  5
479
330
1F
100
AcDbEntity
  8
0
  6
Continuous
 62
     8
370
    25
100
AcDbLine
 10
1806.0222404803
 20
6220.6021961821
 30
0.0
 11
1733.0222404803
 21
6220.6021961821
 31
0.0
  0
LINE
  5
47A
330
1F
100
AcDbEntity
  8
0
  6
Continuous
 62
     8
370
    25
100
AcDbLine
 10
1723.0222404803
 20
6220.6021961821
 30
0.0
 11
1502.0222404803
 21
6220.6021961821
 31
0.0
  0
ENDSEC
  0
SECTION
  2
OBJECTS
  0
DICTIONARY
  5
C
330
0
100
AcDbDictionary
281
     1
  3
ACAD_GROUP
350
D
  3
ACAD_LAYOUT
350
1A
  3
ACAD_MLINESTYLE
350
17
  3
ACAD_PLOTSETTINGS
350
19
  3
ACAD_PLOTSTYLENAME
350
E
  3
ACAD_SCALELIST
350
47
  3
DWGPROPS
350
47B
  0
DICTIONARY
  5
D
102
{ACAD_REACTORS
330
C
102
}
330
C
100
AcDbDictionary
281
     1
  0
DICTIONARY
  5
1A
102
{ACAD_REACTORS
330
C
102
}
330
C
100
AcDbDictionary
281
     1
  3
Layout1
350
1E
  3
Layout2
350
26
  3
Model
350
22
  0
DICTIONARY
  5
17
102
{ACAD_REACTORS
330
C
102
}
330
C
100
AcDbDictionary
281
     1
  3
Standard
350
18
  0
DICTIONARY
  5
19
102
{ACAD_REACTORS
330
C
102
}
330
C
100
AcDbDictionary
281
     1
  0
ACDBDICTIONARYWDFLT
  5
E
102
{ACAD_REACTORS
330
C
102
}
330
C
100
AcDbDictionary
281
     1
  3
Normal
350
F
100
AcDbDictionaryWithDefault
340
F
  0
DICTIONARY
  5
47
102
{ACAD_REACTORS
330
C
102
}
330
C
100
AcDbDictionary
281
     1
  3
A0
350
48
  3
A1
350
49
  3
A2
350
4A
  3
A3
350
4B
  3
A4
350
4C
  3
A5
350
4D
  3
A6
350
4E
  3
A7
350
4F
  3
A8
350
50
  3
A9
350
51
  3
B0
350
52
  3
B1
350
53
  3
B2
350
54
  3
B3
350
55
  3
B4
350
56
  3
B5
350
57
  3
B6
350
58
  3
B7
350
59
  3
B8
350
5A
  3
B9
350
5B
  3
C0
350
5C
  3
C1
350
5D
  3
C2
350
5E
  3
C3
350
5F
  3
C4
350
60
  3
C5
350
61
  3
C6
350
62
  3
C7
350
63
  3
C8
350
64
  3
C9
350
65
  3
D0
350
66
  3
D1
350
67
  3
D2
350
68
  0
XRECORD
  5
47B
102
{ACAD_REACTORS
330
C
102
}
330
C
100
AcDbXrecord
280
     1
  1
DWGPROPS COOKIE
  2

  3

  4

  6

  7

  8
radek.stransky
  9

300
=
301
=
302
=
303
=
304
=
305
=
306
=
307
=
308
=
309
=
 40
0.0
 41
2459095.341186447
 42
2459095.341187141
  1

 90
        0
  0
LAYOUT
  5
1E
102
{ACAD_REACTORS
330
1A
102
}
330
1A
100
AcDbPlotSettings
  1

  2
none_device
  4

  6

 40
0.0
 41
0.0
 42
0.0
 43
0.0
 44
0.0
 45
0.0
 46
0.0
 47
0.0
 48
0.0
 49
0.0
140
0.0
141
0.0
142
1.0
143
1.0
 70
   688
 72
     1
 73
     0
 74
     5
  7

 75
    16
147
1.0
148
0.0
149
0.0
100
AcDbLayout
  1
Layout1
 70
     1
 71
     1
 10
0.0
 20
0.0
 11
420.0
 21
297.0
 12
0.0
 22
0.0
 32
0.0
 14
1.0000000000E+20
 24
1.0000000000E+20
 34
1.0000000000E+20
 15
-1.0000000000E+20
 25
-1.0000000000E+20
 35
-1.0000000000E+20
146
0.0
 13
0.0
 23
0.0
 33
0.0
 16
1.0
 26
0.0
 36
0.0
 17
0.0
 27
1.0
 37
0.0
 76
     0
330
1B
  0
LAYOUT
  5
26
102
{ACAD_REACTORS
330
1A
102
}
330
1A
100
AcDbPlotSettings
  1

  2
none_device
  4

  6

 40
0.0
 41
0.0
 42
0.0
 43
0.0
 44
0.0
 45
0.0
 46
0.0
 47
0.0
 48
0.0
 49
0.0
140
0.0
141
0.0
142
1.0
143
1.0
 70
   688
 72
     1
 73
     0
 74
     5
  7

 75
    16
147
1.0
148
0.0
149
0.0
100
AcDbLayout
  1
Layout2
 70
     1
 71
     2
 10
0.0
 20
0.0
 11
0.0
 21
0.0
 12
0.0
 22
0.0
 32
0.0
 14
0.0
 24
0.0
 34
0.0
 15
0.0
 25
0.0
 35
0.0
146
0.0
 13
0.0
 23
0.0
 33
0.0
 16
1.0
 26
0.0
 36
0.0
 17
0.0
 27
1.0
 37
0.0
 76
     0
330
23
  0
LAYOUT
  5
22
102
{ACAD_REACTORS
330
1A
102
}
330
1A
100
AcDbPlotSettings
  1

  2
none_device
  4
Letter_(8.50_x_11.00_Inches)
  6

 40
6.35
 41
6.35
 42
6.35000508
 43
6.35000508
 44
215.9
 45
279.4
 46
0.0
 47
0.0
 48
0.0
 49
0.0
140
0.0
141
0.0
142
1.0
143
1.0
 70
  1712
 72
     1
 73
     0
 74
     0
  7

 75
     0
147
1.0
148
0.0
149
0.0
100
AcDbLayout
  1
Model
 70
     1
 71
     0
 10
0.0
 20
0.0
 11
20000.0
 21
10000.0
 12
0.0
 22
0.0
 32
0.0
 14
0.0
 24
0.0
 34
0.0
 15
20000.0
 25
10000.0
 35
0.0
146
0.0
 13
0.0
 23
0.0
 33
0.0
 16
1.0
 26
0.0
 36
0.0
 17
0.0
 27
1.0
 37
0.0
 76
     0
330
1F
331
29
  0
MLINESTYLE
  5
18
102
{ACAD_REACTORS
330
17
102
}
330
17
100
AcDbMlineStyle
  2
Standard
 70
     0
  3

 62
   256
 51
90.0
 52
90.0
 71
     2
 49
0.5
 62
   256
  6
BYLAYER
 49
-0.5
 62
   256
  6
BYLAYER
  0
ACDBPLACEHOLDER
  5
F
102
{ACAD_REACTORS
330
E
102
}
330
E
  0
SCALE
  5
48
102
{ACAD_REACTORS
330
47
102
}
330
47
100
AcDbScale
 70
     0
300
1:1
140
1.0
141
1.0
290
     1
  0
SCALE
  5
49
102
{ACAD_REACTORS
330
47
102
}
330
47
100
AcDbScale
 70
     0
300
1:2
140
1.0
141
2.0
290
     0
  0
SCALE
  5
4A
102
{ACAD_REACTORS
330
47
102
}
330
47
100
AcDbScale
 70
     0
300
1:4
140
1.0
141
4.0
290
     0
  0
SCALE
  5
4B
102
{ACAD_REACTORS
330
47
102
}
330
47
100
AcDbScale
 70
     0
300
1:5
140
1.0
141
5.0
290
     0
  0
SCALE
  5
4C
102
{ACAD_REACTORS
330
47
102
}
330
47
100
AcDbScale
 70
     0
300
1:8
140
1.0
141
8.0
290
     0
  0
SCALE
  5
4D
102
{ACAD_REACTORS
330
47
102
}
330
47
100
AcDbScale
 70
     0
300
1:10
140
1.0
141
10.0
290
     0
  0
SCALE
  5
4E
102
{ACAD_REACTORS
330
47
102
}
330
47
100
AcDbScale
 70
     0
300
1:16
140
1.0
141
16.0
290
     0
  0
SCALE
  5
4F
102
{ACAD_REACTORS
330
47
102
}
330
47
100
AcDbScale
 70
     0
300
1:20
140
1.0
141
20.0
290
     0
  0
SCALE
  5
50
102
{ACAD_REACTORS
330
47
102
}
330
47
100
AcDbScale
 70
     0
300
1:30
140
1.0
141
30.0
290
     0
  0
SCALE
  5
51
102
{ACAD_REACTORS
330
47
102
}
330
47
100
AcDbScale
 70
     0
300
1:40
140
1.0
141
40.0
290
     0
  0
SCALE
  5
52
102
{ACAD_REACTORS
330
47
102
}
330
47
100
AcDbScale
 70
     0
300
1:50
140
1.0
141
50.0
290
     0
  0
SCALE
  5
53
102
{ACAD_REACTORS
330
47
102
}
330
47
100
AcDbScale
 70
     0
300
1:100
140
1.0
141
100.0
290
     0
  0
SCALE
  5
54
102
{ACAD_REACTORS
330
47
102
}
330
47
100
AcDbScale
 70
     0
300
2:1
140
2.0
141
1.0
290
     0
  0
SCALE
  5
55
102
{ACAD_REACTORS
330
47
102
}
330
47
100
AcDbScale
 70
     0
300
4:1
140
4.0
141
1.0
290
     0
  0
SCALE
  5
56
102
{ACAD_REACTORS
330
47
102
}
330
47
100
AcDbScale
 70
     0
300
8:1
140
8.0
141
1.0
290
     0
  0
SCALE
  5
57
102
{ACAD_REACTORS
330
47
102
}
330
47
100
AcDbScale
 70
     0
300
10:1
140
10.0
141
1.0
290
     0
  0
SCALE
  5
58
102
{ACAD_REACTORS
330
47
102
}
330
47
100
AcDbScale
 70
     0
300
100:1
140
100.0
141
1.0
290
     0
  0
SCALE
  5
59
102
{ACAD_REACTORS
330
47
102
}
330
47
100
AcDbScale
 70
     0
300
1/128" = 1'-0"
140
0.0078125
141
12.0
290
     0
  0
SCALE
  5
5A
102
{ACAD_REACTORS
330
47
102
}
330
47
100
AcDbScale
 70
     0
300
1/64" = 1'-0"
140
0.015625
141
12.0
290
     0
  0
SCALE
  5
5B
102
{ACAD_REACTORS
330
47
102
}
330
47
100
AcDbScale
 70
     0
300
1/32" = 1'-0"
140
0.03125
141
12.0
290
     0
  0
SCALE
  5
5C
102
{ACAD_REACTORS
330
47
102
}
330
47
100
AcDbScale
 70
     0
300
1/16" = 1'-0"
140
0.0625
141
12.0
290
     0
  0
SCALE
  5
5D
102
{ACAD_REACTORS
330
47
102
}
330
47
100
AcDbScale
 70
     0
300
3/32" = 1'-0"
140
0.09375
141
12.0
290
     0
  0
SCALE
  5
5E
102
{ACAD_REACTORS
330
47
102
}
330
47
100
AcDbScale
 70
     0
300
1/8" = 1'-0"
140
0.125
141
12.0
290
     0
  0
SCALE
  5
5F
102
{ACAD_REACTORS
330
47
102
}
330
47
100
AcDbScale
 70
     0
300
3/16" = 1'-0"
140
0.1875
141
12.0
290
     0
  0
SCALE
  5
60
102
{ACAD_REACTORS
330
47
102
}
330
47
100
AcDbScale
 70
     0
300
1/4" = 1'-0"
140
0.25
141
12.0
290
     0
  0
SCALE
  5
61
102
{ACAD_REACTORS
330
47
102
}
330
47
100
AcDbScale
 70
     0
300
3/8" = 1'-0"
140
0.375
141
12.0
290
     0
  0
SCALE
  5
62
102
{ACAD_REACTORS
330
47
102
}
330
47
100
AcDbScale
 70
     0
300
1/2" = 1'-0"
140
0.5
141
12.0
290
     0
  0
SCALE
  5
63
102
{ACAD_REACTORS
330
47
102
}
330
47
100
AcDbScale
 70
     0
300
3/4" = 1'-0"
140
0.75
141
12.0
290
     0
  0
SCALE
  5
64
102
{ACAD_REACTORS
330
47
102
}
330
47
100
AcDbScale
 70
     0
300
1" = 1'-0"
140
1.0
141
12.0
290
     0
  0
SCALE
  5
65
102
{ACAD_REACTORS
330
47
102
}
330
47
100
AcDbScale
 70
     0
300
1-1/2" = 1'-0"
140
1.5
141
12.0
290
     0
  0
SCALE
  5
66
102
{ACAD_REACTORS
330
47
102
}
330
47
100
AcDbScale
 70
     0
300
3" = 1'-0"
140
3.0
141
12.0
290
     0
  0
SCALE
  5
67
102
{ACAD_REACTORS
330
47
102
}
330
47
100
AcDbScale
 70
     0
300
6" = 1'-0"
140
6.0
141
12.0
290
     0
  0
SCALE
  5
68
102
{ACAD_REACTORS
330
47
102
}
330
47
100
AcDbScale
 70
     0
300
1'-0" = 1'-0"
140
12.0
141
12.0
290
     0
  0
ENDSEC
  0
EOF
